   0
SECTION
   2
HEADER
   9
$ACADVER
   1
AC1024
   9
$DWGCODEPAGE
   3
ANSI_932
   9
$INSBASE
  10
0
  20
0
  30
0
   9
$EXTMIN
  10
0
  20
0
   9
$EXTMAX
  10
1050.05357006202
  20
1485.
   9
$LIMMIN
  10
0
  20
0
   9
$LIMMAX
  10
1050.05357006202
  20
1485.
   9
$LTSCALE
  40
2.5
   9
$HANDSEED
   5
       352
   0
ENDSEC
   0
SECTION
   2
TABLES
    0
TABLE
   2
VPORT
   5
        1
 100
AcDbSymbolTable
  70
 1
   0
VPORT
   5
        2
 100
AcDbSymbolTableRecord
100
AcDbViewportTableRecord
   2
*Active
   10
0.0
  20
0.0
  11
1.0
  21
1.0
  12
262.513392515505
  22
371.25
  40
1155.05892706822
  41
0.70710678118654
  70
 0
  72
20000
  63
 250
   0
ENDTAB
   0
TABLE
   2
LTYPE
   5
        3
 100
AcDbSymbolTable
  70
     9
   0
LTYPE
   5
        4
 100
AcDbSymbolTableRecord
 100
AcDbLinetypeTableRecord
   2
ByBlock
  70
     0
   3

  72
    65
  73
     0
  40
0.0
   0
LTYPE
   5
        5
 100
AcDbSymbolTableRecord
 100
AcDbLinetypeTableRecord
   2
ByLayer
  70
     0
   3

  72
    65
  73
     0
  40
0.0
   0
LTYPE
   5
        6
 100
AcDbSymbolTableRecord
 100
AcDbLinetypeTableRecord
   2
Continuous
  70
     0
   3
Solid line
  72
    65
  73
     0
  40
0.0
   0
LTYPE
   5
        7
 100
AcDbSymbolTableRecord
 100
AcDbLinetypeTableRecord
   2
DASHED1
  70
    64
   3
--  --  --  --  --  --  --  --  
  72
    65
  73
     2
  40
2.5
  49
1.25
  74
     0
  49
-1.25
  74
     0
   0
LTYPE
   5
        8
 100
AcDbSymbolTableRecord
 100
AcDbLinetypeTableRecord
   2
DASHED2
  70
    64
   3
----    ----    ----    ----    
  72
    65
  73
     2
  40
5.0
  49
2.5
  74
     0
  49
-2.5
  74
     0
   0
LTYPE
   5
        9
 100
AcDbSymbolTableRecord
 100
AcDbLinetypeTableRecord
   2
DASHED3
  70
    64
   3
------  ------  ------  ------  
  72
    65
  73
     2
  40
5.0
  49
3.75
  74
     0
  49
-1.25
  74
     0
   0
LTYPE
   5
        A
 100
AcDbSymbolTableRecord
 100
AcDbLinetypeTableRecord
   2
DUMMY
  70
     0
   3
__ __ __ __ __ __ __ __ __ __ __ __ __ __ __ __
  72
    65
  73
     5
  40
8.0
  49
1.0
  74
     0
  49
-2.0
  74
     0
  49
2.0
  74
     0
  49
-2.0
  74
     0
  49
1.0
  74
     0
   0
LTYPE
   5
        B
 100
AcDbSymbolTableRecord
 100
AcDbLinetypeTableRecord
   2
DOT
  70
    64
   3
-   -   -   -   -   -   -   -   
  72
    65
  73
     2
  40
2.5
  49
0.625
  74
     0
  49
-1.875
  74
     0
   0
LTYPE
   5
        C
 100
AcDbSymbolTableRecord
 100
AcDbLinetypeTableRecord
   2
CENTER1
  70
    64
   3
----- - ----- - ----- - ----- - 
  72
    65
  73
     4
  40
10.0
  49
6.25
  74
     0
  49
-1.25
  74
     0
  49
1.25
  74
     0
  49
-1.25
  74
     0
   0
LTYPE
   5
        D
 100
AcDbSymbolTableRecord
 100
AcDbLinetypeTableRecord
   2
CENTER2
  70
    64
   3
----------  --  ----------  --  
  72
    65
  73
     4
  40
20.0
  49
12.5
  74
     0
  49
-2.5
  74
     0
  49
2.5
  74
     0
  49
-2.5
  74
     0
   0
LTYPE
   5
        E
 100
AcDbSymbolTableRecord
 100
AcDbLinetypeTableRecord
   2
PHANTOM1
  70
    64
   3
--- - - --- - - --- - - --- - - 
  72
    65
  73
     6
  40
10.0
  49
3.25
  74
     0
 49
-1.25
  74
     0
  49
1.25
  74
     0
  49
-1.25
  74
     0
  49
1.25
  74
     0
  49
-1.25
  74
     0
   0
LTYPE
   5
        F
 100
AcDbSymbolTableRecord
 100
AcDbLinetypeTableRecord
   2
PHANTOM2
  70
    64
   3
--------  -  -  --------  -  -  
  72
    65
  73
     6
  40
20.0
  49
10.0
  74
     0
  49
-2.5
  74
     0
  49
1.25
  74
     0
  49
-2.5
  74
     0
  49
1.25
  74
     0
  49
-2.5
  74
     0
   0
LTYPE
   5
       10
 100
AcDbSymbolTableRecord
 100
AcDbLinetypeTableRecord
   2
RAND1
  70
    64
   3
ランダム線1
  72
    65
  73
     4
  40
10.0
  49
1.0
  74
     0
  49
-2.0
  74
     0
  49
3.0
  74
     0
  49
-4.0
  74
     0
   0
LTYPE
   5
       11
 100
AcDbSymbolTableRecord
 100
AcDbLinetypeTableRecord
   2
RAND2
  70
    64
   3
ランダム線2
  72
    65
  73
     4
  40
14.0
  49
2.0
  74
     0
  49
-3.0
  74
     0
  49
4.0
  74
     0
  49
-5.0
  74
     0
   0
LTYPE
   5
       12
 100
AcDbSymbolTableRecord
 100
AcDbLinetypeTableRecord
   2
RAND3
  70
    64
   3
ランダム線3
  72
    65
  73
     4
  40
18.0
  49
3.0
  74
     0
  49
-4.0
  74
     0
  49
5.0
  74
     0
  49
-6.0
  74
     0
   0
LTYPE
   5
       13
 100
AcDbSymbolTableRecord
 100
AcDbLinetypeTableRecord
   2
RAND4
  70
    64
   3
ランダム線4
  72
    65
  73
     4
  40
22.0
  49
4.0
  74
     0
  49
-5.0
  74
     0
  49
6.0
  74
     0
  49
-7.0
  74
     0
   0
LTYPE
   5
       14
 100
AcDbSymbolTableRecord
 100
AcDbLinetypeTableRecord
   2
RAND5
  70
    64
   3
ランダム線5
  72
    65
  73
     4
  40
26.0
  49
5.0
  74
     0
  49
-6.0
  74
     0
  49
7.0
  74
     0
  49
-8.0
  74
     0
   0
LTYPE
   5
       15
 100
AcDbSymbolTableRecord
 100
AcDbLinetypeTableRecord
   2
LONG1
  70
    64
   3
----------  --  ----------  --  
  72
    65
  73
     4
  40
40.0
  49
32.5
  74
     0
  49
-2.5
  74
     0
  49
2.5
  74
     0
  49
-2.5
  74
     0
   0
LTYPE
   5
       16
 100
AcDbSymbolTableRecord
 100
AcDbLinetypeTableRecord
   2
LONG2
  70
    64
   3
--------  -  -  --------  -  -  
  72
    65
  73
     6
  40
40.0
  49
30.0
  74
     0
  49
-2.5
  74
     0
  49
1.25
  74
     0
  49
-2.5
  74
     0
  49
1.25
  74
     0
  49
-2.5
  74
     0
   0
LTYPE
   5
       17
 100
AcDbSymbolTableRecord
 100
AcDbLinetypeTableRecord
   2
LONG3
  70
    64
   3
+++++++++++++++..+++++++++++++++
  72
    65
  73
     2
  40
40.0
  49
37.5
  74
     0
  49
-2.5
  74
     0
   0
LTYPE
   5
       18
 100
AcDbSymbolTableRecord
 100
AcDbLinetypeTableRecord
   2
LONG4
  70
    64
   3
+++++++++++++++..+++++++++++++++
  72
    65
  73
     2
  40
80.0
  49
75.0
  74
     0
  49
-5.0
  74
     0
   0
LTYPE
   5
       19
 100
AcDbSymbolTableRecord
 100
AcDbLinetypeTableRecord
   2
LONG5
  70
    64
   3
----------  --  ----------  --  
  72
    65
  73
     4
  40
60.0
  49
37.5
  74
     0
  49
-7.5
  74
     0
  49
7.5
  74
     0
  49
-7.5
  74
     0
   0
LTYPE
   5
       1A
 100
AcDbSymbolTableRecord
 100
AcDbLinetypeTableRecord
   2
dashed
  70
0
   3
dashed
  72
65
  73
2
  40
8.0
  49
6.
  74
0
  49
1.5
  74
0
   0
LTYPE
   5
       1B
 100
AcDbSymbolTableRecord
 100
AcDbLinetypeTableRecord
   2
dashed spaced
  70
0
   3
dashed spaced
  72
65
  73
2
  40
8.0
  49
6.
  74
0
  49
6.
  74
0
   0
LTYPE
   5
       1C
 100
AcDbSymbolTableRecord
 100
AcDbLinetypeTableRecord
   2
long dashed dotted
  70
0
   3
long dashed dotted
  72
65
  73
4
  40
8.0
  49
12.
  74
0
  49
1.5
  74
0
  49
0.25
  74
0
  49
1.5
  74
0
   0
LTYPE
   5
       1D
 100
AcDbSymbolTableRecord
 100
AcDbLinetypeTableRecord
   2
long dashed double-dotted
  70
0
   3
long dashed double-dotted
  72
65
  73
6
  40
8.0
  49
12.
  74
0
  49
1.5
  74
0
  49
0.25
  74
0
  49
1.5
  74
0
  49
0.25
  74
0
  49
1.5
  74
0
   0
LTYPE
   5
       1E
 100
AcDbSymbolTableRecord
 100
AcDbLinetypeTableRecord
   2
long dashed triplicate-dotted
  70
0
   3
long dashed triplicate-dotted
  72
65
  73
8
  40
8.0
  49
12.
  74
0
  49
1.5
  74
0
  49
0.25
  74
0
  49
1.5
  74
0
  49
0.25
  74
0
  49
1.5
  74
0
  49
0.25
  74
0
  49
1.5
  74
0
   0
LTYPE
   5
       1F
 100
AcDbSymbolTableRecord
 100
AcDbLinetypeTableRecord
   2
dotted
  70
0
   3
dotted
  72
65
  73
2
  40
8.0
  49
0.25
  74
0
  49
1.5
  74
0
   0
LTYPE
   5
       20
 100
AcDbSymbolTableRecord
 100
AcDbLinetypeTableRecord
   2
chain
  70
0
   3
chain
  72
65
  73
4
  40
8.0
  49
12.
  74
0
  49
1.5
  74
0
  49
3.5
  74
0
  49
1.5
  74
0
   0
LTYPE
   5
       21
 100
AcDbSymbolTableRecord
 100
AcDbLinetypeTableRecord
   2
chain double dash
  70
0
   3
chain double dash
  72
65
  73
6
  40
8.0
  49
12.
  74
0
  49
1.5
  74
0
  49
3.5
  74
0
  49
1.5
  74
0
  49
3.5
  74
0
  49
1.5
  74
0
   0
LTYPE
   5
       22
 100
AcDbSymbolTableRecord
 100
AcDbLinetypeTableRecord
   2
dashed dotted
  70
0
   3
dashed dotted
  72
65
  73
4
  40
8.0
  49
6.
  74
0
  49
1.5
  74
0
  49
0.25
  74
0
  49
1.5
  74
0
   0
LTYPE
   5
       23
 100
AcDbSymbolTableRecord
 100
AcDbLinetypeTableRecord
   2
double-dashed dotted
  70
0
   3
double-dashed dotted
  72
65
  73
6
  40
8.0
  49
6.
  74
0
  49
1.5
  74
0
  49
6.
  74
0
  49
1.5
  74
0
  49
0.25
  74
0
  49
1.5
  74
0
   0
LTYPE
   5
       24
 100
AcDbSymbolTableRecord
 100
AcDbLinetypeTableRecord
   2
dashed double-dotted
  70
0
   3
dashed double-dotted
  72
65
  73
6
  40
8.0
  49
6.
  74
0
  49
1.5
  74
0
  49
0.25
  74
0
  49
1.5
  74
0
  49
0.25
  74
0
  49
1.5
  74
0
   0
LTYPE
   5
       25
 100
AcDbSymbolTableRecord
 100
AcDbLinetypeTableRecord
   2
double-dashed double-dotted
  70
0
   3
double-dashed double-dotted
  72
65
  73
8
  40
8.0
  49
6.
  74
0
  49
1.5
  74
0
  49
6.
  74
0
  49
1.5
  74
0
  49
0.25
  74
0
  49
1.5
  74
0
  49
0.25
  74
0
  49
1.5
  74
0
   0
LTYPE
   5
       26
 100
AcDbSymbolTableRecord
 100
AcDbLinetypeTableRecord
   2
dashed triplicate-dotted
  70
0
   3
dashed triplicate-dotted
  72
65
  73
8
  40
8.0
  49
6.
  74
0
  49
1.5
  74
0
  49
0.25
  74
0
  49
1.5
  74
0
  49
0.25
  74
0
  49
1.5
  74
0
  49
0.25
  74
0
  49
1.5
  74
0
   0
LTYPE
   5
       27
 100
AcDbSymbolTableRecord
 100
AcDbLinetypeTableRecord
   2
double-dashed triplicate-dotted
  70
0
   3
double-dashed triplicate-dotted
  72
65
  73
10
  40
8.0
  49
6.
  74
0
  49
1.5
  74
0
  49
6.
  74
0
  49
1.5
  74
0
  49
0.25
  74
0
  49
1.5
  74
0
  49
0.25
  74
0
  49
1.5
  74
0
  49
0.25
  74
0
  49
1.5
  74
0
   0
ENDTAB
   0
TABLE
   2
LAYER
   5
       28
 100
AcDbSymbolTable
  70
2
   0
LAYER
   5
       29
 100
AcDbSymbolTableRecord
 100
AcDbLayerTableRecord
   2
0
  70
0
  62
7
   6
Continuous
 390
1
   0
LAYER
   5
       2A
 100
AcDbSymbolTableRecord
 100
AcDbLayerTableRecord
   2
00-基準線
  70
0
  62
7
   6
Continuous
 390
1
   0
LAYER
   5
       2B
 100
AcDbSymbolTableRecord
 100
AcDbLayerTableRecord
   2
01-基本線
  70
0
  62
7
   6
Continuous
 390
1
   0
LAYER
   5
       2C
 100
AcDbSymbolTableRecord
 100
AcDbLayerTableRecord
   2
02-注釈
  70
0
  62
7
   6
Continuous
 390
1
   0
LAYER
   5
       2D
 100
AcDbSymbolTableRecord
 100
AcDbLayerTableRecord
   2
03-寸法
  70
0
  62
7
   6
Continuous
 390
1
   0
LAYER
   5
       2E
 100
AcDbSymbolTableRecord
 100
AcDbLayerTableRecord
   2
11-[L1]
  70
0
  62
7
   6
Continuous
 390
1
   0
LAYER
   5
       2F
 100
AcDbSymbolTableRecord
 100
AcDbLayerTableRecord
   2
12-[L2]
  70
0
  62
7
   6
Continuous
 390
1
   0
LAYER
   5
       30
 100
AcDbSymbolTableRecord
 100
AcDbLayerTableRecord
   2
13-[L3]
  70
0
  62
7
   6
Continuous
 390
1
   0
LAYER
   5
       31
 100
AcDbSymbolTableRecord
 100
AcDbLayerTableRecord
   2
F0-[L0]
  70
0
  62
7
   6
Continuous
 390
1
   0
LAYER
   5
       32
 100
AcDbSymbolTableRecord
 100
AcDbLayerTableRecord
   2
FF-[LF]
  70
0
  62
7
   6
Continuous
 390
1
   0
ENDTAB
   0
TABLE
   2
STYLE
   5
       33
 100
AcDbSymbolTable
  70
     1
   0
STYLE
   5
       34
 100
AcDbSymbolTableRecord
 100
AcDbTextStyleTableRecord
   2
STANDARD
  70
     0
  40
0.0
  41
1.0
  50
0.0
  71
     0
  42
0.2
   3
txt
   4
extfont.shx
   0
STYLE
   5
       35
 100
AcDbSymbolTableRecord
 100
AcDbTextStyleTableRecord
   2
JWTATEGAKI
  70
    68
  40
0.0
  41
1.0
  50
0.0
  71
     0
  42
1.0
   3
txt
   4
extfont.shx
   0
STYLE
   5
       36
 100
AcDbSymbolTableRecord
 100
AcDbTextStyleTableRecord
   2
MS Gothic
  70
     0
  40
0.0
  41
0.85
  50
0.0
  71
     0
  42
2.5
   3
MS Gothic.ttf
   4

1001
ACAD
1000
MS Gothic
1071
    32817
   0
ENDTAB
   0
TABLE
   2
VIEW
   5
       37
 100
AcDbSymbolTable
  70
     0
   0
ENDTAB
   0
TABLE
   2
UCS
   5
       38
 100
AcDbSymbolTable
  70
     0
   0
ENDTAB
   0
TABLE
   2
APPID
   5
       39
 100
AcDbSymbolTable
  70
     1
   0
APPID
   5
       3A
 100
AcDbSymbolTableRecord
 100
AcDbRegAppTableRecord
   2
ACAD
  70
     0
   0
ENDTAB
   0
TABLE
   2
DIMSTYLE
   5
       3B
 100
AcDbSymbolTable
 100
AcDbDimStyleTable
   0
ENDTAB
   0
TABLE
   2
BLOCK_RECORD
   5
       3C
 100
AcDbSymbolTable
  70
     1
   0
BLOCK_RECORD
   5
       3D
 100
AcDbSymbolTableRecord
 100
AcDbBlockTableRecord
   2
*Model_Space
   0
BLOCK_RECORD
   5
       3E
 100
AcDbSymbolTableRecord
 100
AcDbBlockTableRecord
   2
*Paper_Space
   0
BLOCK_RECORD
   5
       3F
 100
AcDbSymbolTableRecord
 100
AcDbBlockTableRecord
   2
*Paper_Space0
   0
ENDTAB
   0
ENDSEC
   0
SECTION
   2
BLOCKS
   0
BLOCK
   5
       40
 100
AcDbEntity
   8
0
 100
AcDbBlockBegin
   2
*Model_Space
   3
*Model_Space
   1

   0
ENDBLK
   5
       41
 100
AcDbEntity
   8
0
 100
AcDbBlockEnd
   0
BLOCK
   5
       42
 100
AcDbEntity
  67
     1
   8
0
 100
AcDbBlockBegin
   2
*Paper_Space
   3
*Paper_Space
   1

   0
ENDBLK
   5
       43
 100
AcDbEntity
  67
     1
   8
0
 100
AcDbBlockEnd
   0
BLOCK
   5
       44
 100
AcDbEntity
   8
0
 100
AcDbBlockBegin
   2
*Paper_Space0
   3
*Paper_Space0
   1

   0
ENDBLK
   5
       45
 100
AcDbEntity
   8
0
 100
AcDbBlockEnd
   0
ENDSEC
   0
SECTION
   2
ENTITIES
   0
LINE
   5
       46
 100
AcDbEntity
   8
F0-[L0]
   6
Continuous
  62
 7
 370
18
 100
AcDbLine
  10
-38.802871704101
  20
532.722976103475
  11
-11.708450317382
  21
532.722976103475
   0
LINE
   5
       47
 100
AcDbEntity
   8
F0-[L0]
   6
Continuous
  62
 8
 370
18
 100
AcDbLine
  10
-38.802871704101
  20
22.7229749113826
  11
1411.19712829589
  21
22.7229749113826
   0
LINE
   5
       48
 100
AcDbEntity
   8
F0-[L0]
   6
Continuous
  62
 8
 370
18
 100
AcDbLine
  10
1411.19712829589
  20
1042.72297491138
  11
-38.802871704101
  21
1042.72297491138
   0
LINE
   5
       49
 100
AcDbEntity
   8
F0-[L0]
   6
Continuous
  62
 8
 370
18
 100
AcDbLine
  10
-38.802871704101
  20
1042.72297491138
  11
-38.802871704101
  21
22.7229749113826
   0
LINE
   5
       4A
 100
AcDbEntity
   8
F0-[L0]
   6
Continuous
  62
 7
 370
18
 100
AcDbLine
  10
686.170678138732
  20
1011.41331304614
  11
686.170678138732
  21
1038.50773443286
   0
LINE
   5
       4B
 100
AcDbEntity
   8
F0-[L0]
   6
Continuous
  62
 7
 370
18
 100
AcDbLine
  10
686.170678138732
  20
26.939130917242
  11
686.170678138732
  21
54.0335141569881
   0
LINE
   5
       4C
 100
AcDbEntity
   8
F0-[L0]
   6
Continuous
  62
 7
 370
18
 100
AcDbLine
  10
980.200691223144
  20
121.316457882574
  11
980.200691223144
  21
54.0335141569881
   0
LINE
   5
       4D
 100
AcDbEntity
   8
F0-[L0]
   6
Continuous
  62
 7
 370
18
 100
AcDbLine
  10
1232.43656158447
  20
87.67410863941
  11
1232.43656158447
  21
54.0335141569881
   0
LINE
   5
       4E
 100
AcDbEntity
   8
F0-[L0]
   6
Continuous
  62
 7
 370
18
 100
AcDbLine
  10
1136.62361145019
  20
87.67410863941
  11
1136.62361145019
  21
54.0335141569881
   0
LINE
   5
       4F
 100
AcDbEntity
   8
F0-[L0]
   6
Continuous
  62
 7
 370
18
 100
AcDbLine
  10
980.200691223144
  20
87.67410863941
  11
1384.05090332031
  21
87.67410863941
   0
LINE
   5
       50
 100
AcDbEntity
   8
F0-[L0]
   6
Continuous
  62
 7
 370
18
 100
AcDbLine
  10
1332.68646240234
  20
87.67410863941
  11
1332.68646240234
  21
54.0335141569881
   0
LINE
   5
       51
 100
AcDbEntity
   8
F0-[L0]
   6
Continuous
  62
 7
 370
18
 100
AcDbLine
  10
1384.05090332031
  20
54.0335141569881
  11
686.170678138732
  21
54.0335141569881
   0
LINE
   5
       52
 100
AcDbEntity
   8
F0-[L0]
   6
Continuous
  62
 7
 370
18
 100
AcDbLine
  10
686.170678138732
  20
54.0335141569881
  11
-11.708450317382
  21
54.0335141569881
   0
LINE
   5
       53
 100
AcDbEntity
   8
F0-[L0]
   6
Continuous
  62
 7
 370
18
 100
AcDbLine
  10
-11.708450317382
  20
54.0335141569881
  11
-11.708450317382
  21
532.722976103475
   0
LINE
   5
       54
 100
AcDbEntity
   8
F0-[L0]
   6
Continuous
  62
 7
 370
18
 100
AcDbLine
  10
-11.708450317382
  20
532.722976103475
  11
-11.708450317382
  21
1011.41331304614
   0
LINE
   5
       55
 100
AcDbEntity
   8
F0-[L0]
   6
Continuous
  62
 7
 370
18
 100
AcDbLine
  10
-11.708450317382
  20
1011.41331304614
  11
686.170678138732
  21
1011.41331304614
   0
LINE
   5
       56
 100
AcDbEntity
   8
F0-[L0]
   6
Continuous
  62
 7
 370
18
 100
AcDbLine
  10
686.170678138732
  20
1011.41331304614
  11
1384.05090332031
  21
1011.41331304614
   0
LINE
   5
       57
 100
AcDbEntity
   8
F0-[L0]
   6
Continuous
  62
 7
 370
18
 100
AcDbLine
  10
1384.05090332031
  20
1011.41331304614
  11
1384.05090332031
  21
532.722976103475
   0
LINE
   5
       58
 100
AcDbEntity
   8
F0-[L0]
   6
Continuous
  62
 7
 370
18
 100
AcDbLine
  10
1384.05090332031
  20
532.722976103475
  11
1384.05090332031
  21
54.0335141569881
   0
LINE
   5
       59
 100
AcDbEntity
   8
F0-[L0]
   6
Continuous
  62
 8
 370
18
 100
AcDbLine
  10
1411.19712829589
  20
22.7229749113826
  11
1411.19712829589
  21
1042.72297491138
   0
LINE
   5
       5A
 100
AcDbEntity
   8
F0-[L0]
   6
Continuous
  62
 7
 370
18
 100
AcDbLine
  10
1411.14418029785
  20
532.722976103475
  11
1384.04983520507
  21
532.722976103475
   0
LINE
   5
       5B
 100
AcDbEntity
   8
F0-[L0]
   6
Continuous
  62
 8
 370
18
 100
AcDbLine
  10
1160.9129333496
  20
62.7447186857967
  11
1160.9129333496
  21
60.3760205656795
   0
LINE
   5
       5C
 100
AcDbEntity
   8
F0-[L0]
   6
Continuous
  62
 7
 370
18
 100
AcDbLine
  10
686.171565055847
  20
121.316457882574
  11
686.171565055847
  21
54.0335141569881
   0
LINE
   5
       5D
 100
AcDbEntity
   8
F0-[L0]
   6
Continuous
  62
 7
 370
18
 100
AcDbLine
  10
1384.05090332031
  20
121.316457882574
  11
-11.708450317382
  21
121.316457882574
   0
LINE
   5
       5E
 100
AcDbEntity
   8
FF-[LF]
   6
Continuous
  62
 7
 370
18
 100
AcDbLine
  10
686.171565055847
  20
104.495702877691
  11
-11.708450317382
  21
104.495702877691
   0
LINE
   5
       5F
 100
AcDbEntity
   8
FF-[LF]
   6
Continuous
  62
 7
 370
18
 100
AcDbLine
  10
686.171565055847
  20
87.6749860197811
  11
-11.708450317382
  21
87.6749860197811
   0
LINE
   5
       60
 100
AcDbEntity
   8
FF-[LF]
   6
Continuous
  62
 7
 370
18
 100
AcDbLine
  10
686.171565055847
  20
70.8542691618709
  11
-11.708450317382
  21
70.8542691618709
   0
LINE
   5
       61
 100
AcDbEntity
   8
FF-[LF]
   6
Continuous
  62
 7
 370
18
 100
AcDbLine
  10
337.231559753417
  20
54.0335141569881
  11
337.231559753417
  21
121.316457882574
   0
LINE
   5
       62
 100
AcDbEntity
   8
F0-[L0]
   6
DASHED1
  62
 8
 370
18
 100
AcDbLine
  10
-38.802871704101
  20
22.7229749113826
  11
1411.19712829589
  21
1042.72297491138
   0
LINE
   5
       63
 100
AcDbEntity
   8
F0-[L0]
   6
DASHED1
  62
 8
 370
18
 100
AcDbLine
  10
-38.802871704101
  20
1042.72297491138
  11
1411.19712829589
  21
22.7229749113826
   0
LINE
   5
       64
 100
AcDbEntity
   8
F0-[L0]
   6
DASHED1
  62
 8
 370
18
 100
AcDbLine
  10
-5.2606201171875
  20
121.316457882574
  11
-5.2606201171875
  21
54.0335141569881
   0
LINE
   5
       65
 100
AcDbEntity
   8
F0-[L0]
   6
DASHED1
  62
 8
 370
18
 100
AcDbLine
  10
-11.708450317382
  20
107.551847592046
  11
686.171565055847
  21
107.551847592046
   0
LINE
   5
       66
 100
AcDbEntity
   8
F0-[L0]
   6
DASHED1
  62
 8
 370
18
 100
AcDbLine
  10
-11.708450317382
  20
90.7310925871639
  11
686.171565055847
  21
90.7310925871639
   0
LINE
   5
       67
 100
AcDbEntity
   8
F0-[L0]
   6
DASHED1
  62
 8
 370
18
 100
AcDbLine
  10
-11.708450317382
  20
73.9103757292537
  11
686.171565055847
  21
73.9103757292537
   0
LINE
   5
       68
 100
AcDbEntity
   8
F0-[L0]
   6
DASHED1
  62
 8
 370
18
 100
AcDbLine
  10
-11.708450317382
  20
57.0896588713436
  11
686.171565055847
  21
57.0896588713436
   0
LINE
   5
       69
 100
AcDbEntity
   8
F0-[L0]
   6
DASHED1
  62
 8
 370
18
 100
AcDbLine
  10
343.67935180664
  20
121.316457882574
  11
343.67935180664
  21
54.0335141569881
   0
LINE
   5
       6A
 100
AcDbEntity
   8
F0-[L0]
   6
DASHED1
  62
 8
 370
18
 100
AcDbLine
  10
1045.21780014038
  20
63.447919979742
  11
1045.21780014038
  21
59.74686254566
   0
LINE
   5
       6B
 100
AcDbEntity
   8
F0-[L0]
   6
DASHED1
  62
 8
 370
18
 100
AcDbLine
  10
980.200691223144
  20
61.3753186613826
  11
1332.68646240234
  21
61.3753186613826
   0
LINE
   5
       6C
 100
AcDbEntity
   8
F0-[L0]
   6
DASHED1
  62
 8
 370
18
 100
AcDbLine
  10
1254.16732788085
  20
62.3869382292537
  11
1254.16732788085
  21
59.8208676726131
   0
LINE
   5
       6D
 100
AcDbEntity
   8
01-基本線
   6
Continuous
  62
 7
 370
18
 100
AcDbLine
  10
87.7729034423828
  20
785.945821896245
  11
247.272872924804
  21
785.945821896245
   0
LINE
   5
       6E
 100
AcDbEntity
   8
01-基本線
   6
Continuous
  62
 7
 370
18
 100
AcDbLine
  10
247.272872924804
  20
785.945821896245
  11
247.272872924804
  21
802.945810452154
   0
LINE
   5
       6F
 100
AcDbEntity
   8
01-基本線
   6
Continuous
  62
 7
 370
18
 100
AcDbLine
  10
87.7729034423828
  20
802.945810452154
  11
247.272872924804
  21
802.945810452154
   0
LINE
   5
       70
 100
AcDbEntity
   8
01-基本線
   6
DASHED1
  62
 4
 370
18
 100
AcDbLine
  10
87.7729034423828
  20
811.445814266851
  11
92.5959777832031
  21
811.445814266851
   0
LINE
   5
       71
 100
AcDbEntity
   8
01-基本線
   6
DASHED1
  62
 4
 370
18
 100
AcDbLine
  10
87.7729034423828
  20
811.445814266851
  11
87.7729034423828
  21
806.622701779058
   0
LINE
   5
       72
 100
AcDbEntity
   8
01-基本線
   6
DASHED1
  62
 4
 370
18
 100
AcDbLine
  10
87.7729034423828
  20
811.445814266851
  11
82.9497528076171
  21
811.445814266851
   0
LINE
   5
       73
 100
AcDbEntity
   8
01-基本線
   6
DASHED1
  62
 4
 370
18
 100
AcDbLine
  10
87.7729034423828
  20
811.445814266851
  11
87.7729034423828
  21
816.26894582813
   0
LINE
   5
       74
 100
AcDbEntity
   8
01-基本線
   6
DASHED1
  62
 4
 370
18
 100
AcDbLine
  10
70.7728576660156
  20
794.445825710943
  11
70.7728576660156
  21
799.268938198736
   0
LINE
   5
       75
 100
AcDbEntity
   8
01-基本線
   6
DASHED1
  62
 4
 370
18
 100
AcDbLine
  10
70.7728576660156
  20
794.445825710943
  11
75.5960083007812
  21
794.445825710943
   0
LINE
   5
       76
 100
AcDbEntity
   8
01-基本線
   6
DASHED1
  62
 4
 370
18
 100
AcDbLine
  10
70.7728576660156
  20
794.445825710943
  11
70.7728576660156
  21
789.622694149663
   0
LINE
   5
       77
 100
AcDbEntity
   8
01-基本線
   6
DASHED1
  62
 4
 370
18
 100
AcDbLine
  10
70.7728576660156
  20
794.445825710943
  11
65.9497833251953
  21
794.445825710943
   0
LINE
   5
       78
 100
AcDbEntity
   8
01-基本線
   6
DASHED1
  62
 4
 370
18
 100
AcDbLine
  10
87.7729034423828
  20
777.445818081548
  11
82.9497528076171
  21
777.445818081548
   0
LINE
   5
       79
 100
AcDbEntity
   8
01-基本線
   6
DASHED1
  62
 4
 370
18
 100
AcDbLine
  10
87.7729034423828
  20
777.445818081548
  11
87.7729034423828
  21
782.268930569341
   0
LINE
   5
       7A
 100
AcDbEntity
   8
01-基本線
   6
DASHED1
  62
 4
 370
18
 100
AcDbLine
  10
87.7729034423828
  20
777.445818081548
  11
92.5959777832031
  21
777.445818081548
   0
LINE
   5
       7B
 100
AcDbEntity
   8
01-基本線
   6
DASHED1
  62
 4
 370
18
 100
AcDbLine
  10
87.7729034423828
  20
777.445818081548
  11
87.7729034423828
  21
772.622705593755
   0
LINE
   5
       7C
 100
AcDbEntity
   8
01-基本線
   6
DASHED1
  62
 4
 370
18
 100
AcDbLine
  10
257.272872924804
  20
794.445825710943
  11
262.095985412597
  21
794.445825710943
   0
LINE
   5
       7D
 100
AcDbEntity
   8
01-基本線
   6
DASHED1
  62
 4
 370
18
 100
AcDbLine
  10
257.272872924804
  20
794.445825710943
  11
257.272872924804
  21
789.622694149663
   0
LINE
   5
       7E
 100
AcDbEntity
   8
01-基本線
   6
DASHED1
  62
 4
 370
18
 100
AcDbLine
  10
257.272872924804
  20
794.445825710943
  11
252.449760437011
  21
794.445825710943
   0
LINE
   5
       7F
 100
AcDbEntity
   8
01-基本線
   6
DASHED1
  62
 4
 370
18
 100
AcDbLine
  10
257.272872924804
  20
794.445825710943
  11
257.272872924804
  21
799.268938198736
   0
LINE
   5
       80
 100
AcDbEntity
   8
01-基本線
   6
Continuous
  62
 7
 370
18
 100
AcDbLine
  10
997.77286529541
  20
785.945821896245
  11
838.272867202758
  21
785.945821896245
   0
LINE
   5
       81
 100
AcDbEntity
   8
01-基本線
   6
Continuous
  62
 7
 370
18
 100
AcDbLine
  10
838.272867202758
  20
785.945821896245
  11
838.272867202758
  21
802.945810452154
   0
LINE
   5
       82
 100
AcDbEntity
   8
01-基本線
   6
Continuous
  62
 7
 370
18
 100
AcDbLine
  10
997.77286529541
  20
802.945810452154
  11
838.272867202758
  21
802.945810452154
   0
LINE
   5
       83
 100
AcDbEntity
   8
01-基本線
   6
DASHED1
  62
 4
 370
18
 100
AcDbLine
  10
997.77286529541
  20
811.445814266851
  11
992.949752807617
  21
811.445814266851
   0
LINE
   5
       84
 100
AcDbEntity
   8
01-基本線
   6
DASHED1
  62
 4
 370
18
 100
AcDbLine
  10
997.77286529541
  20
811.445814266851
  11
997.77286529541
  21
806.622701779058
   0
LINE
   5
       85
 100
AcDbEntity
   8
01-基本線
   6
DASHED1
  62
 4
 370
18
 100
AcDbLine
  10
997.77286529541
  20
811.445814266851
  11
1002.59599685668
  21
811.445814266851
   0
LINE
   5
       86
 100
AcDbEntity
   8
01-基本線
   6
DASHED1
  62
 4
 370
18
 100
AcDbLine
  10
997.77286529541
  20
811.445814266851
  11
997.77286529541
  21
816.26894582813
   0
LINE
   5
       87
 100
AcDbEntity
   8
01-基本線
   6
DASHED1
  62
 4
 370
18
 100
AcDbLine
  10
1014.7728729248
  20
794.445825710943
  11
1014.7728729248
  21
799.268938198736
   0
LINE
   5
       88
 100
AcDbEntity
   8
01-基本線
   6
DASHED1
  62
 4
 370
18
 100
AcDbLine
  10
1014.7728729248
  20
794.445825710943
  11
1009.94974136352
  21
794.445825710943
   0
LINE
   5
       89
 100
AcDbEntity
   8
01-基本線
   6
DASHED1
  62
 4
 370
18
 100
AcDbLine
  10
1014.7728729248
  20
794.445825710943
  11
1014.7728729248
  21
789.622694149663
   0
LINE
   5
       8A
 100
AcDbEntity
   8
01-基本線
   6
DASHED1
  62
 4
 370
18
 100
AcDbLine
  10
1014.7728729248
  20
794.445825710943
  11
1019.59598541259
  21
794.445825710943
   0
LINE
   5
       8B
 100
AcDbEntity
   8
01-基本線
   6
DASHED1
  62
 4
 370
18
 100
AcDbLine
  10
997.77286529541
  20
777.445818081548
  11
1002.59599685668
  21
777.445818081548
   0
LINE
   5
       8C
 100
AcDbEntity
   8
01-基本線
   6
DASHED1
  62
 4
 370
18
 100
AcDbLine
  10
997.77286529541
  20
777.445818081548
  11
997.77286529541
  21
782.268930569341
   0
LINE
   5
       8D
 100
AcDbEntity
   8
01-基本線
   6
DASHED1
  62
 4
 370
18
 100
AcDbLine
  10
997.77286529541
  20
777.445818081548
  11
992.949752807617
  21
777.445818081548
   0
LINE
   5
       8E
 100
AcDbEntity
   8
01-基本線
   6
DASHED1
  62
 4
 370
18
 100
AcDbLine
  10
997.77286529541
  20
777.445818081548
  11
997.77286529541
  21
772.622705593755
   0
LINE
   5
       8F
 100
AcDbEntity
   8
01-基本線
   6
DASHED1
  62
 4
 370
18
 100
AcDbLine
  10
828.272867202758
  20
794.445825710943
  11
823.449754714965
  21
794.445825710943
   0
LINE
   5
       90
 100
AcDbEntity
   8
01-基本線
   6
DASHED1
  62
 4
 370
18
 100
AcDbLine
  10
828.272867202758
  20
794.445825710943
  11
828.272867202758
  21
789.622694149663
   0
LINE
   5
       91
 100
AcDbEntity
   8
01-基本線
   6
DASHED1
  62
 4
 370
18
 100
AcDbLine
  10
828.272867202758
  20
794.445825710943
  11
833.095989227294
  21
794.445825710943
   0
LINE
   5
       92
 100
AcDbEntity
   8
01-基本線
   6
DASHED1
  62
 4
 370
18
 100
AcDbLine
  10
828.272867202758
  20
794.445825710943
  11
828.272867202758
  21
799.268938198736
   0
LINE
   5
       93
 100
AcDbEntity
   8
01-基本線
   6
Continuous
  62
 7
 370
18
 100
AcDbLine
  10
247.272872924804
  20
802.945810452154
  11
838.272867202758
  21
802.945810452154
   0
LINE
   5
       94
 100
AcDbEntity
   8
01-基本線
   6
Continuous
  62
 7
 370
18
 100
AcDbLine
  10
838.272867202758
  20
785.945821896245
  11
247.272872924804
  21
785.945821896245
   0
LINE
   5
       95
 100
AcDbEntity
   8
00-基準線
   6
CENTER1
  62
 4
 370
18
 100
AcDbLine
  10
87.7729034423828
  20
794.445825710943
  11
997.77286529541
  21
794.445825710943
   0
LINE
   5
       96
 100
AcDbEntity
   8
03-寸法
   6
Continuous
  62
 51
 370
18
 100
AcDbLine
  10
247.272872924804
  20
819.760633602788
  11
247.272872924804
  21
809.658971920659
   0
LINE
   5
       97
 100
AcDbEntity
   8
03-寸法
   6
Continuous
  62
 51
 370
18
 100
AcDbLine
  10
257.272872924804
  20
819.760633602788
  11
257.272872924804
  21
809.658971920659
   0
LINE
   5
       98
 100
AcDbEntity
   8
03-寸法
   6
Continuous
  62
 51
 370
18
 100
AcDbLine
  10
247.272872924804
  20
819.760633602788
  11
257.272872924804
  21
819.760633602788
   0
LINE
   5
       99
 100
AcDbEntity
   8
03-寸法
   6
Continuous
  62
 51
 370
18
 100
AcDbLine
  10
828.272867202758
  20
819.760633602788
  11
828.272867202758
  21
809.658971920659
   0
LINE
   5
       9A
 100
AcDbEntity
   8
03-寸法
   6
Continuous
  62
 51
 370
18
 100
AcDbLine
  10
838.272867202758
  20
819.760633602788
  11
838.272867202758
  21
809.658971920659
   0
LINE
   5
       9B
 100
AcDbEntity
   8
03-寸法
   6
Continuous
  62
 51
 370
18
 100
AcDbLine
  10
828.272867202758
  20
819.760633602788
  11
838.272867202758
  21
819.760633602788
   0
LINE
   5
       9C
 100
AcDbEntity
   8
01-基本線
   6
Continuous
  62
 7
 370
18
 100
AcDbLine
  10
112.77286529541
  20
683.617321148565
  11
62.7729034423828
  21
683.617321148565
   0
LINE
   5
       9D
 100
AcDbEntity
   8
01-基本線
   6
Continuous
  62
 7
 370
18
 100
AcDbLine
  10
96.2728881835937
  20
283.617330685308
  11
96.2728881835937
  21
683.617321148565
   0
LINE
   5
       9E
 100
AcDbEntity
   8
01-基本線
   6
Continuous
  62
 7
 370
18
 100
AcDbLine
  10
79.2728424072265
  20
683.617321148565
  11
79.2728424072265
  21
283.617330685308
   0
LINE
   5
       9F
 100
AcDbEntity
   8
01-基本線
   6
Continuous
  62
 7
 370
18
 100
AcDbLine
  10
972.77286529541
  20
683.617321148565
  11
1022.77286529541
  21
683.617321148565
   0
LINE
   5
       A0
 100
AcDbEntity
   8
01-基本線
   6
Continuous
  62
 7
 370
18
 100
AcDbLine
  10
126.272888183593
  20
253.617330685308
  11
247.272872924804
  21
253.617330685308
   0
LINE
   5
       A1
 100
AcDbEntity
   8
01-基本線
   6
Continuous
  62
 7
 370
18
 100
AcDbLine
  10
126.272888183593
  20
236.617323055913
  11
247.272872924804
  21
236.617323055913
   0
LINE
   5
       A2
 100
AcDbEntity
   8
01-基本線
   6
Continuous
  62
 7
 370
18
 100
AcDbLine
  10
247.272872924804
  20
253.617330685308
  11
247.272872924804
  21
236.617323055913
   0
LINE
   5
       A3
 100
AcDbEntity
   8
01-基本線
   6
Continuous
  62
 7
 370
18
 100
AcDbLine
  10
838.272867202758
  20
253.617330685308
  11
838.272867202758
  21
236.617323055913
   0
LINE
   5
       A4
 100
AcDbEntity
   8
00-基準線
   6
CENTER1
  62
 4
 370
18
 100
AcDbLine
  10
838.272867202758
  20
245.117326870611
  11
126.272888183593
  21
245.117326870611
   0
LINE
   5
       A5
 100
AcDbEntity
   8
01-基本線
   6
Continuous
  62
 7
 370
18
 100
AcDbLine
  10
247.272872924804
  20
253.617330685308
  11
838.272867202758
  21
253.617330685308
   0
LINE
   5
       A6
 100
AcDbEntity
   8
01-基本線
   6
Continuous
  62
 7
 370
18
 100
AcDbLine
  10
838.272867202758
  20
236.617323055913
  11
247.272872924804
  21
236.617323055913
   0
LINE
   5
       A7
 100
AcDbEntity
   8
03-寸法
   6
Continuous
  62
 51
 370
18
 100
AcDbLine
  10
247.272872924804
  20
195.739713802984
  11
247.272872924804
  21
217.331014767339
   0
LINE
   5
       A8
 100
AcDbEntity
   8
02-注釈
   6
Continuous
  62
 4
 370
18
 100
AcDbLine
  10
257.229232788085
  20
224.578539028814
  11
270.866928100585
  21
200.95738042896
   0
LINE
   5
       A9
 100
AcDbEntity
   8
01-基本線
   6
Continuous
  62
 7
 370
18
 100
AcDbLine
  10
256.157836914062
  20
230.19701589649
  11
260.27286529541
  21
227.821203365972
   0
LINE
   5
       AA
 100
AcDbEntity
   8
01-基本線
   6
Continuous
  62
 7
 370
18
 100
AcDbLine
  10
254.272880554199
  20
229.067636624029
  11
260.27286529541
  21
225.603529110601
   0
LINE
   5
       AB
 100
AcDbEntity
   8
01-基本線
   6
Continuous
  62
 7
 370
18
 100
AcDbLine
  10
254.272880554199
  20
226.849981442144
  11
260.27286529541
  21
223.385873928716
   0
LINE
   5
       AC
 100
AcDbEntity
   8
01-基本線
   6
Continuous
  62
 7
 370
18
 100
AcDbLine
  10
254.272880554199
  20
224.632326260259
  11
260.27286529541
  21
221.168218746831
   0
LINE
   5
       AD
 100
AcDbEntity
   8
01-基本線
   6
Continuous
  62
 7
 370
18
 100
AcDbLine
  10
254.272880554199
  20
220.19701589649
  11
254.272880554199
  21
230.19701589649
   0
LINE
   5
       AE
 100
AcDbEntity
   8
01-基本線
   6
Continuous
  62
 7
 370
18
 100
AcDbLine
  10
260.27286529541
  20
220.19701589649
  11
254.272880554199
  21
220.19701589649
   0
LINE
   5
       AF
 100
AcDbEntity
   8
01-基本線
   6
Continuous
  62
 7
 370
18
 100
AcDbLine
  10
260.27286529541
  20
230.19701589649
  11
260.27286529541
  21
220.19701589649
   0
LINE
   5
       B0
 100
AcDbEntity
   8
01-基本線
   6
Continuous
  62
 7
 370
18
 100
AcDbLine
  10
254.272880554199
  20
230.19701589649
  11
260.27286529541
  21
230.19701589649
   0
LINE
   5
       B1
 100
AcDbEntity
   8
03-寸法
   6
Continuous
  62
 51
 370
18
 100
AcDbLine
  10
257.272872924804
  20
195.739713802984
  11
257.272872924804
  21
217.331014767339
   0
LINE
   5
       B2
 100
AcDbEntity
   8
03-寸法
   6
Continuous
  62
 51
 370
18
 100
AcDbLine
  10
247.272872924804
  20
195.739713802984
  11
257.272872924804
  21
195.739713802984
   0
LINE
   5
       B3
 100
AcDbEntity
   8
02-注釈
   6
Continuous
  62
 4
 370
18
 100
AcDbLine
  10
270.866928100585
  20
200.95738042896
  11
372.931518554687
  21
200.95738042896
   0
LINE
   5
       B4
 100
AcDbEntity
   8
03-寸法
   6
Continuous
  62
 51
 370
18
 100
AcDbLine
  10
838.272867202758
  20
195.739713802984
  11
838.272867202758
  21
217.331014767339
   0
LINE
   5
       B5
 100
AcDbEntity
   8
01-基本線
   6
Continuous
  62
 7
 370
18
 100
AcDbLine
  10
829.3879032135
  20
230.19701589649
  11
825.272874832153
  21
227.821203365972
   0
LINE
   5
       B6
 100
AcDbEntity
   8
01-基本線
   6
Continuous
  62
 7
 370
18
 100
AcDbLine
  10
831.272869110107
  20
229.067636624029
  11
825.272874832153
  21
225.603529110601
   0
LINE
   5
       B7
 100
AcDbEntity
   8
01-基本線
   6
Continuous
  62
 7
 370
18
 100
AcDbLine
  10
831.272869110107
  20
226.849981442144
  11
825.272874832153
  21
223.385873928716
   0
LINE
   5
       B8
 100
AcDbEntity
   8
01-基本線
   6
Continuous
  62
 7
 370
18
 100
AcDbLine
  10
831.272869110107
  20
224.632326260259
  11
825.272874832153
  21
221.168218746831
   0
LINE
   5
       B9
 100
AcDbEntity
   8
01-基本線
   6
Continuous
  62
 7
 370
18
 100
AcDbLine
  10
831.272869110107
  20
220.19701589649
  11
831.272869110107
  21
230.19701589649
   0
LINE
   5
       BA
 100
AcDbEntity
   8
01-基本線
   6
Continuous
  62
 7
 370
18
 100
AcDbLine
  10
825.272874832153
  20
220.19701589649
  11
831.272869110107
  21
220.19701589649
   0
LINE
   5
       BB
 100
AcDbEntity
   8
01-基本線
   6
Continuous
  62
 7
 370
18
 100
AcDbLine
  10
825.272874832153
  20
230.19701589649
  11
825.272874832153
  21
220.19701589649
   0
LINE
   5
       BC
 100
AcDbEntity
   8
01-基本線
   6
Continuous
  62
 7
 370
18
 100
AcDbLine
  10
831.272869110107
  20
230.19701589649
  11
825.272874832153
  21
230.19701589649
   0
LINE
   5
       BD
 100
AcDbEntity
   8
03-寸法
   6
Continuous
  62
 51
 370
18
 100
AcDbLine
  10
828.272867202758
  20
195.739713802984
  11
828.272867202758
  21
217.331014767339
   0
LINE
   5
       BE
 100
AcDbEntity
   8
03-寸法
   6
Continuous
  62
 51
 370
18
 100
AcDbLine
  10
838.272867202758
  20
195.739713802984
  11
828.272867202758
  21
195.739713802984
   0
LINE
   5
       BF
 100
AcDbEntity
   8
02-注釈
   6
Continuous
  62
 4
 370
18
 100
AcDbLine
  10
1007.87233352661
  20
679.680935040166
  11
1035.75826644897
  21
631.381078854253
   0
LINE
   5
       C0
 100
AcDbEntity
   8
02-注釈
   6
Continuous
  62
 4
 370
18
 100
AcDbLine
  10
1035.75826644897
  20
631.381078854253
  11
1089.49302673339
  21
631.381078854253
   0
LINE
   5
       C1
 100
AcDbEntity
   8
03-寸法
   6
Continuous
  62
 51
 370
18
 100
AcDbLine
  10
949.997768402099
  20
683.617321148565
  11
969.892616271972
  21
683.617321148565
   0
LINE
   5
       C2
 100
AcDbEntity
   8
01-基本線
   6
Continuous
  62
 7
 370
18
 100
AcDbLine
  10
1252.2838973999
  20
683.617321148565
  11
1302.2838973999
  21
683.617321148565
   0
LINE
   5
       C3
 100
AcDbEntity
   8
03-寸法
   6
Continuous
  62
 51
 370
18
 100
AcDbLine
  10
1229.50881958007
  20
683.617321148565
  11
1249.40364837646
  21
683.617321148565
   0
LINE
   5
       C4
 100
AcDbEntity
   8
03-寸法
   6
Continuous
  62
 51
 370
18
 100
AcDbLine
  10
1344.90665435791
  20
236.617323055913
  11
1307.43030548095
  21
236.617323055913
   0
LINE
   5
       C5
 100
AcDbEntity
   8
03-寸法
   6
Continuous
  62
 51
 370
18
 100
AcDbLine
  10
247.272872924804
  20
163.659597531011
  11
247.272872924804
  21
217.331014767339
   0
LINE
   5
       C6
 100
AcDbEntity
   8
03-寸法
   6
Continuous
  62
 51
 370
18
 100
AcDbLine
  10
79.2728424072265
  20
163.659597531011
  11
247.272872924804
  21
163.659597531011
   0
LINE
   5
       C7
 100
AcDbEntity
   8
03-寸法
   6
Continuous
  62
 51
 370
18
 100
AcDbLine
  10
838.272867202758
  20
163.659597531011
  11
838.272867202758
  21
217.331014767339
   0
LINE
   5
       C8
 100
AcDbEntity
   8
03-寸法
   6
Continuous
  62
 51
 370
18
 100
AcDbLine
  10
838.272867202758
  20
163.659597531011
  11
1006.2728691101
  21
163.659597531011
   0
LINE
   5
       C9
 100
AcDbEntity
   8
03-寸法
   6
Continuous
  62
 51
 370
18
 100
AcDbLine
  10
247.272872924804
  20
163.659597531011
  11
838.272867202758
  21
163.659597531011
   0
LINE
   5
       CA
 100
AcDbEntity
   8
03-寸法
   6
Continuous
  62
 51
 370
18
 100
AcDbLine
  10
62.7729034423828
  20
850.031820431402
  11
62.7729034423828
  21
813.538671627691
   0
LINE
   5
       CB
 100
AcDbEntity
   8
03-寸法
   6
Continuous
  62
 51
 370
18
 100
AcDbLine
  10
1022.77286529541
  20
850.031820431402
  11
1022.77286529541
  21
813.538671627691
   0
LINE
   5
       CC
 100
AcDbEntity
   8
03-寸法
   6
Continuous
  62
 51
 370
18
 100
AcDbLine
  10
79.2728424072265
  20
163.659597531011
  11
79.2728424072265
  21
258.044458523443
   0
LINE
   5
       CD
 100
AcDbEntity
   8
03-寸法
   6
Continuous
  62
 51
 370
18
 100
AcDbLine
  10
1006.2728691101
  20
163.659597531011
  11
1006.2728691101
  21
258.044458523443
   0
LINE
   5
       CE
 100
AcDbEntity
   8
03-寸法
   6
Continuous
  62
 51
 370
18
 100
AcDbLine
  10
1022.77286529541
  20
850.031820431402
  11
62.7729034423828
  21
850.031820431402
   0
LINE
   5
       CF
 100
AcDbEntity
   8
11-[L1]
   6
DASHED1
  62
 4
 370
18
 100
AcDbLine
  10
1243.45321655273
  20
922.374120846441
  11
1255.5110168457
  21
922.374120846441
   0
LINE
   5
       D0
 100
AcDbEntity
   8
11-[L1]
   6
DASHED1
  62
 4
 370
18
 100
AcDbLine
  10
1243.45321655273
  20
922.374120846441
  11
1243.45321655273
  21
910.316320553472
   0
LINE
   5
       D1
 100
AcDbEntity
   8
11-[L1]
   6
DASHED1
  62
 4
 370
18
 100
AcDbLine
  10
1243.45321655273
  20
922.374120846441
  11
1231.39537811279
  21
922.374120846441
   0
LINE
   5
       D2
 100
AcDbEntity
   8
11-[L1]
   6
DASHED1
  62
 4
 370
18
 100
AcDbLine
  10
1243.45321655273
  20
922.374120846441
  11
1243.45321655273
  21
934.431921139409
   0
LINE
   5
       D3
 100
AcDbEntity
   8
11-[L1]
   6
DASHED1
  62
 4
 370
18
 100
AcDbLine
  10
1200.95321655273
  20
879.874120846441
  11
1200.95321655273
  21
891.931921139409
   0
LINE
   5
       D4
 100
AcDbEntity
   8
11-[L1]
   6
DASHED1
  62
 4
 370
18
 100
AcDbLine
  10
1200.95321655273
  20
879.874120846441
  11
1213.0110168457
  21
879.874120846441
   0
LINE
   5
       D5
 100
AcDbEntity
   8
11-[L1]
   6
DASHED1
  62
 4
 370
18
 100
AcDbLine
  10
1200.95321655273
  20
879.874120846441
  11
1200.95321655273
  21
867.816320553472
   0
LINE
   5
       D6
 100
AcDbEntity
   8
11-[L1]
   6
DASHED1
  62
 4
 370
18
 100
AcDbLine
  10
1200.95321655273
  20
879.874120846441
  11
1188.89537811279
  21
879.874120846441
   0
LINE
   5
       D7
 100
AcDbEntity
   8
11-[L1]
   6
DASHED1
  62
 4
 370
18
 100
AcDbLine
  10
1243.45321655273
  20
837.374101772954
  11
1231.39537811279
  21
837.374101772954
   0
LINE
   5
       D8
 100
AcDbEntity
   8
11-[L1]
   6
DASHED1
  62
 4
 370
18
 100
AcDbLine
  10
1243.45321655273
  20
837.374101772954
  11
1243.45321655273
  21
849.431921139409
   0
LINE
   5
       D9
 100
AcDbEntity
   8
11-[L1]
   6
DASHED1
  62
 4
 370
18
 100
AcDbLine
  10
1243.45321655273
  20
837.374101772954
  11
1255.5110168457
  21
837.374101772954
   0
LINE
   5
       DA
 100
AcDbEntity
   8
11-[L1]
   6
DASHED1
  62
 4
 370
18
 100
AcDbLine
  10
1243.45321655273
  20
837.374101772954
  11
1243.45321655273
  21
825.316301479986
   0
LINE
   5
       DB
 100
AcDbEntity
   8
11-[L1]
   6
DASHED1
  62
 4
 370
18
 100
AcDbLine
  10
1285.95321655273
  20
879.874120846441
  11
1285.95321655273
  21
867.816320553472
   0
LINE
   5
       DC
 100
AcDbEntity
   8
11-[L1]
   6
DASHED1
  62
 4
 370
18
 100
AcDbLine
  10
1285.95321655273
  20
879.874120846441
  11
1273.89537811279
  21
879.874120846441
   0
LINE
   5
       DD
 100
AcDbEntity
   8
11-[L1]
   6
DASHED1
  62
 4
 370
18
 100
AcDbLine
  10
1285.95321655273
  20
879.874120846441
  11
1285.95321655273
  21
891.931921139409
   0
LINE
   5
       DE
 100
AcDbEntity
   8
11-[L1]
   6
DASHED1
  62
 4
 370
18
 100
AcDbLine
  10
1285.95321655273
  20
879.874120846441
  11
1298.0110168457
  21
879.874120846441
   0
LINE
   5
       DF
 100
AcDbEntity
   8
11-[L1]
   6
Continuous
  62
 7
 370
18
 100
AcDbLine
  10
1243.45321655273
  20
901.124120846441
  11
1155.25657653808
  21
901.124120846441
   0
LINE
   5
       E0
 100
AcDbEntity
   8
11-[L1]
   6
Continuous
  62
 7
 370
18
 100
AcDbLine
  10
1243.45321655273
  20
858.624120846441
  11
1155.25657653808
  21
858.624120846441
   0
LINE
   5
       E1
 100
AcDbEntity
   8
13-[L3]
   6
Continuous
  62
 51
 370
18
 100
AcDbLine
  10
1356.74972534179
  20
817.374101772954
  11
1283.9561843872
  21
817.374101772954
   0
LINE
   5
       E2
 100
AcDbEntity
   8
13-[L3]
   6
Continuous
  62
 51
 370
18
 100
AcDbLine
  10
1356.74972534179
  20
942.374120846441
  11
1283.9561843872
  21
942.374120846441
   0
LINE
   5
       E3
 100
AcDbEntity
   8
13-[L3]
   6
Continuous
  62
 51
 370
18
 100
AcDbLine
  10
1356.74972534179
  20
817.374101772954
  11
1356.74972534179
  21
942.374120846441
   0
LINE
   5
       E4
 100
AcDbEntity
   8
13-[L3]
   6
Continuous
  62
 51
 370
18
 100
AcDbLine
  10
1332.76794433593
  20
942.374120846441
  11
1283.9561843872
  21
942.374120846441
   0
LINE
   5
       E5
 100
AcDbEntity
   8
13-[L3]
   6
Continuous
  62
 51
 370
18
 100
AcDbLine
  10
1332.76794433593
  20
922.374120846441
  11
1283.9561843872
  21
922.374120846441
   0
LINE
   5
       E6
 100
AcDbEntity
   8
13-[L3]
   6
Continuous
  62
 51
 370
18
 100
AcDbLine
  10
1332.76794433593
  20
942.374120846441
  11
1332.76794433593
  21
922.374120846441
   0
LINE
   5
       E7
 100
AcDbEntity
   8
13-[L3]
   6
Continuous
  62
 51
 370
18
 100
AcDbLine
  10
1332.76794433593
  20
837.374101772954
  11
1283.9561843872
  21
837.374101772954
   0
LINE
   5
       E8
 100
AcDbEntity
   8
13-[L3]
   6
Continuous
  62
 51
 370
18
 100
AcDbLine
  10
1332.76794433593
  20
922.374120846441
  11
1332.76794433593
  21
837.374101772954
   0
LINE
   5
       E9
 100
AcDbEntity
   8
13-[L3]
   6
Continuous
  62
 51
 370
18
 100
AcDbLine
  10
1332.76794433593
  20
817.374101772954
  11
1283.9561843872
  21
817.374101772954
   0
LINE
   5
       EA
 100
AcDbEntity
   8
13-[L3]
   6
Continuous
  62
 51
 370
18
 100
AcDbLine
  10
1332.76794433593
  20
837.374101772954
  11
1332.76794433593
  21
817.374101772954
   0
LINE
   5
       EB
 100
AcDbEntity
   8
F0-[L0]
   6
Continuous
  62
 7
 370
18
 100
AcDbLine
  10
-38.802871704101
  20
-575.17135034496
  11
-11.708450317382
  21
-575.17135034496
   0
LINE
   5
       EC
 100
AcDbEntity
   8
F0-[L0]
   6
Continuous
  62
 8
 370
18
 100
AcDbLine
  10
-38.802871704101
  20
-1085.171274051
  11
1411.19712829589
  21
-1085.171274051
   0
LINE
   5
       ED
 100
AcDbEntity
   8
F0-[L0]
   6
Continuous
  62
 8
 370
18
 100
AcDbLine
  10
1411.19712829589
  20
-65.171350344964
  11
-38.802871704101
  21
-65.171350344964
   0
LINE
   5
       EE
 100
AcDbEntity
   8
F0-[L0]
   6
Continuous
  62
 8
 370
18
 100
AcDbLine
  10
-38.802871704101
  20
-65.171350344964
  11
-38.802871704101
  21
-1085.171274051
   0
LINE
   5
       EF
 100
AcDbEntity
   8
F0-[L0]
   6
Continuous
  62
 7
 370
18
 100
AcDbLine
  10
686.170678138732
  20
-96.481012210199
  11
686.170678138732
  21
-69.38659082348
   0
LINE
   5
       F0
 100
AcDbEntity
   8
F0-[L0]
   6
Continuous
  62
 7
 370
18
 100
AcDbLine
  10
686.170678138732
  20
-1080.955270633
  11
686.170678138732
  21
-1053.8608492463
   0
LINE
   5
       F1
 100
AcDbEntity
   8
F0-[L0]
   6
Continuous
  62
 7
 370
18
 100
AcDbLine
  10
980.200691223144
  20
-986.5778292268
  11
980.200691223144
  21
-1053.8608492463
   0
LINE
   5
       F2
 100
AcDbEntity
   8
F0-[L0]
   6
Continuous
  62
 7
 370
18
 100
AcDbLine
  10
1232.43656158447
  20
-1020.2202547639
  11
1232.43656158447
  21
-1053.8608492463
   0
LINE
   5
       F3
 100
AcDbEntity
   8
F0-[L0]
   6
Continuous
  62
 7
 370
18
 100
AcDbLine
  10
1136.62361145019
  20
-1020.2202547639
  11
1136.62361145019
  21
-1053.8608492463
   0
LINE
   5
       F4
 100
AcDbEntity
   8
F0-[L0]
   6
Continuous
  62
 7
 370
18
 100
AcDbLine
  10
980.200691223144
  20
-1020.2202547639
  11
1384.05090332031
  21
-1020.2202547639
   0
LINE
   5
       F5
 100
AcDbEntity
   8
F0-[L0]
   6
Continuous
  62
 7
 370
18
 100
AcDbLine
  10
1332.68646240234
  20
-1020.2202547639
  11
1332.68646240234
  21
-1053.8608492463
   0
LINE
   5
       F6
 100
AcDbEntity
   8
F0-[L0]
   6
Continuous
  62
 7
 370
18
 100
AcDbLine
  10
1384.05090332031
  20
-1053.8608492463
  11
686.170678138732
  21
-1053.8608492463
   0
LINE
   5
       F7
 100
AcDbEntity
   8
F0-[L0]
   6
Continuous
  62
 7
 370
18
 100
AcDbLine
  10
686.170678138732
  20
-1053.8608492463
  11
-11.708450317382
  21
-1053.8608492463
   0
LINE
   5
       F8
 100
AcDbEntity
   8
F0-[L0]
   6
Continuous
  62
 7
 370
18
 100
AcDbLine
  10
-11.708450317382
  20
-1053.8608492463
  11
-11.708450317382
  21
-575.17135034496
   0
LINE
   5
       F9
 100
AcDbEntity
   8
F0-[L0]
   6
Continuous
  62
 7
 370
18
 100
AcDbLine
  10
-11.708450317382
  20
-575.17135034496
  11
-11.708450317382
  21
-96.481012210199
   0
LINE
   5
       FA
 100
AcDbEntity
   8
F0-[L0]
   6
Continuous
  62
 7
 370
18
 100
AcDbLine
  10
-11.708450317382
  20
-96.481012210199
  11
686.170678138732
  21
-96.481012210199
   0
LINE
   5
       FB
 100
AcDbEntity
   8
F0-[L0]
   6
Continuous
  62
 7
 370
18
 100
AcDbLine
  10
686.170678138732
  20
-96.481012210199
  11
1384.05090332031
  21
-96.481012210199
   0
LINE
   5
       FC
 100
AcDbEntity
   8
F0-[L0]
   6
Continuous
  62
 7
 370
18
 100
AcDbLine
  10
1384.05090332031
  20
-96.481012210199
  11
1384.05090332031
  21
-575.17135034496
   0
LINE
   5
       FD
 100
AcDbEntity
   8
F0-[L0]
   6
Continuous
  62
 7
 370
18
 100
AcDbLine
  10
1384.05090332031
  20
-575.17135034496
  11
1384.05090332031
  21
-1053.8608492463
   0
LINE
   5
       FE
 100
AcDbEntity
   8
F0-[L0]
   6
Continuous
  62
 8
 370
18
 100
AcDbLine
  10
1411.19712829589
  20
-1085.171274051
  11
1411.19712829589
  21
-65.171350344964
   0
LINE
   5
       FF
 100
AcDbEntity
   8
F0-[L0]
   6
Continuous
  62
 7
 370
18
 100
AcDbLine
  10
1411.14418029785
  20
-575.17135034496
  11
1384.04983520507
  21
-575.17135034496
   0
LINE
   5
      100
 100
AcDbEntity
   8
F0-[L0]
   6
Continuous
  62
 8
 370
18
 100
AcDbLine
  10
1160.9129333496
  20
-1045.1496065705
  11
1160.9129333496
  21
-1047.5182283967
   0
LINE
   5
      101
 100
AcDbEntity
   8
F0-[L0]
   6
Continuous
  62
 7
 370
18
 100
AcDbLine
  10
686.171565055847
  20
-986.5778292268
  11
686.171565055847
  21
-1053.8608492463
   0
LINE
   5
      102
 100
AcDbEntity
   8
F0-[L0]
   6
Continuous
  62
 7
 370
18
 100
AcDbLine
  10
1384.05090332031
  20
-986.5778292268
  11
-11.708450317382
  21
-986.5778292268
   0
LINE
   5
      103
 100
AcDbEntity
   8
FF-[LF]
   6
Continuous
  62
 7
 370
18
 100
AcDbLine
  10
686.171565055847
  20
-1003.3986605256
  11
-11.708450317382
  21
-1003.3986605256
   0
LINE
   5
      104
 100
AcDbEntity
   8
FF-[LF]
   6
Continuous
  62
 7
 370
18
 100
AcDbLine
  10
686.171565055847
  20
-1020.2193392365
  11
-11.708450317382
  21
-1020.2193392365
   0
LINE
   5
      105
 100
AcDbEntity
   8
FF-[LF]
   6
Continuous
  62
 7
 370
18
 100
AcDbLine
  10
686.171565055847
  20
-1037.0400179475
  11
-11.708450317382
  21
-1037.0400179475
   0
LINE
   5
      106
 100
AcDbEntity
   8
FF-[LF]
   6
Continuous
  62
 7
 370
18
 100
AcDbLine
  10
337.231559753417
  20
-1053.8608492463
  11
337.231559753417
  21
-986.5778292268
   0
LINE
   5
      107
 100
AcDbEntity
   8
F0-[L0]
   6
DASHED1
  62
 8
 370
18
 100
AcDbLine
  10
-38.802871704101
  20
-1085.171274051
  11
1411.19712829589
  21
-65.171350344964
   0
LINE
   5
      108
 100
AcDbEntity
   8
F0-[L0]
   6
DASHED1
  62
 8
 370
18
 100
AcDbLine
  10
-38.802871704101
  20
-65.171350344964
  11
1411.19712829589
  21
-1085.171274051
   0
LINE
   5
      109
 100
AcDbEntity
   8
F0-[L0]
   6
DASHED1
  62
 8
 370
18
 100
AcDbLine
  10
-5.2606201171875
  20
-986.5778292268
  11
-5.2606201171875
  21
-1053.8608492463
   0
LINE
   5
      10A
 100
AcDbEntity
   8
F0-[L0]
   6
DASHED1
  62
 8
 370
18
 100
AcDbLine
  10
-11.708450317382
  20
-1000.3424776643
  11
686.171565055847
  21
-1000.3424776643
   0
LINE
   5
      10B
 100
AcDbEntity
   8
F0-[L0]
   6
DASHED1
  62
 8
 370
18
 100
AcDbLine
  10
-11.708450317382
  20
-1017.1631563752
  11
686.171565055847
  21
-1017.1631563752
   0
LINE
   5
      10C
 100
AcDbEntity
   8
F0-[L0]
   6
DASHED1
  62
 8
 370
18
 100
AcDbLine
  10
-11.708450317382
  20
-1033.983987674
  11
686.171565055847
  21
-1033.983987674
   0
LINE
   5
      10D
 100
AcDbEntity
   8
F0-[L0]
   6
DASHED1
  62
 8
 370
18
 100
AcDbLine
  10
-11.708450317382
  20
-1050.804666385
  11
686.171565055847
  21
-1050.804666385
   0
LINE
   5
      10E
 100
AcDbEntity
   8
F0-[L0]
   6
DASHED1
  62
 8
 370
18
 100
AcDbLine
  10
343.67935180664
  20
-986.5778292268
  11
343.67935180664
  21
-1053.8608492463
   0
LINE
   5
      10F
 100
AcDbEntity
   8
F0-[L0]
   6
DASHED1
  62
 8
 370
18
 100
AcDbLine
  10
1045.21780014038
  20
-1044.4463289826
  11
1045.21780014038
  21
-1048.1475008576
   0
LINE
   5
      110
 100
AcDbEntity
   8
F0-[L0]
   6
DASHED1
  62
 8
 370
18
 100
AcDbLine
  10
980.200691223144
  20
-1046.518930301
  11
1332.68646240234
  21
-1046.518930301
   0
LINE
   5
      111
 100
AcDbEntity
   8
F0-[L0]
   6
DASHED1
  62
 8
 370
18
 100
AcDbLine
  10
1254.16732788085
  20
-1045.507425174
  11
1254.16732788085
  21
-1048.0734957307
   0
LINE
   5
      112
 100
AcDbEntity
   8
01-基本線
   6
Continuous
  62
 7
 370
18
 100
AcDbLine
  10
997.77286529541
  20
-321.94854150707
  11
838.272867202758
  21
-321.94854150707
   0
LINE
   5
      113
 100
AcDbEntity
   8
01-基本線
   6
Continuous
  62
 7
 370
18
 100
AcDbLine
  10
838.272867202758
  20
-321.94854150707
  11
838.272867202758
  21
-304.9484957307
   0
LINE
   5
      114
 100
AcDbEntity
   8
01-基本線
   6
Continuous
  62
 7
 370
18
 100
AcDbLine
  10
997.77286529541
  20
-304.9484957307
  11
838.272867202758
  21
-304.9484957307
   0
LINE
   5
      115
 100
AcDbEntity
   8
01-基本線
   6
DASHED1
  62
 4
 370
18
 100
AcDbLine
  10
997.77286529541
  20
-296.44851098949
  11
992.949752807617
  21
-296.44851098949
   0
LINE
   5
      116
 100
AcDbEntity
   8
01-基本線
   6
DASHED1
  62
 4
 370
18
 100
AcDbLine
  10
997.77286529541
  20
-296.44851098949
  11
997.77286529541
  21
-301.27166162426
   0
LINE
   5
      117
 100
AcDbEntity
   8
01-基本線
   6
DASHED1
  62
 4
 370
18
 100
AcDbLine
  10
997.77286529541
  20
-296.44851098949
  11
1002.59599685668
  21
-296.44851098949
   0
LINE
   5
      118
 100
AcDbEntity
   8
01-基本線
   6
DASHED1
  62
 4
 370
18
 100
AcDbLine
  10
997.77286529541
  20
-296.44851098949
  11
997.77286529541
  21
-291.62536035473
   0
LINE
   5
      119
 100
AcDbEntity
   8
01-基本線
   6
DASHED1
  62
 4
 370
18
 100
AcDbLine
  10
1014.7728729248
  20
-313.44848047191
  11
1014.7728729248
  21
-308.62540613109
   0
LINE
   5
      11A
 100
AcDbEntity
   8
01-基本線
   6
DASHED1
  62
 4
 370
18
 100
AcDbLine
  10
1014.7728729248
  20
-313.44848047191
  11
1009.94974136352
  21
-313.44848047191
   0
LINE
   5
      11B
 100
AcDbEntity
   8
01-基本線
   6
DASHED1
  62
 4
 370
18
 100
AcDbLine
  10
1014.7728729248
  20
-313.44848047191
  11
1014.7728729248
  21
-318.27163110668
   0
LINE
   5
      11C
 100
AcDbEntity
   8
01-基本線
   6
DASHED1
  62
 4
 370
18
 100
AcDbLine
  10
1014.7728729248
  20
-313.44848047191
  11
1019.59598541259
  21
-313.44848047191
   0
LINE
   5
      11D
 100
AcDbEntity
   8
01-基本線
   6
DASHED1
  62
 4
 370
18
 100
AcDbLine
  10
997.77286529541
  20
-330.44852624828
  11
1002.59599685668
  21
-330.44852624828
   0
LINE
   5
      11E
 100
AcDbEntity
   8
01-基本線
   6
DASHED1
  62
 4
 370
18
 100
AcDbLine
  10
997.77286529541
  20
-330.44852624828
  11
997.77286529541
  21
-325.62537561351
   0
LINE
   5
      11F
 100
AcDbEntity
   8
01-基本線
   6
DASHED1
  62
 4
 370
18
 100
AcDbLine
  10
997.77286529541
  20
-330.44852624828
  11
992.949752807617
  21
-330.44852624828
   0
LINE
   5
      120
 100
AcDbEntity
   8
01-基本線
   6
DASHED1
  62
 4
 370
18
 100
AcDbLine
  10
997.77286529541
  20
-330.44852624828
  11
997.77286529541
  21
-335.2716005891
   0
LINE
   5
      121
 100
AcDbEntity
   8
01-基本線
   6
DASHED1
  62
 4
 370
18
 100
AcDbLine
  10
828.272867202758
  20
-313.44848047191
  11
823.449754714965
  21
-313.44848047191
   0
LINE
   5
      122
 100
AcDbEntity
   8
01-基本線
   6
DASHED1
  62
 4
 370
18
 100
AcDbLine
  10
828.272867202758
  20
-313.44848047191
  11
828.272867202758
  21
-318.27163110668
   0
LINE
   5
      123
 100
AcDbEntity
   8
01-基本線
   6
DASHED1
  62
 4
 370
18
 100
AcDbLine
  10
828.272867202758
  20
-313.44848047191
  11
833.095989227294
  21
-313.44848047191
   0
LINE
   5
      124
 100
AcDbEntity
   8
01-基本線
   6
DASHED1
  62
 4
 370
18
 100
AcDbLine
  10
828.272867202758
  20
-313.44848047191
  11
828.272867202758
  21
-308.62540613109
   0
LINE
   5
      125
 100
AcDbEntity
   8
01-基本線
   6
Continuous
  62
 7
 370
18
 100
AcDbLine
  10
247.272872924804
  20
-304.9484957307
  11
838.272867202758
  21
-304.9484957307
   0
LINE
   5
      126
 100
AcDbEntity
   8
01-基本線
   6
Continuous
  62
 7
 370
18
 100
AcDbLine
  10
838.272867202758
  20
-321.94854150707
  11
247.272872924804
  21
-321.94854150707
   0
LINE
   5
      127
 100
AcDbEntity
   8
00-基準線
   6
CENTER1
  62
 4
 370
18
 100
AcDbLine
  10
87.7729034423828
  20
-313.44848047191
  11
997.77286529541
  21
-313.44848047191
   0
LINE
   5
      128
 100
AcDbEntity
   8
03-寸法
   6
Continuous
  62
 51
 370
18
 100
AcDbLine
  10
828.272867202758
  20
-288.13369165355
  11
828.272867202758
  21
-298.23531518871
   0
LINE
   5
      129
 100
AcDbEntity
   8
03-寸法
   6
Continuous
  62
 51
 370
18
 100
AcDbLine
  10
838.272867202758
  20
-288.13369165355
  11
838.272867202758
  21
-298.23531518871
   0
LINE
   5
      12A
 100
AcDbEntity
   8
03-寸法
   6
Continuous
  62
 51
 370
18
 100
AcDbLine
  10
828.272867202758
  20
-288.13369165355
  11
838.272867202758
  21
-288.13369165355
   0
LINE
   5
      12B
 100
AcDbEntity
   8
01-基本線
   6
Continuous
  62
 7
 370
18
 100
AcDbLine
  10
972.77286529541
  20
-424.27703271801
  11
1022.77286529541
  21
-424.27703271801
   0
LINE
   5
      12C
 100
AcDbEntity
   8
01-基本線
   6
Continuous
  62
 7
 370
18
 100
AcDbLine
  10
838.272867202758
  20
-854.27695642406
  11
838.272867202758
  21
-871.27692590648
   0
LINE
   5
      12D
 100
AcDbEntity
   8
03-寸法
   6
Continuous
  62
 51
 370
18
 100
AcDbLine
  10
838.272867202758
  20
-912.15461145336
  11
838.272867202758
  21
-890.56327234203
   0
LINE
   5
      12E
 100
AcDbEntity
   8
01-基本線
   6
Continuous
  62
 7
 370
18
 100
AcDbLine
  10
829.3879032135
  20
-877.69736658031
  11
825.272874832153
  21
-880.07316003734
   0
LINE
   5
      12F
 100
AcDbEntity
   8
01-基本線
   6
Continuous
  62
 7
 370
18
 100
AcDbLine
  10
831.272869110107
  20
-878.82666955883
  11
825.272874832153
  21
-882.2907198518
   0
LINE
   5
      130
 100
AcDbEntity
   8
01-基本線
   6
Continuous
  62
 7
 370
18
 100
AcDbLine
  10
831.272869110107
  20
-881.04438196117
  11
825.272874832153
  21
-884.50843225414
   0
LINE
   5
      131
 100
AcDbEntity
   8
01-基本線
   6
Continuous
  62
 7
 370
18
 100
AcDbLine
  10
831.272869110107
  20
-883.26194177562
  11
825.272874832153
  21
-886.72614465648
   0
LINE
   5
      132
 100
AcDbEntity
   8
01-基本線
   6
Continuous
  62
 7
 370
18
 100
AcDbLine
  10
831.272869110107
  20
-887.69736658031
  11
831.272869110107
  21
-877.69736658031
   0
LINE
   5
      133
 100
AcDbEntity
   8
01-基本線
   6
Continuous
  62
 7
 370
18
 100
AcDbLine
  10
825.272874832153
  20
-887.69736658031
  11
831.272869110107
  21
-887.69736658031
   0
LINE
   5
      134
 100
AcDbEntity
   8
01-基本線
   6
Continuous
  62
 7
 370
18
 100
AcDbLine
  10
825.272874832153
  20
-877.69736658031
  11
825.272874832153
  21
-887.69736658031
   0
LINE
   5
      135
 100
AcDbEntity
   8
01-基本線
   6
Continuous
  62
 7
 370
18
 100
AcDbLine
  10
831.272869110107
  20
-877.69736658031
  11
825.272874832153
  21
-877.69736658031
   0
LINE
   5
      136
 100
AcDbEntity
   8
03-寸法
   6
Continuous
  62
 51
 370
18
 100
AcDbLine
  10
828.272867202758
  20
-912.15461145336
  11
828.272867202758
  21
-890.56327234203
   0
LINE
   5
      137
 100
AcDbEntity
   8
03-寸法
   6
Continuous
  62
 51
 370
18
 100
AcDbLine
  10
838.272867202758
  20
-912.15461145336
  11
828.272867202758
  21
-912.15461145336
   0
LINE
   5
      138
 100
AcDbEntity
   8
02-注釈
   6
Continuous
  62
 4
 370
18
 100
AcDbLine
  10
1007.87233352661
  20
-428.21341882641
  11
1035.75826644897
  21
-476.51320825512
   0
LINE
   5
      139
 100
AcDbEntity
   8
02-注釈
   6
Continuous
  62
 4
 370
18
 100
AcDbLine
  10
1035.75826644897
  20
-476.51320825512
  11
1089.49302673339
  21
-476.51320825512
   0
LINE
   5
      13A
 100
AcDbEntity
   8
03-寸法
   6
Continuous
  62
 51
 370
18
 100
AcDbLine
  10
949.997768402099
  20
-424.27703271801
  11
969.892616271972
  21
-424.27703271801
   0
LINE
   5
      13B
 100
AcDbEntity
   8
01-基本線
   6
Continuous
  62
 7
 370
18
 100
AcDbLine
  10
1252.2838973999
  20
-424.27703271801
  11
1302.2838973999
  21
-424.27703271801
   0
LINE
   5
      13C
 100
AcDbEntity
   8
03-寸法
   6
Continuous
  62
 51
 370
18
 100
AcDbLine
  10
1229.50881958007
  20
-424.27703271801
  11
1249.40364837646
  21
-424.27703271801
   0
LINE
   5
      13D
 100
AcDbEntity
   8
01-基本線
   6
Continuous
  62
 7
 370
18
 100
AcDbLine
  10
1117.78392791748
  20
-854.27695642406
  11
1117.78392791748
  21
-871.27692590648
   0
LINE
   5
      13E
 100
AcDbEntity
   8
03-寸法
   6
Continuous
  62
 51
 370
18
 100
AcDbLine
  10
1344.90665435791
  20
-871.27692590648
  11
1307.43030548095
  21
-871.27692590648
   0
LINE
   5
      13F
 100
AcDbEntity
   8
03-寸法
   6
Continuous
  62
 51
 370
18
 100
AcDbLine
  10
838.272867202758
  20
-944.23468957836
  11
838.272867202758
  21
-890.56327234203
   0
LINE
   5
      140
 100
AcDbEntity
   8
03-寸法
   6
Continuous
  62
 51
 370
18
 100
AcDbLine
  10
838.272867202758
  20
-944.23468957836
  11
1006.2728691101
  21
-944.23468957836
   0
LINE
   5
      141
 100
AcDbEntity
   8
03-寸法
   6
Continuous
  62
 51
 370
18
 100
AcDbLine
  10
1022.77286529541
  20
-257.86246667797
  11
1022.77286529541
  21
-294.35569177562
   0
LINE
   5
      142
 100
AcDbEntity
   8
03-寸法
   6
Continuous
  62
 51
 370
18
 100
AcDbLine
  10
1006.2728691101
  20
-944.23468957836
  11
1006.2728691101
  21
-849.84992395336
   0
LINE
   5
      143
 100
AcDbEntity
   8
11-[L1]
   6
DASHED1
  62
 4
 370
18
 100
AcDbLine
  10
1243.45321655273
  20
-185.52024255687
  11
1255.5110168457
  21
-185.52024255687
   0
LINE
   5
      144
 100
AcDbEntity
   8
11-[L1]
   6
DASHED1
  62
 4
 370
18
 100
AcDbLine
  10
1243.45321655273
  20
-185.52024255687
  11
1243.45321655273
  21
-197.57804284984
   0
LINE
   5
      145
 100
AcDbEntity
   8
11-[L1]
   6
DASHED1
  62
 4
 370
18
 100
AcDbLine
  10
1243.45321655273
  20
-185.52024255687
  11
1231.39537811279
  21
-185.52024255687
   0
LINE
   5
      146
 100
AcDbEntity
   8
11-[L1]
   6
DASHED1
  62
 4
 370
18
 100
AcDbLine
  10
1243.45321655273
  20
-185.52024255687
  11
1243.45321655273
  21
-173.46244226391
   0
LINE
   5
      147
 100
AcDbEntity
   8
11-[L1]
   6
DASHED1
  62
 4
 370
18
 100
AcDbLine
  10
1200.95321655273
  20
-228.02024255687
  11
1200.95321655273
  21
-215.96244226391
   0
LINE
   5
      148
 100
AcDbEntity
   8
11-[L1]
   6
DASHED1
  62
 4
 370
18
 100
AcDbLine
  10
1200.95321655273
  20
-228.02024255687
  11
1213.0110168457
  21
-228.02024255687
   0
LINE
   5
      149
 100
AcDbEntity
   8
11-[L1]
   6
DASHED1
  62
 4
 370
18
 100
AcDbLine
  10
1200.95321655273
  20
-228.02024255687
  11
1200.95321655273
  21
-240.07804284984
   0
LINE
   5
      14A
 100
AcDbEntity
   8
11-[L1]
   6
DASHED1
  62
 4
 370
18
 100
AcDbLine
  10
1200.95321655273
  20
-228.02024255687
  11
1188.89537811279
  21
-228.02024255687
   0
LINE
   5
      14B
 100
AcDbEntity
   8
11-[L1]
   6
DASHED1
  62
 4
 370
18
 100
AcDbLine
  10
1243.45321655273
  20
-270.52024255687
  11
1231.39537811279
  21
-270.52024255687
   0
LINE
   5
      14C
 100
AcDbEntity
   8
11-[L1]
   6
DASHED1
  62
 4
 370
18
 100
AcDbLine
  10
1243.45321655273
  20
-270.52024255687
  11
1243.45321655273
  21
-258.46244226391
   0
LINE
   5
      14D
 100
AcDbEntity
   8
11-[L1]
   6
DASHED1
  62
 4
 370
18
 100
AcDbLine
  10
1243.45321655273
  20
-270.52024255687
  11
1255.5110168457
  21
-270.52024255687
   0
LINE
   5
      14E
 100
AcDbEntity
   8
11-[L1]
   6
DASHED1
  62
 4
 370
18
 100
AcDbLine
  10
1243.45321655273
  20
-270.52024255687
  11
1243.45321655273
  21
-282.57804284984
   0
LINE
   5
      14F
 100
AcDbEntity
   8
11-[L1]
   6
DASHED1
  62
 4
 370
18
 100
AcDbLine
  10
1285.95321655273
  20
-228.02024255687
  11
1285.95321655273
  21
-240.07804284984
   0
LINE
   5
      150
 100
AcDbEntity
   8
11-[L1]
   6
DASHED1
  62
 4
 370
18
 100
AcDbLine
  10
1285.95321655273
  20
-228.02024255687
  11
1273.89537811279
  21
-228.02024255687
   0
LINE
   5
      151
 100
AcDbEntity
   8
11-[L1]
   6
DASHED1
  62
 4
 370
18
 100
AcDbLine
  10
1285.95321655273
  20
-228.02024255687
  11
1285.95321655273
  21
-215.96244226391
   0
LINE
   5
      152
 100
AcDbEntity
   8
11-[L1]
   6
DASHED1
  62
 4
 370
18
 100
AcDbLine
  10
1285.95321655273
  20
-228.02024255687
  11
1298.0110168457
  21
-228.02024255687
   0
LINE
   5
      153
 100
AcDbEntity
   8
11-[L1]
   6
Continuous
  62
 7
 370
18
 100
AcDbLine
  10
1243.45321655273
  20
-206.77024255687
  11
1155.25657653808
  21
-206.77024255687
   0
LINE
   5
      154
 100
AcDbEntity
   8
11-[L1]
   6
Continuous
  62
 7
 370
18
 100
AcDbLine
  10
1243.45321655273
  20
-249.27024255687
  11
1155.25657653808
  21
-249.27024255687
   0
LINE
   5
      155
 100
AcDbEntity
   8
13-[L3]
   6
Continuous
  62
 51
 370
18
 100
AcDbLine
  10
1356.74972534179
  20
-290.52024255687
  11
1283.9561843872
  21
-290.52024255687
   0
LINE
   5
      156
 100
AcDbEntity
   8
13-[L3]
   6
Continuous
  62
 51
 370
18
 100
AcDbLine
  10
1356.74972534179
  20
-165.52024255687
  11
1283.9561843872
  21
-165.52024255687
   0
LINE
   5
      157
 100
AcDbEntity
   8
13-[L3]
   6
Continuous
  62
 51
 370
18
 100
AcDbLine
  10
1356.74972534179
  20
-290.52024255687
  11
1356.74972534179
  21
-165.52024255687
   0
LINE
   5
      158
 100
AcDbEntity
   8
13-[L3]
   6
Continuous
  62
 51
 370
18
 100
AcDbLine
  10
1332.76794433593
  20
-165.52024255687
  11
1283.9561843872
  21
-165.52024255687
   0
LINE
   5
      159
 100
AcDbEntity
   8
13-[L3]
   6
Continuous
  62
 51
 370
18
 100
AcDbLine
  10
1332.76794433593
  20
-185.52024255687
  11
1283.9561843872
  21
-185.52024255687
   0
LINE
   5
      15A
 100
AcDbEntity
   8
13-[L3]
   6
Continuous
  62
 51
 370
18
 100
AcDbLine
  10
1332.76794433593
  20
-165.52024255687
  11
1332.76794433593
  21
-185.52024255687
   0
LINE
   5
      15B
 100
AcDbEntity
   8
13-[L3]
   6
Continuous
  62
 51
 370
18
 100
AcDbLine
  10
1332.76794433593
  20
-270.52024255687
  11
1283.9561843872
  21
-270.52024255687
   0
LINE
   5
      15C
 100
AcDbEntity
   8
13-[L3]
   6
Continuous
  62
 51
 370
18
 100
AcDbLine
  10
1332.76794433593
  20
-185.52024255687
  11
1332.76794433593
  21
-270.52024255687
   0
LINE
   5
      15D
 100
AcDbEntity
   8
13-[L3]
   6
Continuous
  62
 51
 370
18
 100
AcDbLine
  10
1332.76794433593
  20
-290.52024255687
  11
1283.9561843872
  21
-290.52024255687
   0
LINE
   5
      15E
 100
AcDbEntity
   8
13-[L3]
   6
Continuous
  62
 51
 370
18
 100
AcDbLine
  10
1332.76794433593
  20
-270.52024255687
  11
1332.76794433593
  21
-290.52024255687
   0
LINE
   5
      15F
 100
AcDbEntity
   8
01-基本線
   6
Continuous
  62
 7
 370
18
 100
AcDbLine
  10
87.7729034423828
  20
-288.44848047191
  11
87.7729034423828
  21
-338.44848047191
   0
LINE
   5
      160
 100
AcDbEntity
   8
01-基本線
   6
Continuous
  62
 7
 370
18
 100
AcDbLine
  10
90.7728576660156
  20
-288.44848047191
  11
90.7728576660156
  21
-338.44848047191
   0
LINE
   5
      161
 100
AcDbEntity
   8
01-基本線
   6
Continuous
  62
 7
 370
18
 100
AcDbLine
  10
87.7729034423828
  20
-288.44848047191
  11
90.7728576660156
  21
-288.44848047191
   0
LINE
   5
      162
 100
AcDbEntity
   8
01-基本線
   6
Continuous
  62
 7
 370
18
 100
AcDbLine
  10
87.7729034423828
  20
-338.44848047191
  11
90.7728576660156
  21
-338.44848047191
   0
LINE
   5
      163
 100
AcDbEntity
   8
01-基本線
   6
Continuous
  62
 7
 370
18
 100
AcDbLine
  10
90.7728576660156
  20
-321.94854150707
  11
247.272872924804
  21
-321.94854150707
   0
LINE
   5
      164
 100
AcDbEntity
   8
01-基本線
   6
Continuous
  62
 7
 370
18
 100
AcDbLine
  10
90.7728576660156
  20
-304.9484957307
  11
247.272872924804
  21
-304.9484957307
   0
LINE
   5
      165
 100
AcDbEntity
   8
01-基本線
   6
Continuous
  62
 7
 370
18
 100
AcDbLine
  10
115.772857666015
  20
-304.9484957307
  11
115.772857666015
  21
-321.94854150707
   0
LINE
   5
      166
 100
AcDbEntity
   8
01-基本線
   6
Continuous
  62
 7
 370
18
 100
AcDbLine
  10
87.7729034423828
  20
-837.77701745922
  11
87.7729034423828
  21
-887.77701745922
   0
LINE
   5
      167
 100
AcDbEntity
   8
01-基本線
   6
Continuous
  62
 7
 370
18
 100
AcDbLine
  10
90.7728576660156
  20
-837.77701745922
  11
90.7728576660156
  21
-887.77701745922
   0
LINE
   5
      168
 100
AcDbEntity
   8
01-基本線
   6
Continuous
  62
 7
 370
18
 100
AcDbLine
  10
87.7729034423828
  20
-837.77701745922
  11
90.7728576660156
  21
-837.77701745922
   0
LINE
   5
      169
 100
AcDbEntity
   8
01-基本線
   6
Continuous
  62
 7
 370
18
 100
AcDbLine
  10
87.7729034423828
  20
-887.77701745922
  11
90.7728576660156
  21
-887.77701745922
   0
LINE
   5
      16A
 100
AcDbEntity
   8
01-基本線
   6
Continuous
  62
 7
 370
18
 100
AcDbLine
  10
115.772857666015
  20
-854.27695642406
  11
115.772857666015
  21
-871.27692590648
   0
LINE
   5
      16B
 100
AcDbEntity
   8
01-基本線
   6
Continuous
  62
 7
 370
18
 100
AcDbLine
  10
115.772857666015
  20
-854.27695642406
  11
838.272867202758
  21
-854.27695642406
   0
LINE
   5
      16C
 100
AcDbEntity
   8
01-基本線
   6
Continuous
  62
 7
 370
18
 100
AcDbLine
  10
838.272867202758
  20
-871.27692590648
  11
115.772857666015
  21
-871.27692590648
   0
LINE
   5
      16D
 100
AcDbEntity
   8
03-寸法
   6
Continuous
  62
 51
 370
18
 100
AcDbLine
  10
115.772857666015
  20
-912.15461145336
  11
115.772857666015
  21
-890.56327234203
   0
LINE
   5
      16E
 100
AcDbEntity
   8
02-注釈
   6
Continuous
  62
 4
 370
18
 100
AcDbLine
  10
125.729255676269
  20
-883.31580530101
  11
139.366912841796
  21
-906.93686853344
   0
LINE
   5
      16F
 100
AcDbEntity
   8
01-基本線
   6
Continuous
  62
 7
 370
18
 100
AcDbLine
  10
124.657821655273
  20
-877.69736658031
  11
128.772888183593
  21
-880.07316003734
   0
LINE
   5
      170
 100
AcDbEntity
   8
01-基本線
   6
Continuous
  62
 7
 370
18
 100
AcDbLine
  10
122.77286529541
  20
-878.82666955883
  11
128.772888183593
  21
-882.2907198518
   0
LINE
   5
      171
 100
AcDbEntity
   8
01-基本線
   6
Continuous
  62
 7
 370
18
 100
AcDbLine
  10
122.77286529541
  20
-881.04438196117
  11
128.772888183593
  21
-884.50843225414
   0
LINE
   5
      172
 100
AcDbEntity
   8
01-基本線
   6
Continuous
  62
 7
 370
18
 100
AcDbLine
  10
122.77286529541
  20
-883.26194177562
  11
128.772888183593
  21
-886.72614465648
   0
LINE
   5
      173
 100
AcDbEntity
   8
01-基本線
   6
Continuous
  62
 7
 370
18
 100
AcDbLine
  10
122.77286529541
  20
-887.69736658031
  11
122.77286529541
  21
-877.69736658031
   0
LINE
   5
      174
 100
AcDbEntity
   8
01-基本線
   6
Continuous
  62
 7
 370
18
 100
AcDbLine
  10
128.772888183593
  20
-887.69736658031
  11
122.77286529541
  21
-887.69736658031
   0
LINE
   5
      175
 100
AcDbEntity
   8
01-基本線
   6
Continuous
  62
 7
 370
18
 100
AcDbLine
  10
128.772888183593
  20
-877.69736658031
  11
128.772888183593
  21
-887.69736658031
   0
LINE
   5
      176
 100
AcDbEntity
   8
01-基本線
   6
Continuous
  62
 7
 370
18
 100
AcDbLine
  10
122.77286529541
  20
-877.69736658031
  11
128.772888183593
  21
-877.69736658031
   0
LINE
   5
      177
 100
AcDbEntity
   8
03-寸法
   6
Continuous
  62
 51
 370
18
 100
AcDbLine
  10
125.772857666015
  20
-912.15461145336
  11
125.772857666015
  21
-890.56327234203
   0
LINE
   5
      178
 100
AcDbEntity
   8
03-寸法
   6
Continuous
  62
 51
 370
18
 100
AcDbLine
  10
115.772857666015
  20
-912.15461145336
  11
125.772857666015
  21
-912.15461145336
   0
LINE
   5
      179
 100
AcDbEntity
   8
02-注釈
   6
Continuous
  62
 4
 370
18
 100
AcDbLine
  10
139.366912841796
  20
-906.93686853344
  11
241.431541442871
  21
-906.93686853344
   0
LINE
   5
      17A
 100
AcDbEntity
   8
03-寸法
   6
Continuous
  62
 51
 370
18
 100
AcDbLine
  10
115.772857666015
  20
-944.23468957836
  11
115.772857666015
  21
-890.56327234203
   0
LINE
   5
      17B
 100
AcDbEntity
   8
03-寸法
   6
Continuous
  62
 51
 370
18
 100
AcDbLine
  10
115.772857666015
  20
-944.23468957836
  11
838.272867202758
  21
-944.23468957836
   0
LINE
   5
      17C
 100
AcDbEntity
   8
01-基本線
   6
Continuous
  62
 7
 370
18
 100
AcDbLine
  10
90.7728576660156
  20
-854.27695642406
  11
115.772857666015
  21
-854.27695642406
   0
LINE
   5
      17D
 100
AcDbEntity
   8
00-基準線
   6
CENTER1
  62
 4
 370
18
 100
AcDbLine
  10
838.272867202758
  20
-862.77701745922
  11
87.7729034423828
  21
-862.77701745922
   0
LINE
   5
      17E
 100
AcDbEntity
   8
01-基本線
   6
Continuous
  62
 7
 370
18
 100
AcDbLine
  10
90.7728576660156
  20
-871.27692590648
  11
115.772857666015
  21
-871.27692590648
   0
LINE
   5
      17F
 100
AcDbEntity
   8
03-寸法
   6
Continuous
  62
 51
 370
18
 100
AcDbLine
  10
87.7729034423828
  20
-257.86246667797
  11
87.7729034423828
  21
-294.35569177562
   0
LINE
   5
      180
 100
AcDbEntity
   8
03-寸法
   6
Continuous
  62
 51
 370
18
 100
AcDbLine
  10
1022.77286529541
  20
-257.86246667797
  11
87.7729034423828
  21
-257.86246667797
   0
LINE
   5
      181
 100
AcDbEntity
   8
03-寸法
   6
Continuous
  62
 51
 370
18
 100
AcDbLine
  10
49.8804473876953
  20
-288.44848047191
  11
73.9392852783203
  21
-288.44848047191
   0
LINE
   5
      182
 100
AcDbEntity
   8
03-寸法
   6
Continuous
  62
 51
 370
18
 100
AcDbLine
  10
49.8804473876953
  20
-338.44848047191
  11
73.9392852783203
  21
-338.44848047191
   0
LINE
   5
      183
 100
AcDbEntity
   8
03-寸法
   6
Continuous
  62
 51
 370
18
 100
AcDbLine
  10
49.8804473876953
  20
-288.44848047191
  11
49.8804473876953
  21
-338.44848047191
   0
LINE
   5
      184
 100
AcDbEntity
   8
11-[L1]
   6
Continuous
  62
 7
 370
18
 100
AcDbLine
  10
280.347137451171
  20
-525.02974878246
  11
280.347137451171
  21
-650.02974878246
   0
LINE
   5
      185
 100
AcDbEntity
   8
11-[L1]
   6
Continuous
  62
 7
 370
18
 100
AcDbLine
  10
287.847137451171
  20
-525.02974878246
  11
287.847137451171
  21
-650.02974878246
   0
LINE
   5
      186
 100
AcDbEntity
   8
11-[L1]
   6
Continuous
  62
 7
 370
18
 100
AcDbLine
  10
280.347137451171
  20
-525.02974878246
  11
287.847137451171
  21
-525.02974878246
   0
LINE
   5
      187
 100
AcDbEntity
   8
11-[L1]
   6
Continuous
  62
 7
 370
18
 100
AcDbLine
  10
280.347137451171
  20
-650.02974878246
  11
287.847137451171
  21
-650.02974878246
   0
LINE
   5
      188
 100
AcDbEntity
   8
11-[L1]
   6
Continuous
  62
 51
 370
18
 100
AcDbLine
  10
280.347137451171
  20
-514.50484643871
  11
287.847137451171
  21
-514.50484643871
   0
LINE
   5
      189
 100
AcDbEntity
   8
11-[L1]
   6
Continuous
  62
 51
 370
18
 100
AcDbLine
  10
280.347137451171
  20
-514.50484643871
  11
280.347137451171
  21
-522.25463281566
   0
LINE
   5
      18A
 100
AcDbEntity
   8
11-[L1]
   6
Continuous
  62
 51
 370
18
 100
AcDbLine
  10
287.847137451171
  20
-514.50484643871
  11
287.847137451171
  21
-522.6658571809
   0
LINE
   5
      18B
 100
AcDbEntity
   8
11-[L1]
   6
Continuous
  62
 51
 370
18
 100
AcDbLine
  10
280.347137451171
  20
-675.38581262523
  11
280.347137451171
  21
-650.40160547191
   0
LINE
   5
      18C
 100
AcDbEntity
   8
11-[L1]
   6
Continuous
  62
 7
 370
18
 100
AcDbLine
  10
342.847137451171
  20
-566.27974878246
  11
342.847137451171
  21
-608.77974878246
   0
LINE
   5
      18D
 100
AcDbEntity
   8
11-[L1]
   6
Continuous
  62
 7
 370
18
 100
AcDbLine
  10
287.847137451171
  20
-566.27974878246
  11
342.847137451171
  21
-566.27974878246
   0
LINE
   5
      18E
 100
AcDbEntity
   8
11-[L1]
   6
Continuous
  62
 7
 370
18
 100
AcDbLine
  10
287.847137451171
  20
-608.77974878246
  11
342.847137451171
  21
-608.77974878246
   0
LINE
   5
      18F
 100
AcDbEntity
   8
11-[L1]
   6
Continuous
  62
 7
 370
18
 100
AcDbLine
  10
342.847137451171
  20
-571.65473352367
  11
530.347137451171
  21
-571.65473352367
   0
LINE
   5
      190
 100
AcDbEntity
   8
11-[L1]
   6
Continuous
  62
 7
 370
18
 100
AcDbLine
  10
342.847137451171
  20
-603.40476404125
  11
530.347137451171
  21
-603.40476404125
   0
LINE
   5
      191
 100
AcDbEntity
   8
11-[L1]
   6
Continuous
  62
 7
 370
18
 100
AcDbLine
  10
530.347137451171
  20
-571.65473352367
  11
530.347137451171
  21
-603.40476404125
   0
LINE
   5
      192
 100
AcDbEntity
   8
11-[L1]
   6
Continuous
  62
 51
 370
18
 100
AcDbLine
  10
342.847137451171
  20
-514.50484643871
  11
342.847137451171
  21
-548.74251733715
   0
LINE
   5
      193
 100
AcDbEntity
   8
11-[L1]
   6
Continuous
  62
 51
 370
18
 100
AcDbLine
  10
287.847137451171
  20
-514.50484643871
  11
342.847137451171
  21
-514.50484643871
   0
LINE
   5
      194
 100
AcDbEntity
   8
11-[L1]
   6
Continuous
  62
 51
 370
18
 100
AcDbLine
  10
530.347137451171
  20
-514.50484643871
  11
530.347137451171
  21
-548.74251733715
   0
LINE
   5
      195
 100
AcDbEntity
   8
11-[L1]
   6
Continuous
  62
 51
 370
18
 100
AcDbLine
  10
342.847137451171
  20
-514.50484643871
  11
530.347137451171
  21
-514.50484643871
   0
LINE
   5
      196
 100
AcDbEntity
   8
11-[L1]
   6
Continuous
  62
 51
 370
18
 100
AcDbLine
  10
530.347137451171
  20
-675.38581262523
  11
530.347137451171
  21
-650.40160547191
   0
LINE
   5
      197
 100
AcDbEntity
   8
11-[L1]
   6
Continuous
  62
 51
 370
18
 100
AcDbLine
  10
280.347137451171
  20
-675.38581262523
  11
530.347137451171
  21
-675.38581262523
   0
LINE
   5
      198
 100
AcDbEntity
   8
11-[L1]
   6
Continuous
  62
 51
 370
18
 100
AcDbLine
  10
238.916015625
  20
-525.02974878246
  11
269.452285766601
  21
-525.02974878246
   0
LINE
   5
      199
 100
AcDbEntity
   8
11-[L1]
   6
Continuous
  62
 51
 370
18
 100
AcDbLine
  10
238.916015625
  20
-650.02974878246
  11
269.452285766601
  21
-650.02974878246
   0
LINE
   5
      19A
 100
AcDbEntity
   8
11-[L1]
   6
Continuous
  62
 51
 370
18
 100
AcDbLine
  10
238.916015625
  20
-525.02974878246
  11
238.916015625
  21
-650.02974878246
   0
LINE
   5
      19B
 100
AcDbEntity
   8
02-注釈
   6
Continuous
  62
 4
 370
18
 100
AcDbLine
  10
437.789649963378
  20
-636.9684542268
  11
539.85424041748
  21
-636.9684542268
   0
LINE
   5
      19C
 100
AcDbEntity
   8
02-注釈
   6
Continuous
  62
 4
 370
18
 100
AcDbLine
  10
412.151794433593
  20
-592.56240259105
  11
437.789649963378
  21
-636.9684542268
   0
LINE
   5
      19D
 100
AcDbEntity
   8
02-注釈
   6
Continuous
  62
 4
 370
18
 100
AcDbLine
  10
147.232322692871
  20
-682.3102511018
  11
249.296913146972
  21
-682.3102511018
   0
LINE
   5
      19E
 100
AcDbEntity
   8
02-注釈
   6
Continuous
  62
 4
 370
18
 100
AcDbLine
  10
249.296913146972
  20
-682.3102511018
  11
309.357643127441
  21
-595.45943628246
   0
LINE
   5
      19F
 100
AcDbEntity
   8
02-注釈
   6
Continuous
  62
 4
 370
18
 100
AcDbLine
  10
103.665962219238
  20
-322.24692712719
  11
129.303817749023
  21
-366.65297876293
   0
LINE
   5
      1A0
 100
AcDbEntity
   8
02-注釈
   6
Continuous
  62
 4
 370
18
 100
AcDbLine
  10
129.303817749023
  20
-366.65297876293
  11
257.654190063476
  21
-366.65297876293
   0
LINE
   5
      1A1
 100
AcDbEntity
   8
F0-[L0]
   6
Continuous
  62
 7
 370
18
 100
AcDbLine
  10
-38.802871704101
  20
-1683.0657137482
  11
-11.708450317382
  21
-1683.0657137482
   0
LINE
   5
      1A2
 100
AcDbEntity
   8
F0-[L0]
   6
Continuous
  62
 8
 370
18
 100
AcDbLine
  10
-38.802871704101
  20
-2193.0655611603
  11
1411.19712829589
  21
-2193.0655611603
   0
LINE
   5
      1A3
 100
AcDbEntity
   8
F0-[L0]
   6
Continuous
  62
 8
 370
18
 100
AcDbLine
  10
1411.19712829589
  20
-1173.0657137482
  11
-38.802871704101
  21
-1173.0657137482
   0
LINE
   5
      1A4
 100
AcDbEntity
   8
F0-[L0]
   6
Continuous
  62
 8
 370
18
 100
AcDbLine
  10
-38.802871704101
  20
-1173.0657137482
  11
-38.802871704101
  21
-2193.0655611603
   0
LINE
   5
      1A5
 100
AcDbEntity
   8
F0-[L0]
   6
Continuous
  62
 7
 370
18
 100
AcDbLine
  10
686.170678138732
  20
-1204.3753756135
  11
686.170678138732
  21
-1177.2809542268
   0
LINE
   5
      1A6
 100
AcDbEntity
   8
F0-[L0]
   6
Continuous
  62
 7
 370
18
 100
AcDbLine
  10
686.170678138732
  20
-2188.8495577424
  11
686.170678138732
  21
-2161.7551363557
   0
LINE
   5
      1A7
 100
AcDbEntity
   8
F0-[L0]
   6
Continuous
  62
 7
 370
18
 100
AcDbLine
  10
980.200691223144
  20
-2094.4721163361
  11
980.200691223144
  21
-2161.7551363557
   0
LINE
   5
      1A8
 100
AcDbEntity
   8
F0-[L0]
   6
Continuous
  62
 7
 370
18
 100
AcDbLine
  10
1232.43656158447
  20
-2128.1146944611
  11
1232.43656158447
  21
-2161.7551363557
   0
LINE
   5
      1A9
 100
AcDbEntity
   8
F0-[L0]
   6
Continuous
  62
 7
 370
18
 100
AcDbLine
  10
1136.62361145019
  20
-2128.1146944611
  11
1136.62361145019
  21
-2161.7551363557
   0
LINE
   5
      1AA
 100
AcDbEntity
   8
F0-[L0]
   6
Continuous
  62
 7
 370
18
 100
AcDbLine
  10
980.200691223144
  20
-2128.1146944611
  11
1384.05090332031
  21
-2128.1146944611
   0
LINE
   5
      1AB
 100
AcDbEntity
   8
F0-[L0]
   6
Continuous
  62
 7
 370
18
 100
AcDbLine
  10
1332.68646240234
  20
-2128.1146944611
  11
1332.68646240234
  21
-2161.7551363557
   0
LINE
   5
      1AC
 100
AcDbEntity
   8
F0-[L0]
   6
Continuous
  62
 7
 370
18
 100
AcDbLine
  10
1384.05090332031
  20
-2161.7551363557
  11
686.170678138732
  21
-2161.7551363557
   0
LINE
   5
      1AD
 100
AcDbEntity
   8
F0-[L0]
   6
Continuous
  62
 7
 370
18
 100
AcDbLine
  10
686.170678138732
  20
-2161.7551363557
  11
-11.708450317382
  21
-2161.7551363557
   0
LINE
   5
      1AE
 100
AcDbEntity
   8
F0-[L0]
   6
Continuous
  62
 7
 370
18
 100
AcDbLine
  10
-11.708450317382
  20
-2161.7551363557
  11
-11.708450317382
  21
-1683.0657137482
   0
LINE
   5
      1AF
 100
AcDbEntity
   8
F0-[L0]
   6
Continuous
  62
 7
 370
18
 100
AcDbLine
  10
-11.708450317382
  20
-1683.0657137482
  11
-11.708450317382
  21
-1204.3753756135
   0
LINE
   5
      1B0
 100
AcDbEntity
   8
F0-[L0]
   6
Continuous
  62
 7
 370
18
 100
AcDbLine
  10
-11.708450317382
  20
-1204.3753756135
  11
686.170678138732
  21
-1204.3753756135
   0
LINE
   5
      1B1
 100
AcDbEntity
   8
F0-[L0]
   6
Continuous
  62
 7
 370
18
 100
AcDbLine
  10
686.170678138732
  20
-1204.3753756135
  11
1384.05090332031
  21
-1204.3753756135
   0
LINE
   5
      1B2
 100
AcDbEntity
   8
F0-[L0]
   6
Continuous
  62
 7
 370
18
 100
AcDbLine
  10
1384.05090332031
  20
-1204.3753756135
  11
1384.05090332031
  21
-1683.0657137482
   0
LINE
   5
      1B3
 100
AcDbEntity
   8
F0-[L0]
   6
Continuous
  62
 7
 370
18
 100
AcDbLine
  10
1384.05090332031
  20
-1683.0657137482
  11
1384.05090332031
  21
-2161.7551363557
   0
LINE
   5
      1B4
 100
AcDbEntity
   8
F0-[L0]
   6
Continuous
  62
 8
 370
18
 100
AcDbLine
  10
1411.19712829589
  20
-2193.0655611603
  11
1411.19712829589
  21
-1173.0657137482
   0
LINE
   5
      1B5
 100
AcDbEntity
   8
F0-[L0]
   6
Continuous
  62
 7
 370
18
 100
AcDbLine
  10
1411.14418029785
  20
-1683.0657137482
  11
1384.04983520507
  21
-1683.0657137482
   0
LINE
   5
      1B6
 100
AcDbEntity
   8
F0-[L0]
   6
Continuous
  62
 8
 370
18
 100
AcDbLine
  10
1160.9129333496
  20
-2153.0438936799
  11
1160.9129333496
  21
-2155.4126680939
   0
LINE
   5
      1B7
 100
AcDbEntity
   8
F0-[L0]
   6
Continuous
  62
 7
 370
18
 100
AcDbLine
  10
686.171565055847
  20
-2094.4721163361
  11
686.171565055847
  21
-2161.7551363557
   0
LINE
   5
      1B8
 100
AcDbEntity
   8
F0-[L0]
   6
Continuous
  62
 7
 370
18
 100
AcDbLine
  10
1384.05090332031
  20
-2094.4721163361
  11
-11.708450317382
  21
-2094.4721163361
   0
LINE
   5
      1B9
 100
AcDbEntity
   8
FF-[LF]
   6
Continuous
  62
 7
 370
18
 100
AcDbLine
  10
686.171565055847
  20
-2111.2927950471
  11
-11.708450317382
  21
-2111.2927950471
   0
LINE
   5
      1BA
 100
AcDbEntity
   8
FF-[LF]
   6
Continuous
  62
 7
 370
18
 100
AcDbLine
  10
686.171565055847
  20
-2128.1137789338
  11
-11.708450317382
  21
-2128.1137789338
   0
LINE
   5
      1BB
 100
AcDbEntity
   8
FF-[LF]
   6
Continuous
  62
 7
 370
18
 100
AcDbLine
  10
686.171565055847
  20
-2144.9344576447
  11
-11.708450317382
  21
-2144.9344576447
   0
LINE
   5
      1BC
 100
AcDbEntity
   8
FF-[LF]
   6
Continuous
  62
 7
 370
18
 100
AcDbLine
  10
337.231559753417
  20
-2161.7551363557
  11
337.231559753417
  21
-2094.4721163361
   0
LINE
   5
      1BD
 100
AcDbEntity
   8
F0-[L0]
   6
DASHED1
  62
 8
 370
18
 100
AcDbLine
  10
-38.802871704101
  20
-2193.0655611603
  11
1411.19712829589
  21
-1173.0657137482
   0
LINE
   5
      1BE
 100
AcDbEntity
   8
F0-[L0]
   6
DASHED1
  62
 8
 370
18
 100
AcDbLine
  10
-38.802871704101
  20
-1173.0657137482
  11
1411.19712829589
  21
-2193.0655611603
   0
LINE
   5
      1BF
 100
AcDbEntity
   8
F0-[L0]
   6
DASHED1
  62
 8
 370
18
 100
AcDbLine
  10
-5.2606201171875
  20
-2094.4721163361
  11
-5.2606201171875
  21
-2161.7551363557
   0
LINE
   5
      1C0
 100
AcDbEntity
   8
F0-[L0]
   6
DASHED1
  62
 8
 370
18
 100
AcDbLine
  10
-11.708450317382
  20
-2108.2367647736
  11
686.171565055847
  21
-2108.2367647736
   0
LINE
   5
      1C1
 100
AcDbEntity
   8
F0-[L0]
   6
DASHED1
  62
 8
 370
18
 100
AcDbLine
  10
-11.708450317382
  20
-2125.0574434846
  11
686.171565055847
  21
-2125.0574434846
   0
LINE
   5
      1C2
 100
AcDbEntity
   8
F0-[L0]
   6
DASHED1
  62
 8
 370
18
 100
AcDbLine
  10
-11.708450317382
  20
-2141.8781221955
  11
686.171565055847
  21
-2141.8781221955
   0
LINE
   5
      1C3
 100
AcDbEntity
   8
F0-[L0]
   6
DASHED1
  62
 8
 370
18
 100
AcDbLine
  10
-11.708450317382
  20
-2158.6991060822
  11
686.171565055847
  21
-2158.6991060822
   0
LINE
   5
      1C4
 100
AcDbEntity
   8
F0-[L0]
   6
DASHED1
  62
 8
 370
18
 100
AcDbLine
  10
343.67935180664
  20
-2094.4721163361
  11
343.67935180664
  21
-2161.7551363557
   0
LINE
   5
      1C5
 100
AcDbEntity
   8
F0-[L0]
   6
DASHED1
  62
 8
 370
18
 100
AcDbLine
  10
1045.21780014038
  20
-2152.3407686799
  11
1045.21780014038
  21
-2156.0416353791
   0
LINE
   5
      1C6
 100
AcDbEntity
   8
F0-[L0]
   6
DASHED1
  62
 8
 370
18
 100
AcDbLine
  10
980.200691223144
  20
-2154.4132174103
  11
1332.68646240234
  21
-2154.4132174103
   0
LINE
   5
      1C7
 100
AcDbEntity
   8
F0-[L0]
   6
DASHED1
  62
 8
 370
18
 100
AcDbLine
  10
1254.16732788085
  20
-2153.4015596955
  11
1254.16732788085
  21
-2155.96778284
   0
LINE
   5
      1C8
 100
AcDbEntity
   8
11-[L1]
   6
Continuous
  62
 7
 370
18
 100
AcDbLine
  10
472.413387298583
  20
-1607.9398287385
  11
472.413387298583
  21
-1732.9398287385
   0
LINE
   5
      1C9
 100
AcDbEntity
   8
11-[L1]
   6
Continuous
  62
 51
 370
18
 100
AcDbLine
  10
430.982265472412
  20
-1607.9398287385
  11
461.518535614013
  21
-1607.9398287385
   0
LINE
   5
      1CA
 100
AcDbEntity
   8
11-[L1]
   6
Continuous
  62
 51
 370
18
 100
AcDbLine
  10
430.982265472412
  20
-1732.9398287385
  11
461.518535614013
  21
-1732.9398287385
   0
LINE
   5
      1CB
 100
AcDbEntity
   8
11-[L1]
   6
Continuous
  62
 51
 370
18
 100
AcDbLine
  10
430.982265472412
  20
-1607.9398287385
  11
430.982265472412
  21
-1732.9398287385
   0
LINE
   5
      1CC
 100
AcDbEntity
   8
02-注釈
   6
Continuous
  62
 4
 370
18
 100
AcDbLine
  10
339.298591613769
  20
-1765.2202547639
  11
441.363182067871
  21
-1765.2202547639
   0
LINE
   5
      1CD
 100
AcDbEntity
   8
02-注釈
   6
Continuous
  62
 4
 370
18
 100
AcDbLine
  10
441.363182067871
  20
-1765.2202547639
  11
501.423892974853
  21
-1678.3695162385
   0
LINE
   5
      1CE
 100
AcDbEntity
   8
11-[L1]
   6
Continuous
  62
 7
 370
18
 100
AcDbLine
  10
947.413387298583
  20
-1649.1898287385
  11
947.413387298583
  21
-1691.6898287385
   0
LINE
   5
      1CF
 100
AcDbEntity
   8
01-基本線
   6
DASHED1
  62
 4
 370
18
 100
AcDbLine
  10
125.772857666015
  20
-313.44848047191
  11
130.596008300781
  21
-313.44848047191
   0
LINE
   5
      1D0
 100
AcDbEntity
   8
01-基本線
   6
DASHED1
  62
 4
 370
18
 100
AcDbLine
  10
125.772857666015
  20
-313.44848047191
  11
125.772857666015
  21
-318.27163110668
   0
LINE
   5
      1D1
 100
AcDbEntity
   8
01-基本線
   6
DASHED1
  62
 4
 370
18
 100
AcDbLine
  10
125.772857666015
  20
-313.44848047191
  11
120.949745178222
  21
-313.44848047191
   0
LINE
   5
      1D2
 100
AcDbEntity
   8
01-基本線
   6
DASHED1
  62
 4
 370
18
 100
AcDbLine
  10
125.772857666015
  20
-313.44848047191
  11
125.772857666015
  21
-308.62540613109
   0
LINE
   5
      1D3
 100
AcDbEntity
   8
03-寸法
   6
Continuous
  62
 51
 370
18
 100
AcDbLine
  10
115.772857666015
  20
-288.13369165355
  11
115.772857666015
  21
-298.23531518871
   0
LINE
   5
      1D4
 100
AcDbEntity
   8
03-寸法
   6
Continuous
  62
 51
 370
18
 100
AcDbLine
  10
125.772857666015
  20
-288.13369165355
  11
125.772857666015
  21
-298.23531518871
   0
LINE
   5
      1D5
 100
AcDbEntity
   8
03-寸法
   6
Continuous
  62
 51
 370
18
 100
AcDbLine
  10
115.772857666015
  20
-288.13369165355
  11
125.772857666015
  21
-288.13369165355
   0
LINE
   5
      1D6
 100
AcDbEntity
   8
01-基本線
   6
Continuous
  62
 7
 370
18
 100
AcDbLine
  10
1022.77286529541
  20
-420.27701745922
  11
972.77286529541
  21
-420.27701745922
   0
LINE
   5
      1D7
 100
AcDbEntity
   8
01-基本線
   6
Continuous
  62
 7
 370
18
 100
AcDbLine
  10
972.77286529541
  20
-420.27701745922
  11
972.77286529541
  21
-424.27703271801
   0
LINE
   5
      1D8
 100
AcDbEntity
   8
01-基本線
   6
Continuous
  62
 7
 370
18
 100
AcDbLine
  10
1022.77286529541
  20
-424.27703271801
  11
1022.77286529541
  21
-420.27701745922
   0
LINE
   5
      1D9
 100
AcDbEntity
   8
03-寸法
   6
Continuous
  62
 51
 370
18
 100
AcDbLine
  10
949.997768402099
  20
-420.27701745922
  11
969.892616271972
  21
-420.27701745922
   0
LINE
   5
      1DA
 100
AcDbEntity
   8
03-寸法
   6
Continuous
  62
 51
 370
18
 100
AcDbLine
  10
949.997768402099
  20
-420.27701745922
  11
949.997768402099
  21
-424.27703271801
   0
LINE
   5
      1DB
 100
AcDbEntity
   8
01-基本線
   6
Continuous
  62
 7
 370
18
 100
AcDbLine
  10
1302.2838973999
  20
-420.27701745922
  11
1252.2838973999
  21
-420.27701745922
   0
LINE
   5
      1DC
 100
AcDbEntity
   8
01-基本線
   6
Continuous
  62
 7
 370
18
 100
AcDbLine
  10
1252.2838973999
  20
-420.27701745922
  11
1252.2838973999
  21
-424.27703271801
   0
LINE
   5
      1DD
 100
AcDbEntity
   8
01-基本線
   6
Continuous
  62
 7
 370
18
 100
AcDbLine
  10
1302.2838973999
  20
-424.27703271801
  11
1302.2838973999
  21
-420.27701745922
   0
LINE
   5
      1DE
 100
AcDbEntity
   8
03-寸法
   6
Continuous
  62
 51
 370
18
 100
AcDbLine
  10
1229.50881958007
  20
-420.27701745922
  11
1249.40364837646
  21
-420.27701745922
   0
LINE
   5
      1DF
 100
AcDbEntity
   8
03-寸法
   6
Continuous
  62
 51
 370
18
 100
AcDbLine
  10
1229.50881958007
  20
-420.27701745922
  11
1229.50881958007
  21
-424.27703271801
   0
LINE
   5
      1E0
 100
AcDbEntity
   8
03-寸法
   6
Continuous
  62
 51
 370
18
 100
AcDbLine
  10
1344.90665435791
  20
-420.27701745922
  11
1307.43030548095
  21
-420.27701745922
   0
LINE
   5
      1E1
 100
AcDbEntity
   8
03-寸法
   6
Continuous
  62
 51
 370
18
 100
AcDbLine
  10
1344.90665435791
  20
-420.27701745922
  11
1344.90665435791
  21
-871.27692590648
   0
LINE
   5
      1E2
 100
AcDbEntity
   8
01-基本線
   6
Continuous
  62
 7
 370
18
 100
AcDbLine
  10
1067.78392791748
  20
-869.12696252758
  11
1067.78392791748
  21
-856.42707239086
   0
LINE
   5
      1E3
 100
AcDbEntity
   8
01-基本線
   6
Continuous
  62
 7
 370
18
 100
AcDbLine
  10
1117.78392791748
  20
-856.42707239086
  11
1067.78392791748
  21
-856.42707239086
   0
LINE
   5
      1E4
 100
AcDbEntity
   8
01-基本線
   6
Continuous
  62
 7
 370
18
 100
AcDbLine
  10
1117.78392791748
  20
-869.12696252758
  11
1067.78392791748
  21
-869.12696252758
   0
LINE
   5
      1E5
 100
AcDbEntity
   8
03-寸法
   6
Continuous
  62
 51
 370
18
 100
AcDbLine
  10
1067.78392791748
  20
-906.41211877758
  11
1067.78392791748
  21
-881.76307092601
   0
LINE
   5
      1E6
 100
AcDbEntity
   8
03-寸法
   6
Continuous
  62
 51
 370
18
 100
AcDbLine
  10
1117.78392791748
  20
-906.41211877758
  11
1117.78392791748
  21
-881.76307092601
   0
LINE
   5
      1E7
 100
AcDbEntity
   8
03-寸法
   6
Continuous
  62
 51
 370
18
 100
AcDbLine
  10
1067.78392791748
  20
-906.41211877758
  11
1117.78392791748
  21
-906.41211877758
   0
LINE
   5
      1E8
 100
AcDbEntity
   8
01-基本線
   6
DASHED1
  62
 7
 370
18
 100
AcDbLine
  10
1117.78392791748
  20
-869.12696252758
  11
1167.78392791748
  21
-869.12696252758
   0
LINE
   5
      1E9
 100
AcDbEntity
   8
01-基本線
   6
DASHED1
  62
 7
 370
18
 100
AcDbLine
  10
1167.78392791748
  20
-856.42707239086
  11
1167.78392791748
  21
-869.12696252758
   0
LINE
   5
      1EA
 100
AcDbEntity
   8
01-基本線
   6
DASHED1
  62
 7
 370
18
 100
AcDbLine
  10
1117.78392791748
  20
-856.42707239086
  11
1167.78392791748
  21
-856.42707239086
   0
LINE
   5
      1EB
 100
AcDbEntity
   8
03-寸法
   6
Continuous
  62
 51
 370
18
 100
AcDbLine
  10
1117.78392791748
  20
-906.41211877758
  11
1117.78392791748
  21
-881.76307092601
   0
LINE
   5
      1EC
 100
AcDbEntity
   8
03-寸法
   6
Continuous
  62
 51
 370
18
 100
AcDbLine
  10
1167.78392791748
  20
-906.41211877758
  11
1167.78392791748
  21
-881.76307092601
   0
LINE
   5
      1ED
 100
AcDbEntity
   8
03-寸法
   6
Continuous
  62
 51
 370
18
 100
AcDbLine
  10
1117.78392791748
  20
-906.41211877758
  11
1167.78392791748
  21
-906.41211877758
   0
LINE
   5
      1EE
 100
AcDbEntity
   8
03-寸法
   6
Continuous
  62
 51
 370
18
 100
AcDbLine
  10
1205.80852508544
  20
-854.27695642406
  11
1205.80852508544
  21
-871.27692590648
   0
LINE
   5
      1EF
 100
AcDbEntity
   8
02-注釈
   6
Continuous
  62
 4
 370
18
 100
AcDbLine
  10
1089.64275360107
  20
-857.90046106273
  11
1127.03300476074
  21
-793.13865076
   0
LINE
   5
      1F0
 100
AcDbEntity
   8
02-注釈
   6
Continuous
  62
 4
 370
18
 100
AcDbLine
  10
1127.03300476074
  20
-793.13865076
  11
1246.19758605957
  21
-793.13865076
   0
LINE
   5
      1F1
 100
AcDbEntity
   8
11-[L1]
   6
Continuous
  62
 51
 370
18
 100
AcDbLine
  10
280.347137451171
  20
-486.5199221223
  11
280.347137451171
  21
-522.6658571809
   0
LINE
   5
      1F2
 100
AcDbEntity
   8
11-[L1]
   6
Continuous
  62
 51
 370
18
 100
AcDbLine
  10
342.847137451171
  20
-486.5199221223
  11
342.847137451171
  21
-522.6658571809
   0
LINE
   5
      1F3
 100
AcDbEntity
   8
11-[L1]
   6
Continuous
  62
 51
 370
18
 100
AcDbLine
  10
280.347137451171
  20
-486.5199221223
  11
342.847137451171
  21
-486.5199221223
   0
LINE
   5
      1F4
 100
AcDbEntity
   8
11-[L1]
   6
DASHED1
  62
 4
 370
18
 100
AcDbLine
  10
897.41337776184
  20
-1670.4398287385
  11
909.471187591552
  21
-1670.4398287385
   0
LINE
   5
      1F5
 100
AcDbEntity
   8
11-[L1]
   6
DASHED1
  62
 4
 370
18
 100
AcDbLine
  10
897.41337776184
  20
-1670.4398287385
  11
897.41337776184
  21
-1682.4976290314
   0
LINE
   5
      1F6
 100
AcDbEntity
   8
11-[L1]
   6
DASHED1
  62
 4
 370
18
 100
AcDbLine
  10
897.41337776184
  20
-1670.4398287385
  11
885.355577468872
  21
-1670.4398287385
   0
LINE
   5
      1F7
 100
AcDbEntity
   8
11-[L1]
   6
DASHED1
  62
 4
 370
18
 100
AcDbLine
  10
897.41337776184
  20
-1670.4398287385
  11
897.41337776184
  21
-1658.3820284455
   0
LINE
   5
      1F8
 100
AcDbEntity
   8
12-[L2]
   6
Continuous
  62
 4
 370
18
 100
AcDbLine
  10
900.880012512207
  20
-1667.2078646271
  11
961.943378448486
  21
-1561.4429415314
   0
LINE
   5
      1F9
 100
AcDbEntity
   8
12-[L2]
   6
Continuous
  62
 4
 370
18
 100
AcDbLine
  10
961.943378448486
  20
-1561.4429415314
  11
994.757404327392
  21
-1561.4429415314
   0
LINE
   5
      1FA
 100
AcDbEntity
   8
11-[L1]
   6
Continuous
  62
 51
 370
18
 100
AcDbLine
  10
472.413387298583
  20
-1806.9414461701
  11
472.413387298583
  21
-1733.3116854279
   0
LINE
   5
      1FB
 100
AcDbEntity
   8
11-[L1]
   6
Continuous
  62
 51
 370
18
 100
AcDbLine
  10
947.413387298583
  20
-1806.9414461701
  11
947.413387298583
  21
-1733.3116854279
   0
LINE
   5
      1FC
 100
AcDbEntity
   8
11-[L1]
   6
Continuous
  62
 51
 370
18
 100
AcDbLine
  10
472.413387298583
  20
-1806.9414461701
  11
947.413387298583
  21
-1806.9414461701
   0
LINE
   5
      1FD
 100
AcDbEntity
   8
12-[L2]
   6
Continuous
  62
 51
 370
18
 100
AcDbLine
  10
947.413387298583
  20
-1753.4795321076
  11
947.413387298583
  21
-1710.0105990021
   0
LINE
   5
      1FE
 100
AcDbEntity
   8
12-[L2]
   6
Continuous
  62
 51
 370
18
 100
AcDbLine
  10
897.41337776184
  20
-1753.4795321076
  11
897.41337776184
  21
-1710.0105990021
   0
LINE
   5
      1FF
 100
AcDbEntity
   8
12-[L2]
   6
Continuous
  62
 51
 370
18
 100
AcDbLine
  10
947.413387298583
  20
-1753.4795321076
  11
897.41337776184
  21
-1753.4795321076
   0
LINE
   5
      200
 100
AcDbEntity
   8
11-[L1]
   6
Continuous
  62
 7
 370
18
 100
AcDbLine
  10
482.413387298583
  20
-1607.9398287385
  11
482.413387298583
  21
-1732.9398287385
   0
LINE
   5
      201
 100
AcDbEntity
   8
11-[L1]
   6
Continuous
  62
 7
 370
18
 100
AcDbLine
  10
472.413387298583
  20
-1607.9398287385
  11
482.413387298583
  21
-1607.9398287385
   0
LINE
   5
      202
 100
AcDbEntity
   8
11-[L1]
   6
Continuous
  62
 7
 370
18
 100
AcDbLine
  10
472.413387298583
  20
-1732.9398287385
  11
482.413387298583
  21
-1732.9398287385
   0
LINE
   5
      203
 100
AcDbEntity
   8
11-[L1]
   6
Continuous
  62
 7
 370
18
 100
AcDbLine
  10
482.413387298583
  20
-1691.6898287385
  11
947.413387298583
  21
-1691.6898287385
   0
LINE
   5
      204
 100
AcDbEntity
   8
11-[L1]
   6
Continuous
  62
 7
 370
18
 100
AcDbLine
  10
482.413387298583
  20
-1649.1898287385
  11
947.413387298583
  21
-1649.1898287385
   0
LINE
   5
      205
 100
AcDbEntity
   8
11-[L1]
   6
Continuous
  62
 51
 370
18
 100
AcDbLine
  10
472.413387298583
  20
-1586.3507784455
  11
472.413387298583
  21
-1605.1647127717
   0
LINE
   5
      206
 100
AcDbEntity
   8
11-[L1]
   6
Continuous
  62
 51
 370
18
 100
AcDbLine
  10
947.413387298583
  20
-1586.3507784455
  11
947.413387298583
  21
-1631.6525972932
   0
LINE
   5
      207
 100
AcDbEntity
   8
11-[L1]
   6
Continuous
  62
 51
 370
18
 100
AcDbLine
  10
472.413387298583
  20
-1586.3507784455
  11
482.413387298583
  21
-1586.3507784455
   0
LINE
   5
      208
 100
AcDbEntity
   8
11-[L1]
   6
Continuous
  62
 51
 370
18
 100
AcDbLine
  10
482.413387298583
  20
-1586.3507784455
  11
482.413387298583
  21
-1605.5759371369
   0
LINE
   5
      209
 100
AcDbEntity
   8
11-[L1]
   6
Continuous
  62
 51
 370
18
 100
AcDbLine
  10
482.413387298583
  20
-1586.3507784455
  11
947.413387298583
  21
-1586.3507784455
   0
LINE
   5
      20A
 100
AcDbEntity
   8
01-基本線
   6
Continuous
  62
 7
 370
18
 100
AcDbLine
  10
989.272861480712
  20
-814.27695642406
  11
989.272861480712
  21
-424.27703271801
   0
LINE
   5
      20B
 100
AcDbEntity
   8
01-基本線
   6
Continuous
  62
 7
 370
18
 100
AcDbLine
  10
949.272861480712
  20
-854.27695642406
  11
838.272867202758
  21
-854.27695642406
   0
LINE
   5
      20C
 100
AcDbEntity
   8
01-基本線
   6
Continuous
  62
 7
 370
18
 100
AcDbLine
  10
949.272861480712
  20
-871.27692590648
  11
838.272867202758
  21
-871.27692590648
   0
LINE
   5
      20D
 100
AcDbEntity
   8
01-基本線
   6
Continuous
  62
 7
 370
18
 100
AcDbLine
  10
1006.2728691101
  20
-424.27703271801
  11
1006.2728691101
  21
-814.27695642406
   0
LINE
   5
      20E
 100
AcDbEntity
   8
00-基準線
   6
CENTER1
  62
 4
 370
18
 100
AcDbLine
  10
997.77286529541
  20
-814.27695642406
  11
997.77286529541
  21
-414.83725915844
   0
LINE
   5
      20F
 100
AcDbEntity
   8
00-基準線
   6
CENTER1
  62
 4
 370
18
 100
AcDbLine
  10
949.272861480712
  20
-862.77701745922
  11
838.272867202758
  21
-862.77701745922
   0
LINE
   5
      210
 100
AcDbEntity
   8
00-基準線
   6
CENTER1
  62
 4
 370
18
 100
AcDbLine
  10
1277.2838973999
  20
-414.83725915844
  11
1277.2838973999
  21
-814.27695642406
   0
LINE
   5
      211
 100
AcDbEntity
   8
01-基本線
   6
Continuous
  62
 7
 370
18
 100
AcDbLine
  10
1285.78392028808
  20
-424.27703271801
  11
1285.78392028808
  21
-814.27695642406
   0
LINE
   5
      212
 100
AcDbEntity
   8
01-基本線
   6
Continuous
  62
 7
 370
18
 100
AcDbLine
  10
1268.78391265869
  20
-814.27695642406
  11
1268.78391265869
  21
-424.27703271801
   0
LINE
   5
      213
 100
AcDbEntity
   8
01-基本線
   6
Continuous
  62
 7
 370
18
 100
AcDbLine
  10
1228.78391265869
  20
-854.27695642406
  11
1117.78392791748
  21
-854.27695642406
   0
LINE
   5
      214
 100
AcDbEntity
   8
01-基本線
   6
Continuous
  62
 7
 370
18
 100
AcDbLine
  10
1228.78391265869
  20
-871.27692590648
  11
1117.78392791748
  21
-871.27692590648
   0
LINE
   5
      215
 100
AcDbEntity
   8
00-基準線
   6
CENTER1
  62
 4
 370
18
 100
AcDbLine
  10
1067.78392791748
  20
-862.77701745922
  11
1228.78391265869
  21
-862.77701745922
   0
LINE
   5
      216
 100
AcDbEntity
   8
03-寸法
   6
Continuous
  62
 51
 370
18
 100
AcDbLine
  10
949.272861480712
  20
-814.27695642406
  11
989.272861480712
  21
-814.27695642406
   0
LINE
   5
      217
 100
AcDbEntity
   8
01-基本線
   6
Continuous
  62
 7
 370
18
 100
AcDbLine
  10
62.7729034423828
  20
687.617326870611
  11
112.77286529541
  21
687.617326870611
   0
LINE
   5
      218
 100
AcDbEntity
   8
01-基本線
   6
Continuous
  62
 7
 370
18
 100
AcDbLine
  10
112.77286529541
  20
687.617326870611
  11
112.77286529541
  21
683.617321148565
   0
LINE
   5
      219
 100
AcDbEntity
   8
01-基本線
   6
Continuous
  62
 7
 370
18
 100
AcDbLine
  10
62.7729034423828
  20
683.617321148565
  11
62.7729034423828
  21
687.617326870611
   0
LINE
   5
      21A
 100
AcDbEntity
   8
00-基準線
   6
CENTER1
  62
 4
 370
18
 100
AcDbLine
  10
87.7729034423828
  20
693.057047024419
  11
87.7729034423828
  21
283.617330685308
   0
LINE
   5
      21B
 100
AcDbEntity
   8
01-基本線
   6
Continuous
  62
 7
 370
18
 100
AcDbLine
  10
1022.77286529541
  20
687.617326870611
  11
972.77286529541
  21
687.617326870611
   0
LINE
   5
      21C
 100
AcDbEntity
   8
01-基本線
   6
Continuous
  62
 7
 370
18
 100
AcDbLine
  10
972.77286529541
  20
687.617326870611
  11
972.77286529541
  21
683.617321148565
   0
LINE
   5
      21D
 100
AcDbEntity
   8
01-基本線
   6
Continuous
  62
 7
 370
18
 100
AcDbLine
  10
1022.77286529541
  20
683.617321148565
  11
1022.77286529541
  21
687.617326870611
   0
LINE
   5
      21E
 100
AcDbEntity
   8
03-寸法
   6
Continuous
  62
 51
 370
18
 100
AcDbLine
  10
949.997768402099
  20
687.617326870611
  11
969.892616271972
  21
687.617326870611
   0
LINE
   5
      21F
 100
AcDbEntity
   8
03-寸法
   6
Continuous
  62
 51
 370
18
 100
AcDbLine
  10
949.997768402099
  20
687.617326870611
  11
949.997768402099
  21
683.617321148565
   0
LINE
   5
      220
 100
AcDbEntity
   8
01-基本線
   6
Continuous
  62
 7
 370
18
 100
AcDbLine
  10
1302.2838973999
  20
687.617326870611
  11
1252.2838973999
  21
687.617326870611
   0
LINE
   5
      221
 100
AcDbEntity
   8
01-基本線
   6
Continuous
  62
 7
 370
18
 100
AcDbLine
  10
1252.2838973999
  20
687.617326870611
  11
1252.2838973999
  21
683.617321148565
   0
LINE
   5
      222
 100
AcDbEntity
   8
01-基本線
   6
Continuous
  62
 7
 370
18
 100
AcDbLine
  10
1302.2838973999
  20
683.617321148565
  11
1302.2838973999
  21
687.617326870611
   0
LINE
   5
      223
 100
AcDbEntity
   8
03-寸法
   6
Continuous
  62
 51
 370
18
 100
AcDbLine
  10
1229.50881958007
  20
687.617326870611
  11
1249.40364837646
  21
687.617326870611
   0
LINE
   5
      224
 100
AcDbEntity
   8
03-寸法
   6
Continuous
  62
 51
 370
18
 100
AcDbLine
  10
1229.50881958007
  20
687.617326870611
  11
1229.50881958007
  21
683.617321148565
   0
LINE
   5
      225
 100
AcDbEntity
   8
03-寸法
   6
Continuous
  62
 51
 370
18
 100
AcDbLine
  10
1344.90665435791
  20
687.617326870611
  11
1307.43030548095
  21
687.617326870611
   0
LINE
   5
      226
 100
AcDbEntity
   8
03-寸法
   6
Continuous
  62
 51
 370
18
 100
AcDbLine
  10
1344.90665435791
  20
687.617326870611
  11
1344.90665435791
  21
236.617323055913
   0
LINE
   5
      227
 100
AcDbEntity
   8
03-寸法
   6
Continuous
  62
 51
 370
18
 100
AcDbLine
  10
62.7729034423828
  20
718.462339535406
  11
62.7729034423828
  21
700.41819204395
   0
LINE
   5
      228
 100
AcDbEntity
   8
03-寸法
   6
Continuous
  62
 51
 370
18
 100
AcDbLine
  10
112.77286529541
  20
718.462339535406
  11
112.77286529541
  21
700.41819204395
   0
LINE
   5
      229
 100
AcDbEntity
   8
03-寸法
   6
Continuous
  62
 51
 370
18
 100
AcDbLine
  10
62.7729034423828
  20
718.462339535406
  11
112.77286529541
  21
718.462339535406
   0
LINE
   5
      22A
 100
AcDbEntity
   8
01-基本線
   6
Continuous
  62
 7
 370
18
 100
AcDbLine
  10
1117.78392791748
  20
253.617330685308
  11
1117.78392791748
  21
236.617323055913
   0
LINE
   5
      22B
 100
AcDbEntity
   8
01-基本線
   6
Continuous
  62
 7
 370
18
 100
AcDbLine
  10
1067.78392791748
  20
238.767324581792
  11
1067.78392791748
  21
251.467329159429
   0
LINE
   5
      22C
 100
AcDbEntity
   8
01-基本線
   6
Continuous
  62
 7
 370
18
 100
AcDbLine
  10
1117.78392791748
  20
251.467329159429
  11
1067.78392791748
  21
251.467329159429
   0
LINE
   5
      22D
 100
AcDbEntity
   8
01-基本線
   6
Continuous
  62
 7
 370
18
 100
AcDbLine
  10
1117.78392791748
  20
238.767324581792
  11
1067.78392791748
  21
238.767324581792
   0
LINE
   5
      22E
 100
AcDbEntity
   8
03-寸法
   6
Continuous
  62
 51
 370
18
 100
AcDbLine
  10
1067.78392791748
  20
201.482168331792
  11
1067.78392791748
  21
226.131235256841
   0
LINE
   5
      22F
 100
AcDbEntity
   8
03-寸法
   6
Continuous
  62
 51
 370
18
 100
AcDbLine
  10
1117.78392791748
  20
201.482168331792
  11
1117.78392791748
  21
226.131235256841
   0
LINE
   5
      230
 100
AcDbEntity
   8
03-寸法
   6
Continuous
  62
 51
 370
18
 100
AcDbLine
  10
1067.78392791748
  20
201.482168331792
  11
1117.78392791748
  21
201.482168331792
   0
LINE
   5
      231
 100
AcDbEntity
   8
01-基本線
   6
DASHED1
  62
 7
 370
18
 100
AcDbLine
  10
1117.78392791748
  20
238.767324581792
  11
1167.78392791748
  21
238.767324581792
   0
LINE
   5
      232
 100
AcDbEntity
   8
01-基本線
   6
DASHED1
  62
 7
 370
18
 100
AcDbLine
  10
1167.78392791748
  20
251.467329159429
  11
1167.78392791748
  21
238.767324581792
   0
LINE
   5
      233
 100
AcDbEntity
   8
01-基本線
   6
DASHED1
  62
 7
 370
18
 100
AcDbLine
  10
1117.78392791748
  20
251.467329159429
  11
1167.78392791748
  21
251.467329159429
   0
LINE
   5
      234
 100
AcDbEntity
   8
03-寸法
   6
Continuous
  62
 51
 370
18
 100
AcDbLine
  10
1117.78392791748
  20
201.482168331792
  11
1117.78392791748
  21
226.131235256841
   0
LINE
   5
      235
 100
AcDbEntity
   8
03-寸法
   6
Continuous
  62
 51
 370
18
 100
AcDbLine
  10
1167.78392791748
  20
201.482168331792
  11
1167.78392791748
  21
226.131235256841
   0
LINE
   5
      236
 100
AcDbEntity
   8
03-寸法
   6
Continuous
  62
 51
 370
18
 100
AcDbLine
  10
1117.78392791748
  20
201.482168331792
  11
1167.78392791748
  21
201.482168331792
   0
LINE
   5
      237
 100
AcDbEntity
   8
03-寸法
   6
Continuous
  62
 51
 370
18
 100
AcDbLine
  10
1205.80852508544
  20
253.617330685308
  11
1205.80852508544
  21
236.617323055913
   0
LINE
   5
      238
 100
AcDbEntity
   8
02-注釈
   6
Continuous
  62
 4
 370
18
 100
AcDbLine
  10
1089.64275360107
  20
249.99380697315
  11
1127.03300476074
  21
314.755598202398
   0
LINE
   5
      239
 100
AcDbEntity
   8
02-注釈
   6
Continuous
  62
 4
 370
18
 100
AcDbLine
  10
1127.03300476074
  20
314.755598202398
  11
1246.19758605957
  21
314.755598202398
   0
LINE
   5
      23A
 100
AcDbEntity
   8
00-基準線
   6
CENTER1
  62
 4
 370
18
 100
AcDbLine
  10
1067.78392791748
  20
245.117326870611
  11
1228.78391265869
  21
245.117326870611
   0
LINE
   5
      23B
 100
AcDbEntity
   8
03-寸法
   6
Continuous
  62
 51
 370
18
 100
AcDbLine
  10
949.272861480712
  20
293.617330685308
  11
989.272861480712
  21
293.617330685308
   0
LINE
   5
      23C
 100
AcDbEntity
   8
01-基本線
   6
Continuous
  62
 7
 370
18
 100
AcDbLine
  10
949.272861480712
  20
253.617330685308
  11
838.272867202758
  21
253.617330685308
   0
LINE
   5
      23D
 100
AcDbEntity
   8
00-基準線
   6
CENTER1
  62
 4
 370
18
 100
AcDbLine
  10
838.272867202758
  20
245.117326870611
  11
949.272861480712
  21
245.117326870611
   0
LINE
   5
      23E
 100
AcDbEntity
   8
01-基本線
   6
Continuous
  62
 7
 370
18
 100
AcDbLine
  10
949.272861480712
  20
236.617323055913
  11
838.272867202758
  21
236.617323055913
   0
LINE
   5
      23F
 100
AcDbEntity
   8
01-基本線
   6
Continuous
  62
 7
 370
18
 100
AcDbLine
  10
989.272861480712
  20
293.617330685308
  11
989.272861480712
  21
683.617321148565
   0
LINE
   5
      240
 100
AcDbEntity
   8
00-基準線
   6
CENTER1
  62
 4
 370
18
 100
AcDbLine
  10
997.77286529541
  20
693.057047024419
  11
997.77286529541
  21
293.617330685308
   0
LINE
   5
      241
 100
AcDbEntity
   8
01-基本線
   6
Continuous
  62
 7
 370
18
 100
AcDbLine
  10
1006.2728691101
  20
683.617321148565
  11
1006.2728691101
  21
293.617330685308
   0
LINE
   5
      242
 100
AcDbEntity
   8
01-基本線
   6
Continuous
  62
 7
 370
18
 100
AcDbLine
  10
1268.78391265869
  20
293.617330685308
  11
1268.78391265869
  21
683.617321148565
   0
LINE
   5
      243
 100
AcDbEntity
   8
00-基準線
   6
CENTER1
  62
 4
 370
18
 100
AcDbLine
  10
1277.2838973999
  20
693.057047024419
  11
1277.2838973999
  21
293.617330685308
   0
LINE
   5
      244
 100
AcDbEntity
   8
01-基本線
   6
Continuous
  62
 7
 370
18
 100
AcDbLine
  10
1285.78392028808
  20
683.617321148565
  11
1285.78392028808
  21
293.617330685308
   0
LINE
   5
      245
 100
AcDbEntity
   8
01-基本線
   6
Continuous
  62
 7
 370
18
 100
AcDbLine
  10
1228.78391265869
  20
253.617330685308
  11
1117.78392791748
  21
253.617330685308
   0
LINE
   5
      246
 100
AcDbEntity
   8
00-基準線
   6
CENTER1
  62
 4
 370
18
 100
AcDbLine
  10
1067.78392791748
  20
245.117326870611
  11
1228.78391265869
  21
245.117326870611
   0
LINE
   5
      247
 100
AcDbEntity
   8
01-基本線
   6
Continuous
  62
 7
 370
18
 100
AcDbLine
  10
1228.78391265869
  20
236.617323055913
  11
1117.78392791748
  21
236.617323055913
   0
ARC
   5
      248
 100
AcDbEntity
   8
01-基本線
   6
Continuous
  62
 7
 100
AcDbCircle
  10
87.7729034423828
  20
794.445825710943
  40
8.50000023841857
 100
AcDbArc
  50
90.
  51
270.
   0
ARC
   5
      249
 100
AcDbEntity
   8
01-基本線
   6
Continuous
  62
 7
 100
AcDbCircle
  10
87.7729034423828
  20
794.445825710943
  40
25.
 100
AcDbArc
  50
19.8768740700788
  51
340.123125929921
   0
ARC
   5
      24A
 100
AcDbEntity
   8
01-基本線
   6
Continuous
  62
 7
 100
AcDbCircle
  10
87.7729034423828
  20
811.445814266851
  40
2.24999994039535
 100
AcDbArc
  50
0.
  51
360.
   0
ARC
   5
      24B
 100
AcDbEntity
   8
01-基本線
   6
Continuous
  62
 7
 100
AcDbCircle
  10
87.7729034423828
  20
811.445814266851
  40
4.00000005960464
 100
AcDbArc
  50
0.
  51
360.
   0
ARC
   5
      24C
 100
AcDbEntity
   8
01-基本線
   6
Continuous
  62
 7
 100
AcDbCircle
  10
70.7728576660156
  20
794.445825710943
  40
2.24999994039535
 100
AcDbArc
  50
90.
  51
450.
   0
ARC
   5
      24D
 100
AcDbEntity
   8
01-基本線
   6
Continuous
  62
 7
 100
AcDbCircle
  10
70.7728576660156
  20
794.445825710943
  40
4.00000005960464
 100
AcDbArc
  50
90.
  51
450.
   0
ARC
   5
      24E
 100
AcDbEntity
   8
01-基本線
   6
Continuous
  62
 7
 100
AcDbCircle
  10
87.7729034423828
  20
777.445818081548
  40
2.24999994039535
 100
AcDbArc
  50
180.
  51
540.
   0
ARC
   5
      24F
 100
AcDbEntity
   8
01-基本線
   6
Continuous
  62
 7
 100
AcDbCircle
  10
87.7729034423828
  20
777.445818081548
  40
4.00000005960464
 100
AcDbArc
  50
180.
  51
540.
   0
ARC
   5
      250
 100
AcDbEntity
   8
01-基本線
   6
Continuous
  62
 7
 100
AcDbCircle
  10
257.272872924804
  20
794.445825710943
  40
3.24999988079071
 100
AcDbArc
  50
0.
  51
360.
   0
ARC
   5
      251
 100
AcDbEntity
   8
01-基本線
   6
Continuous
  62
 7
 100
AcDbCircle
  10
997.77286529541
  20
794.445825710943
  40
8.50000023841857
 100
AcDbArc
  50
270.
  51
450.
   0
ARC
   5
      252
 100
AcDbEntity
   8
01-基本線
   6
Continuous
  62
 7
 100
AcDbCircle
  10
997.77286529541
  20
794.445825710943
  40
25.
 100
AcDbArc
  50
199.876874070078
  51
160.123125929921
   0
ARC
   5
      253
 100
AcDbEntity
   8
01-基本線
   6
Continuous
  62
 7
 100
AcDbCircle
  10
997.77286529541
  20
811.445814266851
  40
2.24999994039535
 100
AcDbArc
  50
90.
  51
450.
   0
ARC
   5
      254
 100
AcDbEntity
   8
01-基本線
   6
Continuous
  62
 7
 100
AcDbCircle
  10
997.77286529541
  20
811.445814266851
  40
4.00000005960464
 100
AcDbArc
  50
90.
  51
450.
   0
ARC
   5
      255
 100
AcDbEntity
   8
01-基本線
   6
Continuous
  62
 7
 100
AcDbCircle
  10
1014.7728729248
  20
794.445825710943
  40
2.24999994039535
 100
AcDbArc
  50
45.
  51
405.
   0
ARC
   5
      256
 100
AcDbEntity
   8
01-基本線
   6
Continuous
  62
 7
 100
AcDbCircle
  10
1014.7728729248
  20
794.445825710943
  40
4.00000005960464
 100
AcDbArc
  50
45.
  51
405.
   0
ARC
   5
      257
 100
AcDbEntity
   8
01-基本線
   6
Continuous
  62
 7
 100
AcDbCircle
  10
997.77286529541
  20
777.445818081548
  40
2.24999994039535
 100
AcDbArc
  50
0.
  51
360.
   0
ARC
   5
      258
 100
AcDbEntity
   8
01-基本線
   6
Continuous
  62
 7
 100
AcDbCircle
  10
997.77286529541
  20
777.445818081548
  40
4.00000005960464
 100
AcDbArc
  50
0.
  51
360.
   0
ARC
   5
      259
 100
AcDbEntity
   8
01-基本線
   6
Continuous
  62
 7
 100
AcDbCircle
  10
828.272867202758
  20
794.445825710943
  40
3.24999988079071
 100
AcDbArc
  50
90.
  51
450.
   0
ARC
   5
      25A
 100
AcDbEntity
   8
01-基本線
   6
Continuous
  62
 7
 100
AcDbCircle
  10
126.272888183593
  20
283.617330685308
  40
30.
 100
AcDbArc
  50
180.
  51
270.
   0
ARC
   5
      25B
 100
AcDbEntity
   8
01-基本線
   6
Continuous
  62
 7
 100
AcDbCircle
  10
126.272888183593
  20
283.617330685308
  40
46.9999980926513
 100
AcDbArc
  50
180.
  51
270.
   0
ARC
   5
      25C
 100
AcDbEntity
   8
00-基準線
   6
CENTER1
  62
 4
 100
AcDbCircle
  10
126.272888183593
  20
283.617330685308
  40
38.4999990463256
 100
AcDbArc
  50
180.
  51
270.
   0
ARC
   5
      25D
 100
AcDbEntity
   8
11-[L1]
   6
Continuous
  62
 7
 100
AcDbCircle
  10
1243.45321655273
  20
879.874120846441
  40
62.5
 100
AcDbArc
  50
0.
  51
360.
   0
ARC
   5
      25E
 100
AcDbEntity
   8
11-[L1]
   6
Continuous
  62
 7
 100
AcDbCircle
  10
1243.45321655273
  20
922.374120846441
  40
5.625
 100
AcDbArc
  50
0.
  51
360.
   0
ARC
   5
      25F
 100
AcDbEntity
   8
11-[L1]
   6
Continuous
  62
 7
 100
AcDbCircle
  10
1243.45321655273
  20
922.374120846441
  40
10.
 100
AcDbArc
  50
0.
  51
360.
   0
ARC
   5
      260
 100
AcDbEntity
   8
11-[L1]
   6
Continuous
  62
 7
 100
AcDbCircle
  10
1200.95321655273
  20
879.874120846441
  40
5.625
 100
AcDbArc
  50
90.
  51
450.
   0
ARC
   5
      261
 100
AcDbEntity
   8
11-[L1]
   6
Continuous
  62
 7
 100
AcDbCircle
  10
1200.95321655273
  20
879.874120846441
  40
10.
 100
AcDbArc
  50
90.
  51
450.
   0
ARC
   5
      262
 100
AcDbEntity
   8
11-[L1]
   6
Continuous
  62
 7
 100
AcDbCircle
  10
1243.45321655273
  20
837.374101772954
  40
5.625
 100
AcDbArc
  50
180.
  51
540.
   0
ARC
   5
      263
 100
AcDbEntity
   8
11-[L1]
   6
Continuous
  62
 7
 100
AcDbCircle
  10
1243.45321655273
  20
837.374101772954
  40
10.
 100
AcDbArc
  50
180.
  51
540.
   0
ARC
   5
      264
 100
AcDbEntity
   8
11-[L1]
   6
Continuous
  62
 7
 100
AcDbCircle
  10
1285.95321655273
  20
879.874120846441
  40
5.625
 100
AcDbArc
  50
-90.
  51
270.
   0
ARC
   5
      265
 100
AcDbEntity
   8
11-[L1]
   6
Continuous
  62
 7
 100
AcDbCircle
  10
1285.95321655273
  20
879.874120846441
  40
10.
 100
AcDbArc
  50
-90.
  51
270.
   0
ARC
   5
      266
 100
AcDbEntity
   8
11-[L1]
   6
Continuous
  62
 7
 100
AcDbCircle
  10
1243.45321655273
  20
879.874120846441
  40
21.25
 100
AcDbArc
  50
270.
  51
90.
   0
ARC
   5
      267
 100
AcDbEntity
   8
01-基本線
   6
Continuous
  62
 7
 100
AcDbCircle
  10
997.77286529541
  20
-313.44848047191
  40
8.50000023841857
 100
AcDbArc
  50
270.
  51
450.
   0
ARC
   5
      268
 100
AcDbEntity
   8
01-基本線
   6
Continuous
  62
 7
 100
AcDbCircle
  10
997.77286529541
  20
-313.44848047191
  40
25.
 100
AcDbArc
  50
199.876874070078
  51
160.123125929921
   0
ARC
   5
      269
 100
AcDbEntity
   8
01-基本線
   6
Continuous
  62
 7
 100
AcDbCircle
  10
997.77286529541
  20
-296.44851098949
  40
2.24999994039535
 100
AcDbArc
  50
90.
  51
450.
   0
ARC
   5
      26A
 100
AcDbEntity
   8
01-基本線
   6
Continuous
  62
 7
 100
AcDbCircle
  10
997.77286529541
  20
-296.44851098949
  40
4.00000005960464
 100
AcDbArc
  50
90.
  51
450.
   0
ARC
   5
      26B
 100
AcDbEntity
   8
01-基本線
   6
Continuous
  62
 7
 100
AcDbCircle
  10
1014.7728729248
  20
-313.44848047191
  40
2.24999994039535
 100
AcDbArc
  50
45.
  51
405.
   0
ARC
   5
      26C
 100
AcDbEntity
   8
01-基本線
   6
Continuous
  62
 7
 100
AcDbCircle
  10
1014.7728729248
  20
-313.44848047191
  40
4.00000005960464
 100
AcDbArc
  50
45.
  51
405.
   0
ARC
   5
      26D
 100
AcDbEntity
   8
01-基本線
   6
Continuous
  62
 7
 100
AcDbCircle
  10
997.77286529541
  20
-330.44852624828
  40
2.24999994039535
 100
AcDbArc
  50
0.
  51
360.
   0
ARC
   5
      26E
 100
AcDbEntity
   8
01-基本線
   6
Continuous
  62
 7
 100
AcDbCircle
  10
997.77286529541
  20
-330.44852624828
  40
4.00000005960464
 100
AcDbArc
  50
0.
  51
360.
   0
ARC
   5
      26F
 100
AcDbEntity
   8
01-基本線
   6
Continuous
  62
 7
 100
AcDbCircle
  10
828.272867202758
  20
-313.44848047191
  40
3.24999988079071
 100
AcDbArc
  50
90.
  51
450.
   0
ARC
   5
      270
 100
AcDbEntity
   8
11-[L1]
   6
Continuous
  62
 7
 100
AcDbCircle
  10
1243.45321655273
  20
-228.02024255687
  40
62.5
 100
AcDbArc
  50
0.
  51
360.
   0
ARC
   5
      271
 100
AcDbEntity
   8
11-[L1]
   6
Continuous
  62
 7
 100
AcDbCircle
  10
1243.45321655273
  20
-185.52024255687
  40
5.625
 100
AcDbArc
  50
0.
  51
360.
   0
ARC
   5
      272
 100
AcDbEntity
   8
11-[L1]
   6
Continuous
  62
 7
 100
AcDbCircle
  10
1243.45321655273
  20
-185.52024255687
  40
10.
 100
AcDbArc
  50
0.
  51
360.
   0
ARC
   5
      273
 100
AcDbEntity
   8
11-[L1]
   6
Continuous
  62
 7
 100
AcDbCircle
  10
1200.95321655273
  20
-228.02024255687
  40
5.625
 100
AcDbArc
  50
90.
  51
450.
   0
ARC
   5
      274
 100
AcDbEntity
   8
11-[L1]
   6
Continuous
  62
 7
 100
AcDbCircle
  10
1200.95321655273
  20
-228.02024255687
  40
10.
 100
AcDbArc
  50
90.
  51
450.
   0
ARC
   5
      275
 100
AcDbEntity
   8
11-[L1]
   6
Continuous
  62
 7
 100
AcDbCircle
  10
1243.45321655273
  20
-270.52024255687
  40
5.625
 100
AcDbArc
  50
180.
  51
540.
   0
ARC
   5
      276
 100
AcDbEntity
   8
11-[L1]
   6
Continuous
  62
 7
 100
AcDbCircle
  10
1243.45321655273
  20
-270.52024255687
  40
10.
 100
AcDbArc
  50
180.
  51
540.
   0
ARC
   5
      277
 100
AcDbEntity
   8
11-[L1]
   6
Continuous
  62
 7
 100
AcDbCircle
  10
1285.95321655273
  20
-228.02024255687
  40
5.625
 100
AcDbArc
  50
-90.
  51
270.
   0
ARC
   5
      278
 100
AcDbEntity
   8
11-[L1]
   6
Continuous
  62
 7
 100
AcDbCircle
  10
1285.95321655273
  20
-228.02024255687
  40
10.
 100
AcDbArc
  50
-90.
  51
270.
   0
ARC
   5
      279
 100
AcDbEntity
   8
11-[L1]
   6
Continuous
  62
 7
 100
AcDbCircle
  10
1243.45321655273
  20
-228.02024255687
  40
21.25
 100
AcDbArc
  50
270.
  51
90.
   0
ARC
   5
      27A
 100
AcDbEntity
   8
01-基本線
   6
Continuous
  62
 7
 100
AcDbCircle
  10
125.772857666015
  20
-313.44848047191
  40
3.24999988079071
 100
AcDbArc
  50
0.
  51
360.
   0
ARC
   5
      27B
 100
AcDbEntity
   8
11-[L1]
   6
Continuous
  62
 7
 100
AcDbCircle
  10
897.41337776184
  20
-1670.4398287385
  40
8.125
 100
AcDbArc
  50
0.
  51
360.
   0
ARC
   5
      27C
 100
AcDbEntity
   8
01-基本線
   6
Continuous
  62
 7
 100
AcDbCircle
  10
949.272861480712
  20
-814.27695642406
  40
40.
 100
AcDbArc
  50
270.
  51
360.
   0
ARC
   5
      27D
 100
AcDbEntity
   8
01-基本線
   6
Continuous
  62
 7
 100
AcDbCircle
  10
949.272861480712
  20
-814.27695642406
  40
56.9999980926513
 100
AcDbArc
  50
270.
  51
360.
   0
ARC
   5
      27E
 100
AcDbEntity
   8
00-基準線
   6
CENTER1
  62
 4
 100
AcDbCircle
  10
949.272861480712
  20
-814.27695642406
  40
48.4999990463256
 100
AcDbArc
  50
270.
  51
360.
   0
ARC
   5
      27F
 100
AcDbEntity
   8
01-基本線
   6
Continuous
  62
 7
 100
AcDbCircle
  10
1228.78391265869
  20
-814.27695642406
  40
40.
 100
AcDbArc
  50
270.
  51
360.
   0
ARC
   5
      280
 100
AcDbEntity
   8
01-基本線
   6
Continuous
  62
 7
 100
AcDbCircle
  10
1228.78391265869
  20
-814.27695642406
  40
56.9999980926513
 100
AcDbArc
  50
270.
  51
360.
   0
ARC
   5
      281
 100
AcDbEntity
   8
00-基準線
   6
CENTER1
  62
 4
 100
AcDbCircle
  10
1228.78391265869
  20
-814.27695642406
  40
48.4999990463256
 100
AcDbArc
  50
270.
  51
360.
   0
ARC
   5
      282
 100
AcDbEntity
   8
01-基本線
   6
Continuous
  62
 7
 100
AcDbCircle
  10
949.272861480712
  20
293.617330685308
  40
40.
 100
AcDbArc
  50
270.
  51
360.
   0
ARC
   5
      283
 100
AcDbEntity
   8
01-基本線
   6
Continuous
  62
 7
 100
AcDbCircle
  10
949.272861480712
  20
293.617330685308
  40
56.9999980926513
 100
AcDbArc
  50
270.
  51
360.
   0
ARC
   5
      284
 100
AcDbEntity
   8
00-基準線
   6
CENTER1
  62
 4
 100
AcDbCircle
  10
949.272861480712
  20
293.617330685308
  40
48.4999990463256
 100
AcDbArc
  50
270.
  51
360.
   0
ARC
   5
      285
 100
AcDbEntity
   8
01-基本線
   6
Continuous
  62
 7
 100
AcDbCircle
  10
1228.78391265869
  20
293.617330685308
  40
40.
 100
AcDbArc
  50
270.
  51
360.
   0
ARC
   5
      286
 100
AcDbEntity
   8
01-基本線
   6
Continuous
  62
 7
 100
AcDbCircle
  10
1228.78391265869
  20
293.617330685308
  40
56.9999980926513
 100
AcDbArc
  50
270.
  51
360.
   0
ARC
   5
      287
 100
AcDbEntity
   8
00-基準線
   6
CENTER1
  62
 4
 100
AcDbCircle
  10
1228.78391265869
  20
293.617330685308
  40
48.4999990463256
 100
AcDbArc
  50
270.
  51
360.
   0
POINT
   5
      288
 100
AcDbEntity
   8
03-寸法
   6
Continuous
  62
 51
 100
AcDbPoint
  10
247.272872924804
  20
819.760633602788
   0
POINT
   5
      289
 100
AcDbEntity
   8
03-寸法
   6
Continuous
  62
 51
 100
AcDbPoint
  10
257.272872924804
  20
819.760633602788
   0
POINT
   5
      28A
 100
AcDbEntity
   8
03-寸法
   6
Continuous
  62
 51
 100
AcDbPoint
  10
828.272867202758
  20
819.760633602788
   0
POINT
   5
      28B
 100
AcDbEntity
   8
03-寸法
   6
Continuous
  62
 51
 100
AcDbPoint
  10
838.272867202758
  20
819.760633602788
   0
POINT
   5
      28C
 100
AcDbEntity
   8
03-寸法
   6
Continuous
  62
 51
 100
AcDbPoint
  10
247.272872924804
  20
195.739713802984
   0
POINT
   5
      28D
 100
AcDbEntity
   8
03-寸法
   6
Continuous
  62
 51
 100
AcDbPoint
  10
257.272872924804
  20
195.739713802984
   0
POINT
   5
      28E
 100
AcDbEntity
   8
03-寸法
   6
Continuous
  62
 51
 100
AcDbPoint
  10
838.272867202758
  20
195.739713802984
   0
POINT
   5
      28F
 100
AcDbEntity
   8
03-寸法
   6
Continuous
  62
 51
 100
AcDbPoint
  10
828.272867202758
  20
195.739713802984
   0
POINT
   5
      290
 100
AcDbEntity
   8
03-寸法
   6
Continuous
  62
 51
 100
AcDbPoint
  10
949.997768402099
  20
683.617321148565
   0
POINT
   5
      291
 100
AcDbEntity
   8
03-寸法
   6
Continuous
  62
 51
 100
AcDbPoint
  10
1229.50881958007
  20
683.617321148565
   0
POINT
   5
      292
 100
AcDbEntity
   8
03-寸法
   6
Continuous
  62
 51
 100
AcDbPoint
  10
1344.90665435791
  20
236.617323055913
   0
POINT
   5
      293
 100
AcDbEntity
   8
03-寸法
   6
Continuous
  62
 51
 100
AcDbPoint
  10
79.2728424072265
  20
163.659597531011
   0
POINT
   5
      294
 100
AcDbEntity
   8
03-寸法
   6
Continuous
  62
 51
 100
AcDbPoint
  10
247.272872924804
  20
163.659597531011
   0
POINT
   5
      295
 100
AcDbEntity
   8
03-寸法
   6
Continuous
  62
 51
 100
AcDbPoint
  10
838.272867202758
  20
163.659597531011
   0
POINT
   5
      296
 100
AcDbEntity
   8
03-寸法
   6
Continuous
  62
 51
 100
AcDbPoint
  10
1006.2728691101
  20
163.659597531011
   0
POINT
   5
      297
 100
AcDbEntity
   8
03-寸法
   6
Continuous
  62
 51
 100
AcDbPoint
  10
1022.77286529541
  20
850.031820431402
   0
POINT
   5
      298
 100
AcDbEntity
   8
03-寸法
   6
Continuous
  62
 51
 100
AcDbPoint
  10
62.7729034423828
  20
850.031820431402
   0
POINT
   5
      299
 100
AcDbEntity
   8
13-[L3]
   6
Continuous
  62
 51
 100
AcDbPoint
  10
1356.74972534179
  20
817.374101772954
   0
POINT
   5
      29A
 100
AcDbEntity
   8
13-[L3]
   6
Continuous
  62
 51
 100
AcDbPoint
  10
1356.74972534179
  20
942.374120846441
   0
POINT
   5
      29B
 100
AcDbEntity
   8
13-[L3]
   6
Continuous
  62
 51
 100
AcDbPoint
  10
1332.76794433593
  20
942.374120846441
   0
POINT
   5
      29C
 100
AcDbEntity
   8
13-[L3]
   6
Continuous
  62
 51
 100
AcDbPoint
  10
1332.76794433593
  20
922.374120846441
   0
POINT
   5
      29D
 100
AcDbEntity
   8
13-[L3]
   6
Continuous
  62
 51
 100
AcDbPoint
  10
1332.76794433593
  20
837.374101772954
   0
POINT
   5
      29E
 100
AcDbEntity
   8
13-[L3]
   6
Continuous
  62
 51
 100
AcDbPoint
  10
1332.76794433593
  20
817.374101772954
   0
POINT
   5
      29F
 100
AcDbEntity
   8
03-寸法
   6
Continuous
  62
 51
 100
AcDbPoint
  10
828.272867202758
  20
-288.13369165355
   0
POINT
   5
      2A0
 100
AcDbEntity
   8
03-寸法
   6
Continuous
  62
 51
 100
AcDbPoint
  10
838.272867202758
  20
-288.13369165355
   0
POINT
   5
      2A1
 100
AcDbEntity
   8
03-寸法
   6
Continuous
  62
 51
 100
AcDbPoint
  10
838.272867202758
  20
-912.15461145336
   0
POINT
   5
      2A2
 100
AcDbEntity
   8
03-寸法
   6
Continuous
  62
 51
 100
AcDbPoint
  10
828.272867202758
  20
-912.15461145336
   0
POINT
   5
      2A3
 100
AcDbEntity
   8
03-寸法
   6
Continuous
  62
 51
 100
AcDbPoint
  10
949.997768402099
  20
-424.27703271801
   0
POINT
   5
      2A4
 100
AcDbEntity
   8
03-寸法
   6
Continuous
  62
 51
 100
AcDbPoint
  10
1229.50881958007
  20
-424.27703271801
   0
POINT
   5
      2A5
 100
AcDbEntity
   8
03-寸法
   6
Continuous
  62
 51
 100
AcDbPoint
  10
1344.90665435791
  20
-871.27692590648
   0
POINT
   5
      2A6
 100
AcDbEntity
   8
03-寸法
   6
Continuous
  62
 51
 100
AcDbPoint
  10
838.272867202758
  20
-944.23468957836
   0
POINT
   5
      2A7
 100
AcDbEntity
   8
03-寸法
   6
Continuous
  62
 51
 100
AcDbPoint
  10
1006.2728691101
  20
-944.23468957836
   0
POINT
   5
      2A8
 100
AcDbEntity
   8
03-寸法
   6
Continuous
  62
 51
 100
AcDbPoint
  10
1022.77286529541
  20
-257.86246667797
   0
POINT
   5
      2A9
 100
AcDbEntity
   8
13-[L3]
   6
Continuous
  62
 51
 100
AcDbPoint
  10
1356.74972534179
  20
-290.52024255687
   0
POINT
   5
      2AA
 100
AcDbEntity
   8
13-[L3]
   6
Continuous
  62
 51
 100
AcDbPoint
  10
1356.74972534179
  20
-165.52024255687
   0
POINT
   5
      2AB
 100
AcDbEntity
   8
13-[L3]
   6
Continuous
  62
 51
 100
AcDbPoint
  10
1332.76794433593
  20
-165.52024255687
   0
POINT
   5
      2AC
 100
AcDbEntity
   8
13-[L3]
   6
Continuous
  62
 51
 100
AcDbPoint
  10
1332.76794433593
  20
-185.52024255687
   0
POINT
   5
      2AD
 100
AcDbEntity
   8
13-[L3]
   6
Continuous
  62
 51
 100
AcDbPoint
  10
1332.76794433593
  20
-270.52024255687
   0
POINT
   5
      2AE
 100
AcDbEntity
   8
13-[L3]
   6
Continuous
  62
 51
 100
AcDbPoint
  10
1332.76794433593
  20
-290.52024255687
   0
POINT
   5
      2AF
 100
AcDbEntity
   8
03-寸法
   6
Continuous
  62
 51
 100
AcDbPoint
  10
115.772857666015
  20
-912.15461145336
   0
POINT
   5
      2B0
 100
AcDbEntity
   8
03-寸法
   6
Continuous
  62
 51
 100
AcDbPoint
  10
125.772857666015
  20
-912.15461145336
   0
POINT
   5
      2B1
 100
AcDbEntity
   8
03-寸法
   6
Continuous
  62
 51
 100
AcDbPoint
  10
115.772857666015
  20
-944.23468957836
   0
POINT
   5
      2B2
 100
AcDbEntity
   8
03-寸法
   6
Continuous
  62
 51
 100
AcDbPoint
  10
87.7729034423828
  20
-257.86246667797
   0
POINT
   5
      2B3
 100
AcDbEntity
   8
03-寸法
   6
Continuous
  62
 51
 100
AcDbPoint
  10
49.8804473876953
  20
-288.44848047191
   0
POINT
   5
      2B4
 100
AcDbEntity
   8
03-寸法
   6
Continuous
  62
 51
 100
AcDbPoint
  10
49.8804473876953
  20
-338.44848047191
   0
POINT
   5
      2B5
 100
AcDbEntity
   8
11-[L1]
   6
Continuous
  62
 51
 100
AcDbPoint
  10
280.347137451171
  20
-514.50484643871
   0
POINT
   5
      2B6
 100
AcDbEntity
   8
11-[L1]
   6
Continuous
  62
 51
 100
AcDbPoint
  10
287.847137451171
  20
-514.50484643871
   0
POINT
   5
      2B7
 100
AcDbEntity
   8
11-[L1]
   6
Continuous
  62
 51
 100
AcDbPoint
  10
280.347137451171
  20
-675.38581262523
   0
POINT
   5
      2B8
 100
AcDbEntity
   8
11-[L1]
   6
Continuous
  62
 51
 100
AcDbPoint
  10
342.847137451171
  20
-514.50484643871
   0
POINT
   5
      2B9
 100
AcDbEntity
   8
11-[L1]
   6
Continuous
  62
 51
 100
AcDbPoint
  10
530.347137451171
  20
-514.50484643871
   0
POINT
   5
      2BA
 100
AcDbEntity
   8
11-[L1]
   6
Continuous
  62
 51
 100
AcDbPoint
  10
530.347137451171
  20
-675.38581262523
   0
POINT
   5
      2BB
 100
AcDbEntity
   8
11-[L1]
   6
Continuous
  62
 51
 100
AcDbPoint
  10
238.916015625
  20
-525.02974878246
   0
POINT
   5
      2BC
 100
AcDbEntity
   8
11-[L1]
   6
Continuous
  62
 51
 100
AcDbPoint
  10
238.916015625
  20
-650.02974878246
   0
POINT
   5
      2BD
 100
AcDbEntity
   8
11-[L1]
   6
Continuous
  62
 51
 100
AcDbPoint
  10
430.982265472412
  20
-1607.9398287385
   0
POINT
   5
      2BE
 100
AcDbEntity
   8
11-[L1]
   6
Continuous
  62
 51
 100
AcDbPoint
  10
430.982265472412
  20
-1732.9398287385
   0
POINT
   5
      2BF
 100
AcDbEntity
   8
03-寸法
   6
Continuous
  62
 51
 100
AcDbPoint
  10
115.772857666015
  20
-288.13369165355
   0
POINT
   5
      2C0
 100
AcDbEntity
   8
03-寸法
   6
Continuous
  62
 51
 100
AcDbPoint
  10
125.772857666015
  20
-288.13369165355
   0
POINT
   5
      2C1
 100
AcDbEntity
   8
03-寸法
   6
Continuous
  62
 51
 100
AcDbPoint
  10
949.997768402099
  20
-420.27701745922
   0
POINT
   5
      2C2
 100
AcDbEntity
   8
03-寸法
   6
Continuous
  62
 51
 100
AcDbPoint
  10
1229.50881958007
  20
-420.27701745922
   0
POINT
   5
      2C3
 100
AcDbEntity
   8
03-寸法
   6
Continuous
  62
 51
 100
AcDbPoint
  10
1344.90665435791
  20
-420.27701745922
   0
POINT
   5
      2C4
 100
AcDbEntity
   8
03-寸法
   6
Continuous
  62
 51
 100
AcDbPoint
  10
1067.78392791748
  20
-906.41211877758
   0
POINT
   5
      2C5
 100
AcDbEntity
   8
03-寸法
   6
Continuous
  62
 51
 100
AcDbPoint
  10
1117.78392791748
  20
-906.41211877758
   0
POINT
   5
      2C6
 100
AcDbEntity
   8
03-寸法
   6
Continuous
  62
 51
 100
AcDbPoint
  10
1117.78392791748
  20
-906.41211877758
   0
POINT
   5
      2C7
 100
AcDbEntity
   8
03-寸法
   6
Continuous
  62
 51
 100
AcDbPoint
  10
1167.78392791748
  20
-906.41211877758
   0
POINT
   5
      2C8
 100
AcDbEntity
   8
03-寸法
   6
Continuous
  62
 51
 100
AcDbPoint
  10
1205.80852508544
  20
-854.27695642406
   0
POINT
   5
      2C9
 100
AcDbEntity
   8
03-寸法
   6
Continuous
  62
 51
 100
AcDbPoint
  10
1205.80852508544
  20
-871.27692590648
   0
POINT
   5
      2CA
 100
AcDbEntity
   8
11-[L1]
   6
Continuous
  62
 51
 100
AcDbPoint
  10
280.347137451171
  20
-486.5199221223
   0
POINT
   5
      2CB
 100
AcDbEntity
   8
11-[L1]
   6
Continuous
  62
 51
 100
AcDbPoint
  10
342.847137451171
  20
-486.5199221223
   0
POINT
   5
      2CC
 100
AcDbEntity
   8
11-[L1]
   6
Continuous
  62
 51
 100
AcDbPoint
  10
472.413387298583
  20
-1806.9414461701
   0
POINT
   5
      2CD
 100
AcDbEntity
   8
11-[L1]
   6
Continuous
  62
 51
 100
AcDbPoint
  10
947.413387298583
  20
-1806.9414461701
   0
POINT
   5
      2CE
 100
AcDbEntity
   8
12-[L2]
   6
Continuous
  62
 51
 100
AcDbPoint
  10
947.413387298583
  20
-1753.4795321076
   0
POINT
   5
      2CF
 100
AcDbEntity
   8
12-[L2]
   6
Continuous
  62
 51
 100
AcDbPoint
  10
897.41337776184
  20
-1753.4795321076
   0
POINT
   5
      2D0
 100
AcDbEntity
   8
11-[L1]
   6
Continuous
  62
 51
 100
AcDbPoint
  10
472.413387298583
  20
-1586.3507784455
   0
POINT
   5
      2D1
 100
AcDbEntity
   8
11-[L1]
   6
Continuous
  62
 51
 100
AcDbPoint
  10
947.413387298583
  20
-1586.3507784455
   0
POINT
   5
      2D2
 100
AcDbEntity
   8
11-[L1]
   6
Continuous
  62
 51
 100
AcDbPoint
  10
482.413387298583
  20
-1586.3507784455
   0
POINT
   5
      2D3
 100
AcDbEntity
   8
03-寸法
   6
Continuous
  62
 51
 100
AcDbPoint
  10
949.272861480712
  20
-814.27695642406
   0
POINT
   5
      2D4
 100
AcDbEntity
   8
03-寸法
   6
Continuous
  62
 51
 100
AcDbPoint
  10
989.272861480712
  20
-814.27695642406
   0
POINT
   5
      2D5
 100
AcDbEntity
   8
03-寸法
   6
Continuous
  62
 51
 100
AcDbPoint
  10
949.997768402099
  20
687.617326870611
   0
POINT
   5
      2D6
 100
AcDbEntity
   8
03-寸法
   6
Continuous
  62
 51
 100
AcDbPoint
  10
1229.50881958007
  20
687.617326870611
   0
POINT
   5
      2D7
 100
AcDbEntity
   8
03-寸法
   6
Continuous
  62
 51
 100
AcDbPoint
  10
1344.90665435791
  20
687.617326870611
   0
POINT
   5
      2D8
 100
AcDbEntity
   8
03-寸法
   6
Continuous
  62
 51
 100
AcDbPoint
  10
62.7729034423828
  20
718.462339535406
   0
POINT
   5
      2D9
 100
AcDbEntity
   8
03-寸法
   6
Continuous
  62
 51
 100
AcDbPoint
  10
112.77286529541
  20
718.462339535406
   0
POINT
   5
      2DA
 100
AcDbEntity
   8
03-寸法
   6
Continuous
  62
 51
 100
AcDbPoint
  10
1067.78392791748
  20
201.482168331792
   0
POINT
   5
      2DB
 100
AcDbEntity
   8
03-寸法
   6
Continuous
  62
 51
 100
AcDbPoint
  10
1117.78392791748
  20
201.482168331792
   0
POINT
   5
      2DC
 100
AcDbEntity
   8
03-寸法
   6
Continuous
  62
 51
 100
AcDbPoint
  10
1117.78392791748
  20
201.482168331792
   0
POINT
   5
      2DD
 100
AcDbEntity
   8
03-寸法
   6
Continuous
  62
 51
 100
AcDbPoint
  10
1167.78392791748
  20
201.482168331792
   0
POINT
   5
      2DE
 100
AcDbEntity
   8
03-寸法
   6
Continuous
  62
 51
 100
AcDbPoint
  10
1205.80852508544
  20
253.617330685308
   0
POINT
   5
      2DF
 100
AcDbEntity
   8
03-寸法
   6
Continuous
  62
 51
 100
AcDbPoint
  10
1205.80852508544
  20
236.617323055913
   0
POINT
   5
      2E0
 100
AcDbEntity
   8
03-寸法
   6
Continuous
  62
 51
 100
AcDbPoint
  10
949.272861480712
  20
293.617330685308
   0
POINT
   5
      2E1
 100
AcDbEntity
   8
03-寸法
   6
Continuous
  62
 51
 100
AcDbPoint
  10
989.272861480712
  20
293.617330685308
   0
TEXT
   5
      2E2
 100
AcDbEntity
   8
F0-[L0]
  62
 7
 100
AcDbText
  10
1144.42092895507
  20
78.4077130705623
11
1158.57944488525
  21
78.4077130705623
  40
3.91719014942646
  50
0.
  72
5
   1
Drawer
   7
MS Gothic
 100
AcDbText
   0
TEXT
   5
      2E3
 100
AcDbEntity
   8
F0-[L0]
  62
 7
 100
AcDbText
  10
987.762851715087
  20
78.4077130705623
11
999.561614990234
  21
78.4077130705623
  40
3.91719014942646
  50
0.
  72
5
   1
Scale
   7
MS Gothic
 100
AcDbText
   0
TEXT
   5
      2E4
 100
AcDbEntity
   8
F0-[L0]
  62
 7
 100
AcDbText
  10
1238.8581085205
  20
78.4077130705623
11
1264.81536865234
  21
78.4077130705623
  40
3.91719014942646
  50
0.
  72
5
   1
Drawing Day
   7
MS Gothic
 100
AcDbText
   0
TEXT
   5
      2E5
 100
AcDbEntity
   8
F0-[L0]
  62
 7
 100
AcDbText
  10
1339.10846710205
  20
78.4077130705623
11
1348.54747772216
  21
78.4077130705623
  40
3.91719014942646
  50
0.
  72
5
   1
Page
   7
MS Gothic
 100
AcDbText
   0
TEXT
   5
      2E6
 100
AcDbEntity
   8
F0-[L0]
  62
 7
 100
AcDbText
  10
988.004150390625
  20
112.291341915777
11
1016.32118225097
  21
112.291341915777
  40
3.91719014942646
  50
0.
  72
5
   1
Project Name
   7
MS Gothic
 100
AcDbText
   0
TEXT
   5
      2E7
 100
AcDbEntity
   8
F0-[L0]
  62
 4
 100
AcDbText
  10
1160.9129333496
  20
61.3753186613826
11
1198.4129333496
  21
61.3753186613826
  40
10.375
  50
0.
  72
5
   1
Tsuboi
   7
MS Gothic
 100
AcDbText
   0
TEXT
   5
      2E8
 100
AcDbEntity
   8
F0-[L0]
  62
 7
 100
AcDbText
  10
801.480455398559
  20
79.1767178923397
11
907.400588989257
  21
79.1767178923397
  40
4.50839539170265
  50
0.
  72
5
   1
〒563-0215　大阪府豊能郡豊能町木代164-1
   7
MS Gothic
 100
AcDbText
   0
TEXT
   5
      2E9
 100
AcDbEntity
   8
F0-[L0]
  62
 7
 100
AcDbText
  10
801.480455398559
  20
68.9469205290584
11
899.252891540527
  21
68.9469205290584
  40
4.50839539170265
  50
0.
  72
5
   1
TEL. 072-743-9025　FAX. 072-743-9043
   7
MS Gothic
 100
AcDbText
   0
TEXT
   5
      2EA
 100
AcDbEntity
   8
F0-[L0]
  62
 7
 100
AcDbText
  10
800.849289894104
  20
91.8690167814998
11
840.849285125732
  21
91.8690167814998
  40
8.29999999999999
  50
0.
  72
5
   1
有限会社
   7
MS Gothic
 100
AcDbText
   0
TEXT
   5
      2EB
 100
AcDbEntity
   8
F0-[L0]
  62
 4
 100
AcDbText
  10
743.635350689291
  20
67.8986417204647
11
767.135350704193
  21
67.8986417204647
  40
8.29999999999999
  50
0.
  72
5
   1
^@BM%temp%C__Users_owner_Desktop_300ppi_アセット 1_jpg.bmp,8.51292,8.51292,0,0,1,0,255,255,255
   7
MS Gothic
 100
AcDbText
   0
TEXT
   5
      2EC
 100
AcDbEntity
   8
F0-[L0]
  62
 7
 100
AcDbText
  10
850.726890563964
  20
91.8690167814998
11
913.226890563964
  21
91.8690167814998
  40
10.375
  50
0.
  72
5
   1
上手工作所
   7
MS Gothic
 100
AcDbText
   0
TEXT
   5
      2ED
 100
AcDbEntity
   8
F0-[L0]
  62
 4
 100
AcDbText
  10
1045.21780014038
  20
61.3753186613826
11
1063.96781921386
  21
61.3753186613826
  40
10.375
  50
0.
  72
5
   1
1/5
   7
MS Gothic
 100
AcDbText
   0
TEXT
   5
      2EE
 100
AcDbEntity
   8
03-寸法
  62
 51
 100
AcDbText
  10
244.772872924804
  20
822.260633602788
11
259.772872924804
  21
822.260633602788
  40
12.4499999999999
  50
0.
  72
5
   1
10
   7
MS Gothic
 100
AcDbText
   0
TEXT
   5
      2EF
 100
AcDbEntity
   8
03-寸法
  62
 51
 100
AcDbText
  10
825.772867202758
  20
822.260633602788
11
840.772867202758
  21
822.260633602788
  40
12.4499999999999
  50
0.
  72
5
   1
10
   7
MS Gothic
 100
AcDbText
   0
TEXT
   5
      2F0
 100
AcDbEntity
   8
03-寸法
  62
 51
 100
AcDbText
  10
244.365997314453
  20
178.672300472906
11
259.365997314453
  21
178.672300472906
  40
12.4499999999999
  50
0.
  72
5
   1
10
   7
MS Gothic
 100
AcDbText
   0
TEXT
   5
      2F1
 100
AcDbEntity
   8
02-注釈
  62
 4
 100
AcDbText
  10
270.866928100585
  20
200.95738042896
11
370.866928100585
  21
200.95738042896
  40
10.375
  50
0.
  72
5
   1
M6×5 くぼみねじ
   7
MS Gothic
 100
AcDbText
   0
TEXT
   5
      2F2
 100
AcDbEntity
   8
03-寸法
  62
 51
 100
AcDbText
  10
826.179761886596
  20
178.672300472906
11
841.179761886596
  21
178.672300472906
  40
12.4499999999999
  50
0.
  72
5
   1
10
   7
MS Gothic
 100
AcDbText
   0
TEXT
   5
      2F3
 100
AcDbEntity
   8
02-注釈
  62
 4
 100
AcDbText
  10
1035.75826644897
  20
631.381078854253
11
1085.75828552246
  21
631.381078854253
  40
10.375
  50
0.
  72
5
   1
ロウ付け
   7
MS Gothic
 100
AcDbText
   0
TEXT
   5
      2F4
 100
AcDbEntity
   8
03-寸法
  62
 51
 100
AcDbText
  10
1342.40665435791
  20
412.867323055913
11
1342.40665435791
  21
510.367323055913
  40
12.4499999999999
  50
90.
  72
5
   1
220, 450, 600
   7
MS Gothic
 100
AcDbText
   0
TEXT
   5
      2F5
 100
AcDbEntity
   8
03-寸法
  62
 51
 100
AcDbText
  10
152.022857666015
  20
166.159597531011
11
174.522857666015
  21
166.159597531011
  40
12.4499999999999
  50
0.
  72
5
   1
168
   7
MS Gothic
 100
AcDbText
   0
TEXT
   5
      2F6
 100
AcDbEntity
   8
03-寸法
  62
 51
 100
AcDbText
  10
911.022872924804
  20
166.159597531011
11
933.522872924804
  21
166.159597531011
  40
12.4499999999999
  50
0.
  72
5
   1
168
   7
MS Gothic
 100
AcDbText
   0
TEXT
   5
      2F7
 100
AcDbEntity
   8
03-寸法
  62
 51
 100
AcDbText
  10
471.52286529541
  20
166.159597531011
11
614.022874832153
  21
166.159597531011
  40
12.4499999999999
  50
0.
  72
5
   1
S:592 M:1047 L:1502
   7
MS Gothic
 100
AcDbText
   0
TEXT
   5
      2F8
 100
AcDbEntity
   8
03-寸法
  62
 51
 100
AcDbText
  10
471.52286529541
  20
852.531820431402
11
614.022874832153
  21
852.531820431402
  40
12.4499999999999
  50
0.
  72
5
   1
S:960 M:1415 L:1870
   7
MS Gothic
 100
AcDbText
   0
TEXT
   5
      2F9
 100
AcDbEntity
   8
13-[L3]
  62
 51
 100
AcDbText
  10
1354.24972534179
  20
872.374120846441
11
1354.24972534179
  21
887.374120846441
  40
12.4499999999999
  50
90.
  72
5
   1
50
   7
MS Gothic
 100
AcDbText
   0
TEXT
   5
      2FA
 100
AcDbEntity
   8
13-[L3]
  62
 51
 100
AcDbText
  10
1330.26794433593
  20
928.624120846441
11
1330.26794433593
  21
936.124120846441
  40
12.4499999999999
  50
90.
  72
5
   1
8
   7
MS Gothic
 100
AcDbText
   0
TEXT
   5
      2FB
 100
AcDbEntity
   8
13-[L3]
  62
 51
 100
AcDbText
  10
1330.26794433593
  20
872.374120846441
11
1330.26794433593
  21
887.374120846441
  40
12.4499999999999
  50
90.
  72
5
   1
34
   7
MS Gothic
 100
AcDbText
   0
TEXT
   5
      2FC
 100
AcDbEntity
   8
13-[L3]
  62
 51
 100
AcDbText
  10
1330.26794433593
  20
823.624101772954
11
1330.26794433593
  21
831.124101772954
  40
12.4499999999999
  50
90.
  72
5
   1
8
   7
MS Gothic
 100
AcDbText
   0
TEXT
   5
      2FD
 100
AcDbEntity
   8
F0-[L0]
  62
 3
 100
AcDbText
  10
23.5760498046875
  20
953.345838680913
11
524.826011657714
  21
953.345838680913
  40
24.8999999999999
  50
0.
  72
5
   1
真鍮 コの字型天吊りハンガーバー
   7
MS Gothic
 100
AcDbText
   0
TEXT
   5
      2FE
 100
AcDbEntity
   8
F0-[L0]
  62
 4
 100
AcDbText
  10
1032.69964218139
  20
93.4117566496639
11
1157.69966125488
  21
93.4117566496639
  40
10.375
  50
0.
  72
5
   1
真鍮　天吊りハンガー
   7
MS Gothic
 100
AcDbText
   0
TEXT
   5
      2FF
 100
AcDbEntity
   8
F0-[L0]
  62
 4
 100
AcDbText
  10
-5.2606201171875
  20
107.551847592046
11
249.739379882812
  21
107.551847592046
  40
8.29999999999999
  50
0.
  72
5
   1
2026.1.5 旧イラレデータから図面作成（内容変更なし）
   7
MS Gothic
 100
AcDbText
   0
TEXT
   5
      300
 100
AcDbEntity
   8
F0-[L0]
  62
 4
 100
AcDbText
  10
1254.16732788085
  20
61.3753186613826
11
1310.41732788085
  21
61.3753186613826
  40
10.375
  50
0.
  72
5
   1
2019.4.25
   7
MS Gothic
 100
AcDbText
   0
TEXT
   5
      301
 100
AcDbEntity
   8
F0-[L0]
  62
 7
 100
AcDbText
  10
1144.42092895507
  20
-1029.4866121857
11
1158.57944488525
  21
-1029.4866121857
  40
3.91719014942646
  50
0.
  72
5
   1
Drawer
   7
MS Gothic
 100
AcDbText
   0
TEXT
   5
      302
 100
AcDbEntity
   8
F0-[L0]
  62
 7
 100
AcDbText
  10
987.762851715087
  20
-1029.4866121857
11
999.561614990234
  21
-1029.4866121857
  40
3.91719014942646
  50
0.
  72
5
   1
Scale
   7
MS Gothic
 100
AcDbText
   0
TEXT
   5
      303
 100
AcDbEntity
   8
F0-[L0]
  62
 7
 100
AcDbText
  10
1238.8581085205
  20
-1029.4866121857
11
1264.81536865234
  21
-1029.4866121857
  40
3.91719014942646
  50
0.
  72
5
   1
Drawing Day
   7
MS Gothic
 100
AcDbText
   0
TEXT
   5
      304
 100
AcDbEntity
   8
F0-[L0]
  62
 7
 100
AcDbText
  10
1339.10846710205
  20
-1029.4866121857
11
1348.54747772216
  21
-1029.4866121857
  40
3.91719014942646
  50
0.
  72
5
   1
Page
   7
MS Gothic
 100
AcDbText
   0
TEXT
   5
      305
 100
AcDbEntity
   8
F0-[L0]
  62
 7
 100
AcDbText
  10
988.004150390625
  20
-995.60294519359
11
1016.32118225097
  21
-995.60294519359
  40
3.91719014942646
  50
0.
  72
5
   1
Project Name
   7
MS Gothic
 100
AcDbText
   0
TEXT
   5
      306
 100
AcDbEntity
   8
F0-[L0]
  62
 4
 100
AcDbText
  10
1160.9129333496
  20
-1046.518930301
11
1198.4129333496
  21
-1046.518930301
  40
10.375
  50
0.
  72
5
   1
Tsuboi
   7
MS Gothic
 100
AcDbText
   0
TEXT
   5
      307
 100
AcDbEntity
   8
F0-[L0]
  62
 7
 100
AcDbText
  10
801.480455398559
  20
-1028.717569217
11
907.400588989257
  21
-1028.717569217
  40
4.50839539170265
  50
0.
  72
5
   1
〒563-0215　大阪府豊能郡豊能町木代164-1
   7
MS Gothic
 100
AcDbText
   0
TEXT
   5
      308
 100
AcDbEntity
   8
F0-[L0]
  62
 7
 100
AcDbText
  10
801.480455398559
  20
-1038.9473665803
11
899.252891540527
  21
-1038.9473665803
  40
4.50839539170265
  50
0.
  72
5
   1
TEL. 072-743-9025　FAX. 072-743-9043
   7
MS Gothic
 100
AcDbText
   0
TEXT
   5
      309
 100
AcDbEntity
   8
F0-[L0]
  62
 7
 100
AcDbText
  10
800.849289894104
  20
-1016.0253084748
11
840.849285125732
  21
-1016.0253084748
  40
8.29999999999999
  50
0.
  72
5
   1
有限会社
   7
MS Gothic
 100
AcDbText
   0
TEXT
   5
      30A
 100
AcDbEntity
   8
F0-[L0]
  62
 4
 100
AcDbText
  10
743.635350689291
  20
-1039.9956453889
11
767.135350704193
  21
-1039.9956453889
  40
8.29999999999999
  50
0.
  72
5
   1
^@BM%temp%C__Users_owner_Desktop_300ppi_アセット 1_jpg.bmp,8.51292,8.51292,0,0,1,0,255,255,255
   7
MS Gothic
 100
AcDbText
   0
TEXT
   5
      30B
 100
AcDbEntity
   8
F0-[L0]
  62
 7
 100
AcDbText
  10
850.726890563964
  20
-1016.0253084748
11
913.226890563964
  21
-1016.0253084748
  40
10.375
  50
0.
  72
5
   1
上手工作所
   7
MS Gothic
 100
AcDbText
   0
TEXT
   5
      30C
 100
AcDbEntity
   8
F0-[L0]
  62
 4
 100
AcDbText
  10
1045.21780014038
  20
-1046.518930301
11
1063.96781921386
  21
-1046.518930301
  40
10.375
  50
0.
  72
5
   1
1/5
   7
MS Gothic
 100
AcDbText
   0
TEXT
   5
      30D
 100
AcDbEntity
   8
03-寸法
  62
 51
 100
AcDbText
  10
825.772867202758
  20
-285.63369165355
11
840.772867202758
  21
-285.63369165355
  40
12.4499999999999
  50
0.
  72
5
   1
10
   7
MS Gothic
 100
AcDbText
   0
TEXT
   5
      30E
 100
AcDbEntity
   8
03-寸法
  62
 51
 100
AcDbText
  10
825.772867202758
  20
-929.22202478344
11
840.772867202758
  21
-929.22202478344
  40
12.4499999999999
  50
0.
  72
5
   1
10
   7
MS Gothic
 100
AcDbText
   0
TEXT
   5
      30F
 100
AcDbEntity
   8
02-注釈
  62
 4
 100
AcDbText
  10
1035.75826644897
  20
-476.51320825512
11
1085.75828552246
  21
-476.51320825512
  40
10.375
  50
0.
  72
5
   1
ロウ付け
   7
MS Gothic
 100
AcDbText
   0
TEXT
   5
      310
 100
AcDbEntity
   8
03-寸法
  62
 51
 100
AcDbText
  10
1342.40665435791
  20
-695.02700220043
11
1342.40665435791
  21
-597.52700220043
  40
12.4499999999999
  50
90.
  72
5
   1
220, 450, 600
   7
MS Gothic
 100
AcDbText
   0
TEXT
   5
      311
 100
AcDbEntity
   8
03-寸法
  62
 51
 100
AcDbText
  10
911.022872924804
  20
-941.73468957836
11
933.522872924804
  21
-941.73468957836
  40
12.4499999999999
  50
0.
  72
5
   1
168
   7
MS Gothic
 100
AcDbText
   0
TEXT
   5
      312
 100
AcDbEntity
   8
03-寸法
  62
 51
 100
AcDbText
  10
471.52286529541
  20
-941.73468957836
11
614.022874832153
  21
-941.73468957836
  40
12.4499999999999
  50
0.
  72
5
   1
S:592 M:1047 L:1502
   7
MS Gothic
 100
AcDbText
   0
TEXT
   5
      313
 100
AcDbEntity
   8
13-[L3]
  62
 51
 100
AcDbText
  10
1354.24972534179
  20
-235.52024255687
11
1354.24972534179
  21
-220.52024255687
  40
12.4499999999999
  50
90.
  72
5
   1
50
   7
MS Gothic
 100
AcDbText
   0
TEXT
   5
      314
 100
AcDbEntity
   8
13-[L3]
  62
 51
 100
AcDbText
  10
1330.26794433593
  20
-179.27024255687
11
1330.26794433593
  21
-171.77024255687
  40
12.4499999999999
  50
90.
  72
5
   1
8
   7
MS Gothic
 100
AcDbText
   0
TEXT
   5
      315
 100
AcDbEntity
   8
13-[L3]
  62
 51
 100
AcDbText
  10
1330.26794433593
  20
-235.52024255687
11
1330.26794433593
  21
-220.52024255687
  40
12.4499999999999
  50
90.
  72
5
   1
34
   7
MS Gothic
 100
AcDbText
   0
TEXT
   5
      316
 100
AcDbEntity
   8
13-[L3]
  62
 51
 100
AcDbText
  10
1330.26794433593
  20
-284.27024255687
11
1330.26794433593
  21
-276.77024255687
  40
12.4499999999999
  50
90.
  72
5
   1
8
   7
MS Gothic
 100
AcDbText
   0
TEXT
   5
      317
 100
AcDbEntity
   8
F0-[L0]
  62
 4
 100
AcDbText
  10
1032.69964218139
  20
-1014.4824923127
11
1157.69966125488
  21
-1014.4824923127
  40
10.375
  50
0.
  72
5
   1
真鍮　天吊りハンガー
   7
MS Gothic
 100
AcDbText
   0
TEXT
   5
      318
 100
AcDbEntity
   8
F0-[L0]
  62
 4
 100
AcDbText
  10
-5.2606201171875
  20
-1000.3424776643
11
249.739379882812
  21
-1000.3424776643
  40
8.29999999999999
  50
0.
  72
5
   1
2026.1.5 旧イラレデータから図面作成（内容変更なし）
   7
MS Gothic
 100
AcDbText
   0
TEXT
   5
      319
 100
AcDbEntity
   8
F0-[L0]
  62
 4
 100
AcDbText
  10
1254.16732788085
  20
-1046.518930301
11
1310.41732788085
  21
-1046.518930301
  40
10.375
  50
0.
  72
5
   1
2019.4.25
   7
MS Gothic
 100
AcDbText
   0
TEXT
   5
      31A
 100
AcDbEntity
   8
F0-[L0]
  62
 3
 100
AcDbText
  10
23.5760498046875
  20
-154.54848657543
11
476.076011657714
  21
-154.54848657543
  40
24.8999999999999
  50
0.
  72
5
   1
真鍮 L字型天吊りハンガーバー
   7
MS Gothic
 100
AcDbText
   0
TEXT
   5
      31B
 100
AcDbEntity
   8
03-寸法
  62
 51
 100
AcDbText
  10
113.272857666015
  20
-929.22202478344
11
128.272857666015
  21
-929.22202478344
  40
12.4499999999999
  50
0.
  72
5
   1
10
   7
MS Gothic
 100
AcDbText
   0
TEXT
   5
      31C
 100
AcDbEntity
   8
02-注釈
  62
 4
 100
AcDbText
  10
139.366912841796
  20
-906.93686853344
11
239.366912841796
  21
-906.93686853344
  40
10.375
  50
0.
  72
5
   1
M6×5 くぼみねじ
   7
MS Gothic
 100
AcDbText
   0
TEXT
   5
      31D
 100
AcDbEntity
   8
03-寸法
  62
 51
 100
AcDbText
  10
47.3804473876953
  20
-320.94848047191
11
47.3804473876953
  21
-305.94848047191
  40
12.4499999999999
  50
90.
  72
5
   1
50
   7
MS Gothic
 100
AcDbText
   0
TEXT
   5
      31E
 100
AcDbEntity
   8
11-[L1]
  62
 51
 100
AcDbText
  10
280.347137451171
  20
-512.00484643871
11
287.847137451171
  21
-512.00484643871
  40
12.4499999999999
  50
0.
  72
5
   1
3
   7
MS Gothic
 100
AcDbText
   0
TEXT
   5
      31F
 100
AcDbEntity
   8
11-[L1]
  62
 51
 100
AcDbText
  10
307.847137451171
  20
-512.00484643871
11
322.847137451171
  21
-512.00484643871
  40
12.4499999999999
  50
0.
  72
5
   1
22
   7
MS Gothic
 100
AcDbText
   0
TEXT
   5
      320
 100
AcDbEntity
   8
11-[L1]
  62
 51
 100
AcDbText
  10
429.097137451171
  20
-512.00484643871
11
444.097137451171
  21
-512.00484643871
  40
12.4499999999999
  50
0.
  72
5
   1
75
   7
MS Gothic
 100
AcDbText
   0
TEXT
   5
      321
 100
AcDbEntity
   8
11-[L1]
  62
 51
 100
AcDbText
  10
394.097137451171
  20
-672.88581262523
11
416.597137451171
  21
-672.88581262523
  40
12.4499999999999
  50
0.
  72
5
   1
100
   7
MS Gothic
 100
AcDbText
   0
TEXT
   5
      322
 100
AcDbEntity
   8
11-[L1]
  62
 51
 100
AcDbText
  10
236.416015625
  20
-595.02974878246
11
236.416015625
  21
-580.02974878246
  40
12.4499999999999
  50
90.
  72
5
   1
50
   7
MS Gothic
 100
AcDbText
   0
TEXT
   5
      323
 100
AcDbEntity
   8
02-注釈
  62
 4
 100
AcDbText
  10
437.789649963378
  20
-636.9684542268
11
531.539649963378
  21
-636.9684542268
  40
10.375
  50
0.
  72
5
   1
Φ12.7 丸パイプ
   7
MS Gothic
 100
AcDbText
   0
TEXT
   5
      324
 100
AcDbEntity
   8
02-注釈
  62
 4
 100
AcDbText
  10
147.232322692871
  20
-682.3102511018
11
228.482322692871
  21
-682.3102511018
  40
10.375
  50
0.
  72
5
   1
Φ17 丸パイプ
   7
MS Gothic
 100
AcDbText
   0
TEXT
   5
      325
 100
AcDbEntity
   8
02-注釈
  62
 4
 100
AcDbText
  10
129.303817749023
  20
-366.65297876293
11
254.303817749023
  21
-366.65297876293
  40
10.375
  50
0.
  72
5
   1
パイプ直軸ブラケット
   7
MS Gothic
 100
AcDbText
   0
TEXT
   5
      326
 100
AcDbEntity
   8
03-寸法
  62
 51
 100
AcDbText
  10
471.52286529541
  20
-255.36246667797
11
614.022874832153
  21
-255.36246667797
  40
12.4499999999999
  50
0.
  72
5
   1
S:935 M:1390 L:1845
   7
MS Gothic
 100
AcDbText
   0
TEXT
   5
      327
 100
AcDbEntity
   8
F0-[L0]
  62
 7
 100
AcDbText
  10
1144.42092895507
  20
-2137.381051883
11
1158.57944488525
  21
-2137.381051883
  40
3.91719014942646
  50
0.
  72
5
   1
Drawer
   7
MS Gothic
 100
AcDbText
   0
TEXT
   5
      328
 100
AcDbEntity
   8
F0-[L0]
  62
 7
 100
AcDbText
  10
987.762851715087
  20
-2137.381051883
11
999.561614990234
  21
-2137.381051883
  40
3.91719014942646
  50
0.
  72
5
   1
Scale
   7
MS Gothic
 100
AcDbText
   0
TEXT
   5
      329
 100
AcDbEntity
   8
F0-[L0]
  62
 7
 100
AcDbText
  10
1238.8581085205
  20
-2137.381051883
11
1264.81536865234
  21
-2137.381051883
  40
3.91719014942646
  50
0.
  72
5
   1
Drawing Day
   7
MS Gothic
 100
AcDbText
   0
TEXT
   5
      32A
 100
AcDbEntity
   8
F0-[L0]
  62
 7
 100
AcDbText
  10
1339.10846710205
  20
-2137.381051883
11
1348.54747772216
  21
-2137.381051883
  40
3.91719014942646
  50
0.
  72
5
   1
Page
   7
MS Gothic
 100
AcDbText
   0
TEXT
   5
      32B
 100
AcDbEntity
   8
F0-[L0]
  62
 7
 100
AcDbText
  10
988.004150390625
  20
-2103.4973848908
11
1016.32118225097
  21
-2103.4973848908
  40
3.91719014942646
  50
0.
  72
5
   1
Project Name
   7
MS Gothic
 100
AcDbText
   0
TEXT
   5
      32C
 100
AcDbEntity
   8
F0-[L0]
  62
 4
 100
AcDbText
  10
1160.9129333496
  20
-2154.4132174103
11
1198.4129333496
  21
-2154.4132174103
  40
10.375
  50
0.
  72
5
   1
Tsuboi
   7
MS Gothic
 100
AcDbText
   0
TEXT
   5
      32D
 100
AcDbEntity
   8
F0-[L0]
  62
 7
 100
AcDbText
  10
801.480455398559
  20
-2136.6120089143
11
907.400588989257
  21
-2136.6120089143
  40
4.50839539170265
  50
0.
  72
5
   1
〒563-0215　大阪府豊能郡豊能町木代164-1
   7
MS Gothic
 100
AcDbText
   0
TEXT
   5
      32E
 100
AcDbEntity
   8
F0-[L0]
  62
 7
 100
AcDbText
  10
801.480455398559
  20
-2146.8418062775
11
899.252891540527
  21
-2146.8418062775
  40
4.50839539170265
  50
0.
  72
5
   1
TEL. 072-743-9025　FAX. 072-743-9043
   7
MS Gothic
 100
AcDbText
   0
TEXT
   5
      32F
 100
AcDbEntity
   8
F0-[L0]
  62
 7
 100
AcDbText
  10
800.849289894104
  20
-2123.9197481721
11
840.849285125732
  21
-2123.9197481721
  40
8.29999999999999
  50
0.
  72
5
   1
有限会社
   7
MS Gothic
 100
AcDbText
   0
TEXT
   5
      330
 100
AcDbEntity
   8
F0-[L0]
  62
 4
 100
AcDbText
  10
743.635350689291
  20
-2147.8900850861
11
767.135350704193
  21
-2147.8900850861
  40
8.29999999999999
  50
0.
  72
5
   1
^@BM%temp%C__Users_owner_Desktop_300ppi_アセット 1_jpg.bmp,8.51292,8.51292,0,0,1,0,255,255,255
   7
MS Gothic
 100
AcDbText
   0
TEXT
   5
      331
 100
AcDbEntity
   8
F0-[L0]
  62
 7
 100
AcDbText
  10
850.726890563964
  20
-2123.9197481721
11
913.226890563964
  21
-2123.9197481721
  40
10.375
  50
0.
  72
5
   1
上手工作所
   7
MS Gothic
 100
AcDbText
   0
TEXT
   5
      332
 100
AcDbEntity
   8
F0-[L0]
  62
 4
 100
AcDbText
  10
1032.69964218139
  20
-2122.3767794221
11
1157.69966125488
  21
-2122.3767794221
  40
10.375
  50
0.
  72
5
   1
真鍮　天吊りハンガー
   7
MS Gothic
 100
AcDbText
   0
TEXT
   5
      333
 100
AcDbEntity
   8
F0-[L0]
  62
 4
 100
AcDbText
  10
-5.2606201171875
  20
-2108.2367647736
11
249.739379882812
  21
-2108.2367647736
  40
8.29999999999999
  50
0.
  72
5
   1
2026.1.5 旧イラレデータから図面作成（内容変更なし）
   7
MS Gothic
 100
AcDbText
   0
TEXT
   5
      334
 100
AcDbEntity
   8
F0-[L0]
  62
 4
 100
AcDbText
  10
1254.16732788085
  20
-2154.4132174103
11
1310.41732788085
  21
-2154.4132174103
  40
10.375
  50
0.
  72
5
   1
2019.4.25
   7
MS Gothic
 100
AcDbText
   0
TEXT
   5
      335
 100
AcDbEntity
   8
F0-[L0]
  62
 3
 100
AcDbText
  10
23.5760498046875
  20
-1262.4428499787
11
752.326017022132
  21
-1262.4428499787
  40
24.8999999999999
  50
0.
  72
5
   1
真鍮 コの字型天吊りハンガーバー（中間パーツ）
   7
MS Gothic
 100
AcDbText
   0
TEXT
   5
      336
 100
AcDbEntity
   8
11-[L1]
  62
 51
 100
AcDbText
  10
428.482265472412
  20
-1677.9398287385
11
428.482265472412
  21
-1662.9398287385
  40
12.4499999999999
  50
90.
  72
5
   1
50
   7
MS Gothic
 100
AcDbText
   0
TEXT
   5
      337
 100
AcDbEntity
   8
02-注釈
  62
 4
 100
AcDbText
  10
339.298591613769
  20
-1765.2202547639
11
420.548591613769
  21
-1765.2202547639
  40
10.375
  50
0.
  72
5
   1
Φ17 丸パイプ
   7
MS Gothic
 100
AcDbText
   0
TEXT
   5
      338
 100
AcDbEntity
   8
F0-[L0]
  62
 4
 100
AcDbText
  10
1045.21780014038
  20
-2154.4132174103
11
1063.96781921386
  21
-2154.4132174103
  40
10.375
  50
0.
  72
5
   1
1/2
   7
MS Gothic
 100
AcDbText
   0
TEXT
   5
      339
 100
AcDbEntity
   8
03-寸法
  62
 51
 100
AcDbText
  10
113.272857666015
  20
-285.63369165355
11
128.272857666015
  21
-285.63369165355
  40
12.4499999999999
  50
0.
  72
5
   1
10
   7
MS Gothic
 100
AcDbText
   0
TEXT
   5
      33A
 100
AcDbEntity
   8
03-寸法
  62
 51
 100
AcDbText
  10
947.497768402099
  20
-426.02698694164
11
947.497768402099
  21
-418.52698694164
  40
12.4499999999999
  50
90.
  72
5
   1
4
   7
MS Gothic
 100
AcDbText
   0
TEXT
   5
      33B
 100
AcDbEntity
   8
03-寸法
  62
 51
 100
AcDbText
  10
1227.00881958007
  20
-426.02698694164
11
1227.00881958007
  21
-418.52698694164
  40
12.4499999999999
  50
90.
  72
5
   1
4
   7
MS Gothic
 100
AcDbText
   0
TEXT
   5
      33C
 100
AcDbEntity
   8
03-寸法
  62
 51
 100
AcDbText
  10
1085.28392791748
  20
-903.91211877758
11
1100.28392791748
  21
-903.91211877758
  40
12.4499999999999
  50
0.
  72
5
   1
50
   7
MS Gothic
 100
AcDbText
   0
TEXT
   5
      33D
 100
AcDbEntity
   8
03-寸法
  62
 51
 100
AcDbText
  10
1135.28392791748
  20
-903.91211877758
11
1150.28392791748
  21
-903.91211877758
  40
12.4499999999999
  50
0.
  72
5
   1
50
   7
MS Gothic
 100
AcDbText
   0
TEXT
   5
      33E
 100
AcDbEntity
   8
03-寸法
  62
 51
 100
AcDbText
  10
1203.30852508544
  20
-870.27701745922
11
1203.30852508544
  21
-855.27701745922
  40
12.4499999999999
  50
90.
  72
5
   1
17
   7
MS Gothic
 100
AcDbText
   0
TEXT
   5
      33F
 100
AcDbEntity
   8
02-注釈
  62
 4
 100
AcDbText
  10
1127.03300476074
  20
-777.48328576976
11
1177.03300476074
  21
-777.48328576976
  40
10.375
  50
0.
  72
5
   1
インロー
   7
MS Gothic
 100
AcDbText
   0
TEXT
   5
      340
 100
AcDbEntity
   8
02-注釈
  62
 4
 100
AcDbText
  10
1127.03300476074
  20
-791.80640588695
11
1245.78300476074
  21
-791.80640588695
  40
10.375
  50
0.
  72
5
   1
丸パイプΦ12.7 t1.5
   7
MS Gothic
 100
AcDbText
   0
TEXT
   5
      341
 100
AcDbEntity
   8
11-[L1]
  62
 51
 100
AcDbText
  10
304.097137451171
  20
-484.0199221223
11
319.097137451171
  21
-484.0199221223
  40
12.4499999999999
  50
0.
  72
5
   1
25
   7
MS Gothic
 100
AcDbText
   0
TEXT
   5
      342
 100
AcDbEntity
   8
12-[L2]
  62
 4
 100
AcDbText
  10
961.943378448486
  20
-1561.4429415314
11
993.193378448486
  21
-1561.4429415314
  40
10.375
  50
0.
  72
5
   1
Φ6.1
   7
MS Gothic
 100
AcDbText
   0
TEXT
   5
      343
 100
AcDbEntity
   8
11-[L1]
  62
 51
 100
AcDbText
  10
668.66337776184
  20
-1804.4414461701
11
751.163378357887
  21
-1804.4414461701
  40
12.4499999999999
  50
0.
  72
5
   1
198,433,583
   7
MS Gothic
 100
AcDbText
   0
TEXT
   5
      344
 100
AcDbEntity
   8
12-[L2]
  62
 51
 100
AcDbText
  10
914.913387298583
  20
-1750.9795321076
11
929.913387298583
  21
-1750.9795321076
  40
12.4499999999999
  50
0.
  72
5
   1
20
   7
MS Gothic
 100
AcDbText
   0
TEXT
   5
      345
 100
AcDbEntity
   8
11-[L1]
  62
 51
 100
AcDbText
  10
473.663387298583
  20
-1583.8507784455
11
481.163387298583
  21
-1583.8507784455
  40
12.4499999999999
  50
0.
  72
5
   1
4
   7
MS Gothic
 100
AcDbText
   0
TEXT
   5
      346
 100
AcDbEntity
   8
11-[L1]
  62
 51
 100
AcDbText
  10
671.363396644592
  20
-1584.3503511994
11
753.863396644592
  21
-1584.3503511994
  40
12.4499999999999
  50
0.
  72
5
   1
194,429,579
   7
MS Gothic
 100
AcDbText
   0
TEXT
   5
      347
 100
AcDbEntity
   8
03-寸法
  62
 51
 100
AcDbText
  10
958.022861480713
  20
-811.77695642406
11
980.522861480712
  21
-811.77695642406
  40
12.4499999999999
  50
0.
  72
5
   1
R40
   7
MS Gothic
 100
AcDbText
   0
TEXT
   5
      348
 100
AcDbEntity
   8
03-寸法
  62
 51
 100
AcDbText
  10
947.497768402099
  20
681.867319241216
11
947.497768402099
  21
689.367319241216
  40
12.4499999999999
  50
90.
  72
5
   1
4
   7
MS Gothic
 100
AcDbText
   0
TEXT
   5
      349
 100
AcDbEntity
   8
03-寸法
  62
 51
 100
AcDbText
  10
1227.00881958007
  20
681.867319241216
11
1227.00881958007
  21
689.367319241216
  40
12.4499999999999
  50
90.
  72
5
   1
4
   7
MS Gothic
 100
AcDbText
   0
TEXT
   5
      34A
 100
AcDbEntity
   8
03-寸法
  62
 51
 100
AcDbText
  10
80.2729034423828
  20
720.962339535406
11
95.2729034423828
  21
720.962339535406
  40
12.4499999999999
  50
0.
  72
5
   1
50
   7
MS Gothic
 100
AcDbText
   0
TEXT
   5
      34B
 100
AcDbEntity
   8
03-寸法
  62
 51
 100
AcDbText
  10
1085.28392791748
  20
203.982168331792
11
1100.28392791748
  21
203.982168331792
  40
12.4499999999999
  50
0.
  72
5
   1
50
   7
MS Gothic
 100
AcDbText
   0
TEXT
   5
      34C
 100
AcDbEntity
   8
03-寸法
  62
 51
 100
AcDbText
  10
1135.28392791748
  20
203.982168331792
11
1150.28392791748
  21
203.982168331792
  40
12.4499999999999
  50
0.
  72
5
   1
50
   7
MS Gothic
 100
AcDbText
   0
TEXT
   5
      34D
 100
AcDbEntity
   8
03-寸法
  62
 51
 100
AcDbText
  10
1203.30852508544
  20
237.617326870611
11
1203.30852508544
  21
252.617326870611
  40
12.4499999999999
  50
90.
  72
5
   1
17
   7
MS Gothic
 100
AcDbText
   0
TEXT
   5
      34E
 100
AcDbEntity
   8
02-注釈
  62
 4
 100
AcDbText
  10
1127.03300476074
  20
330.411096707036
11
1177.03300476074
  21
330.411096707036
  40
10.375
  50
0.
  72
5
   1
インロー
   7
MS Gothic
 100
AcDbText
   0
TEXT
   5
      34F
 100
AcDbEntity
   8
02-注釈
  62
 4
 100
AcDbText
  10
1127.03300476074
  20
316.087976589849
11
1245.78300476074
  21
316.087976589849
  40
10.375
  50
0.
  72
5
   1
丸パイプΦ12.7 t1.5
   7
MS Gothic
 100
AcDbText
   0
TEXT
   5
      350
 100
AcDbEntity
   8
03-寸法
  62
 51
 100
AcDbText
  10
958.022861480713
  20
296.117330685308
11
980.522861480712
  21
296.117330685308
  40
12.4499999999999
  50
0.
  72
5
   1
R40
   7
MS Gothic
 100
AcDbText
   0
ENDSEC
   0
SECTION
   2
OBJECTS
   0
ACDBDICTIONARYWDFLT
   5
      351
 100
AcDbDictionary
 281
1
 100
AcDbDictionaryWithDefault
   0
ENDSEC
   0
EOF
