  0
SECTION
  2
HEADER
  9
$ACADVER
  1
AC1009
  9
$INSBASE
 10
0
 20
0
 30
0
  9
$EXTMIN
 10
0
 20
0
  9
$EXTMAX
 10
1485
 20
1050
  9
$LIMMIN
 10
0
 20
0
  9
$LIMMAX
 10
1485
 20
1050
  9
$LTSCALE
 40
5
  0
ENDSEC
  0
SECTION
  2
TABLES
  0
TABLE
  2
LTYPE
 70
     9
  0
LTYPE
  2
CONTINUOUS
 70
    64
  3
実線
 72
    65
 73
     0
 40
0.0
  0
LTYPE
  2
DASHED1
 70
    64
  3
--  --  --  --  --  --  --  --  
 72
    65
 73
     2
 40
2.5
 49
1.25
 49
-1.25
  0
LTYPE
  2
DASHED2
 70
    64
  3
----    ----    ----    ----    
 72
    65
 73
     2
 40
5.0
 49
2.5
 49
-2.5
  0
LTYPE
  2
DASHED3
 70
    64
  3
------  ------  ------  ------  
 72
    65
 73
     2
 40
5.0
 49
3.75
 49
-1.25
  0
LTYPE
  2
CENTER1
 70
    64
  3
----- - ----- - ----- - ----- - 
 72
    65
 73
     4
 40
10.0
 49
6.25
 49
-1.25
 49
1.25
 49
-1.25
  0
LTYPE
  2
CENTER2
 70
    64
  3
----------  --  ----------  --  
 72
    65
 73
     4
 40
20.0
 49
12.5
 49
-2.5
 49
2.5
 49
-2.5
  0
LTYPE
  2
PHANTOM1
 70
    64
  3
--- - - --- - - --- - - --- - - 
 72
    65
 73
     6
 40
10.0
 49
3.25
 49
-1.25
 49
1.25
 49
-1.25
 49
1.25
 49
-1.25
  0
LTYPE
  2
PHANTOM2
 70
    64
  3
--------  -  -  --------  -  -  
 72
    65
 73
     6
 40
20.0
 49
10.0
 49
-2.5
 49
1.25
 49
-2.5
 49
1.25
 49
-2.5
  0
LTYPE
  2
DOT
 70
    64
  3
-   -   -   -   -   -   -   -   
 72
    65
 73
     2
 40
2.5
 49
0.625
 49
-1.875
  0
LTYPE
  2
DUMMY
 70
    64
  3
ダミー
 72
    65
 73
     0
 40
0.0
  0
LTYPE
  2
RAND1
 70
    64
  3
ランダム線1
 72
    65
 73
     4
 40
10.0
 49
1.0
 49
-2.0
 49
3.0
 49
-4.0
  0
LTYPE
  2
RAND2
 70
    64
  3
ランダム線2
 72
    65
 73
     4
 40
14.0
 49
2.0
 49
-3.0
 49
4.0
 49
-5.0
  0
LTYPE
  2
RAND3
 70
    64
  3
ランダム線3
 72
    65
 73
     4
 40
18.0
 49
3.0
 49
-4.0
 49
5.0
 49
-6.0
  0
LTYPE
  2
RAND4
 70
    64
  3
ランダム線4
 72
    65
 73
     4
 40
22.0
 49
4.0
 49
-5.0
 49
6.0
 49
-7.0
  0
LTYPE
  2
RAND5
 70
    64
  3
ランダム線5
 72
    65
 73
     4
 40
26.0
 49
5.0
 49
-6.0
 49
7.0
 49
-8.0
  0
LTYPE
  2
LONG1
 70
    64
  3
----------  --  ----------  --  
 72
    65
 73
     4
 40
40.0
 49
32.5
 49
-2.5
 49
2.5
 49
-2.5
  0
LTYPE
  2
LONG2
 70
    64
  3
--------  -  -  --------  -  -  
 72
    65
 73
     6
 40
40.0
 49
30.0
 49
-2.5
 49
1.25
 49
-2.5
 49
1.25
 49
-2.5
  0
LTYPE
  2
LONG3
 70
    64
  3
+++++++++++++++..+++++++++++++++
 72
    65
 73
     2
 40
40.0
 49
37.5
 49
-2.5
  0
LTYPE
  2
LONG4
 70
    64
  3
+++++++++++++++..+++++++++++++++
 72
    65
 73
     2
 40
80.0
 49
75.0
 49
-5.0
  0
LTYPE
  2
LONG5
 70
    64
  3
----------  --  ----------  --  
 72
    65
 73
     4
 40
60.0
 49
37.5
 49
-7.5
 49
7.5
 49
-7.5
  0
LTYPE
  2
dashed
 70
   64
  3
-------   -------------   ------
 72
   65
 73
    2
 40
7.5
 49
6
 49
-1.5
  0
LTYPE
  2
dashed_spaced
 70
   64
  3
----        --------        ----
 72
   65
 73
    2
 40
12
 49
6
 49
-6
  0
LTYPE
  2
long_dashed_dotted
 70
   64
  3
------------- --- --------------
 72
   65
 73
    4
 40
15.25
 49
12
 49
-1.5
 49
0.25
 49
-1.5
  0
LTYPE
  2
long_dashed_double-dotted
 70
   64
  3
----------- --- --- ------------
 72
   65
 73
    6
 40
17
 49
12
 49
-1.5
 49
0.25
 49
-1.5
 49
0.25
 49
-1.5
  0
LTYPE
  2
long_dashed_triplicate-dotted
 70
   64
  3
--------- --- --- --- ----------
 72
   65
 73
    8
 40
18.75
 49
12
 49
-1.5
 49
0.25
 49
-1.5
 49
0.25
 49
-1.5
 49
0.25
 49
-1.5
  0
LTYPE
  2
dotted
 70
   64
  3
   -       -       -       -    
 72
   65
 73
    2
 40
1.75
 49
0.25
 49
-1.5
  0
LTYPE
  2
chain
 70
   64
  3
-------------- -- --------------
 72
   65
 73
    4
 40
18.5
 49
12
 49
-1.5
 49
3.5
 49
-1.5
  0
LTYPE
  2
chain_double_dash
 70
   64
  3
------------ -- -- -------------
 72
   65
 73
    6
 40
23.5
 49
12
 49
-1.5
 49
3.5
 49
-1.5
 49
3.5
 49
-1.5
  0
LTYPE
  2
dashed_dotted
 70
   64
  3
-----------     -     ----------
 72
   65
 73
    4
 40
9.25
 49
6
 49
-1.5
 49
0.25
 49
-1.5
  0
LTYPE
  2
double-dashed_dotted
 70
   64
  3
------   -----------   -   -----
 72
   65
 73
    6
 40
16.75
 49
6
 49
-1.5
 49
6
 49
-1.5
 49
0.25
 49
-1.5
  0
LTYPE
  2
dashed_double-dotted
 70
   64
  3
---------    -    -    ---------
 72
   65
 73
    6
 40
11
 49
6
 49
-1.5
 49
0.25
 49
-1.5
 49
0.25
 49
-1.5
  0
LTYPE
  2
double-dashed_double-dotted
 70
   64
  3
-----   ---------   -   -   ----
 72
   65
 73
    8
 40
18.5
 49
6
 49
-1.5
 49
6
 49
-1.5
 49
0.25
 49
-1.5
 49
0.25
 49
-1.5
  0
LTYPE
  2
dashed_triplicate-dotted
 70
   64
  3
-------    -    -    -    ------
 72
   65
 73
    8
 40
12.75
 49
6
 49
-1.5
 49
0.25
 49
-1.5
 49
0.25
 49
-1.5
 49
0.25
 49
-1.5
  0
LTYPE
  2
double-dashed_triplicate-dotted
 70
   64
  3
-----  ---------  -  -  -  -----
 72
   65
 73
   10
 40
20.25
 49
6
 49
-1.5
 49
6
 49
-1.5
 49
0.25
 49
-1.5
 49
0.25
 49
-1.5
 49
0.25
 49
-1.5
  0
LTYPE
  2
undefined
 70
   64
  3
--------------------------------
 72
   65
 73
    0
 40
0
  0
LTYPE
  2
_
 70
   64
  3
                                
 72
   65
 73
    0
 40
0
  0
LTYPE
  2
__18
 70
   64
  3
                                
 72
   65
 73
    0
 40
0
  0
LTYPE
  2
__19
 70
   64
  3
                                
 72
   65
 73
    0
 40
0
  0
LTYPE
  2
__20
 70
   64
  3
                                
 72
   65
 73
    0
 40
0
  0
LTYPE
  2
__21
 70
   64
  3
                                
 72
   65
 73
    0
 40
0
  0
LTYPE
  2
__22
 70
   64
  3
                                
 72
   65
 73
    0
 40
0
  0
LTYPE
  2
__23
 70
   64
  3
                                
 72
   65
 73
    0
 40
0
  0
LTYPE
  2
__24
 70
   64
  3
                                
 72
   65
 73
    0
 40
0
  0
LTYPE
  2
__25
 70
   64
  3
                                
 72
   65
 73
    0
 40
0
  0
LTYPE
  2
__26
 70
   64
  3
                                
 72
   65
 73
    0
 40
0
  0
LTYPE
  2
__27
 70
   64
  3
                                
 72
   65
 73
    0
 40
0
  0
LTYPE
  2
__28
 70
   64
  3
                                
 72
   65
 73
    0
 40
0
  0
LTYPE
  2
__29
 70
   64
  3
                                
 72
   65
 73
    0
 40
0
  0
LTYPE
  2
__30
 70
   64
  3
                                
 72
   65
 73
    0
 40
0
  0
LTYPE
  2
__31
 70
   64
  3
                                
 72
   65
 73
    0
 40
0
  0
LTYPE
  2
__32
 70
   64
  3
                                
 72
   65
 73
    0
 40
0
  0
ENDTAB
  0
TABLE
  2
STYLE
  5
3
100
AcDbSymbolTable
 70
     1
  0
STYLE
  5
10
100
AcDbSymbolTableRecord
100
AcDbTextStyleTableRecord
  2
STANDARD
 70
     0
 40
0.0
 41
1.0
 50
0.0
 71
     0
 42
0.2
  3
txt
  4
bigfont.shx
  0
STYLE
  5
26
100
AcDbSymbolTableRecord
100
AcDbTextStyleTableRecord
  2
TATEGAKI
 70
    68
 40
0.0
 41
1.0
 50
0.0
 71
     0
 42
1.0
  3
txt
  4
bigfont.shx
  0
ENDTAB
  0
TABLE
  2
LAYER
 70
    9
  0
LAYER
  2
_0-0_基準線
 70
   64
 62
    7
  6
CONTINUOUS
  0
LAYER
  2
_0-1_基本線
 70
   64
 62
    7
  6
CONTINUOUS
  0
LAYER
  2
_0-2_注釈
 70
   64
 62
    7
  6
CONTINUOUS
  0
LAYER
  2
_0-3_寸法
 70
   64
 62
    7
  6
CONTINUOUS
  0
LAYER
  2
_1-1_
 70
   64
 62
    7
  6
CONTINUOUS
  0
LAYER
  2
_1-3_
 70
   64
 62
    7
  6
CONTINUOUS
  0
LAYER
  2
_f-0_
 70
   64
 62
    7
  6
CONTINUOUS
  0
LAYER
  2
_f-f_
 70
   64
 62
    7
  6
CONTINUOUS
  0
LAYER
  2
ADD_LINE
 70
   64
 62
    7
  6
CONTINUOUS
  0
ENDTAB
  0
ENDSEC
  0
SECTION
  2
BLOCKS
  0
BLOCK
  2
-000-fai_
 70
   64
 10
0
 20
0
 30
0
  0
CIRCLE
  8
_0-1_基本線
  6
CONTINUOUS
 62
    7
 10
-0.000000000000071
 20
0
 40
2.25
  0
CIRCLE
  8
_0-1_基本線
  6
CONTINUOUS
 62
    7
 10
-0.000000000000071
 20
0
 40
4
  0
LINE
  8
_0-1_基本線
  6
DASHED1
 62
   28
 10
-0.000000000000071
 20
0
 11
-0.000000000000071
 21
5.3394913474127392
  0
LINE
  8
_0-1_基本線
  6
DASHED1
 62
   28
 10
-0.000000000000071
 20
0
 11
-5.3394913474127747
 21
0
  0
LINE
  8
_0-1_基本線
  6
DASHED1
 62
   28
 10
-0.000000000000071
 20
0
 11
-0.000000000000071
 21
-5.3394913474127392
  0
LINE
  8
_0-1_基本線
  6
DASHED1
 62
   28
 10
-0.000000000000071
 20
0
 11
5.3394913474126326
 21
0
  0
ENDBLK
  0
ENDSEC
  0
SECTION
  2
ENTITIES
  0
LINE
  8
_f-0_
  6
CONTINUOUS
 62
    9
 10
1411.19714513959
 20
1042.6961909107828
 11
-38.802854860410036
 21
1042.6961909107828
  0
LINE
  8
_f-0_
  6
CONTINUOUS
 62
    7
 10
-38.802854860410036
 20
532.69619091078288
 11
-11.708445970134846
 21
532.69619091078288
  0
LINE
  8
_f-0_
  6
CONTINUOUS
 62
    9
 10
-38.802854860410036
 20
22.696190910782831
 11
1411.19714513959
 21
22.696190910782831
  0
LINE
  8
_f-0_
  6
CONTINUOUS
 62
    9
 10
-38.802854860410036
 20
1042.6961909107828
 11
-38.802854860410036
 21
22.696190910782831
  0
LINE
  8
_f-0_
  6
CONTINUOUS
 62
    7
 10
686.17067669650145
 20
1011.3865261219584
 11
686.17067669650145
 21
1038.4809343277718
  0
LINE
  8
_f-0_
  6
CONTINUOUS
 62
    7
 10
686.17067669650145
 20
26.912336833205188
 11
686.17067669650145
 21
54.006745723481515
  0
LINE
  8
_f-0_
  6
CONTINUOUS
 62
    7
 10
980.20069767752806
 20
121.28965981345999
 11
980.20069767752806
 21
54.006745723481515
  0
LINE
  8
_f-0_
  6
CONTINUOUS
 62
    7
 10
1232.4365485494624
 20
87.647313972599647
 11
1232.4365485494624
 21
54.006745723481515
  0
LINE
  8
_f-0_
  6
CONTINUOUS
 62
    7
 10
1136.6236122389361
 20
87.647313972599647
 11
1136.6236122389361
 21
54.006745723481515
  0
LINE
  8
_f-0_
  6
CONTINUOUS
 62
    7
 10
980.20069767752806
 20
87.647313972599647
 11
1384.0509036339879
 21
87.647313972599647
  0
TEXT
  8
_f-0_
 62
    7
 10
1144.4209369367533
 20
78.380928754266676
 40
4.7195060832206081
 41
1.0000000000000135
 50
0
  1
Drawer
  0
TEXT
  8
_f-0_
 62
    7
 10
987.76285275716395
 20
78.380928754266676
 40
4.7195060832206081
 41
0.9999999999999769
 50
0
  1
Scale
  0
TEXT
  8
_f-0_
 62
    7
 10
1238.858102265344
 20
78.380928754266676
 40
4.7195060832206081
 41
0.9999999999999968
 50
0
  1
Drawing Day
  0
LINE
  8
_f-0_
  6
CONTINUOUS
 62
    7
 10
1332.6864661862371
 20
87.647313972599647
 11
1332.6864661862371
 21
54.006745723481515
  0
TEXT
  8
_f-0_
 62
    7
 10
1339.108461299879
 20
78.380928754266676
 40
4.7195060832206081
 41
1.0000000000000195
 50
0
  1
Page
  0
TEXT
  8
_f-0_
 62
    7
 10
988.00414694906953
 20
112.26454817151051
 40
4.7195060832206081
 41
0.9999999999999972
 50
0
  1
Project Name
  0
LINE
  8
_f-0_
  6
CONTINUOUS
 62
    7
 10
1384.0509036339879
 20
54.006745723481515
 11
686.17067669650145
 21
54.006745723481515
  0
LINE
  8
_f-0_
  6
CONTINUOUS
 62
    7
 10
686.17067669650145
 20
54.006745723481515
 11
-11.708445970134846
 21
54.006745723481515
  0
LINE
  8
_f-0_
  6
CONTINUOUS
 62
    7
 10
-11.708445970134846
 20
54.006745723481515
 11
-11.708445970134846
 21
532.69619091078288
  0
LINE
  8
_f-0_
  6
CONTINUOUS
 62
    7
 10
-11.708445970134846
 20
532.69619091078288
 11
-11.708445970134846
 21
1011.3865261219584
  0
LINE
  8
_f-0_
  6
CONTINUOUS
 62
    7
 10
-11.708445970134846
 20
1011.3865261219584
 11
686.17067669650145
 21
1011.3865261219584
  0
LINE
  8
_f-0_
  6
CONTINUOUS
 62
    7
 10
686.17067669650145
 20
1011.3865261219584
 11
1384.0509036339879
 21
1011.3865261219584
  0
LINE
  8
_f-0_
  6
CONTINUOUS
 62
    7
 10
1384.0509036339879
 20
1011.3865261219584
 11
1384.0509036339879
 21
532.69619091078288
  0
LINE
  8
_f-0_
  6
CONTINUOUS
 62
    7
 10
1384.0509036339879
 20
532.69619091078288
 11
1384.0509036339879
 21
54.006745723481515
  0
LINE
  8
_f-0_
  6
CONTINUOUS
 62
    9
 10
1411.19714513959
 20
22.696190910782831
 11
1411.19714513959
 21
1042.6961909107828
  0
LINE
  8
_f-0_
  6
CONTINUOUS
 62
    7
 10
1411.1442082534128
 20
532.69619091078288
 11
1384.0497993631377
 21
532.69619091078288
  0
LINE
  8
_f-0_
  6
CONTINUOUS
 62
    9
 10
1160.9129391704339
 20
62.717932957939837
 11
1160.9129391704339
 21
60.349254500753204
  0
TEXT
  8
_f-0_
 62
    4
 10
1160.9129391704339
 20
61.348540724878972
 40
12.5
 41
1
 50
0
  1
Tsuboi
  0
LINE
  8
_f-0_
  6
CONTINUOUS
 62
    7
 10
686.17156549234073
 20
121.28965981345999
 11
686.17156549234073
 21
54.006745723481515
  0
LINE
  8
_f-0_
  6
CONTINUOUS
 62
    7
 10
1384.0509036339879
 20
121.28965981345999
 11
-11.708445970134846
 21
121.28965981345999
  0
LINE
  8
_f-f_
  6
CONTINUOUS
 62
    7
 10
686.17156549234073
 20
104.46893129096537
 11
-11.708445970134846
 21
104.46893129096537
  0
LINE
  8
_f-f_
  6
CONTINUOUS
 62
    7
 10
686.17156549234073
 20
87.648202768470753
 11
-11.708445970134846
 21
87.648202768470753
  0
LINE
  8
_f-f_
  6
CONTINUOUS
 62
    7
 10
686.17156549234073
 20
70.827474245976134
 11
-11.708445970134846
 21
70.827474245976134
  0
LINE
  8
_f-f_
  6
CONTINUOUS
 62
    7
 10
337.23155976110291
 20
54.006745723481515
 11
337.23155976110291
 21
121.28965981345999
  0
LINE
  8
_f-0_
  6
DASHED1
 62
    9
 10
-38.802854860410036
 20
22.696190910782831
 11
1411.19714513959
 21
1042.6961909107828
  0
LINE
  8
_f-0_
  6
DASHED1
 62
    9
 10
-38.802854860410036
 20
1042.6961909107828
 11
1411.19714513959
 21
22.696190910782831
  0
LINE
  8
_f-0_
  6
DASHED1
 62
    9
 10
-5.2606383447451321
 20
121.28965981345999
 11
-5.2606383447451321
 21
54.006745723481515
  0
LINE
  8
_f-0_
  6
DASHED1
 62
    9
 10
-11.708445970134846
 20
107.52504824596179
 11
686.17156549234073
 21
107.52504824596179
  0
LINE
  8
_f-0_
  6
DASHED1
 62
    9
 10
-11.708445970134846
 20
90.704319723467179
 11
686.17156549234073
 21
90.704319723467179
  0
LINE
  8
_f-0_
  6
DASHED1
 62
    9
 10
-11.708445970134846
 20
73.88359120097256
 11
686.17156549234073
 21
73.88359120097256
  0
LINE
  8
_f-0_
  6
DASHED1
 62
    9
 10
-11.708445970134846
 20
57.062862678477941
 11
686.17156549234073
 21
57.062862678477941
  0
LINE
  8
_f-0_
  6
DASHED1
 62
    9
 10
343.67936738649262
 20
121.28965981345999
 11
343.67936738649262
 21
54.006745723481515
  0
LINE
  8
_f-0_
  6
DASHED1
 62
    9
 10
1045.2178007772224
 20
63.421134374917116
 11
1045.2178007772224
 21
59.720074285562958
  0
LINE
  8
_f-0_
  6
DASHED1
 62
    9
 10
980.20069767752806
 20
61.348540724878972
 11
1332.6864661862371
 21
61.348540724878972
  0
LINE
  8
_f-0_
  6
DASHED1
 62
    9
 10
1254.1673165551944
 20
62.360163815969045
 11
1254.1673165551944
 21
59.794095487350134
  0
TEXT
  8
_f-0_
 62
    7
 10
801.48045676601486
 20
79.1499495215632
 40
5.431801932071778
 41
0.9999999999999981
 50
0
  1
〒563-0215　大阪府豊能郡豊能町木代164-1
  0
TEXT
  8
_f-0_
 62
    7
 10
801.48045676601486
 20
68.920117342645141
 40
5.431801932071778
 41
0.9999999999999975
 50
0
  1
TEL. 072-743-9025　FAX. 072-743-9043
  0
TEXT
  8
_f-0_
 62
    7
 10
800.84928955142731
 20
91.842215355403311
 40
10
 41
1
 50
0
  1
有限会社
  0
TEXT
  8
_f-0_
 62
    4
 10
743.63535065416544
 20
67.871866111846372
 40
10
 41
0.05
 50
0
  1
^@BM%temp%C__Users_owner_Desktop_300ppi_アセット 1_jpg.bmp,8.51292,8.51292,0,0,1,0,255,255,255
  0
TEXT
  8
_f-0_
 62
    7
 10
850.72689020704547
 20
91.842215355403311
 40
12.5
 41
1
 50
0
  1
上手工作所
  0
TEXT
  8
_f-0_
 62
    4
 10
1045.2178007772224
 20
61.348540724878972
 40
12.5
 41
1
 50
0
  1
1/5
  0
ARC
  8
_0-1_基本線
  6
CONTINUOUS
 62
    7
 10
106.96779010238891
 20
815.3850255972693
 40
30
 50
21.202587060146811
 51
347.06050173152459
  0
ARC
  8
_0-1_基本線
  6
CONTINUOUS
 62
    7
 10
106.96779010238891
 20
815.3850255972693
 40
10.850000000000001
 50
90
 51
270
  0
INSERT
  2
-000-fai_
  8
_0-1_基本線
 10
106.96779010238884
 20
793.3850255972693
 41
1
 42
1
 50
180
  0
INSERT
  2
-000-fai_
  8
_0-1_基本線
 10
84.96779010238896
 20
815.3850255972693
 41
1
 42
1
 50
90
  0
INSERT
  2
-000-fai_
  8
_0-1_基本線
 10
106.96779010238898
 20
837.38502559726941
 41
1
 42
1
 50
0
  0
LINE
  8
_0-1_基本線
  6
CONTINUOUS
 62
    7
 10
96.117790102388909
 20
286.83136449716005
 11
96.117790102388909
 21
659.13136449716012
  0
ARC
  8
_0-1_基本線
  6
CONTINUOUS
 62
    7
 10
167.81779010238892
 20
286.83136449716005
 40
71.700000000000002
 50
180
 51
270
  0
ARC
  8
_0-1_基本線
  6
CONTINUOUS
 62
    7
 10
167.81779010238892
 20
286.83136449716005
 40
50
 50
180
 51
270
  0
LINE
  8
_0-1_基本線
  6
CONTINUOUS
 62
    7
 10
117.81779010238892
 20
286.83136449716005
 11
117.81779010238892
 21
659.13136449716012
  0
LINE
  8
_0-1_基本線
  6
CONTINUOUS
 62
    7
 10
136.9677901023889
 20
659.13136449716012
 11
76.967790102388846
 21
659.13136449716012
  0
LINE
  8
_0-1_基本線
  6
CONTINUOUS
 62
    7
 10
76.967790102388846
 20
665.13136449716
 11
136.9677901023889
 21
665.13136449716
  0
LINE
  8
_0-1_基本線
  6
CONTINUOUS
 62
    7
 10
76.967790102388846
 20
659.13136449716012
 11
76.967790102388846
 21
665.13136449716
  0
LINE
  8
_0-1_基本線
  6
CONTINUOUS
 62
    7
 10
136.9677901023889
 20
665.13136449716
 11
136.9677901023889
 21
659.13136449716012
  0
LINE
  8
_0-1_基本線
  6
CONTINUOUS
 62
    7
 10
1331.5293941979518
 20
286.83136449715999
 11
1331.5293941979518
 21
659.13136449715989
  0
ARC
  8
_0-1_基本線
  6
CONTINUOUS
 62
    7
 10
1259.829394197952
 20
286.83136449715999
 40
71.700000000000002
 50
270
 51
0
  0
ARC
  8
_0-1_基本線
  6
CONTINUOUS
 62
    7
 10
1259.829394197952
 20
286.83136449715999
 40
50
 50
270
 51
0
  0
LINE
  8
_0-1_基本線
  6
CONTINUOUS
 62
    7
 10
1309.829394197952
 20
286.83136449715999
 11
1309.829394197952
 21
659.13136449715989
  0
LINE
  8
_0-1_基本線
  6
CONTINUOUS
 62
    7
 10
1290.6793941979522
 20
659.13136449715989
 11
1350.6793941979522
 21
659.13136449715989
  0
LINE
  8
_0-1_基本線
  6
CONTINUOUS
 62
    7
 10
1350.6793941979522
 20
665.13136449716
 11
1290.6793941979522
 21
665.13136449716
  0
LINE
  8
_0-1_基本線
  6
CONTINUOUS
 62
    7
 10
1350.6793941979522
 20
659.13136449715989
 11
1350.6793941979522
 21
665.13136449716
  0
LINE
  8
_0-1_基本線
  6
CONTINUOUS
 62
    7
 10
1290.6793941979522
 20
665.13136449716
 11
1290.6793941979522
 21
659.13136449715989
  0
LINE
  8
_0-1_基本線
  6
CONTINUOUS
 62
    7
 10
266.11779010238888
 20
804.53502559726928
 11
266.11779010238888
 21
826.23502559726944
  0
LINE
  8
_0-1_基本線
  6
CONTINUOUS
 62
    7
 10
1161.5293941979521
 20
236.83136449716005
 11
1161.5293941979521
 21
215.13136449716003
  0
LINE
  8
_0-1_基本線
  6
CONTINUOUS
 62
    7
 10
1161.5293941979521
 20
215.13136449716003
 11
1259.829394197952
 21
215.13136449716003
  0
LINE
  8
_0-1_基本線
  6
CONTINUOUS
 62
    7
 10
1259.829394197952
 20
236.83136449716005
 11
1161.5293941979521
 21
236.83136449716005
  0
LINE
  8
_0-1_基本線
  6
CONTINUOUS
 62
    7
 10
1111.5293941979521
 20
233.98136449716002
 11
1111.5293941979521
 21
217.98136449716008
  0
LINE
  8
_0-1_基本線
  6
CONTINUOUS
 62
    7
 10
1161.5293941979521
 20
233.98136449716002
 11
1111.5293941979521
 21
233.98136449716002
  0
LINE
  8
_0-1_基本線
  6
CONTINUOUS
 62
    7
 10
1161.5293941979521
 20
217.98136449716008
 11
1111.5293941979521
 21
217.98136449716008
  0
LINE
  8
_0-1_基本線
  6
CONTINUOUS
 62
    7
 10
266.11779010238888
 20
236.83136449716005
 11
266.11779010238888
 21
215.13136449716003
  0
LINE
  8
_0-1_基本線
  6
CONTINUOUS
 62
    7
 10
266.11779010238888
 20
215.13136449716003
 11
167.81779010238892
 21
215.13136449716003
  0
LINE
  8
_0-1_基本線
  6
CONTINUOUS
 62
    7
 10
167.81779010238892
 20
236.83136449716005
 11
266.11779010238888
 21
236.83136449716005
  0
LINE
  8
_0-1_基本線
  6
CONTINUOUS
 62
    7
 10
106.96779010238891
 20
804.53502559726928
 11
1017.2677901023888
 21
804.53502559726928
  0
LINE
  8
_0-1_基本線
  6
CONTINUOUS
 62
    7
 10
106.96779010238891
 20
826.23502559726944
 11
1017.2677901023888
 21
826.23502559726944
  0
ARC
  8
_0-1_基本線
  6
CONTINUOUS
 62
    7
 10
1017.2677901023888
 20
815.3850255972693
 40
10.850000000000001
 50
270
 51
90
  0
INSERT
  2
-000-fai_
  8
_0-1_基本線
 10
1017.2677901023889
 20
793.3850255972693
 41
-1
 42
1
 50
-180
  0
INSERT
  2
-000-fai_
  8
_0-1_基本線
 10
1039.2677901023889
 20
815.3850255972693
 41
-1
 42
1
 50
-90
  0
INSERT
  2
-000-fai_
  8
_0-1_基本線
 10
1017.2677901023888
 20
837.38502559726941
 41
-1
 42
1
 50
0
  0
LINE
  8
_0-1_基本線
  6
CONTINUOUS
 62
    7
 10
1028.1177901023888
 20
286.83136449715999
 11
1028.1177901023888
 21
659.13136449715989
  0
ARC
  8
_0-1_基本線
  6
CONTINUOUS
 62
    7
 10
956.41779010238894
 20
286.83136449715999
 40
71.700000000000002
 50
270
 51
0
  0
ARC
  8
_0-1_基本線
  6
CONTINUOUS
 62
    7
 10
956.41779010238894
 20
286.83136449715999
 40
50
 50
270
 51
0
  0
LINE
  8
_0-1_基本線
  6
CONTINUOUS
 62
    7
 10
1006.4177901023889
 20
286.83136449715999
 11
1006.4177901023889
 21
659.13136449715989
  0
LINE
  8
_0-1_基本線
  6
CONTINUOUS
 62
    7
 10
987.26779010238885
 20
659.13136449715989
 11
1047.2677901023889
 21
659.13136449715989
  0
LINE
  8
_0-1_基本線
  6
CONTINUOUS
 62
    7
 10
1047.2677901023889
 20
665.13136449716
 11
987.26779010238885
 21
665.13136449716
  0
LINE
  8
_0-1_基本線
  6
CONTINUOUS
 62
    7
 10
1047.2677901023889
 20
659.13136449715989
 11
1047.2677901023889
 21
665.13136449716
  0
LINE
  8
_0-1_基本線
  6
CONTINUOUS
 62
    7
 10
987.26779010238885
 20
665.13136449716
 11
987.26779010238885
 21
659.13136449715989
  0
LINE
  8
_0-1_基本線
  6
CONTINUOUS
 62
    7
 10
858.11779010238888
 20
804.53502559726928
 11
858.11779010238888
 21
826.23502559726944
  0
LINE
  8
_0-1_基本線
  6
CONTINUOUS
 62
    7
 10
878.11779010238888
 20
215.13136449716003
 11
956.41779010238894
 21
215.13136449716003
  0
LINE
  8
_0-1_基本線
  6
CONTINUOUS
 62
    7
 10
956.41779010238894
 20
236.83136449716005
 11
878.11779010238888
 21
236.83136449716005
  0
LINE
  8
_0-1_基本線
  6
CONTINUOUS
 62
    7
 10
858.11779010238888
 20
236.83136449716002
 11
858.11779010238888
 21
215.13136449716
  0
LINE
  8
_0-1_基本線
  6
CONTINUOUS
 62
    7
 10
878.11779010238888
 20
215.13136449716003
 11
266.11779010238888
 21
215.13136449716003
  0
LINE
  8
_0-1_基本線
  6
CONTINUOUS
 62
    7
 10
266.11779010238888
 20
236.83136449716005
 11
878.11779010238888
 21
236.83136449716005
  0
ARC
  8
_0-1_基本線
  6
CONTINUOUS
 62
    7
 10
1017.2677901023888
 20
815.3850255972693
 40
30
 50
201.20258706014686
 51
158.79741293985318
  0
TEXT
  8
_f-0_
 62
    4
 10
1032.6996433551491
 20
93.384984629554708
 40
12.5
 41
1
 50
0
  1
【BOU】天吊りハンガーバー
  0
TEXT
  8
_f-0_
 62
    4
 10
1254.1673165551944
 20
61.348540724878972
 40
12.5
 41
1
 50
0
  1
2019.4.25
  0
TEXT
  8
_f-0_
 62
    4
 10
-5.2606383447451321
 20
107.52504824596179
 40
10
 41
1
 50
0
  1
2025.12.16 旧イラレデータから図面作成（内容変更なし）
  0
LINE
  8
_f-0_
  6
CONTINUOUS
 62
    7
 10
-38.802854860410036
 20
-535.66985004484865
 11
-11.708445970134846
 21
-535.66985004484865
  0
LINE
  8
_f-0_
  6
CONTINUOUS
 62
    9
 10
-38.802854860410036
 20
-1045.6698500448487
 11
1411.19714513959
 21
-1045.6698500448487
  0
LINE
  8
_f-0_
  6
CONTINUOUS
 62
    9
 10
1411.19714513959
 20
-25.669850044848629
 11
-38.802854860410036
 21
-25.669850044848629
  0
LINE
  8
_f-0_
  6
CONTINUOUS
 62
    9
 10
-38.802854860410036
 20
-25.669850044848629
 11
-38.802854860410036
 21
-1045.6698500448487
  0
LINE
  8
_f-0_
  6
CONTINUOUS
 62
    7
 10
686.17067669650145
 20
-56.97951483367305
 11
686.17067669650145
 21
-29.885106627859698
  0
LINE
  8
_f-0_
  6
CONTINUOUS
 62
    7
 10
686.17067669650145
 20
-1041.4537041224264
 11
686.17067669650145
 21
-1014.35929523215
  0
LINE
  8
_f-0_
  6
CONTINUOUS
 62
    7
 10
980.20069767752806
 20
-947.07638114217161
 11
980.20069767752806
 21
-1014.35929523215
  0
LINE
  8
_f-0_
  6
CONTINUOUS
 62
    7
 10
1232.4365485494624
 20
-980.71872698303195
 11
1232.4365485494624
 21
-1014.35929523215
  0
LINE
  8
_f-0_
  6
CONTINUOUS
 62
    7
 10
1136.6236122389361
 20
-980.71872698303195
 11
1136.6236122389361
 21
-1014.35929523215
  0
LINE
  8
_f-0_
  6
CONTINUOUS
 62
    7
 10
980.20069767752806
 20
-980.71872698303195
 11
1384.0509036339879
 21
-980.71872698303195
  0
TEXT
  8
_f-0_
 62
    7
 10
1144.4209369367533
 20
-989.98511220136492
 40
4.7195060832206081
 41
1.0000000000000135
 50
0
  1
Drawer
  0
TEXT
  8
_f-0_
 62
    7
 10
987.76285275716395
 20
-989.98511220136492
 40
4.7195060832206081
 41
0.9999999999999769
 50
0
  1
Scale
  0
TEXT
  8
_f-0_
 62
    7
 10
1238.858102265344
 20
-989.98511220136492
 40
4.7195060832206081
 41
0.9999999999999968
 50
0
  1
Drawing Day
  0
LINE
  8
_f-0_
  6
CONTINUOUS
 62
    7
 10
1332.6864661862371
 20
-980.71872698303195
 11
1332.6864661862371
 21
-1014.35929523215
  0
TEXT
  8
_f-0_
 62
    7
 10
1339.108461299879
 20
-989.98511220136492
 40
4.7195060832206081
 41
1.0000000000000195
 50
0
  1
Page
  0
TEXT
  8
_f-0_
 62
    7
 10
988.00414694906953
 20
-956.10149278412109
 40
4.7195060832206081
 41
0.9999999999999972
 50
0
  1
Project Name
  0
LINE
  8
_f-0_
  6
CONTINUOUS
 62
    7
 10
1384.0509036339879
 20
-1014.35929523215
 11
686.17067669650145
 21
-1014.35929523215
  0
LINE
  8
_f-0_
  6
CONTINUOUS
 62
    7
 10
686.17067669650145
 20
-1014.35929523215
 11
-11.708445970134846
 21
-1014.35929523215
  0
LINE
  8
_f-0_
  6
CONTINUOUS
 62
    7
 10
-11.708445970134846
 20
-1014.35929523215
 11
-11.708445970134846
 21
-535.66985004484865
  0
LINE
  8
_f-0_
  6
CONTINUOUS
 62
    7
 10
-11.708445970134846
 20
-535.66985004484865
 11
-11.708445970134846
 21
-56.97951483367305
  0
LINE
  8
_f-0_
  6
CONTINUOUS
 62
    7
 10
-11.708445970134846
 20
-56.97951483367305
 11
686.17067669650145
 21
-56.97951483367305
  0
LINE
  8
_f-0_
  6
CONTINUOUS
 62
    7
 10
686.17067669650145
 20
-56.97951483367305
 11
1384.0509036339879
 21
-56.97951483367305
  0
LINE
  8
_f-0_
  6
CONTINUOUS
 62
    7
 10
1384.0509036339879
 20
-56.97951483367305
 11
1384.0509036339879
 21
-535.66985004484865
  0
LINE
  8
_f-0_
  6
CONTINUOUS
 62
    7
 10
1384.0509036339879
 20
-535.66985004484865
 11
1384.0509036339879
 21
-1014.35929523215
  0
LINE
  8
_f-0_
  6
CONTINUOUS
 62
    9
 10
1411.19714513959
 20
-1045.6698500448487
 11
1411.19714513959
 21
-25.669850044848629
  0
LINE
  8
_f-0_
  6
CONTINUOUS
 62
    7
 10
1411.1442082534128
 20
-535.66985004484865
 11
1384.0497993631377
 21
-535.66985004484865
  0
LINE
  8
_f-0_
  6
CONTINUOUS
 62
    9
 10
1160.9129391704339
 20
-1005.6481079976915
 11
1160.9129391704339
 21
-1008.0167864548781
  0
TEXT
  8
_f-0_
 62
    4
 10
1160.9129391704339
 20
-1007.0175002307524
 40
12.5
 41
1
 50
0
  1
Tsuboi
  0
LINE
  8
_f-0_
  6
CONTINUOUS
 62
    7
 10
686.17156549234073
 20
-947.07638114217161
 11
686.17156549234073
 21
-1014.35929523215
  0
LINE
  8
_f-0_
  6
CONTINUOUS
 62
    7
 10
1384.0509036339879
 20
-947.07638114217161
 11
-11.708445970134846
 21
-947.07638114217161
  0
LINE
  8
_f-f_
  6
CONTINUOUS
 62
    7
 10
686.17156549234073
 20
-963.89710966466623
 11
-11.708445970134846
 21
-963.89710966466623
  0
LINE
  8
_f-f_
  6
CONTINUOUS
 62
    7
 10
686.17156549234073
 20
-980.71783818716085
 11
-11.708445970134846
 21
-980.71783818716085
  0
LINE
  8
_f-f_
  6
CONTINUOUS
 62
    7
 10
686.17156549234073
 20
-997.53856670965546
 11
-11.708445970134846
 21
-997.53856670965546
  0
LINE
  8
_f-f_
  6
CONTINUOUS
 62
    7
 10
337.23155976110291
 20
-1014.35929523215
 11
337.23155976110291
 21
-947.07638114217161
  0
LINE
  8
_f-0_
  6
DASHED1
 62
    9
 10
-38.802854860410036
 20
-1045.6698500448487
 11
1411.19714513959
 21
-25.669850044848629
  0
LINE
  8
_f-0_
  6
DASHED1
 62
    9
 10
-38.802854860410036
 20
-25.669850044848629
 11
1411.19714513959
 21
-1045.6698500448487
  0
LINE
  8
_f-0_
  6
DASHED1
 62
    9
 10
-5.2606383447451321
 20
-947.07638114217161
 11
-5.2606383447451321
 21
-1014.35929523215
  0
LINE
  8
_f-0_
  6
DASHED1
 62
    9
 10
-11.708445970134846
 20
-960.84099270966953
 11
686.17156549234073
 21
-960.84099270966953
  0
LINE
  8
_f-0_
  6
DASHED1
 62
    9
 10
-11.708445970134846
 20
-977.66172123216415
 11
686.17156549234073
 21
-977.66172123216415
  0
LINE
  8
_f-0_
  6
DASHED1
 62
    9
 10
-11.708445970134846
 20
-994.48244975465877
 11
686.17156549234073
 21
-994.48244975465877
  0
LINE
  8
_f-0_
  6
DASHED1
 62
    9
 10
-11.708445970134846
 20
-1011.3031782771533
 11
686.17156549234073
 21
-1011.3031782771533
  0
LINE
  8
_f-0_
  6
DASHED1
 62
    9
 10
343.67936738649262
 20
-947.07638114217161
 11
343.67936738649262
 21
-1014.35929523215
  0
LINE
  8
_f-0_
  6
DASHED1
 62
    9
 10
1045.2178007772224
 20
-1004.9449065807143
 11
1045.2178007772224
 21
-1008.6459666700684
  0
LINE
  8
_f-0_
  6
DASHED1
 62
    9
 10
980.20069767752806
 20
-1007.0175002307524
 11
1332.6864661862371
 21
-1007.0175002307524
  0
LINE
  8
_f-0_
  6
DASHED1
 62
    9
 10
1254.1673165551944
 20
-1006.0058771396622
 11
1254.1673165551944
 21
-1008.5719454682814
  0
TEXT
  8
_f-0_
 62
    7
 10
801.48045676601486
 20
-989.2160914340684
 40
5.431801932071778
 41
0.9999999999999981
 50
0
  1
〒563-0215　大阪府豊能郡豊能町木代164-1
  0
TEXT
  8
_f-0_
 62
    7
 10
801.48045676601486
 20
-999.44592361298646
 40
5.431801932071778
 41
0.9999999999999975
 50
0
  1
TEL. 072-743-9025　FAX. 072-743-9043
  0
TEXT
  8
_f-0_
 62
    7
 10
800.84928955142731
 20
-976.52382560022829
 40
10
 41
1
 50
0
  1
有限会社
  0
TEXT
  8
_f-0_
 62
    4
 10
743.63535065416544
 20
-1000.4941748437852
 40
10
 41
0.05
 50
0
  1
^@BM%temp%C__Users_owner_Desktop_300ppi_アセット 1_jpg.bmp,8.51292,8.51292,0,0,1,0,255,255,255
  0
TEXT
  8
_f-0_
 62
    7
 10
850.72689020704547
 20
-976.52382560022829
 40
12.5
 41
1
 50
0
  1
上手工作所
  0
TEXT
  8
_f-0_
 62
    4
 10
1045.2178007772224
 20
-1007.0175002307524
 40
12.5
 41
1
 50
0
  1
1/5
  0
LINE
  8
_0-1_基本線
  6
CONTINUOUS
 62
    7
 10
1331.5293941979518
 20
-781.53467645847149
 11
1331.5293941979518
 21
-409.23467645847154
  0
ARC
  8
_0-1_基本線
  6
CONTINUOUS
 62
    7
 10
1259.829394197952
 20
-781.53467645847149
 40
71.700000000000002
 50
270
 51
0
  0
ARC
  8
_0-1_基本線
  6
CONTINUOUS
 62
    7
 10
1259.829394197952
 20
-781.53467645847149
 40
50
 50
270
 51
0
  0
LINE
  8
_0-1_基本線
  6
CONTINUOUS
 62
    7
 10
1309.829394197952
 20
-781.53467645847149
 11
1309.829394197952
 21
-409.23467645847154
  0
LINE
  8
_0-1_基本線
  6
CONTINUOUS
 62
    7
 10
1290.6793941979522
 20
-409.23467645847154
 11
1350.6793941979522
 21
-409.23467645847154
  0
LINE
  8
_0-1_基本線
  6
CONTINUOUS
 62
    7
 10
1350.6793941979522
 20
-403.23467645847142
 11
1290.6793941979522
 21
-403.23467645847142
  0
LINE
  8
_0-1_基本線
  6
CONTINUOUS
 62
    7
 10
1350.6793941979522
 20
-409.23467645847154
 11
1350.6793941979522
 21
-403.23467645847142
  0
LINE
  8
_0-1_基本線
  6
CONTINUOUS
 62
    7
 10
1290.6793941979522
 20
-403.23467645847142
 11
1290.6793941979522
 21
-409.23467645847154
  0
LINE
  8
_0-1_基本線
  6
CONTINUOUS
 62
    7
 10
1161.5293941979521
 20
-831.53467645847149
 11
1161.5293941979521
 21
-853.23467645847131
  0
LINE
  8
_0-1_基本線
  6
CONTINUOUS
 62
    7
 10
1161.5293941979521
 20
-853.23467645847131
 11
1259.829394197952
 21
-853.23467645847131
  0
LINE
  8
_0-1_基本線
  6
CONTINUOUS
 62
    7
 10
1259.829394197952
 20
-831.53467645847149
 11
1161.5293941979521
 21
-831.53467645847149
  0
LINE
  8
_0-1_基本線
  6
CONTINUOUS
 62
    7
 10
1111.5293941979521
 20
-834.3846764584714
 11
1111.5293941979521
 21
-850.3846764584714
  0
LINE
  8
_0-1_基本線
  6
CONTINUOUS
 62
    7
 10
1161.5293941979521
 20
-834.3846764584714
 11
1111.5293941979521
 21
-834.3846764584714
  0
LINE
  8
_0-1_基本線
  6
CONTINUOUS
 62
    7
 10
1161.5293941979521
 20
-850.3846764584714
 11
1111.5293941979521
 21
-850.3846764584714
  0
ARC
  8
_0-1_基本線
  6
CONTINUOUS
 62
    7
 10
1017.2677901023888
 20
-252.9810153583621
 40
10.850000000000001
 50
270
 51
90
  0
INSERT
  2
-000-fai_
  8
_0-1_基本線
 10
1017.2677901023889
 20
-274.98101535836212
 41
-1
 42
1
 50
-180
  0
INSERT
  2
-000-fai_
  8
_0-1_基本線
 10
1039.2677901023889
 20
-252.98101535836195
 41
-1
 42
1
 50
-90
  0
INSERT
  2
-000-fai_
  8
_0-1_基本線
 10
1017.2677901023888
 20
-230.98101535836207
 41
-1
 42
1
 50
0
  0
LINE
  8
_0-1_基本線
  6
CONTINUOUS
 62
    7
 10
1028.1177901023888
 20
-781.53467645847149
 11
1028.1177901023888
 21
-409.23467645847154
  0
ARC
  8
_0-1_基本線
  6
CONTINUOUS
 62
    7
 10
956.41779010238894
 20
-781.53467645847149
 40
71.700000000000002
 50
270
 51
0
  0
ARC
  8
_0-1_基本線
  6
CONTINUOUS
 62
    7
 10
956.41779010238894
 20
-781.53467645847149
 40
50
 50
270
 51
0
  0
LINE
  8
_0-1_基本線
  6
CONTINUOUS
 62
    7
 10
1006.4177901023889
 20
-781.53467645847149
 11
1006.4177901023889
 21
-409.23467645847154
  0
LINE
  8
_0-1_基本線
  6
CONTINUOUS
 62
    7
 10
987.26779010238885
 20
-409.23467645847154
 11
1047.2677901023889
 21
-409.23467645847154
  0
LINE
  8
_0-1_基本線
  6
CONTINUOUS
 62
    7
 10
1047.2677901023889
 20
-403.23467645847142
 11
987.26779010238885
 21
-403.23467645847142
  0
LINE
  8
_0-1_基本線
  6
CONTINUOUS
 62
    7
 10
1047.2677901023889
 20
-409.23467645847154
 11
1047.2677901023889
 21
-403.23467645847142
  0
LINE
  8
_0-1_基本線
  6
CONTINUOUS
 62
    7
 10
987.26779010238885
 20
-403.23467645847142
 11
987.26779010238885
 21
-409.23467645847154
  0
LINE
  8
_0-1_基本線
  6
CONTINUOUS
 62
    7
 10
858.11779010238888
 20
-263.83101535836203
 11
858.11779010238888
 21
-242.13101535836216
  0
LINE
  8
_0-1_基本線
  6
CONTINUOUS
 62
    7
 10
878.11779010238888
 20
-853.23467645847131
 11
956.41779010238894
 21
-853.23467645847131
  0
LINE
  8
_0-1_基本線
  6
CONTINUOUS
 62
    7
 10
956.41779010238894
 20
-831.53467645847149
 11
878.11779010238888
 21
-831.53467645847149
  0
LINE
  8
_0-1_基本線
  6
CONTINUOUS
 62
    7
 10
858.11779010238888
 20
-831.53467645847149
 11
858.11779010238888
 21
-853.23467645847131
  0
LINE
  8
_0-1_基本線
  6
CONTINUOUS
 62
    7
 10
878.11779010238888
 20
-853.23467645847131
 11
266.11779010238888
 21
-853.23467645847131
  0
LINE
  8
_0-1_基本線
  6
CONTINUOUS
 62
    7
 10
266.11779010238888
 20
-831.53467645847149
 11
878.11779010238888
 21
-831.53467645847149
  0
ARC
  8
_0-1_基本線
  6
CONTINUOUS
 62
    7
 10
1017.2677901023888
 20
-252.9810153583621
 40
30
 50
201.20258706014686
 51
158.79741293985318
  0
TEXT
  8
_f-0_
 62
    3
 10
23.576017130621096
 20
-115.04698313978565
 40
30
 41
1
 50
0
  1
【BOU】Ｌ字型天吊りハンガーバー
  0
TEXT
  8
_f-0_
 62
    4
 10
1032.6996433551491
 20
-974.98105632607689
 40
12.5
 41
1
 50
0
  1
【BOU】天吊りハンガーバー
  0
TEXT
  8
_f-0_
 62
    4
 10
1254.1673165551944
 20
-1007.0175002307524
 40
12.5
 41
1
 50
0
  1
2019.4.25
  0
TEXT
  8
_f-0_
 62
    4
 10
-5.2606383447451321
 20
-960.84099270966953
 40
10
 41
1
 50
0
  1
2025.12.16 旧イラレデータから図面作成（内容変更なし）
  0
TEXT
  8
_f-0_
 62
    3
 10
23.576017130621096
 20
953.31905781584578
 40
30
 41
1
 50
0
  1
【BOU】コの字型天吊りハンガーバー
  0
LINE
  8
_0-1_基本線
  6
CONTINUOUS
 62
    7
 10
113.26779010238908
 20
-282.98101535836224
 11
107.267790102389
 21
-282.98101535836224
  0
LINE
  8
_0-1_基本線
  6
CONTINUOUS
 62
    7
 10
107.267790102389
 20
-222.9810153583621
 11
113.26779010238908
 21
-222.9810153583621
  0
LINE
  8
_0-1_基本線
  6
CONTINUOUS
 62
    7
 10
1017.2677901023888
 20
-242.13101535836216
 11
113.26779010238908
 21
-242.13101535836216
  0
LINE
  8
_0-1_基本線
  6
CONTINUOUS
 62
    7
 10
1017.2677901023888
 20
-263.83101535836203
 11
113.26779010238908
 21
-263.83101535836203
  0
LINE
  8
_0-1_基本線
  6
CONTINUOUS
 62
    7
 10
113.26779010238908
 20
-222.9810153583621
 11
113.26779010238908
 21
-282.98101535836224
  0
LINE
  8
_0-1_基本線
  6
CONTINUOUS
 62
    7
 10
107.267790102389
 20
-282.98101535836224
 11
107.267790102389
 21
-222.9810153583621
  0
LINE
  8
_0-1_基本線
  6
CONTINUOUS
 62
    7
 10
113.26779010238908
 20
-872.38467645847151
 11
107.267790102389
 21
-872.38467645847151
  0
LINE
  8
_0-1_基本線
  6
CONTINUOUS
 62
    7
 10
107.267790102389
 20
-812.38467645847151
 11
113.26779010238908
 21
-812.38467645847151
  0
LINE
  8
_0-1_基本線
  6
CONTINUOUS
 62
    7
 10
266.11779010238888
 20
-831.53467645847149
 11
113.26779010238908
 21
-831.53467645847149
  0
LINE
  8
_0-1_基本線
  6
CONTINUOUS
 62
    7
 10
266.11779010238888
 20
-853.23467645847131
 11
113.26779010238908
 21
-853.23467645847131
  0
LINE
  8
_0-1_基本線
  6
CONTINUOUS
 62
    7
 10
113.26779010238908
 20
-812.38467645847151
 11
113.26779010238908
 21
-872.38467645847151
  0
LINE
  8
_0-1_基本線
  6
CONTINUOUS
 62
    7
 10
107.267790102389
 20
-872.38467645847151
 11
107.267790102389
 21
-812.38467645847151
  0
LINE
  8
_0-2_注釈
  6
CONTINUOUS
 62
   28
 10
404.13446656600376
 20
-836.39987075691124
 11
417.7721434774769
 21
-812.77872144903085
  0
LINE
  8
_0-2_注釈
  6
CONTINUOUS
 62
   28
 10
417.7721434774769
 20
-812.77872144903085
 11
462.35622310940578
 21
-812.77872144903085
  0
TEXT
  8
_0-2_注釈
 62
    4
 10
127.92627696249766
 20
872.08570782666129
 40
15
 41
1
 50
0
  1
φ5皿穴
  0
LINE
  8
_0-2_注釈
  6
CONTINUOUS
 62
   28
 10
127.92627696249766
 20
872.08570782666129
 11
177.94350117667065
 21
872.08570782666129
  0
LINE
  8
_0-2_注釈
  6
CONTINUOUS
 62
   28
 10
109.19113105911286
 20
839.63548323478278
 11
127.92627696249766
 21
872.08570782666129
  0
TEXT
  8
_0-2_注釈
 62
    4
 10
851.38989091774988
 20
-227.60380677326295
 40
15
 41
1
 50
0
  1
M6 くぼみねじ
  0
LINE
  8
_0-2_注釈
  6
CONTINUOUS
 62
   28
 10
837.75221400627685
 20
-251.22495608114348
 11
851.38989091774988
 21
-227.60380677326295
  0
LINE
  8
_0-2_注釈
  6
CONTINUOUS
 62
   28
 10
1017.8705015558896
 20
-228.73055772084853
 11
1036.6056474592742
 21
-196.28033312897017
  0
LINE
  8
_0-2_注釈
  6
CONTINUOUS
 62
   28
 10
404.13446656600376
 20
-251.22495608114348
 11
417.7721434774769
 21
-227.60380677326295
  0
TEXT
  8
_0-2_注釈
 62
    4
 10
417.7721434774769
 20
-227.60380677326295
 40
15
 41
1
 50
0
  1
φ21.7
  0
LINE
  8
_0-2_注釈
  6
CONTINUOUS
 62
   28
 10
417.7721434774769
 20
-227.60380677326295
 11
462.35622310940578
 21
-227.60380677326295
  0
TEXT
  8
_0-2_注釈
 62
    4
 10
417.7721434774769
 20
-812.77872144903085
 40
15
 41
1
 50
0
  1
φ21.7
  0
LINE
  8
_0-2_注釈
  6
CONTINUOUS
 62
   28
 10
1196.5619409687342
 20
-837.59441000605818
 11
1210.1996178802073
 21
-813.97326069817745
  0
TEXT
  8
_0-2_注釈
 62
    4
 10
1210.1996178802073
 20
-813.97326069817745
 40
15
 41
1
 50
0
  1
φ21.7
  0
LINE
  8
_0-2_注釈
  6
CONTINUOUS
 62
   28
 10
1120.7086986479152
 20
-836.39987075691124
 11
1134.3463755593884
 21
-812.77872144903085
  0
TEXT
  8
_0-2_注釈
 62
    4
 10
1134.3463755593884
 20
-812.77872144903085
 40
15
 41
1
 50
0
  1
φ16
  0
LINE
  8
_0-2_注釈
  6
CONTINUOUS
 62
   28
 10
417.84678169683434
 20
230.63475666060881
 11
431.48445860830742
 21
254.2559059684892
  0
LINE
  8
_0-2_注釈
  6
CONTINUOUS
 62
   28
 10
431.48445860830742
 20
254.2559059684892
 11
476.0685382402363
 21
254.2559059684892
  0
TEXT
  8
_0-2_注釈
 62
    4
 10
431.48445860830742
 20
254.2559059684892
 40
15
 41
1
 50
0
  1
φ21.7
  0
TEXT
  8
_0-2_注釈
 62
    4
 10
1223.9119330110379
 20
253.06136671934254
 40
15
 41
1
 50
0
  1
φ21.7
  0
TEXT
  8
_0-2_注釈
 62
    4
 10
1148.058690690219
 20
254.2559059684892
 40
15
 41
1
 50
0
  1
φ16
  0
LINE
  8
_0-2_注釈
  6
CONTINUOUS
 62
   28
 10
1210.2742560995648
 20
229.44021741146187
 11
1223.9119330110379
 21
253.06136671934254
  0
LINE
  8
_0-2_注釈
  6
CONTINUOUS
 62
   28
 10
1134.4210137787458
 20
230.63475666060881
 11
1148.058690690219
 21
254.2559059684892
  0
LINE
  8
_0-2_注釈
  6
CONTINUOUS
 62
   28
 10
523.11555302789224
 20
819.24397167767381
 11
536.75322993936538
 21
842.86512098555419
  0
LINE
  8
_0-2_注釈
  6
CONTINUOUS
 62
   28
 10
536.75322993936538
 20
842.86512098555419
 11
581.33730957129432
 21
842.86512098555419
  0
TEXT
  8
_0-2_注釈
 62
    4
 10
536.75322993936538
 20
842.86512098555419
 40
15
 41
1
 50
0
  1
φ21.7
  0
TEXT
  8
_0-2_注釈
 62
    4
 10
289.71184768680558
 20
840.7622341823685
 40
15
 41
1
 50
0
  1
M6 くぼみねじ
  0
LINE
  8
_0-2_注釈
  6
CONTINUOUS
 62
   28
 10
276.0741707753325
 20
817.14108487448811
 11
289.71184768680558
 21
840.7622341823685
  0
TEXT
  8
_0-3_寸法
 62
    2
 10
502.5927901023889
 20
898.93993468619214
 40
15
 41
1
 50
0
  1
S:970 M:1425 L:1880
  0
LINE
  8
_0-3_寸法
  6
CONTINUOUS
 62
   18
 10
76.967790102388846
 20
896.43993468619214
 11
76.967790102388846
 21
846.86655584660172
  0
POINT
  8
_0-3_寸法
 62
   18
 10
76.967790102388846
 20
896.43993468619214
  0
LINE
  8
_0-3_寸法
  6
CONTINUOUS
 62
   18
 10
76.967790102388846
 20
765.4682918260396
 11
136.9677901023889
 21
765.4682918260396
  0
TEXT
  8
_0-3_寸法
 62
    2
 10
99.467790102388846
 20
767.9682918260396
 40
15
 41
1
 50
0
  1
60
  0
LINE
  8
_0-3_寸法
  6
CONTINUOUS
 62
   18
 10
136.9677901023889
 20
765.4682918260396
 11
136.9677901023889
 21
800.90628955072679
  0
LINE
  8
_0-3_寸法
  6
CONTINUOUS
 62
   18
 10
76.967790102388846
 20
765.4682918260396
 11
76.967790102388846
 21
800.90628955072679
  0
POINT
  8
_0-3_寸法
 62
   18
 10
136.9677901023889
 20
765.4682918260396
  0
POINT
  8
_0-3_寸法
 62
   18
 10
76.967790102388846
 20
765.4682918260396
  0
TEXT
  8
_0-3_寸法
 62
    2
 10
1091.6150619897905
 20
399.50636449716
 40
15
 41
1
 50
90
  1
220, 450, 600
  0
LINE
  8
_0-3_寸法
  6
CONTINUOUS
 62
   18
 10
1094.1150619897905
 20
665.13136449716
 11
1094.1150619897905
 21
215.13136449716003
  0
LINE
  8
_0-3_寸法
  6
CONTINUOUS
 62
   18
 10
1094.1150619897905
 20
665.13136449716
 11
1059.1747889522478
 21
665.13136449716
  0
POINT
  8
_0-3_寸法
 62
   18
 10
1094.1150619897905
 20
215.13136449716003
  0
POINT
  8
_0-3_寸法
 62
   18
 10
1094.1150619897905
 20
665.13136449716
  0
TEXT
  8
_0-3_寸法
 62
    2
 10
502.5927901023889
 20
711.31616188039424
 40
15
 41
1
 50
0
  1
S:910 M:1365 L:1820
  0
LINE
  8
_0-3_寸法
  6
CONTINUOUS
 62
   18
 10
106.96779010238891
 20
708.81616188039424
 11
106.96779010238891
 21
673.57725403056497
  0
POINT
  8
_0-3_寸法
 62
   18
 10
106.96779010238891
 20
708.81616188039424
  0
LINE
  8
_0-3_寸法
  6
CONTINUOUS
 62
   18
 10
190.76503249499432
 20
665.13136449716
 11
190.76503249499432
 21
659.13136449716012
  0
TEXT
  8
_0-3_寸法
 62
    2
 10
188.26503249499432
 20
658.38136449716
 40
15
 41
1
 50
90
  1
6
  0
LINE
  8
_0-3_寸法
  6
CONTINUOUS
 62
   18
 10
190.76503249499432
 20
659.13136449716012
 11
145.37254102741746
 21
659.13136449716012
  0
LINE
  8
_0-3_寸法
  6
CONTINUOUS
 62
   18
 10
190.76503249499432
 20
665.13136449716
 11
145.37254102741746
 21
665.13136449716
  0
POINT
  8
_0-3_寸法
 62
   18
 10
190.76503249499432
 20
659.13136449716012
  0
POINT
  8
_0-3_寸法
 62
   18
 10
190.76503249499432
 20
665.13136449716
  0
LINE
  8
_0-0_基準線
  6
CENTER1
 62
   28
 10
1320.6793941979522
 20
673.57725403056497
 11
1320.6793941979522
 21
286.83136449716005
  0
ARC
  8
_0-0_基準線
  6
CENTER1
 62
   28
 10
1259.829394197952
 20
286.83136449715999
 40
60.850000000000001
 50
270
 51
0
  0
POINT
  8
_0-3_寸法
 62
   18
 10
1331.5293941979518
 20
173.74645408955458
  0
LINE
  8
_0-3_寸法
  6
CONTINUOUS
 62
   18
 10
1331.5293941979518
 20
173.74645408955458
 11
1331.5293941979518
 21
200.62358719535666
  0
LINE
  8
_0-3_寸法
  6
CONTINUOUS
 62
   18
 10
266.11779010238888
 20
769.67013962040607
 11
266.11779010238888
 21
793.56092460334127
  0
POINT
  8
_0-3_寸法
 62
   18
 10
266.11779010238888
 20
769.67013962040607
  0
POINT
  8
_0-3_寸法
 62
   18
 10
1111.5293941979521
 20
173.74645408955458
  0
POINT
  8
_0-3_寸法
 62
   18
 10
1161.5293941979521
 20
173.74645408955458
  0
LINE
  8
_0-3_寸法
  6
CONTINUOUS
 62
   18
 10
1111.5293941979521
 20
173.74645408955458
 11
1111.5293941979521
 21
200.62358719535666
  0
LINE
  8
_0-3_寸法
  6
CONTINUOUS
 62
   18
 10
1161.5293941979521
 20
173.74645408955458
 11
1161.5293941979521
 21
200.62358719535666
  0
LINE
  8
_0-3_寸法
  6
CONTINUOUS
 62
   18
 10
1111.5293941979521
 20
173.74645408955458
 11
1161.5293941979521
 21
173.74645408955458
  0
TEXT
  8
_0-3_寸法
 62
    2
 10
1129.0293941979521
 20
176.24645408955458
 40
15
 41
1
 50
0
  1
50
  0
LINE
  8
_0-3_寸法
  6
CONTINUOUS
 62
   18
 10
1161.5293941979521
 20
173.74645408955458
 11
1331.5293941979518
 21
173.74645408955458
  0
TEXT
  8
_0-3_寸法
 62
    2
 10
1235.2793941979521
 20
176.24645408955458
 40
15
 41
1
 50
0
  1
170
  0
POINT
  8
_0-3_寸法
 62
   18
 10
96.117790102388909
 20
173.74645408955458
  0
POINT
  8
_0-3_寸法
 62
   18
 10
266.11779010238888
 20
173.74645408955458
  0
LINE
  8
_0-3_寸法
  6
CONTINUOUS
 62
   18
 10
96.117790102388909
 20
173.74645408955458
 11
96.117790102388909
 21
200.62358719535666
  0
LINE
  8
_0-3_寸法
  6
CONTINUOUS
 62
   18
 10
266.11779010238888
 20
173.74645408955458
 11
266.11779010238888
 21
200.62358719535666
  0
LINE
  8
_0-3_寸法
  6
CONTINUOUS
 62
   18
 10
96.117790102388909
 20
173.74645408955458
 11
266.11779010238888
 21
173.74645408955458
  0
TEXT
  8
_0-3_寸法
 62
    2
 10
169.8677901023889
 20
176.24645408955458
 40
15
 41
1
 50
0
  1
170
  0
POINT
  8
_0-3_寸法
 62
   18
 10
266.11779010238888
 20
173.74645408955458
  0
LINE
  8
_0-3_寸法
  6
CONTINUOUS
 62
   18
 10
266.11779010238888
 20
173.74645408955458
 11
266.11779010238888
 21
200.62358719535666
  0
LINE
  8
_0-3_寸法
  6
CONTINUOUS
 62
   18
 10
76.967790102388846
 20
896.43993468619214
 11
1047.2677901023889
 21
896.43993468619214
  0
LINE
  8
_0-3_寸法
  6
CONTINUOUS
 62
   18
 10
1047.2677901023889
 20
896.43993468619214
 11
1047.2677901023889
 21
846.86655584660172
  0
POINT
  8
_0-3_寸法
 62
   18
 10
1047.2677901023889
 20
896.43993468619214
  0
LINE
  8
_0-3_寸法
  6
CONTINUOUS
 62
   18
 10
1094.1150619897905
 20
215.13136449716003
 11
1028.1181336621455
 21
215.13136449716003
  0
LINE
  8
_0-3_寸法
  6
CONTINUOUS
 62
   18
 10
106.96779010238891
 20
708.81616188039424
 11
1017.2677901023888
 21
708.81616188039424
  0
LINE
  8
_0-3_寸法
  6
CONTINUOUS
 62
   18
 10
1017.2677901023888
 20
708.81616188039424
 11
1017.2677901023888
 21
673.57725403056497
  0
POINT
  8
_0-3_寸法
 62
   18
 10
1017.2677901023888
 20
708.81616188039424
  0
LINE
  8
_0-3_寸法
  6
CONTINUOUS
 62
   18
 10
858.11779010238888
 20
769.67013962040607
 11
858.11779010238888
 21
793.56092460334127
  0
POINT
  8
_0-3_寸法
 62
   18
 10
858.11779010238888
 20
769.67013962040607
  0
POINT
  8
_0-3_寸法
 62
   18
 10
858.11779010238888
 20
173.74645408955458
  0
LINE
  8
_0-3_寸法
  6
CONTINUOUS
 62
   18
 10
858.11779010238888
 20
173.74645408955458
 11
858.11779010238888
 21
200.62358719535666
  0
POINT
  8
_0-3_寸法
 62
   18
 10
1028.1177901023888
 20
173.74645408955458
  0
LINE
  8
_0-3_寸法
  6
CONTINUOUS
 62
   18
 10
1028.1177901023888
 20
173.74645408955458
 11
1028.1177901023888
 21
200.62358719535666
  0
LINE
  8
_0-3_寸法
  6
CONTINUOUS
 62
   18
 10
858.11779010238888
 20
173.74645408955458
 11
1028.1177901023888
 21
173.74645408955458
  0
TEXT
  8
_0-3_寸法
 62
    2
 10
931.86779010238888
 20
176.24645408955458
 40
15
 41
1
 50
0
  1
170
  0
TEXT
  8
_0-3_寸法
 62
    2
 10
1091.6150619897905
 20
-668.85967645847142
 40
15
 41
1
 50
90
  1
220, 450, 600
  0
LINE
  8
_0-3_寸法
  6
CONTINUOUS
 62
   18
 10
1094.1150619897905
 20
-403.23467645847142
 11
1094.1150619897905
 21
-853.23467645847131
  0
LINE
  8
_0-3_寸法
  6
CONTINUOUS
 62
   18
 10
1094.1150619897905
 20
-403.23467645847142
 11
1059.1747889522478
 21
-403.23467645847142
  0
POINT
  8
_0-3_寸法
 62
   18
 10
1094.1150619897905
 20
-853.23467645847131
  0
POINT
  8
_0-3_寸法
 62
   18
 10
1094.1150619897905
 20
-403.23467645847142
  0
TEXT
  8
_0-3_寸法
 62
    2
 10
502.5927901023889
 20
-357.04987907523718
 40
15
 41
1
 50
0
  1
S:910 M:1365 L:1820
  0
LINE
  8
_0-0_基準線
  6
CENTER1
 62
   28
 10
1320.6793941979522
 20
-394.78878692506657
 11
1320.6793941979522
 21
-781.53467645847149
  0
ARC
  8
_0-0_基準線
  6
CENTER1
 62
   28
 10
1259.829394197952
 20
-781.53467645847149
 40
60.850000000000001
 50
270
 51
0
  0
LINE
  8
_0-3_寸法
  6
CONTINUOUS
 62
   18
 10
1047.2677901023889
 20
-171.92610626943917
 11
1047.2677901023889
 21
-221.49948510902959
  0
POINT
  8
_0-3_寸法
 62
   18
 10
1047.2677901023889
 20
-171.92610626943917
  0
LINE
  8
_0-3_寸法
  6
CONTINUOUS
 62
   18
 10
1094.1150619897905
 20
-853.23467645847131
 11
1028.1181336621455
 21
-853.23467645847131
  0
LINE
  8
_0-3_寸法
  6
CONTINUOUS
 62
   18
 10
1017.2677901023888
 20
-359.54987907523718
 11
1017.2677901023888
 21
-394.78878692506657
  0
POINT
  8
_0-3_寸法
 62
   18
 10
1017.2677901023888
 20
-359.54987907523718
  0
LINE
  8
_0-3_寸法
  6
CONTINUOUS
 62
   18
 10
858.11779010238888
 20
-298.69590133522535
 11
838.11779010238888
 21
-298.69590133522535
  0
TEXT
  8
_0-3_寸法
 62
    2
 10
840.61779010238888
 20
-296.19590133522535
 40
15
 41
1
 50
0
  1
20
  0
LINE
  8
_0-3_寸法
  6
CONTINUOUS
 62
   18
 10
838.11779010238888
 20
-298.69590133522535
 11
838.11779010238888
 21
-274.80511635229021
  0
LINE
  8
_0-3_寸法
  6
CONTINUOUS
 62
   18
 10
858.11779010238888
 20
-298.69590133522535
 11
858.11779010238888
 21
-274.80511635229021
  0
POINT
  8
_0-3_寸法
 62
   18
 10
838.11779010238888
 20
-298.69590133522535
  0
POINT
  8
_0-3_寸法
 62
   18
 10
858.11779010238888
 20
-298.69590133522535
  0
TEXT
  8
_0-3_寸法
 62
    2
 10
502.5927901023889
 20
-169.42610626943917
 40
15
 41
1
 50
0
  1
S:940 M:1395 L:1850
  0
POINT
  8
_0-3_寸法
 62
   18
 10
987.26779010238885
 20
-300.31919046147652
  0
POINT
  8
_0-3_寸法
 62
   18
 10
1047.2677901023889
 20
-300.31919046147652
  0
LINE
  8
_0-3_寸法
  6
CONTINUOUS
 62
   18
 10
987.26779010238885
 20
-300.31919046147652
 11
987.26779010238885
 21
-271.82721725960561
  0
LINE
  8
_0-3_寸法
  6
CONTINUOUS
 62
   18
 10
1047.2677901023889
 20
-300.31919046147652
 11
1047.2677901023889
 21
-271.82721725960561
  0
LINE
  8
_0-3_寸法
  6
CONTINUOUS
 62
   18
 10
987.26779010238885
 20
-300.31919046147652
 11
1047.2677901023889
 21
-300.31919046147652
  0
TEXT
  8
_0-3_寸法
 62
    2
 10
1009.7677901023888
 20
-297.81919046147652
 40
15
 41
1
 50
0
  1
60
  0
POINT
  8
_0-3_寸法
 62
   18
 10
1331.5293941979518
 20
-910.45223306039019
  0
LINE
  8
_0-3_寸法
  6
CONTINUOUS
 62
   18
 10
1331.5293941979518
 20
-910.45223306039019
 11
1331.5293941979518
 21
-883.57509995458804
  0
POINT
  8
_0-3_寸法
 62
   18
 10
1111.5293941979521
 20
-910.45223306039019
  0
POINT
  8
_0-3_寸法
 62
   18
 10
1161.5293941979521
 20
-910.45223306039019
  0
LINE
  8
_0-3_寸法
  6
CONTINUOUS
 62
   18
 10
1111.5293941979521
 20
-910.45223306039019
 11
1111.5293941979521
 21
-883.57509995458804
  0
LINE
  8
_0-3_寸法
  6
CONTINUOUS
 62
   18
 10
1161.5293941979521
 20
-910.45223306039019
 11
1161.5293941979521
 21
-883.57509995458804
  0
LINE
  8
_0-3_寸法
  6
CONTINUOUS
 62
   18
 10
1111.5293941979521
 20
-910.45223306039019
 11
1161.5293941979521
 21
-910.45223306039019
  0
TEXT
  8
_0-3_寸法
 62
    2
 10
1129.0293941979521
 20
-907.95223306039019
 40
15
 41
1
 50
0
  1
50
  0
LINE
  8
_0-3_寸法
  6
CONTINUOUS
 62
   18
 10
1161.5293941979521
 20
-910.45223306039019
 11
1331.5293941979518
 21
-910.45223306039019
  0
TEXT
  8
_0-3_寸法
 62
    2
 10
1235.2793941979521
 20
-907.95223306039019
 40
15
 41
1
 50
0
  1
170
  0
POINT
  8
_0-3_寸法
 62
   18
 10
858.11779010238888
 20
-910.45223306039019
  0
LINE
  8
_0-3_寸法
  6
CONTINUOUS
 62
   18
 10
858.11779010238888
 20
-910.45223306039019
 11
858.11779010238888
 21
-883.57509995458804
  0
POINT
  8
_0-3_寸法
 62
   18
 10
1028.1177901023888
 20
-910.45223306039019
  0
LINE
  8
_0-3_寸法
  6
CONTINUOUS
 62
   18
 10
1028.1177901023888
 20
-910.45223306039019
 11
1028.1177901023888
 21
-883.57509995458804
  0
LINE
  8
_0-3_寸法
  6
CONTINUOUS
 62
   18
 10
858.11779010238888
 20
-910.45223306039019
 11
1028.1177901023888
 21
-910.45223306039019
  0
TEXT
  8
_0-3_寸法
 62
    2
 10
931.86779010238888
 20
-907.95223306039019
 40
15
 41
1
 50
0
  1
170
  0
LINE
  8
_0-3_寸法
  6
CONTINUOUS
 62
   18
 10
107.267790102389
 20
-359.54987907523718
 11
107.267790102389
 21
-394.78878692506657
  0
POINT
  8
_0-3_寸法
 62
   18
 10
107.267790102389
 20
-359.54987907523718
  0
LINE
  8
_0-3_寸法
  6
CONTINUOUS
 62
   18
 10
107.267790102389
 20
-359.54987907523718
 11
1017.2677901023888
 21
-359.54987907523718
  0
LINE
  8
_0-3_寸法
  6
CONTINUOUS
 62
   18
 10
107.267790102389
 20
-171.92610626943917
 11
107.267790102389
 21
-221.49948510902959
  0
POINT
  8
_0-3_寸法
 62
   18
 10
107.267790102389
 20
-171.92610626943917
  0
LINE
  8
_0-3_寸法
  6
CONTINUOUS
 62
   18
 10
107.267790102389
 20
-171.92610626943917
 11
1047.2677901023889
 21
-171.92610626943917
  0
POINT
  8
_0-3_寸法
 62
   18
 10
107.267790102389
 20
-910.45223306039019
  0
LINE
  8
_0-3_寸法
  6
CONTINUOUS
 62
   18
 10
107.267790102389
 20
-910.45223306039019
 11
107.267790102389
 21
-883.57509995458804
  0
LINE
  8
_0-3_寸法
  6
CONTINUOUS
 62
   18
 10
107.267790102389
 20
-910.45223306039019
 11
858.11779010238888
 21
-910.45223306039019
  0
TEXT
  8
_0-3_寸法
 62
    2
 10
423.31779010238898
 20
-907.95223306039019
 40
15
 41
1
 50
0
  1
S:745 M:1200 L:1655
  0
LINE
  8
_0-3_寸法
  6
CONTINUOUS
 62
   18
 10
266.11779010238888
 20
173.74645408955458
 11
858.11779010238888
 21
173.74645408955458
  0
TEXT
  8
_0-3_寸法
 62
    2
 10
502.74279010238893
 20
176.24645408955458
 40
15
 41
1
 50
0
  1
S:592 M:1047 L:1502
  0
LINE
  8
_0-3_寸法
  6
CONTINUOUS
 62
   18
 10
266.11779010238888
 20
769.67013962040607
 11
276.11779010238888
 21
769.67013962040607
  0
TEXT
  8
_0-3_寸法
 62
    2
 10
263.61779010238888
 20
772.17013962040607
 40
15
 41
1
 50
0
  1
10
  0
LINE
  8
_0-3_寸法
  6
CONTINUOUS
 62
   18
 10
276.11779010238888
 20
769.67013962040607
 11
276.11779010238888
 21
793.56092460334127
  0
POINT
  8
_0-3_寸法
 62
   18
 10
276.11779010238888
 20
769.67013962040607
  0
LINE
  8
_0-3_寸法
  6
CONTINUOUS
 62
   18
 10
858.11779010238888
 20
769.67013962040607
 11
848.11779010238888
 21
769.67013962040607
  0
TEXT
  8
_0-3_寸法
 62
    2
 10
845.61779010238888
 20
772.17013962040607
 40
15
 41
1
 50
0
  1
10
  0
LINE
  8
_0-3_寸法
  6
CONTINUOUS
 62
   18
 10
848.11779010238888
 20
769.67013962040607
 11
848.11779010238888
 21
793.56092460334127
  0
POINT
  8
_0-3_寸法
 62
   18
 10
848.11779010238888
 20
769.67013962040607
  0
LINE
  8
_0-0_基準線
  6
CENTER1
 62
   28
 10
106.96779010238891
 20
673.57725403056497
 11
106.96779010238891
 21
286.83136449716005
  0
ARC
  8
_0-0_基準線
  6
CENTER1
 62
   28
 10
167.81779010238892
 20
286.83136449716005
 40
60.850000000000001
 50
180
 51
270
  0
LINE
  8
_0-0_基準線
  6
CENTER1
 62
   28
 10
1259.829394197952
 20
225.98136449716005
 11
1105.0774055620317
 21
225.98136449716005
  0
LINE
  8
_0-0_基準線
  6
CENTER1
 62
   28
 10
1017.2677901023888
 20
673.57725403056497
 11
1017.2677901023888
 21
286.83136449716005
  0
LINE
  8
_0-0_基準線
  6
CENTER1
 62
   28
 10
167.81779010238892
 20
225.98136449716005
 11
956.41779010238894
 21
225.98136449716005
  0
ARC
  8
_0-0_基準線
  6
CENTER1
 62
   28
 10
956.41779010238894
 20
286.83136449715999
 40
60.850000000000001
 50
270
 51
0
  0
LINE
  8
_0-0_基準線
  6
CENTER1
 62
   28
 10
1259.829394197952
 20
-842.38467645847151
 11
1105.0774055620317
 21
-842.38467645847151
  0
LINE
  8
_0-0_基準線
  6
CENTER1
 62
   28
 10
1017.2677901023888
 20
-394.78878692506657
 11
1017.2677901023888
 21
-781.53467645847149
  0
ARC
  8
_0-0_基準線
  6
CENTER1
 62
   28
 10
956.41779010238894
 20
-781.53467645847149
 40
60.850000000000001
 50
270
 51
0
  0
LINE
  8
_0-0_基準線
  6
CENTER1
 62
   28
 10
107.267790102389
 20
-394.78878692506657
 11
107.267790102389
 21
-781.53467645847149
  0
LINE
  8
_0-0_基準線
  6
CENTER1
 62
   28
 10
107.267790102389
 20
-842.38467645847151
 11
956.41779010238894
 21
-842.38467645847151
  0
LINE
  8
_0-1_基本線
  6
CONTINUOUS
 62
    7
 10
275.00275979050945
 20
198.89209955638563
 11
279.11779010238893
 21
201.26791341467267
  0
LINE
  8
_0-1_基本線
  6
CONTINUOUS
 62
    7
 10
273.11779010238893
 20
206.67444200501546
 11
276.95888565515082
 21
208.8920995563856
  0
LINE
  8
_0-1_基本線
  6
CONTINUOUS
 62
    7
 10
273.11779010238893
 20
200.02146935090507
 11
279.11779010238893
 21
203.48557096604281
  0
LINE
  8
_0-1_基本線
  6
CONTINUOUS
 62
    7
 10
273.11779010238893
 20
202.23912690227521
 11
279.11779010238893
 21
205.70322851741292
  0
LINE
  8
_0-1_基本線
  6
CONTINUOUS
 62
    7
 10
273.11779010238893
 20
204.45678445364535
 11
279.11779010238893
 21
207.92088606878306
  0
LINE
  8
_0-1_基本線
  6
CONTINUOUS
 62
    7
 10
273.11779010238893
 20
208.8920995563856
 11
273.11779010238893
 21
198.89209955638563
  0
LINE
  8
_0-1_基本線
  6
CONTINUOUS
 62
    7
 10
279.11779010238893
 20
208.8920995563856
 11
273.11779010238893
 21
208.8920995563856
  0
LINE
  8
_0-1_基本線
  6
CONTINUOUS
 62
    7
 10
279.11779010238893
 20
198.89209955638563
 11
279.11779010238893
 21
208.8920995563856
  0
LINE
  8
_0-1_基本線
  6
CONTINUOUS
 62
    7
 10
273.11779010238893
 20
198.89209955638563
 11
279.11779010238893
 21
198.89209955638563
  0
LINE
  8
_0-1_基本線
  6
CONTINUOUS
 62
    7
 10
849.2328204142683
 20
198.89209955638563
 11
845.11779010238888
 21
201.26791341467267
  0
LINE
  8
_0-1_基本線
  6
CONTINUOUS
 62
    7
 10
851.11779010238888
 20
206.6744420050154
 11
847.27669454962688
 21
208.89209955638557
  0
LINE
  8
_0-1_基本線
  6
CONTINUOUS
 62
    7
 10
851.11779010238888
 20
200.02146935090507
 11
845.11779010238888
 21
203.48557096604281
  0
LINE
  8
_0-1_基本線
  6
CONTINUOUS
 62
    7
 10
851.11779010238888
 20
202.23912690227521
 11
845.11779010238888
 21
205.70322851741286
  0
LINE
  8
_0-1_基本線
  6
CONTINUOUS
 62
    7
 10
851.11779010238888
 20
204.45678445364529
 11
845.11779010238888
 21
207.92088606878303
  0
LINE
  8
_0-1_基本線
  6
CONTINUOUS
 62
    7
 10
851.11779010238888
 20
208.89209955638557
 11
851.11779010238888
 21
198.89209955638563
  0
LINE
  8
_0-1_基本線
  6
CONTINUOUS
 62
    7
 10
845.11779010238888
 20
208.89209955638557
 11
851.11779010238888
 21
208.89209955638557
  0
LINE
  8
_0-1_基本線
  6
CONTINUOUS
 62
    7
 10
845.11779010238888
 20
198.89209955638563
 11
845.11779010238888
 21
208.89209955638557
  0
LINE
  8
_0-1_基本線
  6
CONTINUOUS
 62
    7
 10
851.11779010238888
 20
198.89209955638563
 11
845.11779010238888
 21
198.89209955638563
  0
LINE
  8
_0-3_寸法
  6
CONTINUOUS
 62
   18
 10
266.11779010238888
 20
278.82065331801629
 11
266.11779010238888
 21
246.70082017429234
  0
POINT
  8
_0-3_寸法
 62
   18
 10
266.11779010238888
 20
278.82065331801629
  0
LINE
  8
_0-3_寸法
  6
CONTINUOUS
 62
   18
 10
858.11779010238888
 20
278.82065331801624
 11
858.11779010238888
 21
246.70082017429228
  0
POINT
  8
_0-3_寸法
 62
   18
 10
858.11779010238888
 20
278.82065331801624
  0
LINE
  8
_0-3_寸法
  6
CONTINUOUS
 62
   18
 10
266.11779010238888
 20
278.82065331801629
 11
276.11779010238888
 21
278.82065331801629
  0
TEXT
  8
_0-3_寸法
 62
    2
 10
263.61779010238888
 20
281.32065331801629
 40
15
 41
1
 50
0
  1
10
  0
LINE
  8
_0-3_寸法
  6
CONTINUOUS
 62
   18
 10
276.11779010238888
 20
278.82065331801629
 11
276.11779010238888
 21
246.70082017429234
  0
POINT
  8
_0-3_寸法
 62
   18
 10
276.11779010238888
 20
278.82065331801629
  0
LINE
  8
_0-3_寸法
  6
CONTINUOUS
 62
   18
 10
858.11779010238888
 20
278.82065331801624
 11
848.11779010238888
 21
278.82065331801624
  0
TEXT
  8
_0-3_寸法
 62
    2
 10
845.61779010238888
 20
281.32065331801624
 40
15
 41
1
 50
0
  1
10
  0
LINE
  8
_0-3_寸法
  6
CONTINUOUS
 62
   18
 10
848.11779010238888
 20
278.82065331801624
 11
848.11779010238888
 21
246.70082017429228
  0
POINT
  8
_0-3_寸法
 62
   18
 10
848.11779010238888
 20
278.82065331801624
  0
LINE
  8
_0-2_注釈
  6
CONTINUOUS
 62
   28
 10
276.0741707753325
 20
202.42138551828034
 11
289.71184768680558
 21
146.35678756086704
  0
CIRCLE
  8
_0-1_基本線
  6
DASHED1
 62
    7
 10
276.11779010238888
 20
815.3850255972693
 40
3
  0
CIRCLE
  8
_0-1_基本線
  6
DASHED1
 62
    7
 10
848.11779010238888
 20
815.3850255972693
 40
3
  0
LINE
  8
_0-3_寸法
  6
CONTINUOUS
 62
   18
 10
858.11779010238888
 20
-794.4585449062331
 11
858.11779010238888
 21
-826.57837804995688
  0
POINT
  8
_0-3_寸法
 62
   18
 10
858.11779010238888
 20
-794.4585449062331
  0
CIRCLE
  8
_0-1_基本線
  6
DASHED1
 62
    7
 10
838.11779010238888
 20
-252.9810153583621
 40
3
  0
ARC
  8
_1-1_
  6
CONTINUOUS
 62
    7
 10
1205.8966949149578
 20
840.27786555990837
 40
27.125000000000003
 50
270
 51
90
  0
INSERT
  2
-000-fai_
  8
_1-1_
 10
1205.896694914958
 20
785.27786555990837
 41
-2.5
 42
2.5
 50
-180
  0
INSERT
  2
-000-fai_
  8
_1-1_
 10
1260.8966949149578
 20
840.2778655599086
 41
-2.5
 42
2.5
 50
-90
  0
INSERT
  2
-000-fai_
  8
_1-1_
 10
1205.8966949149576
 20
895.27786555990837
 41
-2.5
 42
2.5
 50
0
  0
ARC
  8
_1-1_
  6
CONTINUOUS
 62
    7
 10
1205.8966949149578
 20
840.27786555990837
 40
75
 50
201.20258706014686
 51
158.79741293985318
  0
POINT
  8
_1-3_
 62
   18
 10
1130.8966949149578
 20
931.99336835255257
  0
POINT
  8
_1-3_
 62
   18
 10
1280.8966949149578
 20
931.99336835255257
  0
LINE
  8
_1-3_
  6
CONTINUOUS
 62
   18
 10
1130.8966949149578
 20
931.99336835255257
 11
1130.8966949149578
 21
888.19359588383804
  0
LINE
  8
_1-3_
  6
CONTINUOUS
 62
   18
 10
1280.8966949149578
 20
931.99336835255257
 11
1280.8966949149578
 21
888.19359588383804
  0
LINE
  8
_1-3_
  6
CONTINUOUS
 62
   18
 10
1130.8966949149578
 20
931.99336835255257
 11
1280.8966949149578
 21
931.99336835255257
  0
TEXT
  8
_1-3_
 62
    2
 10
1198.3966949149578
 20
934.49336835255257
 40
15
 41
1
 50
0
  1
60
  0
POINT
  8
_1-3_
 62
   18
 10
1343.7188036934026
 20
915.27786555990837
  0
POINT
  8
_1-3_
 62
   18
 10
1343.7188036934026
 20
765.27786555990837
  0
LINE
  8
_1-3_
  6
CONTINUOUS
 62
   18
 10
1343.7188036934026
 20
915.27786555990837
 11
1261.2955955022764
 21
915.27786555990837
  0
LINE
  8
_1-3_
  6
CONTINUOUS
 62
   18
 10
1343.7188036934026
 20
765.27786555990837
 11
1261.2955955022764
 21
765.27786555990837
  0
LINE
  8
_1-3_
  6
CONTINUOUS
 62
   18
 10
1343.7188036934026
 20
915.27786555990837
 11
1343.7188036934026
 21
765.27786555990837
  0
TEXT
  8
_1-3_
 62
    2
 10
1341.2188036934026
 20
832.77786555990837
 40
15
 41
1
 50
90
  1
60
  0
POINT
  8
_1-3_
 62
   18
 10
1300.1844843911653
 20
895.27786555990837
  0
POINT
  8
_1-3_
 62
   18
 10
1300.1844843911653
 20
840.27786555990837
  0
LINE
  8
_1-3_
  6
CONTINUOUS
 62
   18
 10
1300.1844843911653
 20
895.27786555990837
 11
1235.6793649372402
 21
895.27786555990837
  0
LINE
  8
_1-3_
  6
CONTINUOUS
 62
   18
 10
1300.1844843911653
 20
895.27786555990837
 11
1300.1844843911653
 21
840.27786555990837
  0
TEXT
  8
_1-3_
 62
    2
 10
1297.6844843911653
 20
860.27786555990837
 40
15
 41
1
 50
90
  1
22
  0
POINT
  8
_1-3_
 62
   18
 10
1300.1844843911653
 20
785.27786555990837
  0
LINE
  8
_1-3_
  6
CONTINUOUS
 62
   18
 10
1300.1844843911653
 20
785.27786555990837
 11
1235.6793649372402
 21
785.27786555990837
  0
LINE
  8
_1-3_
  6
CONTINUOUS
 62
   18
 10
1300.1844843911653
 20
840.27786555990837
 11
1300.1844843911653
 21
785.27786555990837
  0
TEXT
  8
_1-3_
 62
    2
 10
1297.6844843911653
 20
805.27786555990837
 40
15
 41
1
 50
90
  1
22
  0
POINT
  8
_1-3_
 62
   18
 10
1320.6243782098986
 20
895.27786555990837
  0
POINT
  8
_1-3_
 62
   18
 10
1320.6243782098986
 20
785.27786555990837
  0
LINE
  8
_1-3_
  6
CONTINUOUS
 62
   18
 10
1320.6243782098986
 20
895.27786555990837
 11
1235.6793649372402
 21
895.27786555990837
  0
LINE
  8
_1-3_
  6
CONTINUOUS
 62
   18
 10
1320.6243782098986
 20
785.27786555990837
 11
1235.6793649372402
 21
785.27786555990837
  0
LINE
  8
_1-3_
  6
CONTINUOUS
 62
   18
 10
1320.6243782098986
 20
895.27786555990837
 11
1320.6243782098986
 21
785.27786555990837
  0
TEXT
  8
_1-3_
 62
    2
 10
1318.1243782098986
 20
832.77786555990837
 40
15
 41
1
 50
90
  1
44
  0
LINE
  8
_1-3_
  6
CONTINUOUS
 62
   18
 10
1300.1844843911653
 20
840.27786555990837
 11
1275.7627930752757
 21
840.27786555990837
  0
CIRCLE
  8
_1-1_
  6
CONTINUOUS
 62
    7
 10
1229.3084889417909
 20
845.58836266427056
 40
147.51162538871051
  0
LINE
  8
_1-1_
  6
CONTINUOUS
 62
    7
 10
1083.4187802977762
 20
867.40286555990849
 11
1205.8966949149578
 21
867.40286555990849
  0
LINE
  8
_1-1_
  6
CONTINUOUS
 62
    7
 10
1085.4070707680557
 20
813.15286555990837
 11
1205.8966949149578
 21
813.15286555990837
  0
INSERT
  2
-000-fai_
  8
_1-1_
 10
1150.8966949149578
 20
840.2778655599086
 41
2.5
 42
2.5
 50
90
  0
ARC
  8
_1-1_
  6
CONTINUOUS
 62
    7
 10
1205.8966949149578
 20
-228.08817539572302
 40
27.125000000000003
 50
270
 51
90
  0
INSERT
  2
-000-fai_
  8
_1-1_
 10
1205.896694914958
 20
-283.08817539572305
 41
-2.5
 42
2.5
 50
-180
  0
INSERT
  2
-000-fai_
  8
_1-1_
 10
1260.8966949149578
 20
-228.08817539572288
 41
-2.5
 42
2.5
 50
-90
  0
INSERT
  2
-000-fai_
  8
_1-1_
 10
1205.8966949149576
 20
-173.08817539572302
 41
-2.5
 42
2.5
 50
0
  0
ARC
  8
_1-1_
  6
CONTINUOUS
 62
    7
 10
1205.8966949149578
 20
-228.08817539572302
 40
75
 50
201.20258706014686
 51
158.79741293985318
  0
POINT
  8
_1-3_
 62
   18
 10
1130.8966949149578
 20
-136.37267260307893
  0
POINT
  8
_1-3_
 62
   18
 10
1280.8966949149578
 20
-136.37267260307893
  0
LINE
  8
_1-3_
  6
CONTINUOUS
 62
   18
 10
1130.8966949149578
 20
-136.37267260307893
 11
1130.8966949149578
 21
-180.17244507179341
  0
LINE
  8
_1-3_
  6
CONTINUOUS
 62
   18
 10
1280.8966949149578
 20
-136.37267260307893
 11
1280.8966949149578
 21
-180.17244507179341
  0
LINE
  8
_1-3_
  6
CONTINUOUS
 62
   18
 10
1130.8966949149578
 20
-136.37267260307893
 11
1280.8966949149578
 21
-136.37267260307893
  0
TEXT
  8
_1-3_
 62
    2
 10
1198.3966949149578
 20
-133.87267260307893
 40
15
 41
1
 50
0
  1
60
  0
POINT
  8
_1-3_
 62
   18
 10
1343.7188036934026
 20
-153.08817539572302
  0
POINT
  8
_1-3_
 62
   18
 10
1343.7188036934026
 20
-303.08817539572305
  0
LINE
  8
_1-3_
  6
CONTINUOUS
 62
   18
 10
1343.7188036934026
 20
-153.08817539572302
 11
1261.2955955022764
 21
-153.08817539572302
  0
LINE
  8
_1-3_
  6
CONTINUOUS
 62
   18
 10
1343.7188036934026
 20
-303.08817539572305
 11
1261.2955955022764
 21
-303.08817539572305
  0
LINE
  8
_1-3_
  6
CONTINUOUS
 62
   18
 10
1343.7188036934026
 20
-153.08817539572302
 11
1343.7188036934026
 21
-303.08817539572305
  0
TEXT
  8
_1-3_
 62
    2
 10
1341.2188036934026
 20
-235.58817539572302
 40
15
 41
1
 50
90
  1
60
  0
POINT
  8
_1-3_
 62
   18
 10
1300.1844843911653
 20
-173.08817539572302
  0
POINT
  8
_1-3_
 62
   18
 10
1300.1844843911653
 20
-228.08817539572302
  0
LINE
  8
_1-3_
  6
CONTINUOUS
 62
   18
 10
1300.1844843911653
 20
-173.08817539572302
 11
1235.6793649372402
 21
-173.08817539572302
  0
LINE
  8
_1-3_
  6
CONTINUOUS
 62
   18
 10
1300.1844843911653
 20
-173.08817539572302
 11
1300.1844843911653
 21
-228.08817539572302
  0
TEXT
  8
_1-3_
 62
    2
 10
1297.6844843911653
 20
-208.08817539572302
 40
15
 41
1
 50
90
  1
22
  0
POINT
  8
_1-3_
 62
   18
 10
1300.1844843911653
 20
-283.08817539572305
  0
LINE
  8
_1-3_
  6
CONTINUOUS
 62
   18
 10
1300.1844843911653
 20
-283.08817539572305
 11
1235.6793649372402
 21
-283.08817539572305
  0
LINE
  8
_1-3_
  6
CONTINUOUS
 62
   18
 10
1300.1844843911653
 20
-228.08817539572302
 11
1300.1844843911653
 21
-283.08817539572305
  0
TEXT
  8
_1-3_
 62
    2
 10
1297.6844843911653
 20
-263.08817539572305
 40
15
 41
1
 50
90
  1
22
  0
POINT
  8
_1-3_
 62
   18
 10
1320.6243782098986
 20
-173.08817539572302
  0
POINT
  8
_1-3_
 62
   18
 10
1320.6243782098986
 20
-283.08817539572305
  0
LINE
  8
_1-3_
  6
CONTINUOUS
 62
   18
 10
1320.6243782098986
 20
-173.08817539572302
 11
1235.6793649372402
 21
-173.08817539572302
  0
LINE
  8
_1-3_
  6
CONTINUOUS
 62
   18
 10
1320.6243782098986
 20
-283.08817539572305
 11
1235.6793649372402
 21
-283.08817539572305
  0
LINE
  8
_1-3_
  6
CONTINUOUS
 62
   18
 10
1320.6243782098986
 20
-173.08817539572302
 11
1320.6243782098986
 21
-283.08817539572305
  0
TEXT
  8
_1-3_
 62
    2
 10
1318.1243782098986
 20
-235.58817539572302
 40
15
 41
1
 50
90
  1
44
  0
LINE
  8
_1-3_
  6
CONTINUOUS
 62
   18
 10
1300.1844843911653
 20
-228.08817539572302
 11
1275.7627930752757
 21
-228.08817539572302
  0
CIRCLE
  8
_1-1_
  6
CONTINUOUS
 62
    7
 10
1229.3084889417909
 20
-222.77767829136109
 40
147.51162538871051
  0
LINE
  8
_1-1_
  6
CONTINUOUS
 62
    7
 10
1083.4187802977762
 20
-200.96317539572297
 11
1205.8966949149578
 21
-200.96317539572297
  0
LINE
  8
_1-1_
  6
CONTINUOUS
 62
    7
 10
1085.4070707680557
 20
-255.21317539572308
 11
1205.8966949149578
 21
-255.21317539572308
  0
INSERT
  2
-000-fai_
  8
_1-1_
 10
1150.8966949149578
 20
-228.08817539572288
 41
2.5
 42
2.5
 50
90
  0
LINE
  8
_0-1_基本線
  6
CONTINUOUS
 62
    7
 10
849.2328204142683
 20
-869.47394139924563
 11
845.11779010238888
 21
-867.09812754095878
  0
LINE
  8
_0-1_基本線
  6
CONTINUOUS
 62
    7
 10
851.11779010238888
 20
-861.69159895061602
 11
847.27669454962688
 21
-859.47394139924597
  0
LINE
  8
_0-1_基本線
  6
CONTINUOUS
 62
    7
 10
851.11779010238888
 20
-868.34457160472629
 11
845.11779010238888
 21
-864.88046998958884
  0
LINE
  8
_0-1_基本線
  6
CONTINUOUS
 62
    7
 10
851.11779010238888
 20
-866.12691405335624
 11
845.11779010238888
 21
-862.66281243821845
  0
LINE
  8
_0-1_基本線
  6
CONTINUOUS
 62
    7
 10
851.11779010238888
 20
-863.90925650198619
 11
845.11779010238888
 21
-860.44515488684851
  0
LINE
  8
_0-1_基本線
  6
CONTINUOUS
 62
    7
 10
851.11779010238888
 20
-859.47394139924597
 11
851.11779010238888
 21
-869.47394139924563
  0
LINE
  8
_0-1_基本線
  6
CONTINUOUS
 62
    7
 10
845.11779010238888
 20
-859.47394139924597
 11
851.11779010238888
 21
-859.47394139924597
  0
LINE
  8
_0-1_基本線
  6
CONTINUOUS
 62
    7
 10
845.11779010238888
 20
-869.47394139924563
 11
845.11779010238888
 21
-859.47394139924597
  0
LINE
  8
_0-1_基本線
  6
CONTINUOUS
 62
    7
 10
851.11779010238888
 20
-869.47394139924563
 11
845.11779010238888
 21
-869.47394139924563
  0
LINE
  8
_0-3_寸法
  6
CONTINUOUS
 62
   18
 10
858.11779010238888
 20
-794.4585449062331
 11
848.11779010238888
 21
-794.4585449062331
  0
TEXT
  8
_0-3_寸法
 62
    2
 10
845.61779010238888
 20
-791.9585449062331
 40
15
 41
1
 50
0
  1
10
  0
LINE
  8
_0-3_寸法
  6
CONTINUOUS
 62
   18
 10
848.11779010238888
 20
-794.4585449062331
 11
848.11779010238888
 21
-826.57837804995688
  0
POINT
  8
_0-3_寸法
 62
   18
 10
848.11779010238888
 20
-794.4585449062331
  0
LINE
  8
_0-2_注釈
  6
CONTINUOUS
 62
   28
 10
289.71184768680558
 20
146.35678756086704
 11
391.54119412060208
 21
146.35678756086704
  0
TEXT
  8
_0-2_注釈
 62
    4
 10
289.71184768680558
 20
146.35678756086704
 40
15
 41
1
 50
0
  1
M6 くぼみねじ
  0
LINE
  8
_0-2_注釈
  6
CONTINUOUS
 62
   28
 10
706.06028927614647
 20
-937.43630541676623
 11
807.88963570994292
 21
-937.43630541676623
  0
TEXT
  8
_0-2_注釈
 62
    4
 10
706.06028927614647
 20
-937.43630541676623
 40
15
 41
1
 50
0
  1
M6 くぼみねじ
  0
LINE
  8
_0-2_注釈
  6
CONTINUOUS
 62
   28
 10
807.88963570994292
 20
-937.43630541676623
 11
848.57673190699017
 21
-866.96418759103812
  0
LINE
  8
_0-2_注釈
  6
CONTINUOUS
 62
   28
 10
1036.6056474592742
 20
-196.28033312897017
 11
1083.9008181986414
 21
-196.28033312897017
  0
TEXT
  8
_0-2_注釈
 62
    4
 10
1036.6056474592742
 20
-196.28033312897017
 40
15
 41
1
 50
0
  1
φ5皿穴
  0
LINE
  8
_0-2_注釈
  6
CONTINUOUS
 62
   28
 10
851.38989091774988
 20
-227.60380677326295
 11
949.66336875776596
 21
-227.60380677326295
  0
LINE
  8
_0-2_注釈
  6
CONTINUOUS
 62
   28
 10
1134.3463755593884
 20
-812.77872144903085
 11
1166.6680876093798
 21
-812.77872144903085
  0
LINE
  8
_0-2_注釈
  6
CONTINUOUS
 62
   28
 10
1210.1996178802073
 20
-813.97326069817745
 11
1256.3817841753248
 21
-813.97326069817745
  0
LINE
  8
_0-2_注釈
  6
CONTINUOUS
 62
   28
 10
289.71184768680558
 20
840.7622341823685
 11
388.17554260184573
 21
840.7622341823685
  0
LINE
  8
_0-2_注釈
  6
CONTINUOUS
 62
   28
 10
1148.058690690219
 20
254.2559059684892
 11
1177.9239366061283
 21
254.2559059684892
  0
LINE
  8
_0-2_注釈
  6
CONTINUOUS
 62
   28
 10
1223.9119330110379
 20
253.06136671934254
 11
1270.8575554498113
 21
253.06136671934254
  0
ENDSEC
  0
EOF
