  0
SECTION
  2
HEADER
  9
$ACADVER
  1
AC1006
  9
$DWGCODEPAGE
  3
ansi_932
  9
$INSBASE
 10
0.0
 20
0.0
 30
0.0
  9
$EXTMIN
 10
444.77967901143
 20
165.7088516276313
  9
$EXTMAX
 10
4839.484712179223
 20
3314.521866334918
  9
$LIMMIN
 10
0.0
 20
0.0
  9
$LIMMAX
 10
5000.0
 20
3500.0
  9
$ORTHOMODE
 70
     1
  9
$REGENMODE
 70
     1
  9
$FILLMODE
 70
     1
  9
$QTEXTMODE
 70
     0
  9
$MIRRTEXT
 70
     1
  9
$DRAGMODE
 70
     2
  9
$LTSCALE
 40
1.0
  9
$OSMODE
 70
    37
  9
$ATTMODE
 70
     1
  9
$TEXTSIZE
 40
3.5
  9
$TRACEWID
 40
1.0
  9
$TEXTSTYLE
  7
STANDARD
  9
$CLAYER
  8
0
  9
$CELTYPE
  6
BYLAYER
  9
$CECOLOR
 62
   256
  9
$DIMSCALE
 40
1.0
  9
$DIMASZ
 40
3.302
  9
$DIMEXO
 40
1.0
  9
$DIMDLI
 40
3.75
  9
$DIMRND
 40
0.0
  9
$DIMDLE
 40
0.0
  9
$DIMEXE
 40
1.0
  9
$DIMTP
 40
0.0
  9
$DIMTM
 40
0.0
  9
$DIMTXT
 40
3.5
  9
$DIMCEN
 40
2.5
  9
$DIMTSZ
 40
0.0
  9
$DIMTOL
 70
     0
  9
$DIMLIM
 70
     0
  9
$DIMTIH
 70
     1
  9
$DIMTOH
 70
     1
  9
$DIMSE1
 70
     0
  9
$DIMSE2
 70
     0
  9
$DIMTAD
 70
     1
  9
$DIMZIN
 70
     0
  9
$DIMBLK
  1

  9
$DIMASO
 70
     1
  9
$DIMSHO
 70
     1
  9
$DIMPOST
  1

  9
$DIMAPOST
  1

  9
$DIMALT
 70
     0
  9
$DIMALTD
 70
     3
  9
$DIMALTF
 40
0.0393700787401575
  9
$DIMLFAC
 40
1.0
  9
$DIMTOFL
 70
     1
  9
$DIMTVP
 40
0.0
  9
$DIMTIX
 70
     0
  9
$DIMSOXD
 70
     0
  9
$DIMSAH
 70
     0
  9
$DIMBLK1
  1

  9
$DIMBLK2
  1

  9
$LUNITS
 70
     2
  9
$LUPREC
 70
     3
  9
$SKETCHINC
 40
1.0
  9
$FILLETRAD
 40
10.0
  9
$AUNITS
 70
     0
  9
$AUPREC
 70
     2
  9
$MENU
  1
.
  9
$ELEVATION
 40
0.0
  9
$THICKNESS
 40
0.0
  9
$LIMCHECK
 70
     0
  9
$CHAMFERA
 40
0.0
  9
$CHAMFERB
 40
0.0
  9
$SKPOLY
 70
     0
  9
$TDCREATE
 40
2459800.107388646
  9
$TDUPDATE
 40
2460140.107148727
  9
$TDINDWG
 40
0.0412291088
  9
$TDUSRTIMER
 40
0.0412291088
  9
$USRTIMER
 70
     1
  9
$ANGBASE
 50
0.0
  9
$ANGDIR
 70
     0
  9
$PDMODE
 70
     0
  9
$PDSIZE
 40
-1.0
  9
$PLINEWID
 40
0.0
  9
$COORDS
 70
     1
  9
$SPLFRAME
 70
     0
  9
$SPLINETYPE
 70
     6
  9
$SPLINESEGS
 70
     8
  9
$ATTDIA
 70
     0
  9
$ATTREQ
 70
     1
  9
$HANDLING
 70
     1
  9
$HANDSEED
  5
781
  9
$SURFTAB1
 70
     6
  9
$SURFTAB2
 70
     6
  9
$SURFTYPE
 70
     6
  9
$SURFU
 70
     6
  9
$SURFV
 70
     6
  9
$UCSNAME
  2

  9
$UCSORG
 10
0.0
 20
0.0
 30
0.0
  9
$UCSXDIR
 10
1.0
 20
0.0
 30
0.0
  9
$UCSYDIR
 10
0.0
 20
1.0
 30
0.0
  9
$USERI1
 70
     0
  9
$USERI2
 70
     0
  9
$USERI3
 70
     0
  9
$USERI4
 70
     0
  9
$USERI5
 70
     0
  9
$USERR1
 40
0.0
  9
$USERR2
 40
0.0
  9
$USERR3
 40
0.0
  9
$USERR4
 40
0.0
  9
$USERR5
 40
0.0
  9
$WORLDVIEW
 70
     1
  0
ENDSEC
  0
SECTION
  2
TABLES
  0
TABLE
  2
VPORT
 70
     1
  0
VPORT
  2
*ACTIVE
 70
     0
 10
0.0
 20
0.0
 11
1.0
 21
1.0
 12
3037.991730170884
 22
1772.24023564317
 13
0.0
 23
0.0
 14
10.0
 24
10.0
 15
10.0
 25
10.0
 16
0.0
 26
0.0
 36
1.0
 17
0.0
 27
0.0
 37
0.0
 40
3606.902623095315
 41
2.235364396654719
 42
50.0
 43
0.0
 44
0.0
 50
0.0
 51
0.0
 71
     0
 72
  2000
 73
     1
 74
     3
 75
     0
 76
     0
 77
     0
 78
     0
  0
ENDTAB
  0
TABLE
  2
LTYPE
 70
     6
  0
LTYPE
  2
CONTINUOUS
 70
     0
  3
Solid line
 72
    65
 73
     0
 40
0.0
  0
LTYPE
  2
HIDDEN
 70
     0
  3
Hidden __ __ __ __ __ __ __ __ __ __ __ __ __ __
 72
    65
 73
     2
 40
1.905
 49
1.27
 49
-0.635
  0
LTYPE
  2
PHANTOM
 70
     0
  3
Phantom ______  __  __  ______  __  __  ______
 72
    65
 73
     6
 40
12.7
 49
6.35
 49
-1.27
 49
1.27
 49
-1.27
 49
1.27
 49
-1.27
  0
LTYPE
  2
CENTER
 70
     0
  3
Center ____ _ ____ _ ____ _ ____ _ ____ _ ____
 72
    65
 73
     4
 40
10.16
 49
6.35
 49
-1.27
 49
1.27
 49
-1.27
  0
LTYPE
  2
CENTERX2
 70
     0
  3
Center (2x) ________  __  ________  __  _____
 72
    65
 73
     4
 40
20.32
 49
12.7
 49
-2.54
 49
2.54
 49
-2.54
  0
LTYPE
  2
DOT2
 70
     0
  3
Dot (.5x) ........................................
 72
    65
 73
     2
 40
0.635
 49
0.0
 49
-0.635
  0
ENDTAB
  0
TABLE
  2
LAYER
 70
     4
  0
LAYER
  2
0
 70
     0
 62
     7
  6
CONTINUOUS
  0
LAYER
  2
SLD-0
 70
     0
 62
   179
  6
CONTINUOUS
  0
LAYER
  2
寸法
 70
     0
 62
   179
  6
CONTINUOUS
  0
LAYER
  2
DEFPOINTS
 70
     0
 62
     7
  6
CONTINUOUS
  0
ENDTAB
  0
TABLE
  2
STYLE
 70
     2
  0
STYLE
  2
STANDARD
 70
     0
 40
0.0
 41
1.0
 50
0.0
 71
     0
 42
3.5
  3
txt
  4
bigfont
  0
STYLE
  2
SLDTEXTSTYLE0
 70
     0
 40
0.0
 41
0.75
 50
0.0
 71
     0
 42
3.5
  3
TXT
  4
bigfont
  0
ENDTAB
  0
TABLE
  2
VIEW
 70
     0
  0
ENDTAB
  0
TABLE
  2
UCS
 70
     0
  0
ENDTAB
  0
ENDSEC
  0
SECTION
  2
BLOCKS
  0
ENDSEC
  0
SECTION
  2
ENTITIES
  0
LINE
  5
75
  8
0
  6
CONTINUOUS
 62
     7
 10
4839.484712179223
 20
284.470902007842
 30
0.0
 11
3312.374599790194
 21
284.4709020078419
 31
0.0
  0
TEXT
  5
77
  8
0
  6
CONTINUOUS
 62
     7
 10
1653.493678216644
 20
3261.605199668251
 30
0.0
 40
52.91666666666666
  1
＜上面＞
 41
0.75
  7
SLDTEXTSTYLE0
  0
TEXT
  5
78
  8
0
  6
CONTINUOUS
 62
     7
 10
465.0550770716506
 20
2123.137155358547
 30
0.0
 40
52.91666666666666
  1
＜左側面＞
 41
0.75
  7
SLDTEXTSTYLE0
  0
TEXT
  5
79
  8
0
  6
CONTINUOUS
 62
     7
 10
1648.960416169302
 20
2119.924351969637
 30
0.0
 40
52.91666666666666
  1
＜正面＞
 41
0.75
  7
SLDTEXTSTYLE0
  0
TEXT
  5
7A
  8
0
  6
CONTINUOUS
 62
     7
 10
3377.814243189123
 20
326.489054196763
 30
0.0
 40
52.91666666666666
  1
品名：
 41
0.75
  7
SLDTEXTSTYLE0
  0
TEXT
  5
7B
  8
0
  6
CONTINUOUS
 62
     7
 10
4446.663437481703
 20
332.3177187478654
 30
0.0
 40
52.91666666666666
  1
Pamouna
 41
0.75
  7
SLDTEXTSTYLE0
  0
TEXT
  5
7C
  8
寸法
  6
CONTINUOUS
 62
     7
 10
4688.007304885427
 20
165.7088516276312
 30
0.0
 40
52.91666666666666
  1
1/1
 41
0.75
  7
SLDTEXTSTYLE0
  0
TEXT
  5
7D
  8
寸法
  6
CONTINUOUS
 62
     7
 10
4198.79693921183
 20
165.7088544215994
 30
0.0
 40
52.91666666666666
  1
2022/09/24
 41
0.75
  7
SLDTEXTSTYLE0
  0
TEXT
  5
7E
  8
寸法
  6
CONTINUOUS
 62
     7
 10
1633.463148059129
 20
1039.627624333833
 30
0.0
 40
52.91666666666666
  1
＜背面＞
 41
0.75
  7
SLDTEXTSTYLE0
  0
TEXT
  5
7F
  8
寸法
  6
CONTINUOUS
 62
     7
 10
3611.283129349215
 20
326.4179237671586
 30
0.0
 40
66.14583333333331
  1
MA-WS901
 41
0.75
  7
SLDTEXTSTYLE0
  0
TEXT
  5
80
  8
寸法
  6
CONTINUOUS
 62
     7
 10
3480.731849808455
 20
2123.137155358548
 30
0.0
 40
52.91666666666666
  1
＜右側面＞
 41
0.75
  7
SLDTEXTSTYLE0
  0
LINE
  5
8B
  8
0
  6
CONTINUOUS
 62
     7
 10
2575.04736164755
 20
1617.182065315615
 30
0.0
 11
2574.24736164755
 21
1617.182065315615
 31
0.0
  0
ARC
  5
8C
  8
0
  6
CONTINUOUS
 62
     7
 10
2575.04736164755
 20
1616.982065315614
 30
0.0
 40
0.2000000000007276
 50
0.0
 51
90.0
  0
LINE
  5
8F
  8
0
  6
CONTINUOUS
 62
     7
 10
2574.24736164755
 20
1617.182065315615
 30
0.0
 11
2280.24736164755
 21
1617.182065315615
 31
0.0
  0
LINE
  5
90
  8
0
  6
CONTINUOUS
 62
     7
 10
2352.72736164755
 20
1617.182065315615
 30
0.0
 11
1678.74736164755
 21
1617.182065315615
 31
0.0
  0
LINE
  5
91
  8
0
  6
CONTINUOUS
 62
     7
 10
1678.74736164755
 20
1617.182065315615
 30
0.0
 11
1677.94736164755
 21
1617.182065315615
 31
0.0
  0
ARC
  5
92
  8
0
  6
CONTINUOUS
 62
     7
 10
1677.94736164755
 20
1616.982065315615
 30
0.0
 40
0.2000000000000455
 50
90.0
 51
180.0
  0
LINE
  5
DF
  8
0
  6
CONTINUOUS
 62
     7
 10
2575.24736164755
 20
1616.970916593868
 30
0.0
 11
2575.24736164755
 21
1616.882065315614
 31
0.0
  0
POLYLINE
  5
E0
  8
0
  6
CONTINUOUS
 62
     7
 66
     1
 10
0.0
 20
0.0
 30
0.0
  0
VERTEX
  5
679
  8
0
  6
CONTINUOUS
 62
     7
 10
2575.24736164755
 20
1616.882065315614
 30
0.0
  0
VERTEX
  5
67A
  8
0
  6
CONTINUOUS
 62
     7
 10
2575.247344210789
 20
1616.879307383437
 30
0.0
  0
VERTEX
  5
67B
  8
0
  6
CONTINUOUS
 62
     7
 10
2575.247288413025
 20
1616.876480943689
 30
0.0
  0
VERTEX
  5
67C
  8
0
  6
CONTINUOUS
 62
     7
 10
2575.247189811435
 20
1616.873585156526
 30
0.0
  0
VERTEX
  5
67D
  8
0
  6
CONTINUOUS
 62
     7
 10
2575.247045375226
 20
1616.870621999142
 30
0.0
  0
VERTEX
  5
67E
  8
0
  6
CONTINUOUS
 62
     7
 10
2575.246852073602
 20
1616.867593448734
 30
0.0
  0
VERTEX
  5
67F
  8
0
  6
CONTINUOUS
 62
     7
 10
2575.246606875773
 20
1616.864501482494
 30
0.0
  0
VERTEX
  5
680
  8
0
  6
CONTINUOUS
 62
     7
 10
2575.246306750941
 20
1616.86134807762
 30
0.0
  0
VERTEX
  5
681
  8
0
  6
CONTINUOUS
 62
     7
 10
2575.245948668315
 20
1616.858135211304
 30
0.0
  0
VERTEX
  5
682
  8
0
  6
CONTINUOUS
 62
     7
 10
2575.245529597099
 20
1616.854864860744
 30
0.0
  0
VERTEX
  5
683
  8
0
  6
CONTINUOUS
 62
     7
 10
2575.245046506503
 20
1616.851539003133
 30
0.0
  0
VERTEX
  5
684
  8
0
  6
CONTINUOUS
 62
     7
 10
2575.244496365729
 20
1616.848159615666
 30
0.0
  0
VERTEX
  5
685
  8
0
  6
CONTINUOUS
 62
     7
 10
2575.243876143985
 20
1616.844728675538
 30
0.0
  0
VERTEX
  5
686
  8
0
  6
CONTINUOUS
 62
     7
 10
2575.243182810477
 20
1616.841248159944
 30
0.0
  0
VERTEX
  5
687
  8
0
  6
CONTINUOUS
 62
     7
 10
2575.242413334412
 20
1616.83772004608
 30
0.0
  0
VERTEX
  5
688
  8
0
  6
CONTINUOUS
 62
     7
 10
2575.241564684995
 20
1616.834146311139
 30
0.0
  0
VERTEX
  5
689
  8
0
  6
CONTINUOUS
 62
     7
 10
2575.240633831432
 20
1616.830528932318
 30
0.0
  0
VERTEX
  5
68A
  8
0
  6
CONTINUOUS
 62
     7
 10
2575.23961774293
 20
1616.82686988681
 30
0.0
  0
VERTEX
  5
68B
  8
0
  6
CONTINUOUS
 62
     7
 10
2575.238513388695
 20
1616.823171151812
 30
0.0
  0
VERTEX
  5
68C
  8
0
  6
CONTINUOUS
 62
     7
 10
2575.237317737933
 20
1616.819434704517
 30
0.0
  0
VERTEX
  5
68D
  8
0
  6
CONTINUOUS
 62
     7
 10
2575.23602775985
 20
1616.81566252212
 30
0.0
  0
VERTEX
  5
68E
  8
0
  6
CONTINUOUS
 62
     7
 10
2575.234640423654
 20
1616.811856581818
 30
0.0
  0
VERTEX
  5
68F
  8
0
  6
CONTINUOUS
 62
     7
 10
2575.233152698549
 20
1616.808018860804
 30
0.0
  0
VERTEX
  5
690
  8
0
  6
CONTINUOUS
 62
     7
 10
2575.231561553741
 20
1616.804151336274
 30
0.0
  0
VERTEX
  5
691
  8
0
  6
CONTINUOUS
 62
     7
 10
2575.229863958438
 20
1616.800255985422
 30
0.0
  0
VERTEX
  5
692
  8
0
  6
CONTINUOUS
 62
     7
 10
2575.22805686929
 20
1616.796334863267
 30
0.0
  0
VERTEX
  5
693
  8
0
  6
CONTINUOUS
 62
     7
 10
2575.226137020381
 20
1616.792391404229
 30
0.0
  0
VERTEX
  5
694
  8
0
  6
CONTINUOUS
 62
     7
 10
2575.2241009548
 20
1616.788430226521
 30
0.0
  0
VERTEX
  5
695
  8
0
  6
CONTINUOUS
 62
     7
 10
2575.221945209434
 20
1616.784455986776
 30
0.0
  0
VERTEX
  5
696
  8
0
  6
CONTINUOUS
 62
     7
 10
2575.21966632117
 20
1616.780473341623
 30
0.0
  0
VERTEX
  5
697
  8
0
  6
CONTINUOUS
 62
     7
 10
2575.217260826897
 20
1616.776486947692
 30
0.0
  0
VERTEX
  5
698
  8
0
  6
CONTINUOUS
 62
     7
 10
2575.214725263502
 20
1616.772501461614
 30
0.0
  0
VERTEX
  5
699
  8
0
  6
CONTINUOUS
 62
     7
 10
2575.212056167872
 20
1616.768521540018
 30
0.0
  0
VERTEX
  5
69A
  8
0
  6
CONTINUOUS
 62
     7
 10
2575.209250076896
 20
1616.764551839536
 30
0.0
  0
VERTEX
  5
69B
  8
0
  6
CONTINUOUS
 62
     7
 10
2575.20630352746
 20
1616.760597016796
 30
0.0
  0
VERTEX
  5
69C
  8
0
  6
CONTINUOUS
 62
     7
 10
2575.203213056453
 20
1616.75666172843
 30
0.0
  0
VERTEX
  5
69D
  8
0
  6
CONTINUOUS
 62
     7
 10
2575.199975200764
 20
1616.752750631068
 30
0.0
  0
VERTEX
  5
69E
  8
0
  6
CONTINUOUS
 62
     7
 10
2575.196586497277
 20
1616.748868381339
 30
0.0
  0
VERTEX
  5
69F
  8
0
  6
CONTINUOUS
 62
     7
 10
2575.193043482883
 20
1616.745019635875
 30
0.0
  0
VERTEX
  5
6A0
  8
0
  6
CONTINUOUS
 62
     7
 10
2575.189342696076
 20
1616.741209052618
 30
0.0
  0
VERTEX
  5
6A1
  8
0
  6
CONTINUOUS
 62
     7
 10
2575.185481370206
 20
1616.737441856798
 30
0.0
  0
VERTEX
  5
6A2
  8
0
  6
CONTINUOUS
 62
     7
 10
2575.181458515346
 20
1616.733724724188
 30
0.0
  0
VERTEX
  5
6A3
  8
0
  6
CONTINUOUS
 62
     7
 10
2575.177273421497
 20
1616.730064559097
 30
0.0
  0
VERTEX
  5
6A4
  8
0
  6
CONTINUOUS
 62
     7
 10
2575.172925378663
 20
1616.726468265835
 30
0.0
  0
VERTEX
  5
6A5
  8
0
  6
CONTINUOUS
 62
     7
 10
2575.168413676847
 20
1616.722942748713
 30
0.0
  0
VERTEX
  5
6A6
  8
0
  6
CONTINUOUS
 62
     7
 10
2575.16373760605
 20
1616.719494912038
 30
0.0
  0
VERTEX
  5
6A7
  8
0
  6
CONTINUOUS
 62
     7
 10
2575.158896456275
 20
1616.716131660123
 30
0.0
  0
VERTEX
  5
6A8
  8
0
  6
CONTINUOUS
 62
     7
 10
2575.153889517523
 20
1616.712859897274
 30
0.0
  0
VERTEX
  5
6A9
  8
0
  6
CONTINUOUS
 62
     7
 10
2575.148716079797
 20
1616.709686527803
 30
0.0
  0
VERTEX
  5
6AA
  8
0
  6
CONTINUOUS
 62
     7
 10
2575.143375433103
 20
1616.706618456029
 30
0.0
  0
VERTEX
  5
6AB
  8
0
  6
CONTINUOUS
 62
     7
 10
2575.137868090955
 20
1616.703665137871
 30
0.0
  0
VERTEX
  5
6AC
  8
0
  6
CONTINUOUS
 62
     7
 10
2575.132199233298
 20
1616.700845761012
 30
0.0
  0
VERTEX
  5
6AD
  8
0
  6
CONTINUOUS
 62
     7
 10
2575.126375152413
 20
1616.698181832894
 30
0.0
  0
VERTEX
  5
6AE
  8
0
  6
CONTINUOUS
 62
     7
 10
2575.120402140581
 20
1616.695694860953
 30
0.0
  0
VERTEX
  5
6AF
  8
0
  6
CONTINUOUS
 62
     7
 10
2575.114286490081
 20
1616.69340635263
 30
0.0
  0
VERTEX
  5
6B0
  8
0
  6
CONTINUOUS
 62
     7
 10
2575.108034493195
 20
1616.691337815362
 30
0.0
  0
VERTEX
  5
6B1
  8
0
  6
CONTINUOUS
 62
     7
 10
2575.101652442203
 20
1616.689510756589
 30
0.0
  0
VERTEX
  5
6B2
  8
0
  6
CONTINUOUS
 62
     7
 10
2575.09514686147
 20
1616.687945308607
 30
0.0
  0
VERTEX
  5
6B3
  8
0
  6
CONTINUOUS
 62
     7
 10
2575.088529088399
 20
1616.68663308578
 30
0.0
  0
VERTEX
  5
6B4
  8
0
  6
CONTINUOUS
 62
     7
 10
2575.081814998685
 20
1616.685538812411
 30
0.0
  0
VERTEX
  5
6B5
  8
0
  6
CONTINUOUS
 62
     7
 10
2575.075020645102
 20
1616.684626163594
 30
0.0
  0
VERTEX
  5
6B6
  8
0
  6
CONTINUOUS
 62
     7
 10
2575.068162080422
 20
1616.683858814414
 30
0.0
  0
VERTEX
  5
6B7
  8
0
  6
CONTINUOUS
 62
     7
 10
2575.061255357421
 20
1616.683200439964
 30
0.0
  0
VERTEX
  5
6B8
  8
0
  6
CONTINUOUS
 62
     7
 10
2575.054316528873
 20
1616.682614715335
 30
0.0
  0
VERTEX
  5
6B9
  8
0
  6
CONTINUOUS
 62
     7
 10
2575.04736164755
 20
1616.682065315615
 30
0.0
  0
SEQEND
  5
77D
  8
0
  6
CONTINUOUS
 62
     7
  0
LINE
  5
E1
  8
0
  6
CONTINUOUS
 62
     7
 10
2575.04736164755
 20
1616.682065315614
 30
0.0
 11
2575.04736164755
 21
1617.168129413431
 31
0.0
  0
ARC
  5
E2
  8
0
  6
CONTINUOUS
 62
     7
 10
2575.048745527299
 20
1616.969513155943
 30
0.0
 40
0.1986210785935487
 50
0.4048499765283321
 51
90.39920793453996
  0
LINE
  5
E3
  8
0
  6
CONTINUOUS
 62
     7
 10
2575.04736164755
 20
1617.168129413431
 30
0.0
 11
2574.24736164755
 21
1617.168129413431
 31
0.0
  0
LINE
  5
E4
  8
0
  6
CONTINUOUS
 62
     7
 10
2574.24736164755
 20
1617.168129413431
 30
0.0
 11
2574.24736164755
 21
1616.682065315614
 31
0.0
  0
LINE
  5
E5
  8
0
  6
CONTINUOUS
 62
     7
 10
2574.24736164755
 20
1617.182065315615
 30
0.0
 11
2574.24736164755
 21
1617.168129413431
 31
0.0
  0
LINE
  5
E6
  8
0
  6
CONTINUOUS
 62
     7
 10
2575.24736164755
 20
1616.982065315614
 30
0.0
 11
2575.24736164755
 21
1616.970916593868
 31
0.0
  0
LINE
  5
E7
  8
0
  6
CONTINUOUS
 62
     7
 10
2575.24736164755
 20
1616.882065315614
 30
0.0
 11
2575.24736164755
 21
1616.682065315612
 31
0.0
  0
LINE
  5
F1
  8
0
  6
CONTINUOUS
 62
     7
 10
2574.24736164755
 20
1617.168129413431
 30
0.0
 11
2280.24736164755
 21
1617.168129413431
 31
0.0
  0
LINE
  5
F4
  8
0
  6
CONTINUOUS
 62
     7
 10
2352.72736164755
 20
1617.168129413431
 30
0.0
 11
1678.74736164755
 21
1617.168129413431
 31
0.0
  0
LINE
  5
F5
  8
0
  6
CONTINUOUS
 62
     7
 10
1678.74736164755
 20
1616.682065315614
 30
0.0
 11
1678.74736164755
 21
1617.168129413431
 31
0.0
  0
LINE
  5
F6
  8
0
  6
CONTINUOUS
 62
     7
 10
1678.74736164755
 20
1617.168129413431
 30
0.0
 11
1678.74736164755
 21
1617.182065315615
 31
0.0
  0
LINE
  5
F7
  8
0
  6
CONTINUOUS
 62
     7
 10
1677.74736164755
 20
1616.882065315615
 30
0.0
 11
1677.74736164755
 21
1616.970916593868
 31
0.0
  0
ARC
  5
F8
  8
0
  6
CONTINUOUS
 62
     7
 10
1677.9459777678
 20
1616.969513155944
 30
0.0
 40
0.198621078592589
 50
89.60079206532794
 51
179.5951500236661
  0
LINE
  5
F9
  8
0
  6
CONTINUOUS
 62
     7
 10
1677.94736164755
 20
1617.168129413431
 30
0.0
 11
1677.94736164755
 21
1616.682065315614
 31
0.0
  0
POLYLINE
  5
FA
  8
0
  6
CONTINUOUS
 62
     7
 66
     1
 10
0.0
 20
0.0
 30
0.0
  0
VERTEX
  5
6BA
  8
0
  6
CONTINUOUS
 62
     7
 10
1677.74736164755
 20
1616.882065315615
 30
0.0
  0
VERTEX
  5
6BB
  8
0
  6
CONTINUOUS
 62
     7
 10
1677.747379084311
 20
1616.879307383437
 30
0.0
  0
VERTEX
  5
6BC
  8
0
  6
CONTINUOUS
 62
     7
 10
1677.747434882074
 20
1616.876480943689
 30
0.0
  0
VERTEX
  5
6BD
  8
0
  6
CONTINUOUS
 62
     7
 10
1677.747533483665
 20
1616.873585156526
 30
0.0
  0
VERTEX
  5
6BE
  8
0
  6
CONTINUOUS
 62
     7
 10
1677.747677919873
 20
1616.870621999143
 30
0.0
  0
VERTEX
  5
6BF
  8
0
  6
CONTINUOUS
 62
     7
 10
1677.747871221496
 20
1616.867593448734
 30
0.0
  0
VERTEX
  5
6C0
  8
0
  6
CONTINUOUS
 62
     7
 10
1677.748116419327
 20
1616.864501482495
 30
0.0
  0
VERTEX
  5
6C1
  8
0
  6
CONTINUOUS
 62
     7
 10
1677.748416544157
 20
1616.86134807762
 30
0.0
  0
VERTEX
  5
6C2
  8
0
  6
CONTINUOUS
 62
     7
 10
1677.748774626783
 20
1616.858135211305
 30
0.0
  0
VERTEX
  5
6C3
  8
0
  6
CONTINUOUS
 62
     7
 10
1677.749193697998
 20
1616.854864860744
 30
0.0
  0
VERTEX
  5
6C4
  8
0
  6
CONTINUOUS
 62
     7
 10
1677.749676788595
 20
1616.851539003133
 30
0.0
  0
VERTEX
  5
6C5
  8
0
  6
CONTINUOUS
 62
     7
 10
1677.750226929369
 20
1616.848159615666
 30
0.0
  0
VERTEX
  5
6C6
  8
0
  6
CONTINUOUS
 62
     7
 10
1677.750847151113
 20
1616.844728675538
 30
0.0
  0
VERTEX
  5
6C7
  8
0
  6
CONTINUOUS
 62
     7
 10
1677.751540484621
 20
1616.841248159944
 30
0.0
  0
VERTEX
  5
6C8
  8
0
  6
CONTINUOUS
 62
     7
 10
1677.752309960687
 20
1616.83772004608
 30
0.0
  0
VERTEX
  5
6C9
  8
0
  6
CONTINUOUS
 62
     7
 10
1677.753158610104
 20
1616.834146311139
 30
0.0
  0
VERTEX
  5
6CA
  8
0
  6
CONTINUOUS
 62
     7
 10
1677.754089463667
 20
1616.830528932318
 30
0.0
  0
VERTEX
  5
6CB
  8
0
  6
CONTINUOUS
 62
     7
 10
1677.755105552169
 20
1616.826869886811
 30
0.0
  0
VERTEX
  5
6CC
  8
0
  6
CONTINUOUS
 62
     7
 10
1677.756209906404
 20
1616.823171151812
 30
0.0
  0
VERTEX
  5
6CD
  8
0
  6
CONTINUOUS
 62
     7
 10
1677.757405557166
 20
1616.819434704517
 30
0.0
  0
VERTEX
  5
6CE
  8
0
  6
CONTINUOUS
 62
     7
 10
1677.758695535248
 20
1616.815662522121
 30
0.0
  0
VERTEX
  5
6CF
  8
0
  6
CONTINUOUS
 62
     7
 10
1677.760082871445
 20
1616.811856581819
 30
0.0
  0
VERTEX
  5
6D0
  8
0
  6
CONTINUOUS
 62
     7
 10
1677.76157059655
 20
1616.808018860804
 30
0.0
  0
VERTEX
  5
6D1
  8
0
  6
CONTINUOUS
 62
     7
 10
1677.763161741358
 20
1616.804151336274
 30
0.0
  0
VERTEX
  5
6D2
  8
0
  6
CONTINUOUS
 62
     7
 10
1677.764859336661
 20
1616.800255985423
 30
0.0
  0
VERTEX
  5
6D3
  8
0
  6
CONTINUOUS
 62
     7
 10
1677.766666425811
 20
1616.796334863267
 30
0.0
  0
VERTEX
  5
6D4
  8
0
  6
CONTINUOUS
 62
     7
 10
1677.768586274719
 20
1616.792391404228
 30
0.0
  0
VERTEX
  5
6D5
  8
0
  6
CONTINUOUS
 62
     7
 10
1677.7706223403
 20
1616.788430226521
 30
0.0
  0
VERTEX
  5
6D6
  8
0
  6
CONTINUOUS
 62
     7
 10
1677.772778085666
 20
1616.784455986776
 30
0.0
  0
VERTEX
  5
6D7
  8
0
  6
CONTINUOUS
 62
     7
 10
1677.77505697393
 20
1616.780473341622
 30
0.0
  0
VERTEX
  5
6D8
  8
0
  6
CONTINUOUS
 62
     7
 10
1677.777462468203
 20
1616.776486947691
 30
0.0
  0
VERTEX
  5
6D9
  8
0
  6
CONTINUOUS
 62
     7
 10
1677.779998031598
 20
1616.772501461613
 30
0.0
  0
VERTEX
  5
6DA
  8
0
  6
CONTINUOUS
 62
     7
 10
1677.782667127228
 20
1616.768521540018
 30
0.0
  0
VERTEX
  5
6DB
  8
0
  6
CONTINUOUS
 62
     7
 10
1677.785473218204
 20
1616.764551839535
 30
0.0
  0
VERTEX
  5
6DC
  8
0
  6
CONTINUOUS
 62
     7
 10
1677.78841976764
 20
1616.760597016796
 30
0.0
  0
VERTEX
  5
6DD
  8
0
  6
CONTINUOUS
 62
     7
 10
1677.791510238646
 20
1616.75666172843
 30
0.0
  0
VERTEX
  5
6DE
  8
0
  6
CONTINUOUS
 62
     7
 10
1677.794748094337
 20
1616.752750631068
 30
0.0
  0
VERTEX
  5
6DF
  8
0
  6
CONTINUOUS
 62
     7
 10
1677.798136797822
 20
1616.74886838134
 30
0.0
  0
VERTEX
  5
6E0
  8
0
  6
CONTINUOUS
 62
     7
 10
1677.801679812217
 20
1616.745019635875
 30
0.0
  0
VERTEX
  5
6E1
  8
0
  6
CONTINUOUS
 62
     7
 10
1677.805380599024
 20
1616.741209052618
 30
0.0
  0
VERTEX
  5
6E2
  8
0
  6
CONTINUOUS
 62
     7
 10
1677.809241924895
 20
1616.737441856798
 30
0.0
  0
VERTEX
  5
6E3
  8
0
  6
CONTINUOUS
 62
     7
 10
1677.813264779755
 20
1616.733724724187
 30
0.0
  0
VERTEX
  5
6E4
  8
0
  6
CONTINUOUS
 62
     7
 10
1677.817449873603
 20
1616.730064559096
 30
0.0
  0
VERTEX
  5
6E5
  8
0
  6
CONTINUOUS
 62
     7
 10
1677.821797916436
 20
1616.726468265835
 30
0.0
  0
VERTEX
  5
6E6
  8
0
  6
CONTINUOUS
 62
     7
 10
1677.826309618252
 20
1616.722942748713
 30
0.0
  0
VERTEX
  5
6E7
  8
0
  6
CONTINUOUS
 62
     7
 10
1677.83098568905
 20
1616.719494912039
 30
0.0
  0
VERTEX
  5
6E8
  8
0
  6
CONTINUOUS
 62
     7
 10
1677.835826838825
 20
1616.716131660122
 30
0.0
  0
VERTEX
  5
6E9
  8
0
  6
CONTINUOUS
 62
     7
 10
1677.840833777577
 20
1616.712859897274
 30
0.0
  0
VERTEX
  5
6EA
  8
0
  6
CONTINUOUS
 62
     7
 10
1677.846007215303
 20
1616.709686527803
 30
0.0
  0
VERTEX
  5
6EB
  8
0
  6
CONTINUOUS
 62
     7
 10
1677.851347861997
 20
1616.706618456029
 30
0.0
  0
VERTEX
  5
6EC
  8
0
  6
CONTINUOUS
 62
     7
 10
1677.856855204145
 20
1616.70366513787
 30
0.0
  0
VERTEX
  5
6ED
  8
0
  6
CONTINUOUS
 62
     7
 10
1677.862524061801
 20
1616.700845761012
 30
0.0
  0
VERTEX
  5
6EE
  8
0
  6
CONTINUOUS
 62
     7
 10
1677.868348142687
 20
1616.698181832894
 30
0.0
  0
VERTEX
  5
6EF
  8
0
  6
CONTINUOUS
 62
     7
 10
1677.874321154519
 20
1616.695694860953
 30
0.0
  0
VERTEX
  5
6F0
  8
0
  6
CONTINUOUS
 62
     7
 10
1677.880436805019
 20
1616.69340635263
 30
0.0
  0
VERTEX
  5
6F1
  8
0
  6
CONTINUOUS
 62
     7
 10
1677.886688801905
 20
1616.691337815362
 30
0.0
  0
VERTEX
  5
6F2
  8
0
  6
CONTINUOUS
 62
     7
 10
1677.893070852897
 20
1616.689510756588
 30
0.0
  0
VERTEX
  5
6F3
  8
0
  6
CONTINUOUS
 62
     7
 10
1677.899576433629
 20
1616.687945308607
 30
0.0
  0
VERTEX
  5
6F4
  8
0
  6
CONTINUOUS
 62
     7
 10
1677.906194206701
 20
1616.68663308578
 30
0.0
  0
VERTEX
  5
6F5
  8
0
  6
CONTINUOUS
 62
     7
 10
1677.912908296415
 20
1616.685538812412
 30
0.0
  0
VERTEX
  5
6F6
  8
0
  6
CONTINUOUS
 62
     7
 10
1677.919702649999
 20
1616.684626163593
 30
0.0
  0
VERTEX
  5
6F7
  8
0
  6
CONTINUOUS
 62
     7
 10
1677.926561214678
 20
1616.683858814414
 30
0.0
  0
VERTEX
  5
6F8
  8
0
  6
CONTINUOUS
 62
     7
 10
1677.933467937678
 20
1616.683200439964
 30
0.0
  0
VERTEX
  5
6F9
  8
0
  6
CONTINUOUS
 62
     7
 10
1677.940406766227
 20
1616.682614715334
 30
0.0
  0
VERTEX
  5
6FA
  8
0
  6
CONTINUOUS
 62
     7
 10
1677.94736164755
 20
1616.682065315614
 30
0.0
  0
SEQEND
  5
77E
  8
0
  6
CONTINUOUS
 62
     7
  0
LINE
  5
FB
  8
0
  6
CONTINUOUS
 62
     7
 10
1678.74736164755
 20
1617.168129413431
 30
0.0
 11
1677.94736164755
 21
1617.168129413431
 31
0.0
  0
LINE
  5
FC
  8
0
  6
CONTINUOUS
 62
     7
 10
1677.74736164755
 20
1616.970916593868
 30
0.0
 11
1677.74736164755
 21
1616.982065315615
 31
0.0
  0
LINE
  5
FD
  8
0
  6
CONTINUOUS
 62
     7
 10
1677.74736164755
 20
1616.682065315613
 30
0.0
 11
1677.74736164755
 21
1616.882065315615
 31
0.0
  0
LINE
  5
106
  8
0
  6
CONTINUOUS
 62
     7
 10
2575.24736164755
 20
1616.682065315612
 30
0.0
 11
2279.24736164755
 21
1616.682065315612
 31
0.0
  0
LINE
  5
107
  8
0
  6
CONTINUOUS
 62
     7
 10
2575.24736164755
 20
1486.682065315612
 30
0.0
 11
2575.24736164755
 21
1616.682065315612
 31
0.0
  0
LINE
  5
108
  8
0
  6
CONTINUOUS
 62
     7
 10
2279.24736164755
 20
1486.682065315612
 30
0.0
 11
2575.24736164755
 21
1486.682065315612
 31
0.0
  0
LINE
  5
109
  8
0
  6
CONTINUOUS
 62
     7
 10
1677.74736164755
 20
1616.682065315613
 30
0.0
 11
1677.74736164755
 21
1486.682065315613
 31
0.0
  0
LINE
  5
10A
  8
0
  6
CONTINUOUS
 62
     7
 10
2353.72736164755
 20
1616.682065315613
 30
0.0
 11
1677.74736164755
 21
1616.682065315613
 31
0.0
  0
LINE
  5
10C
  8
0
  6
CONTINUOUS
 62
     7
 10
1677.74736164755
 20
1486.682065315613
 30
0.0
 11
2353.72736164755
 21
1486.682065315613
 31
0.0
  0
LINE
  5
110
  8
0
  6
CONTINUOUS
 62
     7
 10
2561.747361647548
 20
1638.682065315614
 30
0.0
 11
2561.747361647548
 21
1617.182065315615
 31
0.0
  0
LINE
  5
111
  8
0
  6
CONTINUOUS
 62
     7
 10
2561.747361647548
 20
1486.682065315612
 30
0.0
 11
2561.747361647548
 21
1482.682065315614
 31
0.0
  0
LINE
  5
112
  8
0
  6
CONTINUOUS
 62
     7
 10
2561.747361647548
 20
1482.682065315614
 30
0.0
 11
2579.247361647548
 21
1482.682065315614
 31
0.0
  0
LINE
  5
113
  8
0
  6
CONTINUOUS
 62
     7
 10
2579.247361647548
 20
1482.682065315614
 30
0.0
 11
2579.247361647548
 21
1638.682065315614
 31
0.0
  0
LINE
  5
114
  8
0
  6
CONTINUOUS
 62
     7
 10
2561.747361647548
 20
1483.682065315615
 30
0.0
 11
1691.247361647548
 21
1483.682065315615
 31
0.0
  0
LINE
  5
115
  8
0
  6
CONTINUOUS
 62
     7
 10
2580.497361647548
 20
1638.682065315614
 30
0.0
 11
1672.497361647548
 21
1638.682065315614
 31
0.0
  0
LINE
  5
116
  8
0
  6
CONTINUOUS
 62
     7
 10
1672.497361647548
 20
1638.682065315614
 30
0.0
 11
1672.497361647548
 21
1641.682065315615
 31
0.0
  0
LINE
  5
117
  8
0
  6
CONTINUOUS
 62
     7
 10
1672.497361647548
 20
1641.682065315615
 30
0.0
 11
2580.497361647548
 21
1641.682065315615
 31
0.0
  0
LINE
  5
118
  8
0
  6
CONTINUOUS
 62
     7
 10
2580.497361647548
 20
1641.682065315615
 30
0.0
 11
2580.497361647548
 21
1638.682065315614
 31
0.0
  0
LINE
  5
119
  8
0
  6
CONTINUOUS
 62
     7
 10
2580.497361647548
 20
1659.682065315615
 30
0.0
 11
1672.497361647548
 21
1659.682065315615
 31
0.0
  0
LINE
  5
11A
  8
0
  6
CONTINUOUS
 62
     7
 10
1672.497361647548
 20
1662.682065315614
 30
0.0
 11
2580.497361647548
 21
1662.682065315614
 31
0.0
  0
LINE
  5
11B
  8
0
  6
CONTINUOUS
 62
     7
 10
1672.497361647548
 20
1659.682065315615
 30
0.0
 11
1672.497361647548
 21
1662.682065315614
 31
0.0
  0
LINE
  5
11C
  8
0
  6
CONTINUOUS
 62
     7
 10
2580.497361647548
 20
1662.682065315614
 30
0.0
 11
2580.497361647548
 21
1659.682065315615
 31
0.0
  0
LINE
  5
11D
  8
0
  6
CONTINUOUS
 62
     7
 10
1672.497361647548
 20
1659.682065315615
 30
0.0
 11
1672.497361647548
 21
1641.682065315615
 31
0.0
  0
LINE
  5
11E
  8
0
  6
CONTINUOUS
 62
     7
 10
2580.497361647548
 20
1659.682065315615
 30
0.0
 11
2580.497361647548
 21
1641.682065315615
 31
0.0
  0
LINE
  5
11F
  8
0
  6
CONTINUOUS
 62
     7
 10
1691.247361647548
 20
1482.682065315614
 30
0.0
 11
1691.247361647548
 21
1486.682065315613
 31
0.0
  0
LINE
  5
120
  8
0
  6
CONTINUOUS
 62
     7
 10
1691.247361647548
 20
1617.182065315615
 30
0.0
 11
1691.247361647548
 21
1638.682065315615
 31
0.0
  0
LINE
  5
121
  8
0
  6
CONTINUOUS
 62
     7
 10
1673.747361647548
 20
1482.682065315614
 30
0.0
 11
1691.247361647548
 21
1482.682065315614
 31
0.0
  0
LINE
  5
122
  8
0
  6
CONTINUOUS
 62
     7
 10
1673.747361647548
 20
1638.682065315615
 30
0.0
 11
1673.747361647548
 21
1482.682065315614
 31
0.0
  0
LINE
  5
12A
  8
0
  6
CONTINUOUS
 62
     8
 10
2575.04736164755
 20
1617.168129413431
 30
0.0
 11
2575.04736164755
 21
1617.182065315615
 31
0.0
  0
LINE
  5
12C
  8
0
  6
CONTINUOUS
 62
     8
 10
1677.94736164755
 20
1617.182065315615
 30
0.0
 11
1677.94736164755
 21
1617.168129413431
 31
0.0
  0
ARC
  5
16C
  8
0
  6
CONTINUOUS
 62
     7
 10
1026.600999354987
 20
1604.682065315615
 30
0.0
 40
0.7999999999999545
 50
90.0
 51
180.0
  0
LINE
  5
16D
  8
0
  6
CONTINUOUS
 62
     7
 10
1025.600999354988
 20
1604.682065315615
 30
0.0
 11
1025.800999354987
 21
1604.682065315615
 31
0.0
  0
ARC
  5
16E
  8
0
  6
CONTINUOUS
 62
     7
 10
1026.600999354987
 20
1604.682065315615
 30
0.0
 40
1.0
 50
90.0
 51
180.0
  0
LINE
  5
16F
  8
0
  6
CONTINUOUS
 62
     7
 10
1026.600999354987
 20
1605.482065315615
 30
0.0
 11
1026.600999354987
 21
1605.682065315615
 31
0.0
  0
LINE
  5
170
  8
0
  6
CONTINUOUS
 62
     7
 10
1027.400999354987
 20
1583.682065315614
 30
0.0
 11
1027.200999354987
 21
1583.882065315614
 31
0.0
  0
LINE
  5
171
  8
0
  6
CONTINUOUS
 62
     7
 10
1027.200999354987
 20
1583.882065315614
 30
0.0
 11
1027.200999354987
 21
1603.882065315614
 31
0.0
  0
LINE
  5
172
  8
0
  6
CONTINUOUS
 62
     7
 10
1027.400999354987
 20
1603.682065315615
 30
0.0
 11
1027.200999354987
 21
1603.882065315614
 31
0.0
  0
LINE
  5
173
  8
0
  6
CONTINUOUS
 62
     7
 10
1027.200999354987
 20
1603.882065315614
 30
0.0
 11
1039.700999354988
 21
1603.882065315614
 31
0.0
  0
LINE
  5
174
  8
0
  6
CONTINUOUS
 62
     7
 10
1039.900999354988
 20
1603.682065315615
 30
0.0
 11
1039.700999354988
 21
1603.882065315614
 31
0.0
  0
LINE
  5
175
  8
0
  6
CONTINUOUS
 62
     7
 10
1025.600999354988
 20
1583.882065315614
 30
0.0
 11
1025.800999354987
 21
1583.882065315614
 31
0.0
  0
LINE
  5
176
  8
0
  6
CONTINUOUS
 62
     7
 10
1025.800999354987
 20
1583.682065315614
 30
0.0
 11
1025.800999354987
 21
1583.882065315614
 31
0.0
  0
ARC
  5
177
  8
0
  6
CONTINUOUS
 62
     7
 10
1025.800999354987
 20
1583.882065315614
 30
0.0
 40
0.2000000000000455
 50
180.0
 51
270.0000000000008
  0
LINE
  5
178
  8
0
  6
CONTINUOUS
 62
     7
 10
1027.400999354987
 20
1583.682065315614
 30
0.0
 11
1025.800999354987
 21
1583.682065315614
 31
0.0
  0
LINE
  5
179
  8
0
  6
CONTINUOUS
 62
     7
 10
1025.800999354987
 20
1583.882065315614
 30
0.0
 11
1027.200999354987
 21
1583.882065315614
 31
0.0
  0
LINE
  5
17A
  8
0
  6
CONTINUOUS
 62
     7
 10
1025.600999354988
 20
1583.882065315614
 30
0.0
 11
1025.600999354988
 21
1604.682065315615
 31
0.0
  0
LINE
  5
17B
  8
0
  6
CONTINUOUS
 62
     7
 10
1025.800999354987
 20
1604.682065315615
 30
0.0
 11
1025.800999354987
 21
1583.882065315614
 31
0.0
  0
LINE
  5
17C
  8
0
  6
CONTINUOUS
 62
     7
 10
1036.984185585007
 20
1605.482065315615
 30
0.0
 11
1026.600999354987
 21
1605.482065315615
 31
0.0
  0
LINE
  5
17D
  8
0
  6
CONTINUOUS
 62
     7
 10
1026.600999354987
 20
1605.682065315615
 30
0.0
 11
1036.984185585007
 21
1605.682065315615
 31
0.0
  0
LINE
  5
17E
  8
0
  6
CONTINUOUS
 62
     7
 10
1036.984185585007
 20
1605.482065315615
 30
0.0
 11
1036.984185585007
 21
1605.682065315615
 31
0.0
  0
ARC
  5
17F
  8
0
  6
CONTINUOUS
 62
     7
 10
1039.901037680916
 20
1616.675097364523
 30
0.0
 40
0.3000000000001072
 50
43.62165296730249
 51
80.42341151898742
  0
LINE
  5
180
  8
0
  6
CONTINUOUS
 62
     7
 10
1039.95094743497
 20
1616.970916593868
 30
0.0
 11
1039.98422060434
 21
1617.168129413431
 31
0.0
  0
ARC
  5
181
  8
0
  6
CONTINUOUS
 62
     7
 10
1039.901037680916
 20
1616.675097364523
 30
0.0
 40
0.5000000000000436
 50
0.7984942260975312
 51
80.42341151896028
  0
POLYLINE
  5
182
  8
0
  6
CONTINUOUS
 62
     7
 66
     1
 10
0.0
 20
0.0
 30
0.0
  0
VERTEX
  5
6FB
  8
0
  6
CONTINUOUS
 62
     7
 10
1040.118211038445
 20
1616.882065315615
 30
0.0
  0
VERTEX
  5
6FC
  8
0
  6
CONTINUOUS
 62
     7
 10
1040.12456249836
 20
1616.879307383437
 30
0.0
  0
VERTEX
  5
6FD
  8
0
  6
CONTINUOUS
 62
     7
 10
1040.130890559686
 20
1616.876480943689
 30
0.0
  0
VERTEX
  5
6FE
  8
0
  6
CONTINUOUS
 62
     7
 10
1040.137193238256
 20
1616.873585156526
 30
0.0
  0
VERTEX
  5
6FF
  8
0
  6
CONTINUOUS
 62
     7
 10
1040.143469441391
 20
1616.870621999143
 30
0.0
  0
VERTEX
  5
700
  8
0
  6
CONTINUOUS
 62
     7
 10
1040.149718076416
 20
1616.867593448734
 30
0.0
  0
VERTEX
  5
701
  8
0
  6
CONTINUOUS
 62
     7
 10
1040.155938050655
 20
1616.864501482495
 30
0.0
  0
VERTEX
  5
702
  8
0
  6
CONTINUOUS
 62
     7
 10
1040.16212827143
 20
1616.86134807762
 30
0.0
  0
VERTEX
  5
703
  8
0
  6
CONTINUOUS
 62
     7
 10
1040.168287646066
 20
1616.858135211305
 30
0.0
  0
VERTEX
  5
704
  8
0
  6
CONTINUOUS
 62
     7
 10
1040.174415081886
 20
1616.854864860744
 30
0.0
  0
VERTEX
  5
705
  8
0
  6
CONTINUOUS
 62
     7
 10
1040.180509486213
 20
1616.851539003133
 30
0.0
  0
VERTEX
  5
706
  8
0
  6
CONTINUOUS
 62
     7
 10
1040.186569766372
 20
1616.848159615666
 30
0.0
  0
VERTEX
  5
707
  8
0
  6
CONTINUOUS
 62
     7
 10
1040.192594829685
 20
1616.844728675538
 30
0.0
  0
VERTEX
  5
708
  8
0
  6
CONTINUOUS
 62
     7
 10
1040.198583583476
 20
1616.841248159944
 30
0.0
  0
VERTEX
  5
709
  8
0
  6
CONTINUOUS
 62
     7
 10
1040.204534935069
 20
1616.83772004608
 30
0.0
  0
VERTEX
  5
70A
  8
0
  6
CONTINUOUS
 62
     7
 10
1040.210447791787
 20
1616.834146311139
 30
0.0
  0
VERTEX
  5
70B
  8
0
  6
CONTINUOUS
 62
     7
 10
1040.216321060954
 20
1616.830528932318
 30
0.0
  0
VERTEX
  5
70C
  8
0
  6
CONTINUOUS
 62
     7
 10
1040.222153649894
 20
1616.826869886811
 30
0.0
  0
VERTEX
  5
70D
  8
0
  6
CONTINUOUS
 62
     7
 10
1040.227944465929
 20
1616.823171151812
 30
0.0
  0
VERTEX
  5
70E
  8
0
  6
CONTINUOUS
 62
     7
 10
1040.233692416384
 20
1616.819434704517
 30
0.0
  0
VERTEX
  5
70F
  8
0
  6
CONTINUOUS
 62
     7
 10
1040.239396408582
 20
1616.815662522121
 30
0.0
  0
VERTEX
  5
710
  8
0
  6
CONTINUOUS
 62
     7
 10
1040.245055349846
 20
1616.811856581819
 30
0.0
  0
VERTEX
  5
711
  8
0
  6
CONTINUOUS
 62
     7
 10
1040.250668147501
 20
1616.808018860804
 30
0.0
  0
VERTEX
  5
712
  8
0
  6
CONTINUOUS
 62
     7
 10
1040.256233708869
 20
1616.804151336274
 30
0.0
  0
VERTEX
  5
713
  8
0
  6
CONTINUOUS
 62
     7
 10
1040.261750941275
 20
1616.800255985423
 30
0.0
  0
VERTEX
  5
714
  8
0
  6
CONTINUOUS
 62
     7
 10
1040.267218692294
 20
1616.796334863267
 30
0.0
  0
VERTEX
  5
715
  8
0
  6
CONTINUOUS
 62
     7
 10
1040.272634750493
 20
1616.792391404228
 30
0.0
  0
VERTEX
  5
716
  8
0
  6
CONTINUOUS
 62
     7
 10
1040.277995995603
 20
1616.788430226521
 30
0.0
  0
VERTEX
  5
717
  8
0
  6
CONTINUOUS
 62
     7
 10
1040.283299277861
 20
1616.784455986776
 30
0.0
  0
VERTEX
  5
718
  8
0
  6
CONTINUOUS
 62
     7
 10
1040.288541447507
 20
1616.780473341622
 30
0.0
  0
VERTEX
  5
719
  8
0
  6
CONTINUOUS
 62
     7
 10
1040.293719354776
 20
1616.776486947691
 30
0.0
  0
VERTEX
  5
71A
  8
0
  6
CONTINUOUS
 62
     7
 10
1040.298829849908
 20
1616.772501461613
 30
0.0
  0
VERTEX
  5
71B
  8
0
  6
CONTINUOUS
 62
     7
 10
1040.30386978314
 20
1616.768521540018
 30
0.0
  0
VERTEX
  5
71C
  8
0
  6
CONTINUOUS
 62
     7
 10
1040.308836004711
 20
1616.764551839535
 30
0.0
  0
VERTEX
  5
71D
  8
0
  6
CONTINUOUS
 62
     7
 10
1040.313725364858
 20
1616.760597016796
 30
0.0
  0
VERTEX
  5
71E
  8
0
  6
CONTINUOUS
 62
     7
 10
1040.31853471382
 20
1616.75666172843
 30
0.0
  0
VERTEX
  5
71F
  8
0
  6
CONTINUOUS
 62
     7
 10
1040.323260901833
 20
1616.752750631068
 30
0.0
  0
VERTEX
  5
720
  8
0
  6
CONTINUOUS
 62
     7
 10
1040.327900779137
 20
1616.74886838134
 30
0.0
  0
VERTEX
  5
721
  8
0
  6
CONTINUOUS
 62
     7
 10
1040.332451195969
 20
1616.745019635875
 30
0.0
  0
VERTEX
  5
722
  8
0
  6
CONTINUOUS
 62
     7
 10
1040.336909001689
 20
1616.741209052618
 30
0.0
  0
VERTEX
  5
723
  8
0
  6
CONTINUOUS
 62
     7
 10
1040.341270666315
 20
1616.737441856798
 30
0.0
  0
VERTEX
  5
724
  8
0
  6
CONTINUOUS
 62
     7
 10
1040.345531689891
 20
1616.733724724187
 30
0.0
  0
VERTEX
  5
725
  8
0
  6
CONTINUOUS
 62
     7
 10
1040.349687419639
 20
1616.730064559096
 30
0.0
  0
VERTEX
  5
726
  8
0
  6
CONTINUOUS
 62
     7
 10
1040.353733202781
 20
1616.726468265835
 30
0.0
  0
VERTEX
  5
727
  8
0
  6
CONTINUOUS
 62
     7
 10
1040.357664386541
 20
1616.722942748713
 30
0.0
  0
VERTEX
  5
728
  8
0
  6
CONTINUOUS
 62
     7
 10
1040.36147631814
 20
1616.719494912039
 30
0.0
  0
VERTEX
  5
729
  8
0
  6
CONTINUOUS
 62
     7
 10
1040.3651643448
 20
1616.716131660122
 30
0.0
  0
VERTEX
  5
72A
  8
0
  6
CONTINUOUS
 62
     7
 10
1040.368723813746
 20
1616.712859897274
 30
0.0
  0
VERTEX
  5
72B
  8
0
  6
CONTINUOUS
 62
     7
 10
1040.372150072198
 20
1616.709686527803
 30
0.0
  0
VERTEX
  5
72C
  8
0
  6
CONTINUOUS
 62
     7
 10
1040.37543846737
 20
1616.706618456029
 30
0.0
  0
VERTEX
  5
72D
  8
0
  6
CONTINUOUS
 62
     7
 10
1040.378581837091
 20
1616.70366513787
 30
0.0
  0
VERTEX
  5
72E
  8
0
  6
CONTINUOUS
 62
     7
 10
1040.381563448432
 20
1616.700845761012
 30
0.0
  0
VERTEX
  5
72F
  8
0
  6
CONTINUOUS
 62
     7
 10
1040.384364287091
 20
1616.698181832894
 30
0.0
  0
VERTEX
  5
730
  8
0
  6
CONTINUOUS
 62
     7
 10
1040.386965338765
 20
1616.695694860953
 30
0.0
  0
VERTEX
  5
731
  8
0
  6
CONTINUOUS
 62
     7
 10
1040.389347589153
 20
1616.69340635263
 30
0.0
  0
VERTEX
  5
732
  8
0
  6
CONTINUOUS
 62
     7
 10
1040.391492023951
 20
1616.691337815362
 30
0.0
  0
VERTEX
  5
733
  8
0
  6
CONTINUOUS
 62
     7
 10
1040.393379628858
 20
1616.689510756588
 30
0.0
  0
VERTEX
  5
734
  8
0
  6
CONTINUOUS
 62
     7
 10
1040.394992742312
 20
1616.687945308607
 30
0.0
  0
VERTEX
  5
735
  8
0
  6
CONTINUOUS
 62
     7
 10
1040.396341756132
 20
1616.68663308578
 30
0.0
  0
VERTEX
  5
736
  8
0
  6
CONTINUOUS
 62
     7
 10
1040.397463514161
 20
1616.685538812412
 30
0.0
  0
VERTEX
  5
737
  8
0
  6
CONTINUOUS
 62
     7
 10
1040.398395892363
 20
1616.684626163593
 30
0.0
  0
VERTEX
  5
738
  8
0
  6
CONTINUOUS
 62
     7
 10
1040.399176766704
 20
1616.683858814414
 30
0.0
  0
VERTEX
  5
739
  8
0
  6
CONTINUOUS
 62
     7
 10
1040.39984401315
 20
1616.683200439964
 30
0.0
  0
VERTEX
  5
73A
  8
0
  6
CONTINUOUS
 62
     7
 10
1040.400435507665
 20
1616.682614715334
 30
0.0
  0
VERTEX
  5
73B
  8
0
  6
CONTINUOUS
 62
     7
 10
1040.400989126216
 20
1616.682065315614
 30
0.0
  0
SEQEND
  5
77F
  8
0
  6
CONTINUOUS
 62
     7
  0
LINE
  5
183
  8
0
  6
CONTINUOUS
 62
     7
 10
1039.020862535951
 20
1616.251371872339
 30
0.0
 11
1038.179673917317
 21
1606.578105480527
 31
0.0
  0
LINE
  5
184
  8
0
  6
CONTINUOUS
 62
     7
 10
1038.179673917317
 20
1606.578105480527
 30
0.0
 11
1037.980425861932
 21
1606.595432119708
 31
0.0
  0
LINE
  5
185
  8
0
  6
CONTINUOUS
 62
     7
 10
1037.980425861932
 20
1606.595432119708
 30
0.0
 11
1038.821614480566
 21
1616.268698511521
 31
0.0
  0
LINE
  5
186
  8
0
  6
CONTINUOUS
 62
     7
 10
1039.020862535951
 20
1616.251371872339
 30
0.0
 11
1038.821614480566
 21
1616.268698511521
 31
0.0
  0
LINE
  5
187
  8
0
  6
CONTINUOUS
 62
     7
 10
1039.700999354988
 20
1603.882065315614
 30
0.0
 11
1039.700999354988
 21
1616.882065315615
 31
0.0
  0
LINE
  5
188
  8
0
  6
CONTINUOUS
 62
     7
 10
1039.900999354988
 20
1616.682065315614
 30
0.0
 11
1039.700999354988
 21
1616.882065315615
 31
0.0
  0
ARC
  5
189
  8
0
  6
CONTINUOUS
 62
     7
 10
1036.984185585007
 20
1606.682065315614
 30
0.0
 40
1.200000000000187
 50
270.0000000000008
 51
355.0300534053125
  0
ARC
  5
18A
  8
0
  6
CONTINUOUS
 62
     7
 10
1039.817854757491
 20
1616.182065315614
 30
0.0
 40
0.8000000000001298
 50
80.4234115189544
 51
175.0300534053053
  0
LINE
  5
18B
  8
0
  6
CONTINUOUS
 62
     7
 10
1039.700999354988
 20
1616.882065315615
 30
0.0
 11
1040.118211038445
 21
1616.882065315615
 31
0.0
  0
ARC
  5
18C
  8
0
  6
CONTINUOUS
 62
     7
 10
1036.984185585007
 20
1606.682065315614
 30
0.0
 40
0.9999999999999509
 50
270.0000000000008
 51
355.0300534053223
  0
ARC
  5
18D
  8
0
  6
CONTINUOUS
 62
     7
 10
1039.817854757491
 20
1616.182065315614
 30
0.0
 40
1.000000000000125
 50
80.42341151894743
 51
175.0300534053085
  0
LINE
  5
18E
  8
0
  6
CONTINUOUS
 62
     7
 10
1025.40099935499
 20
1552.182033131548
 30
0.0
 11
1025.90099935499
 21
1552.182033131548
 31
0.0
  0
LINE
  5
18F
  8
0
  6
CONTINUOUS
 62
     7
 10
1025.40099935499
 20
1522.182033131547
 30
0.0
 11
1025.90099935499
 21
1522.182033131547
 31
0.0
  0
LINE
  5
190
  8
0
  6
CONTINUOUS
 62
     7
 10
1043.900999354991
 20
1616.682065315613
 30
0.0
 11
1043.90099935499
 21
1486.682065315613
 31
0.0
  0
LINE
  5
191
  8
0
  6
CONTINUOUS
 62
     7
 10
1043.90099935499
 20
1486.682065315613
 30
0.0
 11
1025.90099935499
 21
1486.682065315613
 31
0.0
  0
LINE
  5
192
  8
0
  6
CONTINUOUS
 62
     7
 10
1025.900999354988
 20
1583.182065315613
 30
0.0
 11
1025.90099935499
 21
1486.682065315613
 31
0.0
  0
LINE
  5
193
  8
0
  6
CONTINUOUS
 62
     7
 10
1027.400999354991
 20
1603.682065315613
 30
0.0
 11
1027.400999354988
 21
1583.182065315613
 31
0.0
  0
LINE
  5
194
  8
0
  6
CONTINUOUS
 62
     7
 10
1027.400999354988
 20
1583.182065315613
 30
0.0
 11
1025.900999354988
 21
1583.182065315613
 31
0.0
  0
LINE
  5
195
  8
0
  6
CONTINUOUS
 62
     7
 10
1039.900999354991
 20
1603.682065315613
 30
0.0
 11
1027.400999354991
 21
1603.682065315613
 31
0.0
  0
LINE
  5
196
  8
0
  6
CONTINUOUS
 62
     7
 10
1039.900999354991
 20
1616.682065315613
 30
0.0
 11
1039.900999354991
 21
1603.682065315613
 31
0.0
  0
LINE
  5
197
  8
0
  6
CONTINUOUS
 62
     7
 10
1043.900999354991
 20
1616.682065315613
 30
0.0
 11
1039.900999354991
 21
1616.682065315613
 31
0.0
  0
LINE
  5
198
  8
0
  6
CONTINUOUS
 62
     7
 10
445.40099935499
 20
1662.682065315615
 30
0.0
 11
1042.40099935499
 21
1662.682065315614
 31
0.0
  0
ARC
  5
199
  8
0
  6
CONTINUOUS
 62
     7
 10
1042.40099935499
 20
1659.682065315615
 30
0.0
 40
2.999999999999773
 50
0.0
 51
90.0
  0
LINE
  5
19A
  8
0
  6
CONTINUOUS
 62
     7
 10
1045.40099935499
 20
1659.682065315615
 30
0.0
 11
1045.40099935499
 21
1641.682065315615
 31
0.0
  0
ARC
  5
19B
  8
0
  6
CONTINUOUS
 62
     7
 10
1042.40099935499
 20
1641.682065315615
 30
0.0
 40
3.000000000000227
 50
270.0000000000008
 51
0.0
  0
LINE
  5
19C
  8
0
  6
CONTINUOUS
 62
     7
 10
445.40099935499
 20
1638.682065315614
 30
0.0
 11
445.40099935499
 21
1662.682065315615
 31
0.0
  0
LINE
  5
19D
  8
0
  6
CONTINUOUS
 62
     7
 10
1042.40099935499
 20
1638.682065315614
 30
0.0
 11
445.40099935499
 21
1638.682065315614
 31
0.0
  0
LINE
  5
19E
  8
0
  6
CONTINUOUS
 62
     7
 10
1025.40099935499
 20
1638.682065315615
 30
0.0
 11
1025.40099935499
 21
1482.682065315614
 31
0.0
  0
LINE
  5
19F
  8
0
  6
CONTINUOUS
 62
     7
 10
1025.40099935499
 20
1482.682065315614
 30
0.0
 11
445.40099935499
 21
1482.682065315614
 31
0.0
  0
LINE
  5
1A0
  8
0
  6
CONTINUOUS
 62
     7
 10
445.40099935499
 20
1638.682065315615
 30
0.0
 11
445.40099935499
 21
1482.682065315614
 31
0.0
  0
LINE
  5
1E2
  8
0
  6
CONTINUOUS
 62
     7
 10
3756.553210963688
 20
1616.882065315614
 30
0.0
 11
3756.553210963688
 21
1603.882065315614
 31
0.0
  0
LINE
  5
1E3
  8
0
  6
CONTINUOUS
 62
     7
 10
3756.553210963688
 20
1603.882065315614
 30
0.0
 11
3756.353210963689
 21
1603.682065315615
 31
0.0
  0
LINE
  5
1E4
  8
0
  6
CONTINUOUS
 62
     7
 10
3756.553210963688
 20
1616.882065315614
 30
0.0
 11
3756.353210963689
 21
1616.682065315614
 31
0.0
  0
LINE
  5
1E5
  8
0
  6
CONTINUOUS
 62
     7
 10
3757.43259583811
 20
1616.268698511521
 30
0.0
 11
3758.273784456745
 21
1606.595432119708
 31
0.0
  0
LINE
  5
1E6
  8
0
  6
CONTINUOUS
 62
     7
 10
3758.273784456745
 20
1606.595432119708
 30
0.0
 11
3758.07453640136
 21
1606.578105480527
 31
0.0
  0
LINE
  5
1E7
  8
0
  6
CONTINUOUS
 62
     7
 10
3758.07453640136
 20
1606.578105480527
 30
0.0
 11
3757.233347782725
 21
1616.251371872339
 31
0.0
  0
LINE
  5
1E8
  8
0
  6
CONTINUOUS
 62
     7
 10
3757.233347782725
 20
1616.251371872339
 30
0.0
 11
3757.43259583811
 21
1616.268698511521
 31
0.0
  0
LINE
  5
1E9
  8
0
  6
CONTINUOUS
 62
     7
 10
3770.653210963689
 20
1604.682065315614
 30
0.0
 11
3770.653210963689
 21
1583.882065315614
 31
0.0
  0
LINE
  5
1EA
  8
0
  6
CONTINUOUS
 62
     7
 10
3770.653210963689
 20
1583.882065315614
 30
0.0
 11
3770.453210963689
 21
1583.882065315614
 31
0.0
  0
LINE
  5
1EB
  8
0
  6
CONTINUOUS
 62
     7
 10
3770.453210963689
 20
1583.882065315614
 30
0.0
 11
3770.453210963689
 21
1604.682065315614
 31
0.0
  0
LINE
  5
1EC
  8
0
  6
CONTINUOUS
 62
     7
 10
3770.653210963689
 20
1604.682065315614
 30
0.0
 11
3770.453210963689
 21
1604.682065315614
 31
0.0
  0
LINE
  5
1ED
  8
0
  6
CONTINUOUS
 62
     7
 10
3756.13599928023
 20
1616.882065315614
 30
0.0
 11
3756.553210963688
 21
1616.882065315614
 31
0.0
  0
POLYLINE
  5
1EE
  8
0
  6
CONTINUOUS
 62
     7
 66
     1
 10
0.0
 20
0.0
 30
0.0
  0
VERTEX
  5
73C
  8
0
  6
CONTINUOUS
 62
     7
 10
3756.13599928023
 20
1616.882065315614
 30
0.0
  0
VERTEX
  5
73D
  8
0
  6
CONTINUOUS
 62
     7
 10
3756.129647820317
 20
1616.879307383437
 30
0.0
  0
VERTEX
  5
73E
  8
0
  6
CONTINUOUS
 62
     7
 10
3756.123319758991
 20
1616.876480943689
 30
0.0
  0
VERTEX
  5
73F
  8
0
  6
CONTINUOUS
 62
     7
 10
3756.117017080422
 20
1616.873585156526
 30
0.0
  0
VERTEX
  5
740
  8
0
  6
CONTINUOUS
 62
     7
 10
3756.110740877288
 20
1616.870621999142
 30
0.0
  0
VERTEX
  5
741
  8
0
  6
CONTINUOUS
 62
     7
 10
3756.104492242262
 20
1616.867593448733
 30
0.0
  0
VERTEX
  5
742
  8
0
  6
CONTINUOUS
 62
     7
 10
3756.098272268024
 20
1616.864501482494
 30
0.0
  0
VERTEX
  5
743
  8
0
  6
CONTINUOUS
 62
     7
 10
3756.092082047249
 20
1616.86134807762
 30
0.0
  0
VERTEX
  5
744
  8
0
  6
CONTINUOUS
 62
     7
 10
3756.085922672613
 20
1616.858135211304
 30
0.0
  0
VERTEX
  5
745
  8
0
  6
CONTINUOUS
 62
     7
 10
3756.079795236793
 20
1616.854864860743
 30
0.0
  0
VERTEX
  5
746
  8
0
  6
CONTINUOUS
 62
     7
 10
3756.073700832466
 20
1616.851539003132
 30
0.0
  0
VERTEX
  5
747
  8
0
  6
CONTINUOUS
 62
     7
 10
3756.067640552308
 20
1616.848159615665
 30
0.0
  0
VERTEX
  5
748
  8
0
  6
CONTINUOUS
 62
     7
 10
3756.061615488994
 20
1616.844728675537
 30
0.0
  0
VERTEX
  5
749
  8
0
  6
CONTINUOUS
 62
     7
 10
3756.055626735203
 20
1616.841248159943
 30
0.0
  0
VERTEX
  5
74A
  8
0
  6
CONTINUOUS
 62
     7
 10
3756.04967538361
 20
1616.837720046079
 30
0.0
  0
VERTEX
  5
74B
  8
0
  6
CONTINUOUS
 62
     7
 10
3756.043762526891
 20
1616.834146311139
 30
0.0
  0
VERTEX
  5
74C
  8
0
  6
CONTINUOUS
 62
     7
 10
3756.037889257724
 20
1616.830528932317
 30
0.0
  0
VERTEX
  5
74D
  8
0
  6
CONTINUOUS
 62
     7
 10
3756.032056668785
 20
1616.82686988681
 30
0.0
  0
VERTEX
  5
74E
  8
0
  6
CONTINUOUS
 62
     7
 10
3756.026265852749
 20
1616.823171151811
 30
0.0
  0
VERTEX
  5
74F
  8
0
  6
CONTINUOUS
 62
     7
 10
3756.020517902294
 20
1616.819434704517
 30
0.0
  0
VERTEX
  5
750
  8
0
  6
CONTINUOUS
 62
     7
 10
3756.014813910096
 20
1616.815662522121
 30
0.0
  0
VERTEX
  5
751
  8
0
  6
CONTINUOUS
 62
     7
 10
3756.009154968831
 20
1616.811856581818
 30
0.0
  0
VERTEX
  5
752
  8
0
  6
CONTINUOUS
 62
     7
 10
3756.003542171176
 20
1616.808018860804
 30
0.0
  0
VERTEX
  5
753
  8
0
  6
CONTINUOUS
 62
     7
 10
3755.997976609808
 20
1616.804151336274
 30
0.0
  0
VERTEX
  5
754
  8
0
  6
CONTINUOUS
 62
     7
 10
3755.992459377403
 20
1616.800255985423
 30
0.0
  0
VERTEX
  5
755
  8
0
  6
CONTINUOUS
 62
     7
 10
3755.986991626383
 20
1616.796334863267
 30
0.0
  0
VERTEX
  5
756
  8
0
  6
CONTINUOUS
 62
     7
 10
3755.981575568183
 20
1616.792391404228
 30
0.0
  0
VERTEX
  5
757
  8
0
  6
CONTINUOUS
 62
     7
 10
3755.976214323074
 20
1616.788430226521
 30
0.0
  0
VERTEX
  5
758
  8
0
  6
CONTINUOUS
 62
     7
 10
3755.970911040816
 20
1616.784455986776
 30
0.0
  0
VERTEX
  5
759
  8
0
  6
CONTINUOUS
 62
     7
 10
3755.96566887117
 20
1616.780473341623
 30
0.0
  0
VERTEX
  5
75A
  8
0
  6
CONTINUOUS
 62
     7
 10
3755.960490963901
 20
1616.776486947692
 30
0.0
  0
VERTEX
  5
75B
  8
0
  6
CONTINUOUS
 62
     7
 10
3755.955380468768
 20
1616.772501461614
 30
0.0
  0
VERTEX
  5
75C
  8
0
  6
CONTINUOUS
 62
     7
 10
3755.950340535537
 20
1616.768521540018
 30
0.0
  0
VERTEX
  5
75D
  8
0
  6
CONTINUOUS
 62
     7
 10
3755.945374313965
 20
1616.764551839535
 30
0.0
  0
VERTEX
  5
75E
  8
0
  6
CONTINUOUS
 62
     7
 10
3755.940484953818
 20
1616.760597016796
 30
0.0
  0
VERTEX
  5
75F
  8
0
  6
CONTINUOUS
 62
     7
 10
3755.935675604856
 20
1616.75666172843
 30
0.0
  0
VERTEX
  5
760
  8
0
  6
CONTINUOUS
 62
     7
 10
3755.930949416843
 20
1616.752750631068
 30
0.0
  0
VERTEX
  5
761
  8
0
  6
CONTINUOUS
 62
     7
 10
3755.926309539539
 20
1616.74886838134
 30
0.0
  0
VERTEX
  5
762
  8
0
  6
CONTINUOUS
 62
     7
 10
3755.921759122707
 20
1616.745019635875
 30
0.0
  0
VERTEX
  5
763
  8
0
  6
CONTINUOUS
 62
     7
 10
3755.917301316987
 20
1616.741209052618
 30
0.0
  0
VERTEX
  5
764
  8
0
  6
CONTINUOUS
 62
     7
 10
3755.91293965236
 20
1616.737441856798
 30
0.0
  0
VERTEX
  5
765
  8
0
  6
CONTINUOUS
 62
     7
 10
3755.908678628785
 20
1616.733724724187
 30
0.0
  0
VERTEX
  5
766
  8
0
  6
CONTINUOUS
 62
     7
 10
3755.904522899038
 20
1616.730064559097
 30
0.0
  0
VERTEX
  5
767
  8
0
  6
CONTINUOUS
 62
     7
 10
3755.900477115897
 20
1616.726468265836
 30
0.0
  0
VERTEX
  5
768
  8
0
  6
CONTINUOUS
 62
     7
 10
3755.896545932136
 20
1616.722942748713
 30
0.0
  0
VERTEX
  5
769
  8
0
  6
CONTINUOUS
 62
     7
 10
3755.892734000537
 20
1616.719494912039
 30
0.0
  0
VERTEX
  5
76A
  8
0
  6
CONTINUOUS
 62
     7
 10
3755.889045973875
 20
1616.716131660123
 30
0.0
  0
VERTEX
  5
76B
  8
0
  6
CONTINUOUS
 62
     7
 10
3755.88548650493
 20
1616.712859897274
 30
0.0
  0
VERTEX
  5
76C
  8
0
  6
CONTINUOUS
 62
     7
 10
3755.882060246478
 20
1616.709686527803
 30
0.0
  0
VERTEX
  5
76D
  8
0
  6
CONTINUOUS
 62
     7
 10
3755.878771851306
 20
1616.706618456029
 30
0.0
  0
VERTEX
  5
76E
  8
0
  6
CONTINUOUS
 62
     7
 10
3755.875628481586
 20
1616.70366513787
 30
0.0
  0
VERTEX
  5
76F
  8
0
  6
CONTINUOUS
 62
     7
 10
3755.872646870244
 20
1616.700845761012
 30
0.0
  0
VERTEX
  5
770
  8
0
  6
CONTINUOUS
 62
     7
 10
3755.869846031586
 20
1616.698181832893
 30
0.0
  0
VERTEX
  5
771
  8
0
  6
CONTINUOUS
 62
     7
 10
3755.867244979911
 20
1616.695694860953
 30
0.0
  0
VERTEX
  5
772
  8
0
  6
CONTINUOUS
 62
     7
 10
3755.864862729523
 20
1616.69340635263
 30
0.0
  0
VERTEX
  5
773
  8
0
  6
CONTINUOUS
 62
     7
 10
3755.862718294724
 20
1616.691337815362
 30
0.0
  0
VERTEX
  5
774
  8
0
  6
CONTINUOUS
 62
     7
 10
3755.860830689819
 20
1616.689510756589
 30
0.0
  0
VERTEX
  5
775
  8
0
  6
CONTINUOUS
 62
     7
 10
3755.859217576363
 20
1616.687945308607
 30
0.0
  0
VERTEX
  5
776
  8
0
  6
CONTINUOUS
 62
     7
 10
3755.857868562543
 20
1616.686633085779
 30
0.0
  0
VERTEX
  5
777
  8
0
  6
CONTINUOUS
 62
     7
 10
3755.856746804515
 20
1616.685538812412
 30
0.0
  0
VERTEX
  5
778
  8
0
  6
CONTINUOUS
 62
     7
 10
3755.855814426314
 20
1616.684626163594
 30
0.0
  0
VERTEX
  5
779
  8
0
  6
CONTINUOUS
 62
     7
 10
3755.855033551972
 20
1616.683858814414
 30
0.0
  0
VERTEX
  5
77A
  8
0
  6
CONTINUOUS
 62
     7
 10
3755.854366305526
 20
1616.683200439965
 30
0.0
  0
VERTEX
  5
77B
  8
0
  6
CONTINUOUS
 62
     7
 10
3755.85377481101
 20
1616.682614715334
 30
0.0
  0
VERTEX
  5
77C
  8
0
  6
CONTINUOUS
 62
     7
 10
3755.85322119246
 20
1616.682065315614
 30
0.0
  0
SEQEND
  5
780
  8
0
  6
CONTINUOUS
 62
     7
  0
LINE
  5
1EF
  8
0
  6
CONTINUOUS
 62
     7
 10
3770.453210963689
 20
1583.682065315614
 30
0.0
 11
3770.453210963689
 21
1583.882065315614
 31
0.0
  0
ARC
  5
1F0
  8
0
  6
CONTINUOUS
 62
     7
 10
3770.453210963689
 20
1583.882065315614
 30
0.0
 40
0.2000000000000455
 50
270.0000000000008
 51
0.0
  0
LINE
  5
1F1
  8
0
  6
CONTINUOUS
 62
     7
 10
3770.453210963689
 20
1583.682065315614
 30
0.0
 11
3768.853210963689
 21
1583.682065315614
 31
0.0
  0
LINE
  5
1F2
  8
0
  6
CONTINUOUS
 62
     7
 10
3768.853210963689
 20
1583.682065315614
 30
0.0
 11
3769.053210963689
 21
1583.882065315614
 31
0.0
  0
LINE
  5
1F3
  8
0
  6
CONTINUOUS
 62
     7
 10
3769.053210963689
 20
1583.882065315614
 30
0.0
 11
3770.453210963689
 21
1583.882065315614
 31
0.0
  0
LINE
  5
1F4
  8
0
  6
CONTINUOUS
 62
     7
 10
3769.053210963689
 20
1603.882065315614
 30
0.0
 11
3769.053210963689
 21
1583.882065315614
 31
0.0
  0
LINE
  5
1F5
  8
0
  6
CONTINUOUS
 62
     7
 10
3769.053210963689
 20
1603.882065315614
 30
0.0
 11
3768.853210963689
 21
1603.682065315615
 31
0.0
  0
ARC
  5
1F6
  8
0
  6
CONTINUOUS
 62
     7
 10
3756.353172637761
 20
1616.675097364523
 30
0.0
 40
0.3000000000004442
 50
99.57658848109824
 51
136.3783470328188
  0
ARC
  5
1F7
  8
0
  6
CONTINUOUS
 62
     7
 10
3756.436355561185
 20
1616.182065315614
 30
0.0
 40
0.8000000000001298
 50
4.969946594694715
 51
99.57658848104562
  0
ARC
  5
1F8
  8
0
  6
CONTINUOUS
 62
     7
 10
3759.270024733669
 20
1606.682065315614
 30
0.0
 40
1.199999999999961
 50
184.9699465946901
 51
270.0000000000008
  0
LINE
  5
1F9
  8
0
  6
CONTINUOUS
 62
     7
 10
3769.653210963689
 20
1605.482065315615
 30
0.0
 11
3759.270024733669
 21
1605.482065315615
 31
0.0
  0
ARC
  5
1FA
  8
0
  6
CONTINUOUS
 62
     7
 10
3769.653210963689
 20
1604.682065315614
 30
0.0
 40
0.8000000000001819
 50
0.0
 51
90.0
  0
LINE
  5
1FB
  8
0
  6
CONTINUOUS
 62
     7
 10
3756.553210963688
 20
1603.882065315614
 30
0.0
 11
3769.053210963689
 21
1603.882065315614
 31
0.0
  0
LINE
  5
1FC
  8
0
  6
CONTINUOUS
 62
     7
 10
3759.270024733669
 20
1605.682065315615
 30
0.0
 11
3769.653210963689
 21
1605.682065315615
 31
0.0
  0
LINE
  5
1FD
  8
0
  6
CONTINUOUS
 62
     7
 10
3769.653210963689
 20
1605.682065315615
 30
0.0
 11
3769.653210963689
 21
1605.482065315615
 31
0.0
  0
LINE
  5
1FE
  8
0
  6
CONTINUOUS
 62
     7
 10
3759.270024733669
 20
1605.682065315615
 30
0.0
 11
3759.270024733669
 21
1605.482065315615
 31
0.0
  0
ARC
  5
1FF
  8
0
  6
CONTINUOUS
 62
     7
 10
3769.653210963689
 20
1604.682065315614
 30
0.0
 40
1.000000000000227
 50
0.0
 51
90.0
  0
LINE
  5
200
  8
0
  6
CONTINUOUS
 62
     7
 10
3756.303262883706
 20
1616.970916593868
 30
0.0
 11
3756.269989714336
 21
1617.168129413431
 31
0.0
  0
ARC
  5
201
  8
0
  6
CONTINUOUS
 62
     7
 10
3756.436355561185
 20
1616.182065315614
 30
0.0
 40
0.9999999999999706
 50
4.96994659469147
 51
99.57658848106757
  0
ARC
  5
202
  8
0
  6
CONTINUOUS
 62
     7
 10
3756.353172637761
 20
1616.675097364523
 30
0.0
 40
0.5000000000006438
 50
99.57658848112114
 51
179.2015057739036
  0
ARC
  5
203
  8
0
  6
CONTINUOUS
 62
     7
 10
3759.270024733669
 20
1606.682065315614
 30
0.0
 40
0.9999999999997726
 50
184.9699465946815
 51
270.0000000000008
  0
LINE
  5
204
  8
0
  6
CONTINUOUS
 62
     7
 10
3770.353210963681
 20
1552.182033131548
 30
0.0
 11
3770.853210963681
 21
1552.182033131548
 31
0.0
  0
LINE
  5
205
  8
0
  6
CONTINUOUS
 62
     7
 10
3770.353210963681
 20
1522.182033131547
 30
0.0
 11
3770.853210963681
 21
1522.182033131547
 31
0.0
  0
LINE
  5
206
  8
0
  6
CONTINUOUS
 62
     7
 10
3768.853210963685
 20
1603.682065315613
 30
0.0
 11
3768.853210963686
 21
1583.182065315613
 31
0.0
  0
LINE
  5
207
  8
0
  6
CONTINUOUS
 62
     7
 10
3768.853210963686
 20
1583.182065315613
 30
0.0
 11
3770.353210963685
 21
1583.182065315613
 31
0.0
  0
LINE
  5
208
  8
0
  6
CONTINUOUS
 62
     7
 10
3752.353210963686
 20
1486.682065315612
 30
0.0
 11
3752.353210963688
 21
1616.682065315612
 31
0.0
  0
LINE
  5
209
  8
0
  6
CONTINUOUS
 62
     7
 10
3756.353210963688
 20
1616.682065315612
 30
0.0
 11
3756.353210963685
 21
1603.682065315613
 31
0.0
  0
LINE
  5
20A
  8
0
  6
CONTINUOUS
 62
     7
 10
3756.353210963685
 20
1603.682065315613
 30
0.0
 11
3768.853210963685
 21
1603.682065315613
 31
0.0
  0
LINE
  5
20B
  8
0
  6
CONTINUOUS
 62
     7
 10
3752.353210963686
 20
1486.682065315612
 30
0.0
 11
3770.353210963686
 21
1486.682065315612
 31
0.0
  0
LINE
  5
20C
  8
0
  6
CONTINUOUS
 62
     7
 10
3752.353210963688
 20
1616.682065315612
 30
0.0
 11
3756.353210963688
 21
1616.682065315612
 31
0.0
  0
LINE
  5
20D
  8
0
  6
CONTINUOUS
 62
     7
 10
3770.353210963686
 20
1486.682065315612
 30
0.0
 11
3770.353210963685
 21
1583.182065315613
 31
0.0
  0
LINE
  5
20E
  8
0
  6
CONTINUOUS
 62
     7
 10
3770.853210963681
 20
1482.682065315614
 30
0.0
 11
4350.853210963681
 21
1482.682065315614
 31
0.0
  0
LINE
  5
20F
  8
0
  6
CONTINUOUS
 62
     7
 10
3770.853210963681
 20
1482.682065315614
 30
0.0
 11
3770.853210963681
 21
1638.682065315614
 31
0.0
  0
LINE
  5
210
  8
0
  6
CONTINUOUS
 62
     7
 10
4350.853210963681
 20
1482.682065315614
 30
0.0
 11
4350.853210963681
 21
1638.682065315614
 31
0.0
  0
ARC
  5
211
  8
0
  6
CONTINUOUS
 62
     7
 10
3753.853210963681
 20
1659.682065315615
 30
0.0
 40
3.000000000000455
 50
90.0
 51
180.0
  0
LINE
  5
212
  8
0
  6
CONTINUOUS
 62
     7
 10
4350.853210963681
 20
1662.682065315615
 30
0.0
 11
3753.853210963681
 21
1662.682065315614
 31
0.0
  0
LINE
  5
213
  8
0
  6
CONTINUOUS
 62
     7
 10
4350.853210963681
 20
1638.682065315614
 30
0.0
 11
4350.853210963681
 21
1662.682065315615
 31
0.0
  0
ARC
  5
214
  8
0
  6
CONTINUOUS
 62
     7
 10
3753.853210963681
 20
1641.682065315615
 30
0.0
 40
3.000000000000455
 50
180.0
 51
270.0000000000008
  0
LINE
  5
215
  8
0
  6
CONTINUOUS
 62
     7
 10
3750.85321096368
 20
1659.682065315615
 30
0.0
 11
3750.85321096368
 21
1641.682065315615
 31
0.0
  0
LINE
  5
216
  8
0
  6
CONTINUOUS
 62
     7
 10
3753.853210963681
 20
1638.682065315614
 30
0.0
 11
4350.853210963681
 21
1638.682065315614
 31
0.0
  0
LINE
  5
276
  8
0
  6
CONTINUOUS
 62
     7
 10
2580.497361647548
 20
3131.619882401437
 30
0.0
 11
2580.497361647548
 21
2534.619882401437
 31
0.0
  0
LINE
  5
277
  8
0
  6
CONTINUOUS
 62
     7
 10
1672.497361647548
 20
2534.619882401437
 30
0.0
 11
2580.497361647548
 21
2534.619882401437
 31
0.0
  0
LINE
  5
278
  8
0
  6
CONTINUOUS
 62
     7
 10
1672.497361647548
 20
3131.619882401437
 30
0.0
 11
1672.497361647548
 21
2534.619882401437
 31
0.0
  0
LINE
  5
279
  8
0
  6
CONTINUOUS
 62
     7
 10
2580.497361647548
 20
3131.619882401437
 30
0.0
 11
2248.498509612263
 21
3131.619882401437
 31
0.0
  0
LINE
  5
27A
  8
0
  6
CONTINUOUS
 62
     7
 10
2414.497935629905
 20
3131.619882401437
 30
0.0
 11
1672.497361647548
 21
3131.619882401437
 31
0.0
  0
LINE
  5
27B
  8
0
  6
CONTINUOUS
 62
     7
 10
2580.497361647548
 20
2531.619882401437
 30
0.0
 11
1672.497361647548
 21
2531.619882401437
 31
0.0
  0
LINE
  5
27C
  8
0
  6
CONTINUOUS
 62
     7
 10
2580.497361647548
 20
2534.619882401437
 30
0.0
 11
2580.497361647548
 21
2531.619882401437
 31
0.0
  0
LINE
  5
27D
  8
0
  6
CONTINUOUS
 62
     7
 10
1672.497361647548
 20
2531.619882401437
 30
0.0
 11
1672.497361647548
 21
2534.619882401437
 31
0.0
  0
LINE
  5
2A7
  8
0
  6
CONTINUOUS
 62
     7
 10
1857.246213682833
 20
647.3939826855039
 30
0.0
 11
2399.245958584045
 21
647.3939826855038
 31
0.0
  0
CIRCLE
  5
2C7
  8
0
  6
CONTINUOUS
 62
     7
 10
2513.497361647546
 20
543.3939826855043
 30
0.0
 40
2.5
  0
CIRCLE
  5
2C8
  8
0
  6
CONTINUOUS
 62
     7
 10
2513.497361647548
 20
593.3939826855044
 30
0.0
 40
2.499999999999545
  0
CIRCLE
  5
2C9
  8
0
  6
CONTINUOUS
 62
     7
 10
2510.497361647548
 20
573.3939826855039
 30
0.0
 40
2.5
  0
CIRCLE
  5
2CA
  8
0
  6
CONTINUOUS
 62
     7
 10
2510.497361647548
 20
503.3939826855038
 30
0.0
 40
2.5
  0
LINE
  5
2CB
  8
0
  6
CONTINUOUS
 62
     7
 10
2563.497361647548
 20
623.3939826855039
 30
0.0
 11
2533.497361647547
 21
623.3939826855039
 31
0.0
  0
ARC
  5
2CC
  8
0
  6
CONTINUOUS
 62
     7
 10
2498.497361647548
 20
478.3939826855039
 30
0.0
 40
5.0
 50
180.0
 51
270.0000000000008
  0
LINE
  5
2CD
  8
0
  6
CONTINUOUS
 62
     7
 10
2493.497361647548
 20
621.093982685504
 30
0.0
 11
2533.497361647547
 21
621.093982685504
 31
0.0
  0
LINE
  5
2CE
  8
0
  6
CONTINUOUS
 62
     7
 10
2563.497361647548
 20
478.393982685504
 30
0.0
 11
2563.497361647548
 21
623.3939826855039
 31
0.0
  0
ARC
  5
2CF
  8
0
  6
CONTINUOUS
 62
     7
 10
2558.497361647548
 20
478.3939826855039
 30
0.0
 40
5.0
 50
270.0000000000008
 51
0.0000000000006514
  0
LINE
  5
2D0
  8
0
  6
CONTINUOUS
 62
     7
 10
2498.497361647548
 20
473.3939826855039
 30
0.0
 11
2558.497361647548
 21
473.3939826855039
 31
0.0
  0
LINE
  5
2D1
  8
0
  6
CONTINUOUS
 62
     7
 10
2493.497361647548
 20
478.3939826855039
 30
0.0
 11
2493.497361647548
 21
621.093982685504
 31
0.0
  0
LINE
  5
2D2
  8
0
  6
CONTINUOUS
 62
     7
 10
2533.497361647547
 20
621.093982685504
 30
0.0
 11
2533.497361647547
 21
623.3939826855039
 31
0.0
  0
CIRCLE
  5
2D3
  8
0
  6
CONTINUOUS
 62
     7
 10
2540.497361647548
 20
573.3939826855039
 30
0.0
 40
2.5
  0
CIRCLE
  5
2D4
  8
0
  6
CONTINUOUS
 62
     7
 10
2540.497361647548
 20
503.3939826855038
 30
0.0
 40
2.5
  0
CIRCLE
  5
2D5
  8
0
  6
CONTINUOUS
 62
     7
 10
2543.497361647548
 20
593.3939826855039
 30
0.0
 40
2.5
  0
CIRCLE
  5
2D6
  8
0
  6
CONTINUOUS
 62
     7
 10
2543.497361647546
 20
543.3939826855038
 30
0.0
 40
2.5
  0
ARC
  5
2D7
  8
0
  6
CONTINUOUS
 62
     7
 10
1697.997361647547
 20
478.3939826854832
 30
0.0
 40
5.0
 50
179.9999999999994
 51
270.0000000000034
  0
LINE
  5
2D8
  8
0
  6
CONTINUOUS
 62
     7
 10
1692.997361647547
 20
478.3939826854833
 30
0.0
 11
1692.997361647545
 21
623.3939826854831
 31
0.0
  0
LINE
  5
2D9
  8
0
  6
CONTINUOUS
 62
     7
 10
1692.997361647545
 20
623.3939826854831
 30
0.0
 11
1722.997361647545
 21
623.3939826854835
 31
0.0
  0
LINE
  5
2DA
  8
0
  6
CONTINUOUS
 62
     7
 10
1722.997361647544
 20
621.0939826854835
 30
0.0
 11
1722.997361647545
 21
623.3939826854835
 31
0.0
  0
LINE
  5
2DB
  8
0
  6
CONTINUOUS
 62
     7
 10
1762.997361647545
 20
621.0939826854841
 30
0.0
 11
1722.997361647544
 21
621.0939826854835
 31
0.0
  0
LINE
  5
2DC
  8
0
  6
CONTINUOUS
 62
     7
 10
1762.997361647546
 20
478.3939826854841
 30
0.0
 11
1762.997361647545
 21
621.0939826854841
 31
0.0
  0
ARC
  5
2DD
  8
0
  6
CONTINUOUS
 62
     7
 10
1757.997361647547
 20
478.393982685484
 30
0.0
 40
5.0
 50
270.0000000000008
 51
0.0000000000006514
  0
LINE
  5
2DE
  8
0
  6
CONTINUOUS
 62
     7
 10
1757.997361647547
 20
473.393982685484
 30
0.0
 11
1697.997361647547
 21
473.3939826854832
 31
0.0
  0
CIRCLE
  5
2DF
  8
0
  6
CONTINUOUS
 62
     7
 10
1712.997361647545
 20
593.3939826854834
 30
0.0
 40
2.500000000000227
  0
CIRCLE
  5
2E0
  8
0
  6
CONTINUOUS
 62
     7
 10
1742.997361647548
 20
543.3939826854842
 30
0.0
 40
2.5
  0
CIRCLE
  5
2E1
  8
0
  6
CONTINUOUS
 62
     7
 10
1742.997361647545
 20
593.3939826854843
 30
0.0
 40
2.5
  0
CIRCLE
  5
2E2
  8
0
  6
CONTINUOUS
 62
     7
 10
1712.997361647548
 20
543.3939826854835
 30
0.0
 40
2.5
  0
CIRCLE
  5
2E3
  8
0
  6
CONTINUOUS
 62
     7
 10
1745.997361647545
 20
573.3939826854839
 30
0.0
 40
2.5
  0
CIRCLE
  5
2E4
  8
0
  6
CONTINUOUS
 62
     7
 10
1715.997361647545
 20
573.3939826854835
 30
0.0
 40
2.5
  0
CIRCLE
  5
2E5
  8
0
  6
CONTINUOUS
 62
     7
 10
1745.997361647547
 20
503.3939826854838
 30
0.0
 40
2.5
  0
CIRCLE
  5
2E6
  8
0
  6
CONTINUOUS
 62
     7
 10
1715.997361647547
 20
503.3939826854834
 30
0.0
 40
2.499999999999773
  0
LINE
  5
4E9
  8
0
  6
CONTINUOUS
 62
     7
 10
1762.997361647546
 20
606.8939505014368
 30
0.0
 11
2493.497361647548
 21
606.8939505014368
 31
0.0
  0
LINE
  5
4EF
  8
0
  6
CONTINUOUS
 62
     7
 10
1762.997361647546
 20
506.8939505014368
 30
0.0
 11
2493.497361647548
 21
506.8939505014368
 31
0.0
  0
LINE
  5
51D
  8
0
  6
CONTINUOUS
 62
     7
 10
1675.497361647548
 20
623.3939826855039
 30
0.0
 11
1692.997361647548
 21
623.3939826855039
 31
0.0
  0
LINE
  5
51E
  8
0
  6
CONTINUOUS
 62
     7
 10
1692.997361647548
 20
623.3939826855039
 30
0.0
 11
1692.997361647548
 21
467.3939826855039
 31
0.0
  0
LINE
  5
51F
  8
0
  6
CONTINUOUS
 62
     7
 10
1692.997361647548
 20
467.3939826855039
 30
0.0
 11
1675.497361647548
 21
467.3939826855039
 31
0.0
  0
LINE
  5
520
  8
0
  6
CONTINUOUS
 62
     7
 10
1675.497361647548
 20
467.3939826855039
 30
0.0
 11
1675.497361647548
 21
623.3939826855039
 31
0.0
  0
LINE
  5
521
  8
0
  6
CONTINUOUS
 62
     7
 10
1692.997361647547
 20
468.3939826855039
 30
0.0
 11
2563.497361647548
 21
468.3939826855039
 31
0.0
  0
LINE
  5
522
  8
0
  6
CONTINUOUS
 62
     7
 10
2144.246086133437
 20
468.3939826855039
 30
0.0
 11
2411.497361647548
 21
468.3939826855039
 31
0.0
  0
LINE
  5
523
  8
0
  6
CONTINUOUS
 62
     7
 10
1762.997361647546
 20
485.3939826855039
 30
0.0
 11
2493.497361647548
 21
485.3939826855039
 31
0.0
  0
LINE
  5
524
  8
0
  6
CONTINUOUS
 62
     7
 10
1764.517361647545
 20
485.3939826855039
 30
0.0
 11
2493.497361647547
 21
485.3939826855039
 31
0.0
  0
LINE
  5
52A
  8
0
  6
CONTINUOUS
 62
     7
 10
1674.247361647548
 20
623.3939826855039
 30
0.0
 11
1674.247361647548
 21
647.393982685504
 31
0.0
  0
LINE
  5
52B
  8
0
  6
CONTINUOUS
 62
     7
 10
1674.247361647548
 20
647.393982685504
 30
0.0
 11
2582.247361647548
 21
647.393982685504
 31
0.0
  0
LINE
  5
52C
  8
0
  6
CONTINUOUS
 62
     7
 10
2582.247361647548
 20
623.3939826855039
 30
0.0
 11
2582.247361647548
 21
647.393982685504
 31
0.0
  0
LINE
  5
52D
  8
0
  6
CONTINUOUS
 62
     7
 10
1674.247361647548
 20
623.3939826855039
 30
0.0
 11
2582.247361647548
 21
623.3939826855039
 31
0.0
  0
LINE
  5
52E
  8
0
  6
CONTINUOUS
 62
     7
 10
2563.497361647548
 20
467.3939826855039
 30
0.0
 11
2563.497361647548
 21
623.3939826855039
 31
0.0
  0
LINE
  5
52F
  8
0
  6
CONTINUOUS
 62
     7
 10
2580.997361647548
 20
623.3939826855039
 30
0.0
 11
2580.997361647548
 21
467.3939826855039
 31
0.0
  0
LINE
  5
530
  8
0
  6
CONTINUOUS
 62
     7
 10
2580.997361647548
 20
467.3939826855039
 30
0.0
 11
2563.497361647548
 21
467.3939826855039
 31
0.0
  0
LINE
  5
531
  8
0
  6
CONTINUOUS
 62
     7
 10
2563.497361647548
 20
623.3939826855039
 30
0.0
 11
2580.997361647548
 21
623.3939826855039
 31
0.0
  0
ENDSEC
  0
EOF
