  0
SECTION
  2
HEADER
  9
$ACADVER
  1
AC1006
  9
$DWGCODEPAGE
  3
ansi_932
  9
$INSBASE
 10
0.0
 20
0.0
 30
0.0
  9
$EXTMIN
 10
468.8870793538676
 20
165.7088516276313
  9
$EXTMAX
 10
4839.484712179223
 20
3280.431146134536
  9
$LIMMIN
 10
0.0
 20
0.0
  9
$LIMMAX
 10
5000.0
 20
3500.0
  9
$ORTHOMODE
 70
     0
  9
$REGENMODE
 70
     1
  9
$FILLMODE
 70
     1
  9
$QTEXTMODE
 70
     0
  9
$MIRRTEXT
 70
     1
  9
$DRAGMODE
 70
     2
  9
$LTSCALE
 40
1.0
  9
$OSMODE
 70
    37
  9
$ATTMODE
 70
     1
  9
$TEXTSIZE
 40
3.5
  9
$TRACEWID
 40
1.0
  9
$TEXTSTYLE
  7
STANDARD
  9
$CLAYER
  8
0
  9
$CELTYPE
  6
BYLAYER
  9
$CECOLOR
 62
   256
  9
$DIMSCALE
 40
1.0
  9
$DIMASZ
 40
3.302
  9
$DIMEXO
 40
1.0
  9
$DIMDLI
 40
3.75
  9
$DIMRND
 40
0.0
  9
$DIMDLE
 40
0.0
  9
$DIMEXE
 40
1.0
  9
$DIMTP
 40
0.0
  9
$DIMTM
 40
0.0
  9
$DIMTXT
 40
3.5
  9
$DIMCEN
 40
2.5
  9
$DIMTSZ
 40
0.0
  9
$DIMTOL
 70
     0
  9
$DIMLIM
 70
     0
  9
$DIMTIH
 70
     1
  9
$DIMTOH
 70
     1
  9
$DIMSE1
 70
     0
  9
$DIMSE2
 70
     0
  9
$DIMTAD
 70
     1
  9
$DIMZIN
 70
     0
  9
$DIMBLK
  1

  9
$DIMASO
 70
     1
  9
$DIMSHO
 70
     1
  9
$DIMPOST
  1

  9
$DIMAPOST
  1

  9
$DIMALT
 70
     0
  9
$DIMALTD
 70
     3
  9
$DIMALTF
 40
0.0393700787401575
  9
$DIMLFAC
 40
1.0
  9
$DIMTOFL
 70
     1
  9
$DIMTVP
 40
0.0
  9
$DIMTIX
 70
     0
  9
$DIMSOXD
 70
     0
  9
$DIMSAH
 70
     0
  9
$DIMBLK1
  1

  9
$DIMBLK2
  1

  9
$LUNITS
 70
     2
  9
$LUPREC
 70
     3
  9
$SKETCHINC
 40
1.0
  9
$FILLETRAD
 40
10.0
  9
$AUNITS
 70
     0
  9
$AUPREC
 70
     2
  9
$MENU
  1
.
  9
$ELEVATION
 40
0.0
  9
$THICKNESS
 40
0.0
  9
$LIMCHECK
 70
     0
  9
$CHAMFERA
 40
0.0
  9
$CHAMFERB
 40
0.0
  9
$SKPOLY
 70
     0
  9
$TDCREATE
 40
2459847.19946059
  9
$TDUPDATE
 40
2460140.102568449
  9
$TDINDWG
 40
0.001048912
  9
$TDUSRTIMER
 40
0.001048912
  9
$USRTIMER
 70
     1
  9
$ANGBASE
 50
0.0
  9
$ANGDIR
 70
     0
  9
$PDMODE
 70
     0
  9
$PDSIZE
 40
-1.0
  9
$PLINEWID
 40
0.0
  9
$COORDS
 70
     1
  9
$SPLFRAME
 70
     0
  9
$SPLINETYPE
 70
     6
  9
$SPLINESEGS
 70
     8
  9
$ATTDIA
 70
     0
  9
$ATTREQ
 70
     1
  9
$HANDLING
 70
     1
  9
$HANDSEED
  5
4E0
  9
$SURFTAB1
 70
     6
  9
$SURFTAB2
 70
     6
  9
$SURFTYPE
 70
     6
  9
$SURFU
 70
     6
  9
$SURFV
 70
     6
  9
$UCSNAME
  2

  9
$UCSORG
 10
0.0
 20
0.0
 30
0.0
  9
$UCSXDIR
 10
1.0
 20
0.0
 30
0.0
  9
$UCSYDIR
 10
0.0
 20
1.0
 30
0.0
  9
$USERI1
 70
     0
  9
$USERI2
 70
     0
  9
$USERI3
 70
     0
  9
$USERI4
 70
     0
  9
$USERI5
 70
     0
  9
$USERR1
 40
0.0
  9
$USERR2
 40
0.0
  9
$USERR3
 40
0.0
  9
$USERR4
 40
0.0
  9
$USERR5
 40
0.0
  9
$WORLDVIEW
 70
     1
  0
ENDSEC
  0
SECTION
  2
TABLES
  0
TABLE
  2
VPORT
 70
     1
  0
VPORT
  2
*ACTIVE
 70
     0
 10
0.0
 20
0.0
 11
1.0
 21
1.0
 12
3167.228425060543
 22
1771.812430952501
 13
0.0
 23
0.0
 14
10.0
 24
10.0
 15
10.0
 25
10.0
 16
0.0
 26
0.0
 36
1.0
 17
0.0
 27
0.0
 37
0.0
 40
3296.198645416844
 41
2.235364396654719
 42
50.0
 43
0.0
 44
0.0
 50
0.0
 51
0.0
 71
     0
 72
  2000
 73
     1
 74
     3
 75
     0
 76
     0
 77
     0
 78
     0
  0
ENDTAB
  0
TABLE
  2
LTYPE
 70
     6
  0
LTYPE
  2
CONTINUOUS
 70
     0
  3
Solid line
 72
    65
 73
     0
 40
0.0
  0
LTYPE
  2
HIDDEN
 70
     0
  3
Hidden __ __ __ __ __ __ __ __ __ __ __ __ __ __
 72
    65
 73
     2
 40
1.905
 49
1.27
 49
-0.635
  0
LTYPE
  2
PHANTOM
 70
     0
  3
Phantom ______  __  __  ______  __  __  ______
 72
    65
 73
     6
 40
12.7
 49
6.35
 49
-1.27
 49
1.27
 49
-1.27
 49
1.27
 49
-1.27
  0
LTYPE
  2
CENTER
 70
     0
  3
Center ____ _ ____ _ ____ _ ____ _ ____ _ ____
 72
    65
 73
     4
 40
10.16
 49
6.35
 49
-1.27
 49
1.27
 49
-1.27
  0
LTYPE
  2
CENTERX2
 70
     0
  3
Center (2x) ________  __  ________  __  _____
 72
    65
 73
     4
 40
20.32
 49
12.7
 49
-2.54
 49
2.54
 49
-2.54
  0
LTYPE
  2
DOT2
 70
     0
  3
Dot (.5x) ........................................
 72
    65
 73
     2
 40
0.635
 49
0.0
 49
-0.635
  0
ENDTAB
  0
TABLE
  2
LAYER
 70
     4
  0
LAYER
  2
0
 70
     0
 62
     7
  6
CONTINUOUS
  0
LAYER
  2
SLD-0
 70
     0
 62
   179
  6
CONTINUOUS
  0
LAYER
  2
寸法
 70
     0
 62
   179
  6
CONTINUOUS
  0
LAYER
  2
DEFPOINTS
 70
     0
 62
     7
  6
CONTINUOUS
  0
ENDTAB
  0
TABLE
  2
STYLE
 70
     2
  0
STYLE
  2
STANDARD
 70
     0
 40
0.0
 41
1.0
 50
0.0
 71
     0
 42
3.5
  3
txt
  4
bigfont
  0
STYLE
  2
SLDTEXTSTYLE0
 70
     0
 40
0.0
 41
0.75
 50
0.0
 71
     0
 42
3.5
  3
TXT
  4
bigfont
  0
ENDTAB
  0
TABLE
  2
VIEW
 70
     0
  0
ENDTAB
  0
TABLE
  2
UCS
 70
     0
  0
ENDTAB
  0
ENDSEC
  0
SECTION
  2
BLOCKS
  0
ENDSEC
  0
SECTION
  2
ENTITIES
  0
LINE
  5
75
  8
0
  6
CONTINUOUS
 62
     7
 10
4839.484712179223
 20
284.470902007842
 30
0.0
 11
3312.374599790194
 21
284.4709020078419
 31
0.0
  0
TEXT
  5
77
  8
0
  6
CONTINUOUS
 62
     7
 10
1403.679317180367
 20
3227.514479467869
 30
0.0
 40
52.91666666666666
  1
＜上面＞
 41
0.75
  7
SLDTEXTSTYLE0
  0
TEXT
  5
78
  8
0
  6
CONTINUOUS
 62
     7
 10
460.9495793538676
 20
2444.939730285465
 30
0.0
 40
52.91666666666666
  1
＜左側面＞
 41
0.75
  7
SLDTEXTSTYLE0
  0
TEXT
  5
79
  8
0
  6
CONTINUOUS
 62
     7
 10
1394.955675414448
 20
2444.743332205345
 30
0.0
 40
52.91666666666666
  1
＜正面＞
 41
0.75
  7
SLDTEXTSTYLE0
  0
TEXT
  5
7A
  8
0
  6
CONTINUOUS
 62
     7
 10
3377.814243189123
 20
326.489054196763
 30
0.0
 40
52.91666666666666
  1
品名：
 41
0.75
  7
SLDTEXTSTYLE0
  0
TEXT
  5
7B
  8
0
  6
CONTINUOUS
 62
     7
 10
4446.663437481703
 20
332.3177187478654
 30
0.0
 40
52.91666666666666
  1
Pamouna
 41
0.75
  7
SLDTEXTSTYLE0
  0
TEXT
  5
7C
  8
寸法
  6
CONTINUOUS
 62
     7
 10
4688.007304885427
 20
165.7088516276312
 30
0.0
 40
52.91666666666666
  1
1/1
 41
0.75
  7
SLDTEXTSTYLE0
  0
TEXT
  5
7D
  8
寸法
  6
CONTINUOUS
 62
     7
 10
3611.283129349216
 20
332.2465883182592
 30
0.0
 40
66.14583333333331
  1
MA-WM600
 41
0.75
  7
SLDTEXTSTYLE0
  0
TEXT
  5
7E
  8
寸法
  6
CONTINUOUS
 62
     7
 10
3817.918628884302
 20
2444.939730285464
 30
0.0
 40
52.91666666666666
  1
＜右側面＞
 41
0.75
  7
SLDTEXTSTYLE0
  0
TEXT
  5
7F
  8
寸法
  6
CONTINUOUS
 62
     7
 10
4198.79693921183
 20
165.7088544215994
 30
0.0
 40
52.91666666666666
  1
2022/09/24
 41
0.75
  7
SLDTEXTSTYLE0
  0
TEXT
  5
80
  8
寸法
  6
CONTINUOUS
 62
     7
 10
1394.955675414448
 20
1265.268061545298
 30
0.0
 40
52.91666666666666
  1
＜背面＞
 41
0.75
  7
SLDTEXTSTYLE0
  0
LINE
  5
81
  8
0
  6
CONTINUOUS
 62
     7
 10
2737.725314509653
 20
1673.698646883447
 30
0.0
 11
2737.725314509653
 21
2271.698646883447
 31
0.0
  0
LINE
  5
83
  8
0
  6
CONTINUOUS
 62
     7
 10
2737.725314509653
 20
2271.698646883447
 30
0.0
 11
2687.225314509653
 21
2271.698646883447
 31
0.0
  0
LINE
  5
84
  8
0
  6
CONTINUOUS
 62
     7
 10
2687.225314509653
 20
1673.698646883447
 30
0.0
 11
2737.725314509653
 21
1673.698646883447
 31
0.0
  0
LINE
  5
8A
  8
0
  6
CONTINUOUS
 62
     7
 10
2141.725314509652
 20
1673.698646883447
 30
0.0
 11
2192.225314509652
 21
1673.698646883447
 31
0.0
  0
LINE
  5
8B
  8
0
  6
CONTINUOUS
 62
     7
 10
2141.725314509652
 20
2271.698646883447
 30
0.0
 11
2141.725314509652
 21
1673.698646883447
 31
0.0
  0
LINE
  5
8C
  8
0
  6
CONTINUOUS
 62
     7
 10
2192.225314509652
 20
2271.698646883447
 30
0.0
 11
2141.725314509652
 21
2271.698646883447
 31
0.0
  0
LINE
  5
8D
  8
0
  6
CONTINUOUS
 62
     7
 10
2687.225314509653
 20
2271.698646883447
 30
0.0
 11
2192.225314509652
 21
2271.698646883447
 31
0.0
  0
LINE
  5
90
  8
0
  6
CONTINUOUS
 62
     7
 10
2192.225314509652
 20
1673.698646883447
 30
0.0
 11
2687.225314509653
 21
1673.698646883447
 31
0.0
  0
LINE
  5
93
  8
0
  6
CONTINUOUS
 62
     7
 10
2738.725314509652
 20
2266.698646883446
 30
0.0
 11
2737.725314509653
 21
2266.698646883447
 31
0.0
  0
LINE
  5
94
  8
0
  6
CONTINUOUS
 62
     7
 10
2738.725314509652
 20
1678.698646883447
 30
0.0
 11
2738.725314509652
 21
2266.698646883446
 31
0.0
  0
LINE
  5
95
  8
0
  6
CONTINUOUS
 62
     7
 10
2737.725314509653
 20
1678.698646883447
 30
0.0
 11
2738.725314509652
 21
1678.698646883447
 31
0.0
  0
LINE
  5
96
  8
0
  6
CONTINUOUS
 62
     7
 10
2141.725314509652
 20
2266.698646883446
 30
0.0
 11
2140.225314509652
 21
2266.698646883446
 31
0.0
  0
LINE
  5
97
  8
0
  6
CONTINUOUS
 62
     7
 10
2140.225314509652
 20
2266.698646883446
 30
0.0
 11
2140.225314509652
 21
1678.698646883447
 31
0.0
  0
LINE
  5
98
  8
0
  6
CONTINUOUS
 62
     7
 10
2140.225314509652
 20
1678.698646883447
 30
0.0
 11
2141.725314509652
 21
1678.698646883447
 31
0.0
  0
LINE
  5
99
  8
0
  6
CONTINUOUS
 62
     7
 10
721.5348109654108
 20
1762.073646883446
 30
0.0
 11
721.5348109654103
 21
1761.148646883445
 31
0.0
  0
LINE
  5
9A
  8
0
  6
CONTINUOUS
 62
     7
 10
721.5348109654017
 20
1746.248646883444
 30
0.0
 11
721.5348109654011
 21
1745.323646883445
 31
0.0
  0
LINE
  5
9B
  8
0
  6
CONTINUOUS
 62
     7
 10
721.5348109654011
 20
1745.323646883445
 30
0.0
 11
721.3999958904864
 21
1745.323646883445
 31
0.0
  0
LINE
  5
9C
  8
0
  6
CONTINUOUS
 62
     7
 10
721.3999958904864
 20
1762.073646883445
 30
0.0
 11
721.5348109654108
 21
1762.073646883446
 31
0.0
  0
LINE
  5
9D
  8
0
  6
CONTINUOUS
 62
     7
 10
722.8999958904723
 20
1745.323646883445
 30
0.0
 11
721.5348109654011
 21
1745.323646883445
 31
0.0
  0
LINE
  5
9E
  8
0
  6
CONTINUOUS
 62
     7
 10
721.5348109654108
 20
1762.073646883446
 30
0.0
 11
722.8999958904622
 21
1762.073646883445
 31
0.0
  0
LINE
  5
9F
  8
0
  6
CONTINUOUS
 62
     7
 10
721.534810965416
 20
2200.073646883448
 30
0.0
 11
721.5348109654155
 21
2199.148646883446
 31
0.0
  0
LINE
  5
A0
  8
0
  6
CONTINUOUS
 62
     7
 10
721.5348109654068
 20
2184.248646883446
 30
0.0
 11
721.5348109654063
 21
2183.323646883447
 31
0.0
  0
LINE
  5
A1
  8
0
  6
CONTINUOUS
 62
     7
 10
721.5348109654063
 20
2183.323646883447
 30
0.0
 11
721.3999958904843
 21
2183.323646883447
 31
0.0
  0
LINE
  5
A2
  8
0
  6
CONTINUOUS
 62
     7
 10
721.3999958904842
 20
2200.073646883447
 30
0.0
 11
721.534810965416
 21
2200.073646883448
 31
0.0
  0
LINE
  5
A3
  8
0
  6
CONTINUOUS
 62
     7
 10
722.8999958904775
 20
2183.323646883447
 30
0.0
 11
721.5348109654063
 21
2183.323646883447
 31
0.0
  0
LINE
  5
A4
  8
0
  6
CONTINUOUS
 62
     7
 10
721.534810965416
 20
2200.073646883448
 30
0.0
 11
722.8999958904674
 21
2200.073646883447
 31
0.0
  0
LINE
  5
A5
  8
0
  6
CONTINUOUS
 62
     7
 10
722.8999958904673
 20
2200.654605022506
 30
0.0
 11
723.3999958904831
 21
2200.654605022507
 31
0.0
  0
LINE
  5
A6
  8
0
  6
CONTINUOUS
 62
     7
 10
722.8999958904674
 20
2199.098646883214
 30
0.0
 11
723.3999958904674
 21
2199.098646883214
 31
0.0
  0
LINE
  5
A7
  8
0
  6
CONTINUOUS
 62
     7
 10
722.8999958904674
 20
2199.098646883214
 30
0.0
 11
722.8999958904673
 21
2200.654605022506
 31
0.0
  0
LINE
  5
A8
  8
0
  6
CONTINUOUS
 62
     7
 10
723.3999958904831
 20
2182.742688744377
 30
0.0
 11
722.8999958904741
 21
2182.742688744378
 31
0.0
  0
LINE
  5
A9
  8
0
  6
CONTINUOUS
 62
     7
 10
722.8999958904741
 20
2182.742688744378
 30
0.0
 11
722.8999958904832
 21
2184.298646883665
 31
0.0
  0
LINE
  5
AA
  8
0
  6
CONTINUOUS
 62
     7
 10
723.3999958904831
 20
2184.298646883665
 30
0.0
 11
722.8999958904832
 21
2184.298646883665
 31
0.0
  0
LINE
  5
AB
  8
0
  6
CONTINUOUS
 62
     7
 10
723.1999958904706
 20
2210.090221041198
 30
0.0
 11
722.8999958904704
 21
2210.090221041198
 31
0.0
  0
LINE
  5
AC
  8
0
  6
CONTINUOUS
 62
     7
 10
723.3999958904707
 20
2210.090221041198
 30
0.0
 11
723.1999958904706
 21
2210.090221041198
 31
0.0
  0
LINE
  5
AD
  8
0
  6
CONTINUOUS
 62
     7
 10
722.8999958904704
 20
2210.090221041198
 30
0.0
 11
722.8999958904673
 21
2200.654605022506
 31
0.0
  0
LINE
  5
AE
  8
0
  6
CONTINUOUS
 62
     7
 10
723.1999958904763
 20
2173.307072725697
 30
0.0
 11
723.3999958904764
 21
2173.307072725697
 31
0.0
  0
LINE
  5
AF
  8
0
  6
CONTINUOUS
 62
     7
 10
722.8999958904764
 20
2173.307072725697
 30
0.0
 11
723.1999958904763
 21
2173.307072725697
 31
0.0
  0
LINE
  5
B0
  8
0
  6
CONTINUOUS
 62
     7
 10
722.8999958904741
 20
2182.742688744378
 30
0.0
 11
722.8999958904764
 21
2173.307072725697
 31
0.0
  0
POLYLINE
  5
B1
  8
0
  6
CONTINUOUS
 62
     7
 10
0.0
 20
0.0
 30
0.0
 66
     1
 70
     8
  0
VERTEX
  5
1D4
  8
0
  6
CONTINUOUS
 62
     7
 10
721.3999958904842
 20
2220.198646883448
 30
0.0
 70
    32
  0
VERTEX
  5
1D5
  8
0
  6
CONTINUOUS
 62
     7
 10
721.4172647158636
 20
2220.198646883447
 30
0.0
 70
    32
  0
VERTEX
  5
1D6
  8
0
  6
CONTINUOUS
 62
     7
 10
721.4346897993341
 20
2220.198646883448
 30
0.0
 70
    32
  0
VERTEX
  5
1D7
  8
0
  6
CONTINUOUS
 62
     7
 10
721.4524273989875
 20
2220.198646883448
 30
0.0
 70
    32
  0
VERTEX
  5
1D8
  8
0
  6
CONTINUOUS
 62
     7
 10
721.4706337729151
 20
2220.198646883448
 30
0.0
 70
    32
  0
VERTEX
  5
1D9
  8
0
  6
CONTINUOUS
 62
     7
 10
721.4894651792082
 20
2220.198646883447
 30
0.0
 70
    32
  0
VERTEX
  5
1DA
  8
0
  6
CONTINUOUS
 62
     7
 10
721.509077875958
 20
2220.198646883448
 30
0.0
 70
    32
  0
VERTEX
  5
1DB
  8
0
  6
CONTINUOUS
 62
     7
 10
721.5296280992472
 20
2220.198646883448
 30
0.0
 70
    32
  0
VERTEX
  5
1DC
  8
0
  6
CONTINUOUS
 62
     7
 10
721.5512258868664
 20
2220.198646883448
 30
0.0
 70
    32
  0
VERTEX
  5
1DD
  8
0
  6
CONTINUOUS
 62
     7
 10
721.5738376821874
 20
2220.198646883448
 30
0.0
 70
    32
  0
VERTEX
  5
1DE
  8
0
  6
CONTINUOUS
 62
     7
 10
721.5974021109689
 20
2220.198646883448
 30
0.0
 70
    32
  0
VERTEX
  5
1DF
  8
0
  6
CONTINUOUS
 62
     7
 10
721.6218577989698
 20
2220.198646883448
 30
0.0
 70
    32
  0
VERTEX
  5
1E0
  8
0
  6
CONTINUOUS
 62
     7
 10
721.6471433719482
 20
2220.198646883448
 30
0.0
 70
    32
  0
VERTEX
  5
1E1
  8
0
  6
CONTINUOUS
 62
     7
 10
721.6731974556633
 20
2220.198646883448
 30
0.0
 70
    32
  0
VERTEX
  5
1E2
  8
0
  6
CONTINUOUS
 62
     7
 10
721.6999586758735
 20
2220.198646883448
 30
0.0
 70
    32
  0
VERTEX
  5
1E3
  8
0
  6
CONTINUOUS
 62
     7
 10
721.7273656583377
 20
2220.198646883448
 30
0.0
 70
    32
  0
VERTEX
  5
1E4
  8
0
  6
CONTINUOUS
 62
     7
 10
721.7553570288142
 20
2220.198646883448
 30
0.0
 70
    32
  0
VERTEX
  5
1E5
  8
0
  6
CONTINUOUS
 62
     7
 10
721.7838714130618
 20
2220.198646883448
 30
0.0
 70
    32
  0
VERTEX
  5
1E6
  8
0
  6
CONTINUOUS
 62
     7
 10
721.8128560639154
 20
2220.198646883448
 30
0.0
 70
    32
  0
VERTEX
  5
1E7
  8
0
  6
CONTINUOUS
 62
     7
 10
721.8423003727955
 20
2220.198646883448
 30
0.0
 70
    32
  0
VERTEX
  5
1E8
  8
0
  6
CONTINUOUS
 62
     7
 10
721.8722065772042
 20
2220.198646883447
 30
0.0
 70
    32
  0
VERTEX
  5
1E9
  8
0
  6
CONTINUOUS
 62
     7
 10
721.9025769177506
 20
2220.198646883448
 30
0.0
 70
    32
  0
VERTEX
  5
1EA
  8
0
  6
CONTINUOUS
 62
     7
 10
721.9334136350432
 20
2220.198646883448
 30
0.0
 70
    32
  0
VERTEX
  5
1EB
  8
0
  6
CONTINUOUS
 62
     7
 10
721.9647189696906
 20
2220.198646883448
 30
0.0
 70
    32
  0
VERTEX
  5
1EC
  8
0
  6
CONTINUOUS
 62
     7
 10
721.9964951623016
 20
2220.198646883448
 30
0.0
 70
    32
  0
VERTEX
  5
1ED
  8
0
  6
CONTINUOUS
 62
     7
 10
722.0287444534854
 20
2220.198646883448
 30
0.0
 70
    32
  0
VERTEX
  5
1EE
  8
0
  6
CONTINUOUS
 62
     7
 10
722.0614690838502
 20
2220.198646883448
 30
0.0
 70
    32
  0
VERTEX
  5
1EF
  8
0
  6
CONTINUOUS
 62
     7
 10
722.0946712940048
 20
2220.198646883448
 30
0.0
 70
    32
  0
VERTEX
  5
1F0
  8
0
  6
CONTINUOUS
 62
     7
 10
722.1283517328131
 20
2220.198646883448
 30
0.0
 70
    32
  0
VERTEX
  5
1F1
  8
0
  6
CONTINUOUS
 62
     7
 10
722.1624991261363
 20
2220.198646883448
 30
0.0
 70
    32
  0
VERTEX
  5
1F2
  8
0
  6
CONTINUOUS
 62
     7
 10
722.197096793046
 20
2220.198646883448
 30
0.0
 70
    32
  0
VERTEX
  5
1F3
  8
0
  6
CONTINUOUS
 62
     7
 10
722.2321280257355
 20
2220.198646883448
 30
0.0
 70
    32
  0
VERTEX
  5
1F4
  8
0
  6
CONTINUOUS
 62
     7
 10
722.2675761163965
 20
2220.198646883448
 30
0.0
 70
    32
  0
VERTEX
  5
1F5
  8
0
  6
CONTINUOUS
 62
     7
 10
722.3034243572216
 20
2220.198646883448
 30
0.0
 70
    32
  0
VERTEX
  5
1F6
  8
0
  6
CONTINUOUS
 62
     7
 10
722.3396560404033
 20
2220.198646883448
 30
0.0
 70
    32
  0
VERTEX
  5
1F7
  8
0
  6
CONTINUOUS
 62
     7
 10
722.3762544581336
 20
2220.198646883448
 30
0.0
 70
    32
  0
VERTEX
  5
1F8
  8
0
  6
CONTINUOUS
 62
     7
 10
722.413202902605
 20
2220.198646883448
 30
0.0
 70
    32
  0
VERTEX
  5
1F9
  8
0
  6
CONTINUOUS
 62
     7
 10
722.4504846660099
 20
2220.198646883448
 30
0.0
 70
    32
  0
VERTEX
  5
1FA
  8
0
  6
CONTINUOUS
 62
     7
 10
722.4880830425462
 20
2220.198646883448
 30
0.0
 70
    32
  0
VERTEX
  5
1FB
  8
0
  6
CONTINUOUS
 62
     7
 10
722.5259813516874
 20
2220.198646883448
 30
0.0
 70
    32
  0
VERTEX
  5
1FC
  8
0
  6
CONTINUOUS
 62
     7
 10
722.5641629301941
 20
2220.198646883448
 30
0.0
 70
    32
  0
VERTEX
  5
1FD
  8
0
  6
CONTINUOUS
 62
     7
 10
722.6026111151627
 20
2220.198646883448
 30
0.0
 70
    32
  0
VERTEX
  5
1FE
  8
0
  6
CONTINUOUS
 62
     7
 10
722.641309243689
 20
2220.198646883449
 30
0.0
 70
    32
  0
VERTEX
  5
1FF
  8
0
  6
CONTINUOUS
 62
     7
 10
722.6802406528692
 20
2220.198646883449
 30
0.0
 70
    32
  0
VERTEX
  5
200
  8
0
  6
CONTINUOUS
 62
     7
 10
722.7193886797995
 20
2220.198646883449
 30
0.0
 70
    32
  0
VERTEX
  5
201
  8
0
  6
CONTINUOUS
 62
     7
 10
722.758736661576
 20
2220.198646883449
 30
0.0
 70
    32
  0
VERTEX
  5
202
  8
0
  6
CONTINUOUS
 62
     7
 10
722.798267935295
 20
2220.198646883449
 30
0.0
 70
    32
  0
VERTEX
  5
203
  8
0
  6
CONTINUOUS
 62
     7
 10
722.8379658380526
 20
2220.19864688345
 30
0.0
 70
    32
  0
VERTEX
  5
204
  8
0
  6
CONTINUOUS
 62
     7
 10
722.8778137069446
 20
2220.19864688345
 30
0.0
 70
    32
  0
VERTEX
  5
205
  8
0
  6
CONTINUOUS
 62
     7
 10
722.9177948790676
 20
2220.198646883451
 30
0.0
 70
    32
  0
VERTEX
  5
206
  8
0
  6
CONTINUOUS
 62
     7
 10
722.9578926915176
 20
2220.198646883451
 30
0.0
 70
    32
  0
VERTEX
  5
207
  8
0
  6
CONTINUOUS
 62
     7
 10
722.9980904813906
 20
2220.198646883452
 30
0.0
 70
    32
  0
VERTEX
  5
208
  8
0
  6
CONTINUOUS
 62
     7
 10
723.0383715857829
 20
2220.198646883452
 30
0.0
 70
    32
  0
VERTEX
  5
209
  8
0
  6
CONTINUOUS
 62
     7
 10
723.0787193417907
 20
2220.198646883452
 30
0.0
 70
    32
  0
VERTEX
  5
20A
  8
0
  6
CONTINUOUS
 62
     7
 10
723.1191170865101
 20
2220.198646883453
 30
0.0
 70
    32
  0
VERTEX
  5
20B
  8
0
  6
CONTINUOUS
 62
     7
 10
723.1595481570371
 20
2220.198646883453
 30
0.0
 70
    32
  0
VERTEX
  5
20C
  8
0
  6
CONTINUOUS
 62
     7
 10
723.1999958904679
 20
2220.198646883453
 30
0.0
 70
    32
  0
SEQEND
  5
4D2
  8
0
  6
CONTINUOUS
 62
     7
  0
LINE
  5
B2
  8
0
  6
CONTINUOUS
 62
     7
 10
723.1999958904702
 20
2219.198646883454
 30
0.0
 11
723.1999958904679
 21
2220.198646883453
 31
0.0
  0
POLYLINE
  5
B3
  8
0
  6
CONTINUOUS
 62
     7
 10
0.0
 20
0.0
 30
0.0
 66
     1
 70
     8
  0
VERTEX
  5
20D
  8
0
  6
CONTINUOUS
 62
     7
 10
723.1999958904918
 20
2163.198646883448
 30
0.0
 70
    32
  0
VERTEX
  5
20E
  8
0
  6
CONTINUOUS
 62
     7
 10
723.1595474117951
 20
2163.198646883448
 30
0.0
 70
    32
  0
VERTEX
  5
20F
  8
0
  6
CONTINUOUS
 62
     7
 10
723.1191155994932
 20
2163.198646883448
 30
0.0
 70
    32
  0
VERTEX
  5
210
  8
0
  6
CONTINUOUS
 62
     7
 10
723.0787171199809
 20
2163.198646883448
 30
0.0
 70
    32
  0
VERTEX
  5
211
  8
0
  6
CONTINUOUS
 62
     7
 10
723.0383686396532
 20
2163.198646883448
 30
0.0
 70
    32
  0
VERTEX
  5
212
  8
0
  6
CONTINUOUS
 62
     7
 10
722.9980868249042
 20
2163.198646883448
 30
0.0
 70
    32
  0
VERTEX
  5
213
  8
0
  6
CONTINUOUS
 62
     7
 10
722.9578883421299
 20
2163.198646883448
 30
0.0
 70
    32
  0
VERTEX
  5
214
  8
0
  6
CONTINUOUS
 62
     7
 10
722.9177898577243
 20
2163.198646883448
 30
0.0
 70
    32
  0
VERTEX
  5
215
  8
0
  6
CONTINUOUS
 62
     7
 10
722.8778080380823
 20
2163.198646883448
 30
0.0
 70
    32
  0
VERTEX
  5
216
  8
0
  6
CONTINUOUS
 62
     7
 10
722.8379595495991
 20
2163.198646883449
 30
0.0
 70
    32
  0
VERTEX
  5
217
  8
0
  6
CONTINUOUS
 62
     7
 10
722.7982610586688
 20
2163.198646883448
 30
0.0
 70
    32
  0
VERTEX
  5
218
  8
0
  6
CONTINUOUS
 62
     7
 10
722.758729231687
 20
2163.198646883448
 30
0.0
 70
    32
  0
VERTEX
  5
219
  8
0
  6
CONTINUOUS
 62
     7
 10
722.7193807350479
 20
2163.198646883448
 30
0.0
 70
    32
  0
VERTEX
  5
21A
  8
0
  6
CONTINUOUS
 62
     7
 10
722.6802322351468
 20
2163.198646883448
 30
0.0
 70
    32
  0
VERTEX
  5
21B
  8
0
  6
CONTINUOUS
 62
     7
 10
722.6413003983782
 20
2163.198646883448
 30
0.0
 70
    32
  0
VERTEX
  5
21C
  8
0
  6
CONTINUOUS
 62
     7
 10
722.6026018911369
 20
2163.198646883448
 30
0.0
 70
    32
  0
VERTEX
  5
21D
  8
0
  6
CONTINUOUS
 62
     7
 10
722.5641533798181
 20
2163.198646883448
 30
0.0
 70
    32
  0
VERTEX
  5
21E
  8
0
  6
CONTINUOUS
 62
     7
 10
722.525971530816
 20
2163.198646883448
 30
0.0
 70
    32
  0
VERTEX
  5
21F
  8
0
  6
CONTINUOUS
 62
     7
 10
722.488073010526
 20
2163.198646883448
 30
0.0
 70
    32
  0
VERTEX
  5
220
  8
0
  6
CONTINUOUS
 62
     7
 10
722.4504744855849
 20
2163.198646883448
 30
0.0
 70
    32
  0
VERTEX
  5
221
  8
0
  6
CONTINUOUS
 62
     7
 10
722.4131926350914
 20
2163.198646883448
 30
0.0
 70
    32
  0
VERTEX
  5
222
  8
0
  6
CONTINUOUS
 62
     7
 10
722.3762441563493
 20
2163.198646883448
 30
0.0
 70
    32
  0
VERTEX
  5
223
  8
0
  6
CONTINUOUS
 62
     7
 10
722.3396457481073
 20
2163.198646883448
 30
0.0
 70
    32
  0
VERTEX
  5
224
  8
0
  6
CONTINUOUS
 62
     7
 10
722.3034141091127
 20
2163.198646883448
 30
0.0
 70
    32
  0
VERTEX
  5
225
  8
0
  6
CONTINUOUS
 62
     7
 10
722.2675659381141
 20
2163.198646883448
 30
0.0
 70
    32
  0
VERTEX
  5
226
  8
0
  6
CONTINUOUS
 62
     7
 10
722.2321179338586
 20
2163.198646883448
 30
0.0
 70
    32
  0
VERTEX
  5
227
  8
0
  6
CONTINUOUS
 62
     7
 10
722.1970867950947
 20
2163.198646883448
 30
0.0
 70
    32
  0
VERTEX
  5
228
  8
0
  6
CONTINUOUS
 62
     7
 10
722.1624892205701
 20
2163.198646883448
 30
0.0
 70
    32
  0
VERTEX
  5
229
  8
0
  6
CONTINUOUS
 62
     7
 10
722.1283419090328
 20
2163.198646883448
 30
0.0
 70
    32
  0
VERTEX
  5
22A
  8
0
  6
CONTINUOUS
 62
     7
 10
722.0946615266346
 20
2163.198646883448
 30
0.0
 70
    32
  0
VERTEX
  5
22B
  8
0
  6
CONTINUOUS
 62
     7
 10
722.0614591800918
 20
2163.198646883449
 30
0.0
 70
    32
  0
VERTEX
  5
22C
  8
0
  6
CONTINUOUS
 62
     7
 10
722.0287341779343
 20
2163.198646883448
 30
0.0
 70
    32
  0
VERTEX
  5
22D
  8
0
  6
CONTINUOUS
 62
     7
 10
721.9964843221569
 20
2163.198646883448
 30
0.0
 70
    32
  0
VERTEX
  5
22E
  8
0
  6
CONTINUOUS
 62
     7
 10
721.9647074147533
 20
2163.198646883448
 30
0.0
 70
    32
  0
VERTEX
  5
22F
  8
0
  6
CONTINUOUS
 62
     7
 10
721.9334012577173
 20
2163.198646883448
 30
0.0
 70
    32
  0
VERTEX
  5
230
  8
0
  6
CONTINUOUS
 62
     7
 10
721.9025636530433
 20
2163.198646883448
 30
0.0
 70
    32
  0
VERTEX
  5
231
  8
0
  6
CONTINUOUS
 62
     7
 10
721.8721924027246
 20
2163.198646883449
 30
0.0
 70
    32
  0
VERTEX
  5
232
  8
0
  6
CONTINUOUS
 62
     7
 10
721.8422853087558
 20
2163.198646883448
 30
0.0
 70
    32
  0
VERTEX
  5
233
  8
0
  6
CONTINUOUS
 62
     7
 10
721.8128401731304
 20
2163.198646883449
 30
0.0
 70
    32
  0
VERTEX
  5
234
  8
0
  6
CONTINUOUS
 62
     7
 10
721.7838548010324
 20
2163.198646883448
 30
0.0
 70
    32
  0
VERTEX
  5
235
  8
0
  6
CONTINUOUS
 62
     7
 10
721.7553398707131
 20
2163.198646883448
 30
0.0
 70
    32
  0
VERTEX
  5
236
  8
0
  6
CONTINUOUS
 62
     7
 10
721.7273482155961
 20
2163.198646883449
 30
0.0
 70
    32
  0
VERTEX
  5
237
  8
0
  6
CONTINUOUS
 62
     7
 10
721.6999412845724
 20
2163.198646883448
 30
0.0
 70
    32
  0
VERTEX
  5
238
  8
0
  6
CONTINUOUS
 62
     7
 10
721.6731805265337
 20
2163.198646883448
 30
0.0
 70
    32
  0
VERTEX
  5
239
  8
0
  6
CONTINUOUS
 62
     7
 10
721.647127390371
 20
2163.198646883448
 30
0.0
 70
    32
  0
VERTEX
  5
23A
  8
0
  6
CONTINUOUS
 62
     7
 10
721.6218433249758
 20
2163.198646883448
 30
0.0
 70
    32
  0
VERTEX
  5
23B
  8
0
  6
CONTINUOUS
 62
     7
 10
721.5973897792394
 20
2163.198646883448
 30
0.0
 70
    32
  0
VERTEX
  5
23C
  8
0
  6
CONTINUOUS
 62
     7
 10
721.5738282020528
 20
2163.198646883448
 30
0.0
 70
    32
  0
VERTEX
  5
23D
  8
0
  6
CONTINUOUS
 62
     7
 10
721.5512200423078
 20
2163.198646883448
 30
0.0
 70
    32
  0
VERTEX
  5
23E
  8
0
  6
CONTINUOUS
 62
     7
 10
721.5296267488956
 20
2163.198646883448
 30
0.0
 70
    32
  0
VERTEX
  5
23F
  8
0
  6
CONTINUOUS
 62
     7
 10
721.5090806838465
 20
2163.198646883448
 30
0.0
 70
    32
  0
VERTEX
  5
240
  8
0
  6
CONTINUOUS
 62
     7
 10
721.4894703207736
 20
2163.198646883448
 30
0.0
 70
    32
  0
VERTEX
  5
241
  8
0
  6
CONTINUOUS
 62
     7
 10
721.4706397199805
 20
2163.198646883448
 30
0.0
 70
    32
  0
VERTEX
  5
242
  8
0
  6
CONTINUOUS
 62
     7
 10
721.4524329290107
 20
2163.198646883448
 30
0.0
 70
    32
  0
VERTEX
  5
243
  8
0
  6
CONTINUOUS
 62
     7
 10
721.4346939954087
 20
2163.198646883448
 30
0.0
 70
    32
  0
VERTEX
  5
244
  8
0
  6
CONTINUOUS
 62
     7
 10
721.4172669667187
 20
2163.198646883449
 30
0.0
 70
    32
  0
VERTEX
  5
245
  8
0
  6
CONTINUOUS
 62
     7
 10
721.3999958904842
 20
2163.198646883448
 30
0.0
 70
    32
  0
SEQEND
  5
4D3
  8
0
  6
CONTINUOUS
 62
     7
  0
LINE
  5
B4
  8
0
  6
CONTINUOUS
 62
     7
 10
723.1999958904794
 20
2164.198646883447
 30
0.0
 11
723.1999958904918
 21
2163.198646883448
 31
0.0
  0
LINE
  5
B5
  8
0
  6
CONTINUOUS
 62
     7
 10
723.3999958904701
 20
2219.198646883454
 30
0.0
 11
723.1999958904702
 21
2219.198646883454
 31
0.0
  0
LINE
  5
B6
  8
0
  6
CONTINUOUS
 62
     7
 10
723.1999958904702
 20
2219.198646883454
 30
0.0
 11
723.1999958904706
 21
2210.090221041198
 31
0.0
  0
POLYLINE
  5
B7
  8
0
  6
CONTINUOUS
 62
     7
 66
     1
 10
0.0
 20
0.0
 30
0.0
  0
VERTEX
  5
246
  8
0
  6
CONTINUOUS
 62
     7
 10
721.3999958904842
 20
2201.941145525114
 30
0.0
  0
VERTEX
  5
247
  8
0
  6
CONTINUOUS
 62
     7
 10
721.4088602327441
 20
2201.932349042307
 30
0.0
  0
VERTEX
  5
248
  8
0
  6
CONTINUOUS
 62
     7
 10
721.4178435516371
 20
2201.923703242918
 30
0.0
  0
VERTEX
  5
249
  8
0
  6
CONTINUOUS
 62
     7
 10
721.427036577238
 20
2201.915323488332
 30
0.0
  0
VERTEX
  5
24A
  8
0
  6
CONTINUOUS
 62
     7
 10
721.4364432300835
 20
2201.907216585481
 30
0.0
  0
VERTEX
  5
24B
  8
0
  6
CONTINUOUS
 62
     7
 10
721.4460508089105
 20
2201.899368555907
 30
0.0
  0
VERTEX
  5
24C
  8
0
  6
CONTINUOUS
 62
     7
 10
721.4558466124561
 20
2201.891765421149
 30
0.0
  0
VERTEX
  5
24D
  8
0
  6
CONTINUOUS
 62
     7
 10
721.4658179394565
 20
2201.884393202747
 30
0.0
  0
VERTEX
  5
24E
  8
0
  6
CONTINUOUS
 62
     7
 10
721.4759520886494
 20
2201.877237922241
 30
0.0
  0
VERTEX
  5
24F
  8
0
  6
CONTINUOUS
 62
     7
 10
721.4862363587708
 20
2201.870285601171
 30
0.0
  0
VERTEX
  5
250
  8
0
  6
CONTINUOUS
 62
     7
 10
721.4966580485583
 20
2201.863522261076
 30
0.0
  0
VERTEX
  5
251
  8
0
  6
CONTINUOUS
 62
     7
 10
721.5072044567486
 20
2201.8569339235
 30
0.0
  0
VERTEX
  5
252
  8
0
  6
CONTINUOUS
 62
     7
 10
721.517862882078
 20
2201.850506609979
 30
0.0
  0
VERTEX
  5
253
  8
0
  6
CONTINUOUS
 62
     7
 10
721.5286206232842
 20
2201.844226342055
 30
0.0
  0
VERTEX
  5
254
  8
0
  6
CONTINUOUS
 62
     7
 10
721.5394649791035
 20
2201.838079141268
 30
0.0
  0
VERTEX
  5
255
  8
0
  6
CONTINUOUS
 62
     7
 10
721.5503832482726
 20
2201.832051029157
 30
0.0
  0
VERTEX
  5
256
  8
0
  6
CONTINUOUS
 62
     7
 10
721.561362729529
 20
2201.826128027264
 30
0.0
  0
VERTEX
  5
257
  8
0
  6
CONTINUOUS
 62
     7
 10
721.5723924904224
 20
2201.820298300173
 30
0.0
  0
VERTEX
  5
258
  8
0
  6
CONTINUOUS
 62
     7
 10
721.5834712678345
 20
2201.81456172756
 30
0.0
  0
VERTEX
  5
259
  8
0
  6
CONTINUOUS
 62
     7
 10
721.594601086109
 20
2201.8089221721
 30
0.0
  0
VERTEX
  5
25A
  8
0
  6
CONTINUOUS
 62
     7
 10
721.6057839723088
 20
2201.803383499762
 30
0.0
  0
VERTEX
  5
25B
  8
0
  6
CONTINUOUS
 62
     7
 10
721.6170219534976
 20
2201.797949576518
 30
0.0
  0
VERTEX
  5
25C
  8
0
  6
CONTINUOUS
 62
     7
 10
721.6283170567384
 20
2201.792624268333
 30
0.0
  0
VERTEX
  5
25D
  8
0
  6
CONTINUOUS
 62
     7
 10
721.6396713090946
 20
2201.78741144118
 30
0.0
  0
VERTEX
  5
25E
  8
0
  6
CONTINUOUS
 62
     7
 10
721.65108673763
 20
2201.782314961026
 30
0.0
  0
VERTEX
  5
25F
  8
0
  6
CONTINUOUS
 62
     7
 10
721.6625653694073
 20
2201.777338693842
 30
0.0
  0
VERTEX
  5
260
  8
0
  6
CONTINUOUS
 62
     7
 10
721.6741092314902
 20
2201.772486505597
 30
0.0
  0
VERTEX
  5
261
  8
0
  6
CONTINUOUS
 62
     7
 10
721.6857203509421
 20
2201.767762262259
 30
0.0
  0
VERTEX
  5
262
  8
0
  6
CONTINUOUS
 62
     7
 10
721.697400754826
 20
2201.7631698298
 30
0.0
  0
VERTEX
  5
263
  8
0
  6
CONTINUOUS
 62
     7
 10
721.7091524702055
 20
2201.758713074188
 30
0.0
  0
VERTEX
  5
264
  8
0
  6
CONTINUOUS
 62
     7
 10
721.720977524144
 20
2201.754395861391
 30
0.0
  0
VERTEX
  5
265
  8
0
  6
CONTINUOUS
 62
     7
 10
721.7328779172625
 20
2201.750222062965
 30
0.0
  0
VERTEX
  5
266
  8
0
  6
CONTINUOUS
 62
     7
 10
721.74485426474
 20
2201.746195842972
 30
0.0
  0
VERTEX
  5
267
  8
0
  6
CONTINUOUS
 62
     7
 10
721.7569051425925
 20
2201.742321796017
 30
0.0
  0
VERTEX
  5
268
  8
0
  6
CONTINUOUS
 62
     7
 10
721.7690289634963
 20
2201.738604551187
 30
0.0
  0
VERTEX
  5
269
  8
0
  6
CONTINUOUS
 62
     7
 10
721.7812241401275
 20
2201.73504873757
 30
0.0
  0
VERTEX
  5
26A
  8
0
  6
CONTINUOUS
 62
     7
 10
721.7934890851624
 20
2201.731658984258
 30
0.0
  0
VERTEX
  5
26B
  8
0
  6
CONTINUOUS
 62
     7
 10
721.8058222112766
 20
2201.728439920336
 30
0.0
  0
VERTEX
  5
26C
  8
0
  6
CONTINUOUS
 62
     7
 10
721.818221931147
 20
2201.725396174894
 30
0.0
  0
VERTEX
  5
26D
  8
0
  6
CONTINUOUS
 62
     7
 10
721.830686657449
 20
2201.722532377022
 30
0.0
  0
VERTEX
  5
26E
  8
0
  6
CONTINUOUS
 62
     7
 10
721.8432148028592
 20
2201.719853155807
 30
0.0
  0
VERTEX
  5
26F
  8
0
  6
CONTINUOUS
 62
     7
 10
721.8558047800537
 20
2201.717363140339
 30
0.0
  0
VERTEX
  5
270
  8
0
  6
CONTINUOUS
 62
     7
 10
721.8684550017083
 20
2201.715066959705
 30
0.0
  0
VERTEX
  5
271
  8
0
  6
CONTINUOUS
 62
     7
 10
721.8811638804992
 20
2201.712969242995
 30
0.0
  0
VERTEX
  5
272
  8
0
  6
CONTINUOUS
 62
     7
 10
721.893929562117
 20
2201.711072690096
 30
0.0
  0
VERTEX
  5
273
  8
0
  6
CONTINUOUS
 62
     7
 10
721.906748376857
 20
2201.709366883117
 30
0.0
  0
VERTEX
  5
274
  8
0
  6
CONTINUOUS
 62
     7
 10
721.9196158992379
 20
2201.70783594303
 30
0.0
  0
VERTEX
  5
275
  8
0
  6
CONTINUOUS
 62
     7
 10
721.9325277012928
 20
2201.706463972847
 30
0.0
  0
VERTEX
  5
276
  8
0
  6
CONTINUOUS
 62
     7
 10
721.9454793550536
 20
2201.705235075577
 30
0.0
  0
VERTEX
  5
277
  8
0
  6
CONTINUOUS
 62
     7
 10
721.9584664325537
 20
2201.70413335423
 30
0.0
  0
VERTEX
  5
278
  8
0
  6
CONTINUOUS
 62
     7
 10
721.9714845058252
 20
2201.703142911815
 30
0.0
  0
VERTEX
  5
279
  8
0
  6
CONTINUOUS
 62
     7
 10
721.9845291469009
 20
2201.702247851342
 30
0.0
  0
VERTEX
  5
27A
  8
0
  6
CONTINUOUS
 62
     7
 10
721.9975959278136
 20
2201.70143227582
 30
0.0
  0
VERTEX
  5
27B
  8
0
  6
CONTINUOUS
 62
     7
 10
722.0106804205957
 20
2201.700680288261
 30
0.0
  0
VERTEX
  5
27C
  8
0
  6
CONTINUOUS
 62
     7
 10
722.0237781972799
 20
2201.699975991672
 30
0.0
  0
VERTEX
  5
27D
  8
0
  6
CONTINUOUS
 62
     7
 10
722.0368848298988
 20
2201.699303489064
 30
0.0
  0
VERTEX
  5
27E
  8
0
  6
CONTINUOUS
 62
     7
 10
722.0499958904852
 20
2201.698646883446
 30
0.0
  0
SEQEND
  5
4D4
  8
0
  6
CONTINUOUS
 62
     7
  0
LINE
  5
B8
  8
0
  6
CONTINUOUS
 62
     7
 10
722.8999958904775
 20
2201.698646883446
 30
0.0
 11
722.0499958904852
 21
2201.698646883446
 31
0.0
  0
LINE
  5
B9
  8
0
  6
CONTINUOUS
 62
     7
 10
723.3999958904793
 20
2164.198646883447
 30
0.0
 11
723.1999958904794
 21
2164.198646883447
 31
0.0
  0
LINE
  5
BA
  8
0
  6
CONTINUOUS
 62
     7
 10
723.1999958904763
 20
2173.307072725697
 30
0.0
 11
723.1999958904794
 21
2164.198646883447
 31
0.0
  0
POLYLINE
  5
BB
  8
0
  6
CONTINUOUS
 62
     7
 66
     1
 10
0.0
 20
0.0
 30
0.0
  0
VERTEX
  5
27F
  8
0
  6
CONTINUOUS
 62
     7
 10
722.0499958904743
 20
2181.698646883446
 30
0.0
  0
VERTEX
  5
280
  8
0
  6
CONTINUOUS
 62
     7
 10
722.0271104318444
 20
2181.696371560454
 30
0.0
  0
VERTEX
  5
281
  8
0
  6
CONTINUOUS
 62
     7
 10
722.0042449676441
 20
2181.69405530998
 30
0.0
  0
VERTEX
  5
282
  8
0
  6
CONTINUOUS
 62
     7
 10
721.9814194923027
 20
2181.691657204541
 30
0.0
  0
VERTEX
  5
283
  8
0
  6
CONTINUOUS
 62
     7
 10
721.95865400025
 20
2181.689136316656
 30
0.0
  0
VERTEX
  5
284
  8
0
  6
CONTINUOUS
 62
     7
 10
721.9359684859152
 20
2181.686451718841
 30
0.0
  0
VERTEX
  5
285
  8
0
  6
CONTINUOUS
 62
     7
 10
721.9133829437279
 20
2181.683562483614
 30
0.0
  0
VERTEX
  5
286
  8
0
  6
CONTINUOUS
 62
     7
 10
721.8909173681179
 20
2181.680427683494
 30
0.0
  0
VERTEX
  5
287
  8
0
  6
CONTINUOUS
 62
     7
 10
721.8685917535142
 20
2181.677006390997
 30
0.0
  0
VERTEX
  5
288
  8
0
  6
CONTINUOUS
 62
     7
 10
721.8464260943466
 20
2181.673257678642
 30
0.0
  0
VERTEX
  5
289
  8
0
  6
CONTINUOUS
 62
     7
 10
721.8244403850446
 20
2181.669140618946
 30
0.0
  0
VERTEX
  5
28A
  8
0
  6
CONTINUOUS
 62
     7
 10
721.8026546200376
 20
2181.664614284427
 30
0.0
  0
VERTEX
  5
28B
  8
0
  6
CONTINUOUS
 62
     7
 10
721.7810887937553
 20
2181.659637747603
 30
0.0
  0
VERTEX
  5
28C
  8
0
  6
CONTINUOUS
 62
     7
 10
721.7597629006269
 20
2181.654170080991
 30
0.0
  0
VERTEX
  5
28D
  8
0
  6
CONTINUOUS
 62
     7
 10
721.7386969350822
 20
2181.648170357109
 30
0.0
  0
VERTEX
  5
28E
  8
0
  6
CONTINUOUS
 62
     7
 10
721.7179108915507
 20
2181.641597648475
 30
0.0
  0
VERTEX
  5
28F
  8
0
  6
CONTINUOUS
 62
     7
 10
721.6974247644616
 20
2181.634411027606
 30
0.0
  0
VERTEX
  5
290
  8
0
  6
CONTINUOUS
 62
     7
 10
721.6772545617231
 20
2181.626577727209
 30
0.0
  0
VERTEX
  5
291
  8
0
  6
CONTINUOUS
 62
     7
 10
721.657390316583
 20
2181.618118148667
 30
0.0
  0
VERTEX
  5
292
  8
0
  6
CONTINUOUS
 62
     7
 10
721.6378116577306
 20
2181.609073990918
 30
0.0
  0
VERTEX
  5
293
  8
0
  6
CONTINUOUS
 62
     7
 10
721.6184981861455
 20
2181.599487009621
 30
0.0
  0
VERTEX
  5
294
  8
0
  6
CONTINUOUS
 62
     7
 10
721.5994295028069
 20
2181.589398960432
 30
0.0
  0
VERTEX
  5
295
  8
0
  6
CONTINUOUS
 62
     7
 10
721.5805852086945
 20
2181.578851599009
 30
0.0
  0
VERTEX
  5
296
  8
0
  6
CONTINUOUS
 62
     7
 10
721.5619449047877
 20
2181.56788668101
 30
0.0
  0
VERTEX
  5
297
  8
0
  6
CONTINUOUS
 62
     7
 10
721.5434881920659
 20
2181.556545962093
 30
0.0
  0
VERTEX
  5
298
  8
0
  6
CONTINUOUS
 62
     7
 10
721.5251946715084
 20
2181.544871197914
 30
0.0
  0
VERTEX
  5
299
  8
0
  6
CONTINUOUS
 62
     7
 10
721.5070439440948
 20
2181.532904144132
 30
0.0
  0
VERTEX
  5
29A
  8
0
  6
CONTINUOUS
 62
     7
 10
721.4890156108047
 20
2181.520686556404
 30
0.0
  0
VERTEX
  5
29B
  8
0
  6
CONTINUOUS
 62
     7
 10
721.4710892726172
 20
2181.508260190388
 30
0.0
  0
VERTEX
  5
29C
  8
0
  6
CONTINUOUS
 62
     7
 10
721.453244530512
 20
2181.495666801742
 30
0.0
  0
VERTEX
  5
29D
  8
0
  6
CONTINUOUS
 62
     7
 10
721.4354609854686
 20
2181.482948146123
 30
0.0
  0
VERTEX
  5
29E
  8
0
  6
CONTINUOUS
 62
     7
 10
721.417718238466
 20
2181.470145979189
 30
0.0
  0
VERTEX
  5
29F
  8
0
  6
CONTINUOUS
 62
     7
 10
721.3999958904842
 20
2181.457302056597
 30
0.0
  0
SEQEND
  5
4D5
  8
0
  6
CONTINUOUS
 62
     7
  0
LINE
  5
BC
  8
0
  6
CONTINUOUS
 62
     7
 10
722.0499958904743
 20
2181.698646883446
 30
0.0
 11
722.8999958904772
 21
2181.698646883449
 31
0.0
  0
LINE
  5
BD
  8
0
  6
CONTINUOUS
 62
     7
 10
723.3999958904678
 20
2220.198646883453
 30
0.0
 11
723.1999958904679
 21
2220.198646883453
 31
0.0
  0
LINE
  5
BE
  8
0
  6
CONTINUOUS
 62
     7
 10
723.3999958904917
 20
2163.198646883448
 30
0.0
 11
723.1999958904918
 21
2163.198646883448
 31
0.0
  0
LINE
  5
BF
  8
0
  6
CONTINUOUS
 62
     7
 10
722.899995890462
 20
1762.654605022504
 30
0.0
 11
723.3999958904831
 21
1762.654605022505
 31
0.0
  0
LINE
  5
C0
  8
0
  6
CONTINUOUS
 62
     7
 10
722.8999958904622
 20
1761.098646883212
 30
0.0
 11
723.3999958904622
 21
1761.098646883212
 31
0.0
  0
LINE
  5
C1
  8
0
  6
CONTINUOUS
 62
     7
 10
722.8999958904622
 20
1761.098646883212
 30
0.0
 11
722.899995890462
 21
1762.654605022504
 31
0.0
  0
LINE
  5
C2
  8
0
  6
CONTINUOUS
 62
     7
 10
723.3999958904831
 20
1744.742688744376
 30
0.0
 11
722.8999958904689
 21
1744.742688744377
 31
0.0
  0
LINE
  5
C3
  8
0
  6
CONTINUOUS
 62
     7
 10
722.8999958904689
 20
1744.742688744377
 30
0.0
 11
722.899995890478
 21
1746.298646883663
 31
0.0
  0
LINE
  5
C4
  8
0
  6
CONTINUOUS
 62
     7
 10
723.3999958904778
 20
1746.298646883663
 30
0.0
 11
722.899995890478
 21
1746.298646883663
 31
0.0
  0
LINE
  5
C5
  8
0
  6
CONTINUOUS
 62
     7
 10
723.1999958904655
 20
1772.090221041197
 30
0.0
 11
722.8999958904652
 21
1772.090221041197
 31
0.0
  0
LINE
  5
C6
  8
0
  6
CONTINUOUS
 62
     7
 10
723.3999958904654
 20
1772.090221041197
 30
0.0
 11
723.1999958904655
 21
1772.090221041197
 31
0.0
  0
LINE
  5
C7
  8
0
  6
CONTINUOUS
 62
     7
 10
722.8999958904652
 20
1772.090221041197
 30
0.0
 11
722.899995890462
 21
1762.654605022504
 31
0.0
  0
LINE
  5
C8
  8
0
  6
CONTINUOUS
 62
     7
 10
723.1999958904711
 20
1735.307072725695
 30
0.0
 11
723.3999958904711
 21
1735.307072725695
 31
0.0
  0
LINE
  5
C9
  8
0
  6
CONTINUOUS
 62
     7
 10
722.8999958904711
 20
1735.307072725695
 30
0.0
 11
723.1999958904711
 21
1735.307072725695
 31
0.0
  0
LINE
  5
CA
  8
0
  6
CONTINUOUS
 62
     7
 10
722.8999958904689
 20
1744.742688744377
 30
0.0
 11
722.8999958904711
 21
1735.307072725695
 31
0.0
  0
POLYLINE
  5
CB
  8
0
  6
CONTINUOUS
 62
     7
 10
0.0
 20
0.0
 30
0.0
 66
     1
 70
     8
  0
VERTEX
  5
2A0
  8
0
  6
CONTINUOUS
 62
     7
 10
721.3999958904842
 20
1782.198646883446
 30
0.0
 70
    32
  0
VERTEX
  5
2A1
  8
0
  6
CONTINUOUS
 62
     7
 10
721.4172647158634
 20
1782.198646883446
 30
0.0
 70
    32
  0
VERTEX
  5
2A2
  8
0
  6
CONTINUOUS
 62
     7
 10
721.434689799334
 20
1782.198646883446
 30
0.0
 70
    32
  0
VERTEX
  5
2A3
  8
0
  6
CONTINUOUS
 62
     7
 10
721.4524273989875
 20
1782.198646883446
 30
0.0
 70
    32
  0
VERTEX
  5
2A4
  8
0
  6
CONTINUOUS
 62
     7
 10
721.470633772915
 20
1782.198646883446
 30
0.0
 70
    32
  0
VERTEX
  5
2A5
  8
0
  6
CONTINUOUS
 62
     7
 10
721.489465179208
 20
1782.198646883446
 30
0.0
 70
    32
  0
VERTEX
  5
2A6
  8
0
  6
CONTINUOUS
 62
     7
 10
721.509077875958
 20
1782.198646883446
 30
0.0
 70
    32
  0
VERTEX
  5
2A7
  8
0
  6
CONTINUOUS
 62
     7
 10
721.5296280992472
 20
1782.198646883446
 30
0.0
 70
    32
  0
VERTEX
  5
2A8
  8
0
  6
CONTINUOUS
 62
     7
 10
721.5512258868665
 20
1782.198646883446
 30
0.0
 70
    32
  0
VERTEX
  5
2A9
  8
0
  6
CONTINUOUS
 62
     7
 10
721.5738376821874
 20
1782.198646883446
 30
0.0
 70
    32
  0
VERTEX
  5
2AA
  8
0
  6
CONTINUOUS
 62
     7
 10
721.5974021109691
 20
1782.198646883446
 30
0.0
 70
    32
  0
VERTEX
  5
2AB
  8
0
  6
CONTINUOUS
 62
     7
 10
721.6218577989699
 20
1782.198646883446
 30
0.0
 70
    32
  0
VERTEX
  5
2AC
  8
0
  6
CONTINUOUS
 62
     7
 10
721.6471433719486
 20
1782.198646883446
 30
0.0
 70
    32
  0
VERTEX
  5
2AD
  8
0
  6
CONTINUOUS
 62
     7
 10
721.6731974556637
 20
1782.198646883446
 30
0.0
 70
    32
  0
VERTEX
  5
2AE
  8
0
  6
CONTINUOUS
 62
     7
 10
721.6999586758739
 20
1782.198646883446
 30
0.0
 70
    32
  0
VERTEX
  5
2AF
  8
0
  6
CONTINUOUS
 62
     7
 10
721.7273656583379
 20
1782.198646883446
 30
0.0
 70
    32
  0
VERTEX
  5
2B0
  8
0
  6
CONTINUOUS
 62
     7
 10
721.7553570288146
 20
1782.198646883446
 30
0.0
 70
    32
  0
VERTEX
  5
2B1
  8
0
  6
CONTINUOUS
 62
     7
 10
721.7838714130621
 20
1782.198646883446
 30
0.0
 70
    32
  0
VERTEX
  5
2B2
  8
0
  6
CONTINUOUS
 62
     7
 10
721.8128560639157
 20
1782.198646883446
 30
0.0
 70
    32
  0
VERTEX
  5
2B3
  8
0
  6
CONTINUOUS
 62
     7
 10
721.8423003727956
 20
1782.198646883446
 30
0.0
 70
    32
  0
VERTEX
  5
2B4
  8
0
  6
CONTINUOUS
 62
     7
 10
721.8722065772045
 20
1782.198646883446
 30
0.0
 70
    32
  0
VERTEX
  5
2B5
  8
0
  6
CONTINUOUS
 62
     7
 10
721.9025769177507
 20
1782.198646883446
 30
0.0
 70
    32
  0
VERTEX
  5
2B6
  8
0
  6
CONTINUOUS
 62
     7
 10
721.9334136350432
 20
1782.198646883446
 30
0.0
 70
    32
  0
VERTEX
  5
2B7
  8
0
  6
CONTINUOUS
 62
     7
 10
721.9647189696906
 20
1782.198646883447
 30
0.0
 70
    32
  0
VERTEX
  5
2B8
  8
0
  6
CONTINUOUS
 62
     7
 10
721.9964951623016
 20
1782.198646883446
 30
0.0
 70
    32
  0
VERTEX
  5
2B9
  8
0
  6
CONTINUOUS
 62
     7
 10
722.0287444534853
 20
1782.198646883446
 30
0.0
 70
    32
  0
VERTEX
  5
2BA
  8
0
  6
CONTINUOUS
 62
     7
 10
722.0614690838499
 20
1782.198646883446
 30
0.0
 70
    32
  0
VERTEX
  5
2BB
  8
0
  6
CONTINUOUS
 62
     7
 10
722.0946712940045
 20
1782.198646883446
 30
0.0
 70
    32
  0
VERTEX
  5
2BC
  8
0
  6
CONTINUOUS
 62
     7
 10
722.1283517328127
 20
1782.198646883446
 30
0.0
 70
    32
  0
VERTEX
  5
2BD
  8
0
  6
CONTINUOUS
 62
     7
 10
722.1624991261355
 20
1782.198646883446
 30
0.0
 70
    32
  0
VERTEX
  5
2BE
  8
0
  6
CONTINUOUS
 62
     7
 10
722.1970967930453
 20
1782.198646883446
 30
0.0
 70
    32
  0
VERTEX
  5
2BF
  8
0
  6
CONTINUOUS
 62
     7
 10
722.2321280257347
 20
1782.198646883446
 30
0.0
 70
    32
  0
VERTEX
  5
2C0
  8
0
  6
CONTINUOUS
 62
     7
 10
722.2675761163955
 20
1782.198646883446
 30
0.0
 70
    32
  0
VERTEX
  5
2C1
  8
0
  6
CONTINUOUS
 62
     7
 10
722.3034243572207
 20
1782.198646883446
 30
0.0
 70
    32
  0
VERTEX
  5
2C2
  8
0
  6
CONTINUOUS
 62
     7
 10
722.339656040402
 20
1782.198646883446
 30
0.0
 70
    32
  0
VERTEX
  5
2C3
  8
0
  6
CONTINUOUS
 62
     7
 10
722.3762544581324
 20
1782.198646883446
 30
0.0
 70
    32
  0
VERTEX
  5
2C4
  8
0
  6
CONTINUOUS
 62
     7
 10
722.4132029026034
 20
1782.198646883446
 30
0.0
 70
    32
  0
VERTEX
  5
2C5
  8
0
  6
CONTINUOUS
 62
     7
 10
722.4504846660083
 20
1782.198646883446
 30
0.0
 70
    32
  0
VERTEX
  5
2C6
  8
0
  6
CONTINUOUS
 62
     7
 10
722.4880830425443
 20
1782.198646883446
 30
0.0
 70
    32
  0
VERTEX
  5
2C7
  8
0
  6
CONTINUOUS
 62
     7
 10
722.5259813516856
 20
1782.198646883447
 30
0.0
 70
    32
  0
VERTEX
  5
2C8
  8
0
  6
CONTINUOUS
 62
     7
 10
722.5641629301922
 20
1782.198646883447
 30
0.0
 70
    32
  0
VERTEX
  5
2C9
  8
0
  6
CONTINUOUS
 62
     7
 10
722.6026111151605
 20
1782.198646883447
 30
0.0
 70
    32
  0
VERTEX
  5
2CA
  8
0
  6
CONTINUOUS
 62
     7
 10
722.6413092436865
 20
1782.198646883447
 30
0.0
 70
    32
  0
VERTEX
  5
2CB
  8
0
  6
CONTINUOUS
 62
     7
 10
722.6802406528666
 20
1782.198646883447
 30
0.0
 70
    32
  0
VERTEX
  5
2CC
  8
0
  6
CONTINUOUS
 62
     7
 10
722.7193886797967
 20
1782.198646883447
 30
0.0
 70
    32
  0
VERTEX
  5
2CD
  8
0
  6
CONTINUOUS
 62
     7
 10
722.758736661573
 20
1782.198646883448
 30
0.0
 70
    32
  0
VERTEX
  5
2CE
  8
0
  6
CONTINUOUS
 62
     7
 10
722.7982679352918
 20
1782.198646883448
 30
0.0
 70
    32
  0
VERTEX
  5
2CF
  8
0
  6
CONTINUOUS
 62
     7
 10
722.8379658380491
 20
1782.198646883449
 30
0.0
 70
    32
  0
VERTEX
  5
2D0
  8
0
  6
CONTINUOUS
 62
     7
 10
722.8778137069409
 20
1782.198646883448
 30
0.0
 70
    32
  0
VERTEX
  5
2D1
  8
0
  6
CONTINUOUS
 62
     7
 10
722.9177948790636
 20
1782.198646883449
 30
0.0
 70
    32
  0
VERTEX
  5
2D2
  8
0
  6
CONTINUOUS
 62
     7
 10
722.9578926915135
 20
1782.198646883449
 30
0.0
 70
    32
  0
VERTEX
  5
2D3
  8
0
  6
CONTINUOUS
 62
     7
 10
722.9980904813864
 20
1782.19864688345
 30
0.0
 70
    32
  0
VERTEX
  5
2D4
  8
0
  6
CONTINUOUS
 62
     7
 10
723.0383715857785
 20
1782.19864688345
 30
0.0
 70
    32
  0
VERTEX
  5
2D5
  8
0
  6
CONTINUOUS
 62
     7
 10
723.078719341786
 20
1782.19864688345
 30
0.0
 70
    32
  0
VERTEX
  5
2D6
  8
0
  6
CONTINUOUS
 62
     7
 10
723.1191170865052
 20
1782.198646883451
 30
0.0
 70
    32
  0
VERTEX
  5
2D7
  8
0
  6
CONTINUOUS
 62
     7
 10
723.159548157032
 20
1782.198646883451
 30
0.0
 70
    32
  0
VERTEX
  5
2D8
  8
0
  6
CONTINUOUS
 62
     7
 10
723.1999958904627
 20
1782.198646883452
 30
0.0
 70
    32
  0
SEQEND
  5
4D6
  8
0
  6
CONTINUOUS
 62
     7
  0
LINE
  5
CC
  8
0
  6
CONTINUOUS
 62
     7
 10
723.199995890465
 20
1781.198646883453
 30
0.0
 11
723.1999958904627
 21
1782.198646883452
 31
0.0
  0
POLYLINE
  5
CD
  8
0
  6
CONTINUOUS
 62
     7
 10
0.0
 20
0.0
 30
0.0
 66
     1
 70
     8
  0
VERTEX
  5
2D9
  8
0
  6
CONTINUOUS
 62
     7
 10
723.1999958904865
 20
1725.198646883447
 30
0.0
 70
    32
  0
VERTEX
  5
2DA
  8
0
  6
CONTINUOUS
 62
     7
 10
723.15954741179
 20
1725.198646883447
 30
0.0
 70
    32
  0
VERTEX
  5
2DB
  8
0
  6
CONTINUOUS
 62
     7
 10
723.1191155994884
 20
1725.198646883447
 30
0.0
 70
    32
  0
VERTEX
  5
2DC
  8
0
  6
CONTINUOUS
 62
     7
 10
723.0787171199763
 20
1725.198646883447
 30
0.0
 70
    32
  0
VERTEX
  5
2DD
  8
0
  6
CONTINUOUS
 62
     7
 10
723.0383686396488
 20
1725.198646883447
 30
0.0
 70
    32
  0
VERTEX
  5
2DE
  8
0
  6
CONTINUOUS
 62
     7
 10
722.9980868249
 20
1725.198646883446
 30
0.0
 70
    32
  0
VERTEX
  5
2DF
  8
0
  6
CONTINUOUS
 62
     7
 10
722.9578883421259
 20
1725.198646883446
 30
0.0
 70
    32
  0
VERTEX
  5
2E0
  8
0
  6
CONTINUOUS
 62
     7
 10
722.9177898577204
 20
1725.198646883447
 30
0.0
 70
    32
  0
VERTEX
  5
2E1
  8
0
  6
CONTINUOUS
 62
     7
 10
722.8778080380788
 20
1725.198646883447
 30
0.0
 70
    32
  0
VERTEX
  5
2E2
  8
0
  6
CONTINUOUS
 62
     7
 10
722.8379595495956
 20
1725.198646883447
 30
0.0
 70
    32
  0
VERTEX
  5
2E3
  8
0
  6
CONTINUOUS
 62
     7
 10
722.7982610586656
 20
1725.198646883446
 30
0.0
 70
    32
  0
VERTEX
  5
2E4
  8
0
  6
CONTINUOUS
 62
     7
 10
722.758729231684
 20
1725.198646883447
 30
0.0
 70
    32
  0
VERTEX
  5
2E5
  8
0
  6
CONTINUOUS
 62
     7
 10
722.7193807350452
 20
1725.198646883447
 30
0.0
 70
    32
  0
VERTEX
  5
2E6
  8
0
  6
CONTINUOUS
 62
     7
 10
722.680232235144
 20
1725.198646883447
 30
0.0
 70
    32
  0
VERTEX
  5
2E7
  8
0
  6
CONTINUOUS
 62
     7
 10
722.6413003983756
 20
1725.198646883447
 30
0.0
 70
    32
  0
VERTEX
  5
2E8
  8
0
  6
CONTINUOUS
 62
     7
 10
722.6026018911348
 20
1725.198646883447
 30
0.0
 70
    32
  0
VERTEX
  5
2E9
  8
0
  6
CONTINUOUS
 62
     7
 10
722.5641533798159
 20
1725.198646883447
 30
0.0
 70
    32
  0
VERTEX
  5
2EA
  8
0
  6
CONTINUOUS
 62
     7
 10
722.5259715308142
 20
1725.198646883447
 30
0.0
 70
    32
  0
VERTEX
  5
2EB
  8
0
  6
CONTINUOUS
 62
     7
 10
722.4880730105243
 20
1725.198646883447
 30
0.0
 70
    32
  0
VERTEX
  5
2EC
  8
0
  6
CONTINUOUS
 62
     7
 10
722.4504744855833
 20
1725.198646883447
 30
0.0
 70
    32
  0
VERTEX
  5
2ED
  8
0
  6
CONTINUOUS
 62
     7
 10
722.4131926350896
 20
1725.198646883447
 30
0.0
 70
    32
  0
VERTEX
  5
2EE
  8
0
  6
CONTINUOUS
 62
     7
 10
722.3762441563481
 20
1725.198646883447
 30
0.0
 70
    32
  0
VERTEX
  5
2EF
  8
0
  6
CONTINUOUS
 62
     7
 10
722.3396457481061
 20
1725.198646883447
 30
0.0
 70
    32
  0
VERTEX
  5
2F0
  8
0
  6
CONTINUOUS
 62
     7
 10
722.3034141091118
 20
1725.198646883447
 30
0.0
 70
    32
  0
VERTEX
  5
2F1
  8
0
  6
CONTINUOUS
 62
     7
 10
722.2675659381131
 20
1725.198646883447
 30
0.0
 70
    32
  0
VERTEX
  5
2F2
  8
0
  6
CONTINUOUS
 62
     7
 10
722.2321179338579
 20
1725.198646883447
 30
0.0
 70
    32
  0
VERTEX
  5
2F3
  8
0
  6
CONTINUOUS
 62
     7
 10
722.197086795094
 20
1725.198646883447
 30
0.0
 70
    32
  0
VERTEX
  5
2F4
  8
0
  6
CONTINUOUS
 62
     7
 10
722.1624892205696
 20
1725.198646883447
 30
0.0
 70
    32
  0
VERTEX
  5
2F5
  8
0
  6
CONTINUOUS
 62
     7
 10
722.1283419090323
 20
1725.198646883446
 30
0.0
 70
    32
  0
VERTEX
  5
2F6
  8
0
  6
CONTINUOUS
 62
     7
 10
722.0946615266344
 20
1725.198646883446
 30
0.0
 70
    32
  0
VERTEX
  5
2F7
  8
0
  6
CONTINUOUS
 62
     7
 10
722.0614591800913
 20
1725.198646883447
 30
0.0
 70
    32
  0
VERTEX
  5
2F8
  8
0
  6
CONTINUOUS
 62
     7
 10
722.0287341779343
 20
1725.198646883447
 30
0.0
 70
    32
  0
VERTEX
  5
2F9
  8
0
  6
CONTINUOUS
 62
     7
 10
721.996484322157
 20
1725.198646883447
 30
0.0
 70
    32
  0
VERTEX
  5
2FA
  8
0
  6
CONTINUOUS
 62
     7
 10
721.9647074147534
 20
1725.198646883447
 30
0.0
 70
    32
  0
VERTEX
  5
2FB
  8
0
  6
CONTINUOUS
 62
     7
 10
721.9334012577177
 20
1725.198646883447
 30
0.0
 70
    32
  0
VERTEX
  5
2FC
  8
0
  6
CONTINUOUS
 62
     7
 10
721.9025636530436
 20
1725.198646883447
 30
0.0
 70
    32
  0
VERTEX
  5
2FD
  8
0
  6
CONTINUOUS
 62
     7
 10
721.8721924027251
 20
1725.198646883447
 30
0.0
 70
    32
  0
VERTEX
  5
2FE
  8
0
  6
CONTINUOUS
 62
     7
 10
721.8422853087562
 20
1725.198646883447
 30
0.0
 70
    32
  0
VERTEX
  5
2FF
  8
0
  6
CONTINUOUS
 62
     7
 10
721.812840173131
 20
1725.198646883447
 30
0.0
 70
    32
  0
VERTEX
  5
300
  8
0
  6
CONTINUOUS
 62
     7
 10
721.7838548010329
 20
1725.198646883447
 30
0.0
 70
    32
  0
VERTEX
  5
301
  8
0
  6
CONTINUOUS
 62
     7
 10
721.7553398707137
 20
1725.198646883446
 30
0.0
 70
    32
  0
VERTEX
  5
302
  8
0
  6
CONTINUOUS
 62
     7
 10
721.7273482155965
 20
1725.198646883447
 30
0.0
 70
    32
  0
VERTEX
  5
303
  8
0
  6
CONTINUOUS
 62
     7
 10
721.6999412845731
 20
1725.198646883447
 30
0.0
 70
    32
  0
VERTEX
  5
304
  8
0
  6
CONTINUOUS
 62
     7
 10
721.6731805265342
 20
1725.198646883447
 30
0.0
 70
    32
  0
VERTEX
  5
305
  8
0
  6
CONTINUOUS
 62
     7
 10
721.6471273903715
 20
1725.198646883446
 30
0.0
 70
    32
  0
VERTEX
  5
306
  8
0
  6
CONTINUOUS
 62
     7
 10
721.6218433249762
 20
1725.198646883447
 30
0.0
 70
    32
  0
VERTEX
  5
307
  8
0
  6
CONTINUOUS
 62
     7
 10
721.5973897792395
 20
1725.198646883447
 30
0.0
 70
    32
  0
VERTEX
  5
308
  8
0
  6
CONTINUOUS
 62
     7
 10
721.573828202053
 20
1725.198646883447
 30
0.0
 70
    32
  0
VERTEX
  5
309
  8
0
  6
CONTINUOUS
 62
     7
 10
721.551220042308
 20
1725.198646883447
 30
0.0
 70
    32
  0
VERTEX
  5
30A
  8
0
  6
CONTINUOUS
 62
     7
 10
721.5296267488956
 20
1725.198646883447
 30
0.0
 70
    32
  0
VERTEX
  5
30B
  8
0
  6
CONTINUOUS
 62
     7
 10
721.5090806838462
 20
1725.198646883447
 30
0.0
 70
    32
  0
VERTEX
  5
30C
  8
0
  6
CONTINUOUS
 62
     7
 10
721.4894703207735
 20
1725.198646883447
 30
0.0
 70
    32
  0
VERTEX
  5
30D
  8
0
  6
CONTINUOUS
 62
     7
 10
721.4706397199802
 20
1725.198646883447
 30
0.0
 70
    32
  0
VERTEX
  5
30E
  8
0
  6
CONTINUOUS
 62
     7
 10
721.4524329290107
 20
1725.198646883447
 30
0.0
 70
    32
  0
VERTEX
  5
30F
  8
0
  6
CONTINUOUS
 62
     7
 10
721.4346939954087
 20
1725.198646883447
 30
0.0
 70
    32
  0
VERTEX
  5
310
  8
0
  6
CONTINUOUS
 62
     7
 10
721.4172669667184
 20
1725.198646883447
 30
0.0
 70
    32
  0
VERTEX
  5
311
  8
0
  6
CONTINUOUS
 62
     7
 10
721.3999958904842
 20
1725.198646883447
 30
0.0
 70
    32
  0
SEQEND
  5
4D7
  8
0
  6
CONTINUOUS
 62
     7
  0
LINE
  5
CE
  8
0
  6
CONTINUOUS
 62
     7
 10
723.1999958904742
 20
1726.198646883446
 30
0.0
 11
723.1999958904865
 21
1725.198646883447
 31
0.0
  0
LINE
  5
CF
  8
0
  6
CONTINUOUS
 62
     7
 10
723.3999958904649
 20
1781.198646883453
 30
0.0
 11
723.199995890465
 21
1781.198646883453
 31
0.0
  0
LINE
  5
D0
  8
0
  6
CONTINUOUS
 62
     7
 10
723.199995890465
 20
1781.198646883453
 30
0.0
 11
723.1999958904655
 21
1772.090221041197
 31
0.0
  0
POLYLINE
  5
D1
  8
0
  6
CONTINUOUS
 62
     7
 66
     1
 10
0.0
 20
0.0
 30
0.0
  0
VERTEX
  5
312
  8
0
  6
CONTINUOUS
 62
     7
 10
721.3999958904842
 20
1763.941145525108
 30
0.0
  0
VERTEX
  5
313
  8
0
  6
CONTINUOUS
 62
     7
 10
721.4088602327441
 20
1763.9323490423
 30
0.0
  0
VERTEX
  5
314
  8
0
  6
CONTINUOUS
 62
     7
 10
721.417843551637
 20
1763.923703242911
 30
0.0
  0
VERTEX
  5
315
  8
0
  6
CONTINUOUS
 62
     7
 10
721.427036577238
 20
1763.915323488326
 30
0.0
  0
VERTEX
  5
316
  8
0
  6
CONTINUOUS
 62
     7
 10
721.4364432300837
 20
1763.907216585476
 30
0.0
  0
VERTEX
  5
317
  8
0
  6
CONTINUOUS
 62
     7
 10
721.4460508089105
 20
1763.899368555902
 30
0.0
  0
VERTEX
  5
318
  8
0
  6
CONTINUOUS
 62
     7
 10
721.455846612456
 20
1763.891765421144
 30
0.0
  0
VERTEX
  5
319
  8
0
  6
CONTINUOUS
 62
     7
 10
721.4658179394565
 20
1763.884393202742
 30
0.0
  0
VERTEX
  5
31A
  8
0
  6
CONTINUOUS
 62
     7
 10
721.4759520886491
 20
1763.877237922235
 30
0.0
  0
VERTEX
  5
31B
  8
0
  6
CONTINUOUS
 62
     7
 10
721.4862363587708
 20
1763.870285601166
 30
0.0
  0
VERTEX
  5
31C
  8
0
  6
CONTINUOUS
 62
     7
 10
721.4966580485583
 20
1763.863522261072
 30
0.0
  0
VERTEX
  5
31D
  8
0
  6
CONTINUOUS
 62
     7
 10
721.5072044567481
 20
1763.856933923495
 30
0.0
  0
VERTEX
  5
31E
  8
0
  6
CONTINUOUS
 62
     7
 10
721.5178628820779
 20
1763.850506609975
 30
0.0
  0
VERTEX
  5
31F
  8
0
  6
CONTINUOUS
 62
     7
 10
721.5286206232837
 20
1763.844226342051
 30
0.0
  0
VERTEX
  5
320
  8
0
  6
CONTINUOUS
 62
     7
 10
721.539464979103
 20
1763.838079141264
 30
0.0
  0
VERTEX
  5
321
  8
0
  6
CONTINUOUS
 62
     7
 10
721.5503832482723
 20
1763.832051029153
 30
0.0
  0
VERTEX
  5
322
  8
0
  6
CONTINUOUS
 62
     7
 10
721.5613627295285
 20
1763.82612802726
 30
0.0
  0
VERTEX
  5
323
  8
0
  6
CONTINUOUS
 62
     7
 10
721.5723924904217
 20
1763.820298300169
 30
0.0
  0
VERTEX
  5
324
  8
0
  6
CONTINUOUS
 62
     7
 10
721.5834712678338
 20
1763.814561727556
 30
0.0
  0
VERTEX
  5
325
  8
0
  6
CONTINUOUS
 62
     7
 10
721.5946010861081
 20
1763.808922172097
 30
0.0
  0
VERTEX
  5
326
  8
0
  6
CONTINUOUS
 62
     7
 10
721.6057839723079
 20
1763.803383499759
 30
0.0
  0
VERTEX
  5
327
  8
0
  6
CONTINUOUS
 62
     7
 10
721.6170219534964
 20
1763.797949576514
 30
0.0
  0
VERTEX
  5
328
  8
0
  6
CONTINUOUS
 62
     7
 10
721.6283170567372
 20
1763.79262426833
 30
0.0
  0
VERTEX
  5
329
  8
0
  6
CONTINUOUS
 62
     7
 10
721.6396713090936
 20
1763.787411441177
 30
0.0
  0
VERTEX
  5
32A
  8
0
  6
CONTINUOUS
 62
     7
 10
721.6510867376286
 20
1763.782314961023
 30
0.0
  0
VERTEX
  5
32B
  8
0
  6
CONTINUOUS
 62
     7
 10
721.6625653694058
 20
1763.777338693838
 30
0.0
  0
VERTEX
  5
32C
  8
0
  6
CONTINUOUS
 62
     7
 10
721.6741092314887
 20
1763.772486505593
 30
0.0
  0
VERTEX
  5
32D
  8
0
  6
CONTINUOUS
 62
     7
 10
721.6857203509404
 20
1763.767762262256
 30
0.0
  0
VERTEX
  5
32E
  8
0
  6
CONTINUOUS
 62
     7
 10
721.6974007548243
 20
1763.763169829797
 30
0.0
  0
VERTEX
  5
32F
  8
0
  6
CONTINUOUS
 62
     7
 10
721.7091524702038
 20
1763.758713074185
 30
0.0
  0
VERTEX
  5
330
  8
0
  6
CONTINUOUS
 62
     7
 10
721.7209775241421
 20
1763.754395861389
 30
0.0
  0
VERTEX
  5
331
  8
0
  6
CONTINUOUS
 62
     7
 10
721.7328779172606
 20
1763.750222062962
 30
0.0
  0
VERTEX
  5
332
  8
0
  6
CONTINUOUS
 62
     7
 10
721.744854264738
 20
1763.74619584297
 30
0.0
  0
VERTEX
  5
333
  8
0
  6
CONTINUOUS
 62
     7
 10
721.7569051425902
 20
1763.742321796014
 30
0.0
  0
VERTEX
  5
334
  8
0
  6
CONTINUOUS
 62
     7
 10
721.769028963494
 20
1763.738604551184
 30
0.0
  0
VERTEX
  5
335
  8
0
  6
CONTINUOUS
 62
     7
 10
721.781224140125
 20
1763.735048737568
 30
0.0
  0
VERTEX
  5
336
  8
0
  6
CONTINUOUS
 62
     7
 10
721.7934890851598
 20
1763.731658984255
 30
0.0
  0
VERTEX
  5
337
  8
0
  6
CONTINUOUS
 62
     7
 10
721.8058222112738
 20
1763.728439920333
 30
0.0
  0
VERTEX
  5
338
  8
0
  6
CONTINUOUS
 62
     7
 10
721.8182219311441
 20
1763.725396174892
 30
0.0
  0
VERTEX
  5
339
  8
0
  6
CONTINUOUS
 62
     7
 10
721.8306866574461
 20
1763.72253237702
 30
0.0
  0
VERTEX
  5
33A
  8
0
  6
CONTINUOUS
 62
     7
 10
721.8432148028561
 20
1763.719853155805
 30
0.0
  0
VERTEX
  5
33B
  8
0
  6
CONTINUOUS
 62
     7
 10
721.8558047800503
 20
1763.717363140336
 30
0.0
  0
VERTEX
  5
33C
  8
0
  6
CONTINUOUS
 62
     7
 10
721.8684550017049
 20
1763.715066959703
 30
0.0
  0
VERTEX
  5
33D
  8
0
  6
CONTINUOUS
 62
     7
 10
721.8811638804958
 20
1763.712969242993
 30
0.0
  0
VERTEX
  5
33E
  8
0
  6
CONTINUOUS
 62
     7
 10
721.8939295621135
 20
1763.711072690095
 30
0.0
  0
VERTEX
  5
33F
  8
0
  6
CONTINUOUS
 62
     7
 10
721.9067483768533
 20
1763.709366883114
 30
0.0
  0
VERTEX
  5
340
  8
0
  6
CONTINUOUS
 62
     7
 10
721.919615899234
 20
1763.707835943028
 30
0.0
  0
VERTEX
  5
341
  8
0
  6
CONTINUOUS
 62
     7
 10
721.9325277012886
 20
1763.706463972845
 30
0.0
  0
VERTEX
  5
342
  8
0
  6
CONTINUOUS
 62
     7
 10
721.9454793550495
 20
1763.705235075575
 30
0.0
  0
VERTEX
  5
343
  8
0
  6
CONTINUOUS
 62
     7
 10
721.9584664325492
 20
1763.704133354228
 30
0.0
  0
VERTEX
  5
344
  8
0
  6
CONTINUOUS
 62
     7
 10
721.9714845058206
 20
1763.703142911813
 30
0.0
  0
VERTEX
  5
345
  8
0
  6
CONTINUOUS
 62
     7
 10
721.9845291468964
 20
1763.70224785134
 30
0.0
  0
VERTEX
  5
346
  8
0
  6
CONTINUOUS
 62
     7
 10
721.9975959278089
 20
1763.701432275819
 30
0.0
  0
VERTEX
  5
347
  8
0
  6
CONTINUOUS
 62
     7
 10
722.0106804205909
 20
1763.700680288259
 30
0.0
  0
VERTEX
  5
348
  8
0
  6
CONTINUOUS
 62
     7
 10
722.0237781972751
 20
1763.699975991671
 30
0.0
  0
VERTEX
  5
349
  8
0
  6
CONTINUOUS
 62
     7
 10
722.0368848298938
 20
1763.699303489062
 30
0.0
  0
VERTEX
  5
34A
  8
0
  6
CONTINUOUS
 62
     7
 10
722.04999589048
 20
1763.698646883445
 30
0.0
  0
SEQEND
  5
4D8
  8
0
  6
CONTINUOUS
 62
     7
  0
LINE
  5
D2
  8
0
  6
CONTINUOUS
 62
     7
 10
722.8999958904722
 20
1763.698646883445
 30
0.0
 11
722.04999589048
 21
1763.698646883445
 31
0.0
  0
LINE
  5
D3
  8
0
  6
CONTINUOUS
 62
     7
 10
723.3999958904741
 20
1726.198646883446
 30
0.0
 11
723.1999958904742
 21
1726.198646883446
 31
0.0
  0
LINE
  5
D4
  8
0
  6
CONTINUOUS
 62
     7
 10
723.1999958904711
 20
1735.307072725695
 30
0.0
 11
723.1999958904742
 21
1726.198646883446
 31
0.0
  0
POLYLINE
  5
D5
  8
0
  6
CONTINUOUS
 62
     7
 66
     1
 10
0.0
 20
0.0
 30
0.0
  0
VERTEX
  5
34B
  8
0
  6
CONTINUOUS
 62
     7
 10
722.0499958904691
 20
1743.698646883445
 30
0.0
  0
VERTEX
  5
34C
  8
0
  6
CONTINUOUS
 62
     7
 10
722.0271104318394
 20
1743.696371560453
 30
0.0
  0
VERTEX
  5
34D
  8
0
  6
CONTINUOUS
 62
     7
 10
722.0042449676394
 20
1743.694055309979
 30
0.0
  0
VERTEX
  5
34E
  8
0
  6
CONTINUOUS
 62
     7
 10
721.9814194922981
 20
1743.69165720454
 30
0.0
  0
VERTEX
  5
34F
  8
0
  6
CONTINUOUS
 62
     7
 10
721.9586540002455
 20
1743.689136316654
 30
0.0
  0
VERTEX
  5
350
  8
0
  6
CONTINUOUS
 62
     7
 10
721.935968485911
 20
1743.686451718839
 30
0.0
  0
VERTEX
  5
351
  8
0
  6
CONTINUOUS
 62
     7
 10
721.9133829437238
 20
1743.683562483612
 30
0.0
  0
VERTEX
  5
352
  8
0
  6
CONTINUOUS
 62
     7
 10
721.890917368114
 20
1743.680427683493
 30
0.0
  0
VERTEX
  5
353
  8
0
  6
CONTINUOUS
 62
     7
 10
721.8685917535104
 20
1743.677006390996
 30
0.0
  0
VERTEX
  5
354
  8
0
  6
CONTINUOUS
 62
     7
 10
721.8464260943431
 20
1743.673257678641
 30
0.0
  0
VERTEX
  5
355
  8
0
  6
CONTINUOUS
 62
     7
 10
721.8244403850412
 20
1743.669140618945
 30
0.0
  0
VERTEX
  5
356
  8
0
  6
CONTINUOUS
 62
     7
 10
721.8026546200344
 20
1743.664614284427
 30
0.0
  0
VERTEX
  5
357
  8
0
  6
CONTINUOUS
 62
     7
 10
721.7810887937522
 20
1743.659637747602
 30
0.0
  0
VERTEX
  5
358
  8
0
  6
CONTINUOUS
 62
     7
 10
721.7597629006241
 20
1743.654170080991
 30
0.0
  0
VERTEX
  5
359
  8
0
  6
CONTINUOUS
 62
     7
 10
721.7386969350795
 20
1743.648170357109
 30
0.0
  0
VERTEX
  5
35A
  8
0
  6
CONTINUOUS
 62
     7
 10
721.7179108915481
 20
1743.641597648475
 30
0.0
  0
VERTEX
  5
35B
  8
0
  6
CONTINUOUS
 62
     7
 10
721.6974247644592
 20
1743.634411027606
 30
0.0
  0
VERTEX
  5
35C
  8
0
  6
CONTINUOUS
 62
     7
 10
721.677254561721
 20
1743.626577727209
 30
0.0
  0
VERTEX
  5
35D
  8
0
  6
CONTINUOUS
 62
     7
 10
721.6573903165809
 20
1743.618118148667
 30
0.0
  0
VERTEX
  5
35E
  8
0
  6
CONTINUOUS
 62
     7
 10
721.6378116577287
 20
1743.609073990919
 30
0.0
  0
VERTEX
  5
35F
  8
0
  6
CONTINUOUS
 62
     7
 10
721.6184981861435
 20
1743.599487009621
 30
0.0
  0
VERTEX
  5
360
  8
0
  6
CONTINUOUS
 62
     7
 10
721.5994295028052
 20
1743.589398960432
 30
0.0
  0
VERTEX
  5
361
  8
0
  6
CONTINUOUS
 62
     7
 10
721.5805852086932
 20
1743.57885159901
 30
0.0
  0
VERTEX
  5
362
  8
0
  6
CONTINUOUS
 62
     7
 10
721.5619449047863
 20
1743.567886681011
 30
0.0
  0
VERTEX
  5
363
  8
0
  6
CONTINUOUS
 62
     7
 10
721.5434881920646
 20
1743.556545962093
 30
0.0
  0
VERTEX
  5
364
  8
0
  6
CONTINUOUS
 62
     7
 10
721.5251946715075
 20
1743.544871197915
 30
0.0
  0
VERTEX
  5
365
  8
0
  6
CONTINUOUS
 62
     7
 10
721.507043944094
 20
1743.532904144133
 30
0.0
  0
VERTEX
  5
366
  8
0
  6
CONTINUOUS
 62
     7
 10
721.489015610804
 20
1743.520686556405
 30
0.0
  0
VERTEX
  5
367
  8
0
  6
CONTINUOUS
 62
     7
 10
721.4710892726166
 20
1743.50826019039
 30
0.0
  0
VERTEX
  5
368
  8
0
  6
CONTINUOUS
 62
     7
 10
721.4532445305116
 20
1743.495666801743
 30
0.0
  0
VERTEX
  5
369
  8
0
  6
CONTINUOUS
 62
     7
 10
721.4354609854684
 20
1743.482948146124
 30
0.0
  0
VERTEX
  5
36A
  8
0
  6
CONTINUOUS
 62
     7
 10
721.417718238466
 20
1743.47014597919
 30
0.0
  0
VERTEX
  5
36B
  8
0
  6
CONTINUOUS
 62
     7
 10
721.3999958904842
 20
1743.457302056598
 30
0.0
  0
SEQEND
  5
4D9
  8
0
  6
CONTINUOUS
 62
     7
  0
LINE
  5
D6
  8
0
  6
CONTINUOUS
 62
     7
 10
722.0499958904691
 20
1743.698646883445
 30
0.0
 11
722.8999958904718
 21
1743.698646883448
 31
0.0
  0
LINE
  5
D7
  8
0
  6
CONTINUOUS
 62
     7
 10
723.3999958904627
 20
1782.198646883452
 30
0.0
 11
723.1999958904627
 21
1782.198646883452
 31
0.0
  0
LINE
  5
D8
  8
0
  6
CONTINUOUS
 62
     7
 10
723.3999958904865
 20
1725.198646883447
 30
0.0
 11
723.1999958904865
 21
1725.198646883447
 31
0.0
  0
LINE
  5
D9
  8
0
  6
CONTINUOUS
 62
     7
 10
721.3999958904864
 20
2198.198646883447
 30
0.0
 11
723.3999958904832
 21
2198.198646883448
 31
0.0
  0
LINE
  5
DA
  8
0
  6
CONTINUOUS
 62
     7
 10
723.3999958904759
 20
2185.198646883445
 30
0.0
 11
721.3999958904863
 21
2185.198646883448
 31
0.0
  0
LINE
  5
DB
  8
0
  6
CONTINUOUS
 62
     7
 10
722.1287133452898
 20
2184.248646883446
 30
0.0
 11
722.1287133452895
 21
2185.198646883448
 31
0.0
  0
LINE
  5
DC
  8
0
  6
CONTINUOUS
 62
     7
 10
722.1287133452844
 20
2198.198646883447
 30
0.0
 11
722.128713345284
 21
2199.148646883446
 31
0.0
  0
LINE
  5
DD
  8
0
  6
CONTINUOUS
 62
     7
 10
722.1287133452898
 20
2184.248646883446
 30
0.0
 11
721.3999958904864
 21
2184.248646883446
 31
0.0
  0
LINE
  5
DE
  8
0
  6
CONTINUOUS
 62
     7
 10
722.128713345284
 20
2199.148646883446
 30
0.0
 11
721.3999958904864
 21
2199.148646883446
 31
0.0
  0
LINE
  5
DF
  8
0
  6
CONTINUOUS
 62
     7
 10
722.1900828408852
 20
2184.248646883448
 30
0.0
 11
722.1900828408856
 21
2185.198646883448
 31
0.0
  0
LINE
  5
E0
  8
0
  6
CONTINUOUS
 62
     7
 10
722.1900828408898
 20
2198.198646883447
 30
0.0
 11
722.19008284089
 21
2199.148646883445
 31
0.0
  0
LINE
  5
E1
  8
0
  6
CONTINUOUS
 62
     7
 10
722.1900828408852
 20
2184.248646883448
 30
0.0
 11
722.1287133452898
 21
2184.248646883446
 31
0.0
  0
LINE
  5
E2
  8
0
  6
CONTINUOUS
 62
     7
 10
722.19008284089
 20
2199.148646883445
 30
0.0
 11
722.128713345284
 21
2199.148646883446
 31
0.0
  0
LINE
  5
E3
  8
0
  6
CONTINUOUS
 62
     7
 10
721.3999958904842
 20
1760.198646883445
 30
0.0
 11
723.3999958904708
 21
1760.198646883445
 31
0.0
  0
LINE
  5
E4
  8
0
  6
CONTINUOUS
 62
     7
 10
723.3999958904706
 20
1747.198646883443
 30
0.0
 11
721.3999958904842
 21
1747.198646883447
 31
0.0
  0
LINE
  5
E5
  8
0
  6
CONTINUOUS
 62
     7
 10
722.1287133452846
 20
1746.248646883444
 30
0.0
 11
722.1287133452843
 21
1747.198646883447
 31
0.0
  0
LINE
  5
E6
  8
0
  6
CONTINUOUS
 62
     7
 10
722.1287133452792
 20
1760.198646883445
 30
0.0
 11
722.1287133452787
 21
1761.148646883445
 31
0.0
  0
LINE
  5
E7
  8
0
  6
CONTINUOUS
 62
     7
 10
722.1287133452846
 20
1746.248646883444
 30
0.0
 11
721.3999958904842
 21
1746.248646883444
 31
0.0
  0
LINE
  5
E8
  8
0
  6
CONTINUOUS
 62
     7
 10
722.1287133452787
 20
1761.148646883445
 30
0.0
 11
721.3999958904842
 21
1761.148646883445
 31
0.0
  0
LINE
  5
E9
  8
0
  6
CONTINUOUS
 62
     7
 10
722.19008284088
 20
1746.248646883447
 30
0.0
 11
722.1900828408803
 21
1747.198646883447
 31
0.0
  0
LINE
  5
EA
  8
0
  6
CONTINUOUS
 62
     7
 10
722.1900828408844
 20
1760.198646883445
 30
0.0
 11
722.1900828408848
 21
1761.148646883443
 31
0.0
  0
LINE
  5
EB
  8
0
  6
CONTINUOUS
 62
     7
 10
722.19008284088
 20
1746.248646883447
 30
0.0
 11
722.1287133452846
 21
1746.248646883444
 31
0.0
  0
LINE
  5
EC
  8
0
  6
CONTINUOUS
 62
     7
 10
722.1900828408848
 20
1761.148646883443
 30
0.0
 11
722.1287133452787
 21
1761.148646883445
 31
0.0
  0
LINE
  5
ED
  8
0
  6
CONTINUOUS
 62
     7
 10
722.8999958904828
 20
2184.223646883446
 30
0.0
 11
722.5884300876448
 21
2184.223646883446
 31
0.0
  0
LINE
  5
EE
  8
0
  6
CONTINUOUS
 62
     7
 10
722.5884300876477
 20
2199.173646883446
 30
0.0
 11
722.5884300876476
 21
2198.198646883448
 31
0.0
  0
LINE
  5
EF
  8
0
  6
CONTINUOUS
 62
     7
 10
722.588430087645
 20
2185.198646883448
 30
0.0
 11
722.5884300876448
 21
2184.223646883446
 31
0.0
  0
LINE
  5
F0
  8
0
  6
CONTINUOUS
 62
     7
 10
722.8999958904675
 20
2199.173646883446
 30
0.0
 11
722.5884300876477
 21
2199.173646883446
 31
0.0
  0
LINE
  5
F1
  8
0
  6
CONTINUOUS
 62
     7
 10
722.5884300876448
 20
2184.223646883446
 30
0.0
 11
722.5492874931853
 21
2184.223646883446
 31
0.0
  0
LINE
  5
F2
  8
0
  6
CONTINUOUS
 62
     7
 10
722.5884300876477
 20
2199.173646883446
 30
0.0
 11
722.549287493188
 21
2199.173646883446
 31
0.0
  0
LINE
  5
F3
  8
0
  6
CONTINUOUS
 62
     7
 10
722.8999958904775
 20
1746.223646883444
 30
0.0
 11
722.5884300876395
 21
1746.223646883444
 31
0.0
  0
LINE
  5
F4
  8
0
  6
CONTINUOUS
 62
     7
 10
722.5884300876426
 20
1761.173646883444
 30
0.0
 11
722.5884300876423
 21
1760.198646883446
 31
0.0
  0
LINE
  5
F5
  8
0
  6
CONTINUOUS
 62
     7
 10
722.5884300876397
 20
1747.198646883447
 30
0.0
 11
722.5884300876395
 21
1746.223646883444
 31
0.0
  0
LINE
  5
F6
  8
0
  6
CONTINUOUS
 62
     7
 10
722.8999958904622
 20
1761.173646883444
 30
0.0
 11
722.5884300876426
 21
1761.173646883444
 31
0.0
  0
LINE
  5
F7
  8
0
  6
CONTINUOUS
 62
     7
 10
722.5884300876395
 20
1746.223646883444
 30
0.0
 11
722.54928749318
 21
1746.223646883444
 31
0.0
  0
LINE
  5
F8
  8
0
  6
CONTINUOUS
 62
     7
 10
722.5884300876426
 20
1761.173646883444
 30
0.0
 11
722.5492874931828
 21
1761.173646883444
 31
0.0
  0
LINE
  5
F9
  8
0
  6
CONTINUOUS
 62
     7
 10
738.3999958904831
 20
2271.698646883447
 30
0.0
 11
738.3999958904831
 21
1673.698646883447
 31
0.0
  0
LINE
  5
FA
  8
0
  6
CONTINUOUS
 62
     7
 10
738.3999958904831
 20
1673.698646883447
 30
0.0
 11
723.3999958904831
 21
1673.698646883447
 31
0.0
  0
LINE
  5
FB
  8
0
  6
CONTINUOUS
 62
     7
 10
723.3999958904831
 20
2271.698646883447
 30
0.0
 11
723.3999958904831
 21
1673.698646883447
 31
0.0
  0
LINE
  5
FC
  8
0
  6
CONTINUOUS
 62
     7
 10
738.3999958904831
 20
2271.698646883447
 30
0.0
 11
723.3999958904831
 21
2271.698646883447
 31
0.0
  0
LINE
  5
FD
  8
0
  6
CONTINUOUS
 62
     7
 10
721.3999958904863
 20
2266.698646883446
 30
0.0
 11
573.3999958904861
 21
2266.698646883446
 31
0.0
  0
LINE
  5
FE
  8
0
  6
CONTINUOUS
 62
     7
 10
721.3999958904863
 20
2266.698646883446
 30
0.0
 11
721.3999958904863
 21
1678.698646883447
 31
0.0
  0
LINE
  5
FF
  8
0
  6
CONTINUOUS
 62
     7
 10
721.3999958904863
 20
1678.698646883447
 30
0.0
 11
573.3999958904861
 21
1678.698646883447
 31
0.0
  0
LINE
  5
100
  8
0
  6
CONTINUOUS
 62
     7
 10
573.3999958904861
 20
2266.698646883446
 30
0.0
 11
573.3999958904861
 21
1678.698646883447
 31
0.0
  0
LINE
  5
101
  8
0
  6
CONTINUOUS
 62
     8
 10
723.1999958904702
 20
2219.198646883454
 30
0.0
 11
721.3999958904861
 21
2219.198646883455
 31
0.0
  0
LINE
  5
102
  8
0
  6
CONTINUOUS
 62
     8
 10
723.1999958904794
 20
2164.198646883447
 30
0.0
 11
721.3999958904861
 21
2164.198646883448
 31
0.0
  0
LINE
  5
103
  8
0
  6
CONTINUOUS
 62
     8
 10
722.0499958904777
 20
2200.073646883447
 30
0.0
 11
722.0499958904749
 21
2201.698646883444
 31
0.0
  0
LINE
  5
104
  8
0
  6
CONTINUOUS
 62
     8
 10
722.0499958904901
 20
2181.698646883448
 30
0.0
 11
722.0499958904774
 21
2183.323646883448
 31
0.0
  0
LINE
  5
105
  8
0
  6
CONTINUOUS
 62
     8
 10
723.199995890465
 20
1781.198646883453
 30
0.0
 11
721.3999958904861
 21
1781.198646883453
 31
0.0
  0
LINE
  5
106
  8
0
  6
CONTINUOUS
 62
     8
 10
723.1999958904742
 20
1726.198646883446
 30
0.0
 11
721.3999958904861
 21
1726.198646883447
 31
0.0
  0
LINE
  5
107
  8
0
  6
CONTINUOUS
 62
     8
 10
722.0499958904724
 20
1762.073646883445
 30
0.0
 11
722.0499958904696
 21
1763.698646883442
 31
0.0
  0
LINE
  5
108
  8
0
  6
CONTINUOUS
 62
     8
 10
722.0499958904849
 20
1743.698646883446
 30
0.0
 11
722.0499958904721
 21
1745.323646883446
 31
0.0
  0
POLYLINE
  5
109
  8
0
  6
CONTINUOUS
 62
     7
 10
0.0
 20
0.0
 30
0.0
 66
     1
 70
     8
  0
VERTEX
  5
36C
  8
0
  6
CONTINUOUS
 62
     7
 10
3973.051839640808
 20
2163.198646883448
 30
0.0
 70
    32
  0
VERTEX
  5
36D
  8
0
  6
CONTINUOUS
 62
     7
 10
3973.034570815429
 20
2163.198646883448
 30
0.0
 70
    32
  0
VERTEX
  5
36E
  8
0
  6
CONTINUOUS
 62
     7
 10
3973.017145731958
 20
2163.198646883448
 30
0.0
 70
    32
  0
VERTEX
  5
36F
  8
0
  6
CONTINUOUS
 62
     7
 10
3972.999408132306
 20
2163.198646883449
 30
0.0
 70
    32
  0
VERTEX
  5
370
  8
0
  6
CONTINUOUS
 62
     7
 10
3972.981201758377
 20
2163.198646883448
 30
0.0
 70
    32
  0
VERTEX
  5
371
  8
0
  6
CONTINUOUS
 62
     7
 10
3972.962370352084
 20
2163.198646883448
 30
0.0
 70
    32
  0
VERTEX
  5
372
  8
0
  6
CONTINUOUS
 62
     7
 10
3972.942757655334
 20
2163.198646883448
 30
0.0
 70
    32
  0
VERTEX
  5
373
  8
0
  6
CONTINUOUS
 62
     7
 10
3972.922207432046
 20
2163.198646883449
 30
0.0
 70
    32
  0
VERTEX
  5
374
  8
0
  6
CONTINUOUS
 62
     7
 10
3972.900609644427
 20
2163.198646883449
 30
0.0
 70
    32
  0
VERTEX
  5
375
  8
0
  6
CONTINUOUS
 62
     7
 10
3972.877997849105
 20
2163.198646883448
 30
0.0
 70
    32
  0
VERTEX
  5
376
  8
0
  6
CONTINUOUS
 62
     7
 10
3972.854433420325
 20
2163.198646883448
 30
0.0
 70
    32
  0
VERTEX
  5
377
  8
0
  6
CONTINUOUS
 62
     7
 10
3972.829977732322
 20
2163.198646883448
 30
0.0
 70
    32
  0
VERTEX
  5
378
  8
0
  6
CONTINUOUS
 62
     7
 10
3972.804692159345
 20
2163.198646883448
 30
0.0
 70
    32
  0
VERTEX
  5
379
  8
0
  6
CONTINUOUS
 62
     7
 10
3972.77863807563
 20
2163.198646883449
 30
0.0
 70
    32
  0
VERTEX
  5
37A
  8
0
  6
CONTINUOUS
 62
     7
 10
3972.751876855419
 20
2163.198646883448
 30
0.0
 70
    32
  0
VERTEX
  5
37B
  8
0
  6
CONTINUOUS
 62
     7
 10
3972.724469872955
 20
2163.198646883448
 30
0.0
 70
    32
  0
VERTEX
  5
37C
  8
0
  6
CONTINUOUS
 62
     7
 10
3972.696478502478
 20
2163.198646883448
 30
0.0
 70
    32
  0
VERTEX
  5
37D
  8
0
  6
CONTINUOUS
 62
     7
 10
3972.66796411823
 20
2163.198646883448
 30
0.0
 70
    32
  0
VERTEX
  5
37E
  8
0
  6
CONTINUOUS
 62
     7
 10
3972.638979467376
 20
2163.198646883448
 30
0.0
 70
    32
  0
VERTEX
  5
37F
  8
0
  6
CONTINUOUS
 62
     7
 10
3972.609535158496
 20
2163.198646883448
 30
0.0
 70
    32
  0
VERTEX
  5
380
  8
0
  6
CONTINUOUS
 62
     7
 10
3972.579628954088
 20
2163.198646883448
 30
0.0
 70
    32
  0
VERTEX
  5
381
  8
0
  6
CONTINUOUS
 62
     7
 10
3972.549258613541
 20
2163.198646883448
 30
0.0
 70
    32
  0
VERTEX
  5
382
  8
0
  6
CONTINUOUS
 62
     7
 10
3972.518421896249
 20
2163.198646883448
 30
0.0
 70
    32
  0
VERTEX
  5
383
  8
0
  6
CONTINUOUS
 62
     7
 10
3972.487116561602
 20
2163.198646883448
 30
0.0
 70
    32
  0
VERTEX
  5
384
  8
0
  6
CONTINUOUS
 62
     7
 10
3972.455340368991
 20
2163.198646883448
 30
0.0
 70
    32
  0
VERTEX
  5
385
  8
0
  6
CONTINUOUS
 62
     7
 10
3972.423091077806
 20
2163.198646883448
 30
0.0
 70
    32
  0
VERTEX
  5
386
  8
0
  6
CONTINUOUS
 62
     7
 10
3972.390366447441
 20
2163.198646883448
 30
0.0
 70
    32
  0
VERTEX
  5
387
  8
0
  6
CONTINUOUS
 62
     7
 10
3972.357164237288
 20
2163.198646883448
 30
0.0
 70
    32
  0
VERTEX
  5
388
  8
0
  6
CONTINUOUS
 62
     7
 10
3972.323483798479
 20
2163.198646883448
 30
0.0
 70
    32
  0
VERTEX
  5
389
  8
0
  6
CONTINUOUS
 62
     7
 10
3972.289336405154
 20
2163.198646883448
 30
0.0
 70
    32
  0
VERTEX
  5
38A
  8
0
  6
CONTINUOUS
 62
     7
 10
3972.254738738246
 20
2163.198646883448
 30
0.0
 70
    32
  0
VERTEX
  5
38B
  8
0
  6
CONTINUOUS
 62
     7
 10
3972.219707505555
 20
2163.198646883448
 30
0.0
 70
    32
  0
VERTEX
  5
38C
  8
0
  6
CONTINUOUS
 62
     7
 10
3972.184259414894
 20
2163.198646883448
 30
0.0
 70
    32
  0
VERTEX
  5
38D
  8
0
  6
CONTINUOUS
 62
     7
 10
3972.148411174069
 20
2163.198646883448
 30
0.0
 70
    32
  0
VERTEX
  5
38E
  8
0
  6
CONTINUOUS
 62
     7
 10
3972.112179490888
 20
2163.198646883448
 30
0.0
 70
    32
  0
VERTEX
  5
38F
  8
0
  6
CONTINUOUS
 62
     7
 10
3972.075581073158
 20
2163.198646883448
 30
0.0
 70
    32
  0
VERTEX
  5
390
  8
0
  6
CONTINUOUS
 62
     7
 10
3972.038632628685
 20
2163.198646883448
 30
0.0
 70
    32
  0
VERTEX
  5
391
  8
0
  6
CONTINUOUS
 62
     7
 10
3972.00135086528
 20
2163.198646883448
 30
0.0
 70
    32
  0
VERTEX
  5
392
  8
0
  6
CONTINUOUS
 62
     7
 10
3971.963752488744
 20
2163.198646883448
 30
0.0
 70
    32
  0
VERTEX
  5
393
  8
0
  6
CONTINUOUS
 62
     7
 10
3971.925854179602
 20
2163.198646883448
 30
0.0
 70
    32
  0
VERTEX
  5
394
  8
0
  6
CONTINUOUS
 62
     7
 10
3971.887672601095
 20
2163.198646883448
 30
0.0
 70
    32
  0
VERTEX
  5
395
  8
0
  6
CONTINUOUS
 62
     7
 10
3971.849224416128
 20
2163.198646883448
 30
0.0
 70
    32
  0
VERTEX
  5
396
  8
0
  6
CONTINUOUS
 62
     7
 10
3971.810526287601
 20
2163.198646883448
 30
0.0
 70
    32
  0
VERTEX
  5
397
  8
0
  6
CONTINUOUS
 62
     7
 10
3971.77159487842
 20
2163.198646883448
 30
0.0
 70
    32
  0
VERTEX
  5
398
  8
0
  6
CONTINUOUS
 62
     7
 10
3971.732446851489
 20
2163.198646883448
 30
0.0
 70
    32
  0
VERTEX
  5
399
  8
0
  6
CONTINUOUS
 62
     7
 10
3971.693098869713
 20
2163.198646883448
 30
0.0
 70
    32
  0
VERTEX
  5
39A
  8
0
  6
CONTINUOUS
 62
     7
 10
3971.653567595993
 20
2163.198646883447
 30
0.0
 70
    32
  0
VERTEX
  5
39B
  8
0
  6
CONTINUOUS
 62
     7
 10
3971.613869693237
 20
2163.198646883447
 30
0.0
 70
    32
  0
VERTEX
  5
39C
  8
0
  6
CONTINUOUS
 62
     7
 10
3971.574021824345
 20
2163.198646883447
 30
0.0
 70
    32
  0
VERTEX
  5
39D
  8
0
  6
CONTINUOUS
 62
     7
 10
3971.534040652221
 20
2163.198646883447
 30
0.0
 70
    32
  0
VERTEX
  5
39E
  8
0
  6
CONTINUOUS
 62
     7
 10
3971.493942839771
 20
2163.198646883447
 30
0.0
 70
    32
  0
VERTEX
  5
39F
  8
0
  6
CONTINUOUS
 62
     7
 10
3971.453745049897
 20
2163.198646883447
 30
0.0
 70
    32
  0
VERTEX
  5
3A0
  8
0
  6
CONTINUOUS
 62
     7
 10
3971.413463945506
 20
2163.198646883447
 30
0.0
 70
    32
  0
VERTEX
  5
3A1
  8
0
  6
CONTINUOUS
 62
     7
 10
3971.373116189498
 20
2163.198646883446
 30
0.0
 70
    32
  0
VERTEX
  5
3A2
  8
0
  6
CONTINUOUS
 62
     7
 10
3971.332718444778
 20
2163.198646883446
 30
0.0
 70
    32
  0
VERTEX
  5
3A3
  8
0
  6
CONTINUOUS
 62
     7
 10
3971.292287374251
 20
2163.198646883446
 30
0.0
 70
    32
  0
VERTEX
  5
3A4
  8
0
  6
CONTINUOUS
 62
     7
 10
3971.25183964082
 20
2163.198646883446
 30
0.0
 70
    32
  0
SEQEND
  5
4DA
  8
0
  6
CONTINUOUS
 62
     7
  0
LINE
  5
10A
  8
0
  6
CONTINUOUS
 62
     7
 10
3971.251839640815
 20
2164.198646883448
 30
0.0
 11
3971.25183964082
 21
2163.198646883446
 31
0.0
  0
LINE
  5
10B
  8
0
  6
CONTINUOUS
 62
     7
 10
3971.251839640811
 20
2220.198646883448
 30
0.0
 11
3971.251839640821
 21
2219.198646883446
 31
0.0
  0
POLYLINE
  5
10C
  8
0
  6
CONTINUOUS
 62
     7
 10
0.0
 20
0.0
 30
0.0
 66
     1
 70
     8
  0
VERTEX
  5
3A5
  8
0
  6
CONTINUOUS
 62
     7
 10
3971.251839640811
 20
2220.198646883448
 30
0.0
 70
    32
  0
VERTEX
  5
3A6
  8
0
  6
CONTINUOUS
 62
     7
 10
3971.292288119509
 20
2220.198646883448
 30
0.0
 70
    32
  0
VERTEX
  5
3A7
  8
0
  6
CONTINUOUS
 62
     7
 10
3971.332719931809
 20
2220.198646883448
 30
0.0
 70
    32
  0
VERTEX
  5
3A8
  8
0
  6
CONTINUOUS
 62
     7
 10
3971.373118411321
 20
2220.198646883448
 30
0.0
 70
    32
  0
VERTEX
  5
3A9
  8
0
  6
CONTINUOUS
 62
     7
 10
3971.413466891649
 20
2220.198646883448
 30
0.0
 70
    32
  0
VERTEX
  5
3AA
  8
0
  6
CONTINUOUS
 62
     7
 10
3971.453748706397
 20
2220.198646883448
 30
0.0
 70
    32
  0
VERTEX
  5
3AB
  8
0
  6
CONTINUOUS
 62
     7
 10
3971.493947189171
 20
2220.198646883448
 30
0.0
 70
    32
  0
VERTEX
  5
3AC
  8
0
  6
CONTINUOUS
 62
     7
 10
3971.534045673577
 20
2220.198646883448
 30
0.0
 70
    32
  0
VERTEX
  5
3AD
  8
0
  6
CONTINUOUS
 62
     7
 10
3971.574027493218
 20
2220.198646883448
 30
0.0
 70
    32
  0
VERTEX
  5
3AE
  8
0
  6
CONTINUOUS
 62
     7
 10
3971.613875981701
 20
2220.198646883448
 30
0.0
 70
    32
  0
VERTEX
  5
3AF
  8
0
  6
CONTINUOUS
 62
     7
 10
3971.653574472631
 20
2220.198646883448
 30
0.0
 70
    32
  0
VERTEX
  5
3B0
  8
0
  6
CONTINUOUS
 62
     7
 10
3971.693106299612
 20
2220.198646883447
 30
0.0
 70
    32
  0
VERTEX
  5
3B1
  8
0
  6
CONTINUOUS
 62
     7
 10
3971.73245479625
 20
2220.198646883448
 30
0.0
 70
    32
  0
VERTEX
  5
3B2
  8
0
  6
CONTINUOUS
 62
     7
 10
3971.771603296152
 20
2220.198646883448
 30
0.0
 70
    32
  0
VERTEX
  5
3B3
  8
0
  6
CONTINUOUS
 62
     7
 10
3971.81053513292
 20
2220.198646883448
 30
0.0
 70
    32
  0
VERTEX
  5
3B4
  8
0
  6
CONTINUOUS
 62
     7
 10
3971.84923364016
 20
2220.198646883448
 30
0.0
 70
    32
  0
VERTEX
  5
3B5
  8
0
  6
CONTINUOUS
 62
     7
 10
3971.88768215148
 20
2220.198646883448
 30
0.0
 70
    32
  0
VERTEX
  5
3B6
  8
0
  6
CONTINUOUS
 62
     7
 10
3971.925864000481
 20
2220.198646883448
 30
0.0
 70
    32
  0
VERTEX
  5
3B7
  8
0
  6
CONTINUOUS
 62
     7
 10
3971.963762520771
 20
2220.198646883448
 30
0.0
 70
    32
  0
VERTEX
  5
3B8
  8
0
  6
CONTINUOUS
 62
     7
 10
3972.001361045712
 20
2220.198646883448
 30
0.0
 70
    32
  0
VERTEX
  5
3B9
  8
0
  6
CONTINUOUS
 62
     7
 10
3972.038642896206
 20
2220.198646883448
 30
0.0
 70
    32
  0
VERTEX
  5
3BA
  8
0
  6
CONTINUOUS
 62
     7
 10
3972.075591374947
 20
2220.198646883448
 30
0.0
 70
    32
  0
VERTEX
  5
3BB
  8
0
  6
CONTINUOUS
 62
     7
 10
3972.112189783189
 20
2220.198646883448
 30
0.0
 70
    32
  0
VERTEX
  5
3BC
  8
0
  6
CONTINUOUS
 62
     7
 10
3972.148421422183
 20
2220.198646883448
 30
0.0
 70
    32
  0
VERTEX
  5
3BD
  8
0
  6
CONTINUOUS
 62
     7
 10
3972.184269593181
 20
2220.198646883448
 30
0.0
 70
    32
  0
VERTEX
  5
3BE
  8
0
  6
CONTINUOUS
 62
     7
 10
3972.219717597436
 20
2220.198646883448
 30
0.0
 70
    32
  0
VERTEX
  5
3BF
  8
0
  6
CONTINUOUS
 62
     7
 10
3972.2547487362
 20
2220.198646883448
 30
0.0
 70
    32
  0
VERTEX
  5
3C0
  8
0
  6
CONTINUOUS
 62
     7
 10
3972.289346310724
 20
2220.198646883448
 30
0.0
 70
    32
  0
VERTEX
  5
3C1
  8
0
  6
CONTINUOUS
 62
     7
 10
3972.323493622262
 20
2220.198646883448
 30
0.0
 70
    32
  0
VERTEX
  5
3C2
  8
0
  6
CONTINUOUS
 62
     7
 10
3972.357174004659
 20
2220.198646883448
 30
0.0
 70
    32
  0
VERTEX
  5
3C3
  8
0
  6
CONTINUOUS
 62
     7
 10
3972.390376351203
 20
2220.198646883448
 30
0.0
 70
    32
  0
VERTEX
  5
3C4
  8
0
  6
CONTINUOUS
 62
     7
 10
3972.423101353359
 20
2220.198646883448
 30
0.0
 70
    32
  0
VERTEX
  5
3C5
  8
0
  6
CONTINUOUS
 62
     7
 10
3972.455351209137
 20
2220.198646883448
 30
0.0
 70
    32
  0
VERTEX
  5
3C6
  8
0
  6
CONTINUOUS
 62
     7
 10
3972.487128116541
 20
2220.198646883448
 30
0.0
 70
    32
  0
VERTEX
  5
3C7
  8
0
  6
CONTINUOUS
 62
     7
 10
3972.518434273576
 20
2220.198646883448
 30
0.0
 70
    32
  0
VERTEX
  5
3C8
  8
0
  6
CONTINUOUS
 62
     7
 10
3972.54927187825
 20
2220.198646883448
 30
0.0
 70
    32
  0
VERTEX
  5
3C9
  8
0
  6
CONTINUOUS
 62
     7
 10
3972.579643128568
 20
2220.198646883448
 30
0.0
 70
    32
  0
VERTEX
  5
3CA
  8
0
  6
CONTINUOUS
 62
     7
 10
3972.609550222538
 20
2220.198646883448
 30
0.0
 70
    32
  0
VERTEX
  5
3CB
  8
0
  6
CONTINUOUS
 62
     7
 10
3972.638995358163
 20
2220.198646883448
 30
0.0
 70
    32
  0
VERTEX
  5
3CC
  8
0
  6
CONTINUOUS
 62
     7
 10
3972.667980730261
 20
2220.198646883448
 30
0.0
 70
    32
  0
VERTEX
  5
3CD
  8
0
  6
CONTINUOUS
 62
     7
 10
3972.69649566058
 20
2220.198646883448
 30
0.0
 70
    32
  0
VERTEX
  5
3CE
  8
0
  6
CONTINUOUS
 62
     7
 10
3972.724487315697
 20
2220.198646883448
 30
0.0
 70
    32
  0
VERTEX
  5
3CF
  8
0
  6
CONTINUOUS
 62
     7
 10
3972.751894246721
 20
2220.198646883448
 30
0.0
 70
    32
  0
VERTEX
  5
3D0
  8
0
  6
CONTINUOUS
 62
     7
 10
3972.778655004759
 20
2220.198646883448
 30
0.0
 70
    32
  0
VERTEX
  5
3D1
  8
0
  6
CONTINUOUS
 62
     7
 10
3972.804708140922
 20
2220.198646883448
 30
0.0
 70
    32
  0
VERTEX
  5
3D2
  8
0
  6
CONTINUOUS
 62
     7
 10
3972.829992206317
 20
2220.198646883448
 30
0.0
 70
    32
  0
VERTEX
  5
3D3
  8
0
  6
CONTINUOUS
 62
     7
 10
3972.854445752053
 20
2220.198646883448
 30
0.0
 70
    32
  0
VERTEX
  5
3D4
  8
0
  6
CONTINUOUS
 62
     7
 10
3972.87800732924
 20
2220.198646883448
 30
0.0
 70
    32
  0
VERTEX
  5
3D5
  8
0
  6
CONTINUOUS
 62
     7
 10
3972.900615488983
 20
2220.198646883448
 30
0.0
 70
    32
  0
VERTEX
  5
3D6
  8
0
  6
CONTINUOUS
 62
     7
 10
3972.922208782397
 20
2220.198646883448
 30
0.0
 70
    32
  0
VERTEX
  5
3D7
  8
0
  6
CONTINUOUS
 62
     7
 10
3972.942754847446
 20
2220.198646883448
 30
0.0
 70
    32
  0
VERTEX
  5
3D8
  8
0
  6
CONTINUOUS
 62
     7
 10
3972.962365210518
 20
2220.198646883448
 30
0.0
 70
    32
  0
VERTEX
  5
3D9
  8
0
  6
CONTINUOUS
 62
     7
 10
3972.981195811311
 20
2220.198646883448
 30
0.0
 70
    32
  0
VERTEX
  5
3DA
  8
0
  6
CONTINUOUS
 62
     7
 10
3972.999402602281
 20
2220.198646883447
 30
0.0
 70
    32
  0
VERTEX
  5
3DB
  8
0
  6
CONTINUOUS
 62
     7
 10
3973.017141535884
 20
2220.198646883448
 30
0.0
 70
    32
  0
VERTEX
  5
3DC
  8
0
  6
CONTINUOUS
 62
     7
 10
3973.034568564574
 20
2220.198646883448
 30
0.0
 70
    32
  0
VERTEX
  5
3DD
  8
0
  6
CONTINUOUS
 62
     7
 10
3973.051839640808
 20
2220.198646883448
 30
0.0
 70
    32
  0
SEQEND
  5
4DB
  8
0
  6
CONTINUOUS
 62
     7
  0
LINE
  5
10D
  8
0
  6
CONTINUOUS
 62
     7
 10
3971.251839640815
 20
2164.198646883448
 30
0.0
 11
3971.251839640821
 21
2219.198646883446
 31
0.0
  0
LINE
  5
10E
  8
0
  6
CONTINUOUS
 62
     7
 10
3971.051839640821
 20
2219.198646883446
 30
0.0
 11
3971.251839640821
 21
2219.198646883446
 31
0.0
  0
LINE
  5
10F
  8
0
  6
CONTINUOUS
 62
     7
 10
3971.051839640816
 20
2164.198646883448
 30
0.0
 11
3971.251839640815
 21
2164.198646883448
 31
0.0
  0
LINE
  5
110
  8
0
  6
CONTINUOUS
 62
     7
 10
3971.05183964082
 20
2163.198646883446
 30
0.0
 11
3971.25183964082
 21
2163.198646883446
 31
0.0
  0
LINE
  5
111
  8
0
  6
CONTINUOUS
 62
     7
 10
3971.251839640811
 20
2220.198646883448
 30
0.0
 11
3971.051839640811
 21
2220.198646883448
 31
0.0
  0
POLYLINE
  5
112
  8
0
  6
CONTINUOUS
 62
     7
 10
0.0
 20
0.0
 30
0.0
 66
     1
 70
     8
  0
VERTEX
  5
3DE
  8
0
  6
CONTINUOUS
 62
     7
 10
3973.051839640811
 20
1725.198646883447
 30
0.0
 70
    32
  0
VERTEX
  5
3DF
  8
0
  6
CONTINUOUS
 62
     7
 10
3973.034570815431
 20
1725.198646883447
 30
0.0
 70
    32
  0
VERTEX
  5
3E0
  8
0
  6
CONTINUOUS
 62
     7
 10
3973.017145731962
 20
1725.198646883447
 30
0.0
 70
    32
  0
VERTEX
  5
3E1
  8
0
  6
CONTINUOUS
 62
     7
 10
3972.999408132308
 20
1725.198646883447
 30
0.0
 70
    32
  0
VERTEX
  5
3E2
  8
0
  6
CONTINUOUS
 62
     7
 10
3972.98120175838
 20
1725.198646883447
 30
0.0
 70
    32
  0
VERTEX
  5
3E3
  8
0
  6
CONTINUOUS
 62
     7
 10
3972.962370352087
 20
1725.198646883447
 30
0.0
 70
    32
  0
VERTEX
  5
3E4
  8
0
  6
CONTINUOUS
 62
     7
 10
3972.942757655337
 20
1725.198646883446
 30
0.0
 70
    32
  0
VERTEX
  5
3E5
  8
0
  6
CONTINUOUS
 62
     7
 10
3972.922207432048
 20
1725.198646883447
 30
0.0
 70
    32
  0
VERTEX
  5
3E6
  8
0
  6
CONTINUOUS
 62
     7
 10
3972.900609644429
 20
1725.198646883446
 30
0.0
 70
    32
  0
VERTEX
  5
3E7
  8
0
  6
CONTINUOUS
 62
     7
 10
3972.877997849107
 20
1725.198646883447
 30
0.0
 70
    32
  0
VERTEX
  5
3E8
  8
0
  6
CONTINUOUS
 62
     7
 10
3972.854433420326
 20
1725.198646883447
 30
0.0
 70
    32
  0
VERTEX
  5
3E9
  8
0
  6
CONTINUOUS
 62
     7
 10
3972.829977732325
 20
1725.198646883447
 30
0.0
 70
    32
  0
VERTEX
  5
3EA
  8
0
  6
CONTINUOUS
 62
     7
 10
3972.804692159347
 20
1725.198646883447
 30
0.0
 70
    32
  0
VERTEX
  5
3EB
  8
0
  6
CONTINUOUS
 62
     7
 10
3972.778638075632
 20
1725.198646883447
 30
0.0
 70
    32
  0
VERTEX
  5
3EC
  8
0
  6
CONTINUOUS
 62
     7
 10
3972.751876855421
 20
1725.198646883447
 30
0.0
 70
    32
  0
VERTEX
  5
3ED
  8
0
  6
CONTINUOUS
 62
     7
 10
3972.724469872956
 20
1725.198646883447
 30
0.0
 70
    32
  0
VERTEX
  5
3EE
  8
0
  6
CONTINUOUS
 62
     7
 10
3972.69647850248
 20
1725.198646883447
 30
0.0
 70
    32
  0
VERTEX
  5
3EF
  8
0
  6
CONTINUOUS
 62
     7
 10
3972.667964118233
 20
1725.198646883447
 30
0.0
 70
    32
  0
VERTEX
  5
3F0
  8
0
  6
CONTINUOUS
 62
     7
 10
3972.638979467378
 20
1725.198646883447
 30
0.0
 70
    32
  0
VERTEX
  5
3F1
  8
0
  6
CONTINUOUS
 62
     7
 10
3972.609535158498
 20
1725.198646883446
 30
0.0
 70
    32
  0
VERTEX
  5
3F2
  8
0
  6
CONTINUOUS
 62
     7
 10
3972.579628954091
 20
1725.198646883447
 30
0.0
 70
    32
  0
VERTEX
  5
3F3
  8
0
  6
CONTINUOUS
 62
     7
 10
3972.549258613543
 20
1725.198646883446
 30
0.0
 70
    32
  0
VERTEX
  5
3F4
  8
0
  6
CONTINUOUS
 62
     7
 10
3972.51842189625
 20
1725.198646883446
 30
0.0
 70
    32
  0
VERTEX
  5
3F5
  8
0
  6
CONTINUOUS
 62
     7
 10
3972.487116561604
 20
1725.198646883447
 30
0.0
 70
    32
  0
VERTEX
  5
3F6
  8
0
  6
CONTINUOUS
 62
     7
 10
3972.455340368992
 20
1725.198646883447
 30
0.0
 70
    32
  0
VERTEX
  5
3F7
  8
0
  6
CONTINUOUS
 62
     7
 10
3972.42309107781
 20
1725.198646883447
 30
0.0
 70
    32
  0
VERTEX
  5
3F8
  8
0
  6
CONTINUOUS
 62
     7
 10
3972.390366447444
 20
1725.198646883447
 30
0.0
 70
    32
  0
VERTEX
  5
3F9
  8
0
  6
CONTINUOUS
 62
     7
 10
3972.357164237289
 20
1725.198646883446
 30
0.0
 70
    32
  0
VERTEX
  5
3FA
  8
0
  6
CONTINUOUS
 62
     7
 10
3972.32348379848
 20
1725.198646883447
 30
0.0
 70
    32
  0
VERTEX
  5
3FB
  8
0
  6
CONTINUOUS
 62
     7
 10
3972.289336405157
 20
1725.198646883446
 30
0.0
 70
    32
  0
VERTEX
  5
3FC
  8
0
  6
CONTINUOUS
 62
     7
 10
3972.254738738247
 20
1725.198646883447
 30
0.0
 70
    32
  0
VERTEX
  5
3FD
  8
0
  6
CONTINUOUS
 62
     7
 10
3972.219707505558
 20
1725.198646883447
 30
0.0
 70
    32
  0
VERTEX
  5
3FE
  8
0
  6
CONTINUOUS
 62
     7
 10
3972.184259414897
 20
1725.198646883447
 30
0.0
 70
    32
  0
VERTEX
  5
3FF
  8
0
  6
CONTINUOUS
 62
     7
 10
3972.148411174071
 20
1725.198646883447
 30
0.0
 70
    32
  0
VERTEX
  5
400
  8
0
  6
CONTINUOUS
 62
     7
 10
3972.11217949089
 20
1725.198646883447
 30
0.0
 70
    32
  0
VERTEX
  5
401
  8
0
  6
CONTINUOUS
 62
     7
 10
3972.075581073159
 20
1725.198646883447
 30
0.0
 70
    32
  0
VERTEX
  5
402
  8
0
  6
CONTINUOUS
 62
     7
 10
3972.038632628689
 20
1725.198646883447
 30
0.0
 70
    32
  0
VERTEX
  5
403
  8
0
  6
CONTINUOUS
 62
     7
 10
3972.001350865283
 20
1725.198646883447
 30
0.0
 70
    32
  0
VERTEX
  5
404
  8
0
  6
CONTINUOUS
 62
     7
 10
3971.963752488747
 20
1725.198646883447
 30
0.0
 70
    32
  0
VERTEX
  5
405
  8
0
  6
CONTINUOUS
 62
     7
 10
3971.925854179605
 20
1725.198646883446
 30
0.0
 70
    32
  0
VERTEX
  5
406
  8
0
  6
CONTINUOUS
 62
     7
 10
3971.887672601099
 20
1725.198646883447
 30
0.0
 70
    32
  0
VERTEX
  5
407
  8
0
  6
CONTINUOUS
 62
     7
 10
3971.849224416131
 20
1725.198646883447
 30
0.0
 70
    32
  0
VERTEX
  5
408
  8
0
  6
CONTINUOUS
 62
     7
 10
3971.810526287604
 20
1725.198646883446
 30
0.0
 70
    32
  0
VERTEX
  5
409
  8
0
  6
CONTINUOUS
 62
     7
 10
3971.771594878424
 20
1725.198646883446
 30
0.0
 70
    32
  0
VERTEX
  5
40A
  8
0
  6
CONTINUOUS
 62
     7
 10
3971.732446851493
 20
1725.198646883446
 30
0.0
 70
    32
  0
VERTEX
  5
40B
  8
0
  6
CONTINUOUS
 62
     7
 10
3971.693098869717
 20
1725.198646883446
 30
0.0
 70
    32
  0
VERTEX
  5
40C
  8
0
  6
CONTINUOUS
 62
     7
 10
3971.653567595998
 20
1725.198646883446
 30
0.0
 70
    32
  0
VERTEX
  5
40D
  8
0
  6
CONTINUOUS
 62
     7
 10
3971.613869693241
 20
1725.198646883445
 30
0.0
 70
    32
  0
VERTEX
  5
40E
  8
0
  6
CONTINUOUS
 62
     7
 10
3971.574021824349
 20
1725.198646883445
 30
0.0
 70
    32
  0
VERTEX
  5
40F
  8
0
  6
CONTINUOUS
 62
     7
 10
3971.534040652226
 20
1725.198646883445
 30
0.0
 70
    32
  0
VERTEX
  5
410
  8
0
  6
CONTINUOUS
 62
     7
 10
3971.493942839776
 20
1725.198646883445
 30
0.0
 70
    32
  0
VERTEX
  5
411
  8
0
  6
CONTINUOUS
 62
     7
 10
3971.453745049903
 20
1725.198646883445
 30
0.0
 70
    32
  0
VERTEX
  5
412
  8
0
  6
CONTINUOUS
 62
     7
 10
3971.41346394551
 20
1725.198646883445
 30
0.0
 70
    32
  0
VERTEX
  5
413
  8
0
  6
CONTINUOUS
 62
     7
 10
3971.373116189503
 20
1725.198646883445
 30
0.0
 70
    32
  0
VERTEX
  5
414
  8
0
  6
CONTINUOUS
 62
     7
 10
3971.332718444783
 20
1725.198646883444
 30
0.0
 70
    32
  0
VERTEX
  5
415
  8
0
  6
CONTINUOUS
 62
     7
 10
3971.292287374256
 20
1725.198646883444
 30
0.0
 70
    32
  0
VERTEX
  5
416
  8
0
  6
CONTINUOUS
 62
     7
 10
3971.251839640825
 20
1725.198646883444
 30
0.0
 70
    32
  0
SEQEND
  5
4DC
  8
0
  6
CONTINUOUS
 62
     7
  0
LINE
  5
113
  8
0
  6
CONTINUOUS
 62
     7
 10
3971.251839640821
 20
1726.198646883447
 30
0.0
 11
3971.251839640825
 21
1725.198646883444
 31
0.0
  0
LINE
  5
114
  8
0
  6
CONTINUOUS
 62
     7
 10
3971.251839640816
 20
1782.198646883447
 30
0.0
 11
3971.251839640826
 21
1781.198646883445
 31
0.0
  0
POLYLINE
  5
115
  8
0
  6
CONTINUOUS
 62
     7
 10
0.0
 20
0.0
 30
0.0
 66
     1
 70
     8
  0
VERTEX
  5
417
  8
0
  6
CONTINUOUS
 62
     7
 10
3971.251839640817
 20
1782.198646883447
 30
0.0
 70
    32
  0
VERTEX
  5
418
  8
0
  6
CONTINUOUS
 62
     7
 10
3971.292288119513
 20
1782.198646883447
 30
0.0
 70
    32
  0
VERTEX
  5
419
  8
0
  6
CONTINUOUS
 62
     7
 10
3971.332719931815
 20
1782.198646883446
 30
0.0
 70
    32
  0
VERTEX
  5
41A
  8
0
  6
CONTINUOUS
 62
     7
 10
3971.373118411326
 20
1782.198646883446
 30
0.0
 70
    32
  0
VERTEX
  5
41B
  8
0
  6
CONTINUOUS
 62
     7
 10
3971.413466891654
 20
1782.198646883447
 30
0.0
 70
    32
  0
VERTEX
  5
41C
  8
0
  6
CONTINUOUS
 62
     7
 10
3971.453748706401
 20
1782.198646883447
 30
0.0
 70
    32
  0
VERTEX
  5
41D
  8
0
  6
CONTINUOUS
 62
     7
 10
3971.493947189176
 20
1782.198646883447
 30
0.0
 70
    32
  0
VERTEX
  5
41E
  8
0
  6
CONTINUOUS
 62
     7
 10
3971.53404567358
 20
1782.198646883447
 30
0.0
 70
    32
  0
VERTEX
  5
41F
  8
0
  6
CONTINUOUS
 62
     7
 10
3971.574027493222
 20
1782.198646883447
 30
0.0
 70
    32
  0
VERTEX
  5
420
  8
0
  6
CONTINUOUS
 62
     7
 10
3971.613875981706
 20
1782.198646883447
 30
0.0
 70
    32
  0
VERTEX
  5
421
  8
0
  6
CONTINUOUS
 62
     7
 10
3971.653574472635
 20
1782.198646883446
 30
0.0
 70
    32
  0
VERTEX
  5
422
  8
0
  6
CONTINUOUS
 62
     7
 10
3971.693106299615
 20
1782.198646883447
 30
0.0
 70
    32
  0
VERTEX
  5
423
  8
0
  6
CONTINUOUS
 62
     7
 10
3971.732454796255
 20
1782.198646883447
 30
0.0
 70
    32
  0
VERTEX
  5
424
  8
0
  6
CONTINUOUS
 62
     7
 10
3971.771603296155
 20
1782.198646883446
 30
0.0
 70
    32
  0
VERTEX
  5
425
  8
0
  6
CONTINUOUS
 62
     7
 10
3971.810535132923
 20
1782.198646883446
 30
0.0
 70
    32
  0
VERTEX
  5
426
  8
0
  6
CONTINUOUS
 62
     7
 10
3971.849233640164
 20
1782.198646883446
 30
0.0
 70
    32
  0
VERTEX
  5
427
  8
0
  6
CONTINUOUS
 62
     7
 10
3971.887682151483
 20
1782.198646883447
 30
0.0
 70
    32
  0
VERTEX
  5
428
  8
0
  6
CONTINUOUS
 62
     7
 10
3971.925864000485
 20
1782.198646883446
 30
0.0
 70
    32
  0
VERTEX
  5
429
  8
0
  6
CONTINUOUS
 62
     7
 10
3971.963762520774
 20
1782.198646883447
 30
0.0
 70
    32
  0
VERTEX
  5
42A
  8
0
  6
CONTINUOUS
 62
     7
 10
3972.001361045714
 20
1782.198646883446
 30
0.0
 70
    32
  0
VERTEX
  5
42B
  8
0
  6
CONTINUOUS
 62
     7
 10
3972.038642896209
 20
1782.198646883447
 30
0.0
 70
    32
  0
VERTEX
  5
42C
  8
0
  6
CONTINUOUS
 62
     7
 10
3972.07559137495
 20
1782.198646883447
 30
0.0
 70
    32
  0
VERTEX
  5
42D
  8
0
  6
CONTINUOUS
 62
     7
 10
3972.11218978319
 20
1782.198646883446
 30
0.0
 70
    32
  0
VERTEX
  5
42E
  8
0
  6
CONTINUOUS
 62
     7
 10
3972.148421422185
 20
1782.198646883446
 30
0.0
 70
    32
  0
VERTEX
  5
42F
  8
0
  6
CONTINUOUS
 62
     7
 10
3972.184269593184
 20
1782.198646883446
 30
0.0
 70
    32
  0
VERTEX
  5
430
  8
0
  6
CONTINUOUS
 62
     7
 10
3972.219717597439
 20
1782.198646883446
 30
0.0
 70
    32
  0
VERTEX
  5
431
  8
0
  6
CONTINUOUS
 62
     7
 10
3972.254748736203
 20
1782.198646883446
 30
0.0
 70
    32
  0
VERTEX
  5
432
  8
0
  6
CONTINUOUS
 62
     7
 10
3972.289346310727
 20
1782.198646883446
 30
0.0
 70
    32
  0
VERTEX
  5
433
  8
0
  6
CONTINUOUS
 62
     7
 10
3972.323493622264
 20
1782.198646883446
 30
0.0
 70
    32
  0
VERTEX
  5
434
  8
0
  6
CONTINUOUS
 62
     7
 10
3972.357174004661
 20
1782.198646883446
 30
0.0
 70
    32
  0
VERTEX
  5
435
  8
0
  6
CONTINUOUS
 62
     7
 10
3972.390376351204
 20
1782.198646883446
 30
0.0
 70
    32
  0
VERTEX
  5
436
  8
0
  6
CONTINUOUS
 62
     7
 10
3972.423101353363
 20
1782.198646883447
 30
0.0
 70
    32
  0
VERTEX
  5
437
  8
0
  6
CONTINUOUS
 62
     7
 10
3972.455351209139
 20
1782.198646883446
 30
0.0
 70
    32
  0
VERTEX
  5
438
  8
0
  6
CONTINUOUS
 62
     7
 10
3972.487128116543
 20
1782.198646883447
 30
0.0
 70
    32
  0
VERTEX
  5
439
  8
0
  6
CONTINUOUS
 62
     7
 10
3972.518434273578
 20
1782.198646883446
 30
0.0
 70
    32
  0
VERTEX
  5
43A
  8
0
  6
CONTINUOUS
 62
     7
 10
3972.549271878252
 20
1782.198646883446
 30
0.0
 70
    32
  0
VERTEX
  5
43B
  8
0
  6
CONTINUOUS
 62
     7
 10
3972.579643128571
 20
1782.198646883446
 30
0.0
 70
    32
  0
VERTEX
  5
43C
  8
0
  6
CONTINUOUS
 62
     7
 10
3972.609550222539
 20
1782.198646883446
 30
0.0
 70
    32
  0
VERTEX
  5
43D
  8
0
  6
CONTINUOUS
 62
     7
 10
3972.638995358165
 20
1782.198646883446
 30
0.0
 70
    32
  0
VERTEX
  5
43E
  8
0
  6
CONTINUOUS
 62
     7
 10
3972.667980730262
 20
1782.198646883446
 30
0.0
 70
    32
  0
VERTEX
  5
43F
  8
0
  6
CONTINUOUS
 62
     7
 10
3972.696495660582
 20
1782.198646883447
 30
0.0
 70
    32
  0
VERTEX
  5
440
  8
0
  6
CONTINUOUS
 62
     7
 10
3972.724487315699
 20
1782.198646883447
 30
0.0
 70
    32
  0
VERTEX
  5
441
  8
0
  6
CONTINUOUS
 62
     7
 10
3972.751894246723
 20
1782.198646883447
 30
0.0
 70
    32
  0
VERTEX
  5
442
  8
0
  6
CONTINUOUS
 62
     7
 10
3972.77865500476
 20
1782.198646883446
 30
0.0
 70
    32
  0
VERTEX
  5
443
  8
0
  6
CONTINUOUS
 62
     7
 10
3972.804708140923
 20
1782.198646883446
 30
0.0
 70
    32
  0
VERTEX
  5
444
  8
0
  6
CONTINUOUS
 62
     7
 10
3972.829992206318
 20
1782.198646883446
 30
0.0
 70
    32
  0
VERTEX
  5
445
  8
0
  6
CONTINUOUS
 62
     7
 10
3972.854445752055
 20
1782.198646883446
 30
0.0
 70
    32
  0
VERTEX
  5
446
  8
0
  6
CONTINUOUS
 62
     7
 10
3972.878007329241
 20
1782.198646883446
 30
0.0
 70
    32
  0
VERTEX
  5
447
  8
0
  6
CONTINUOUS
 62
     7
 10
3972.900615488986
 20
1782.198646883446
 30
0.0
 70
    32
  0
VERTEX
  5
448
  8
0
  6
CONTINUOUS
 62
     7
 10
3972.922208782399
 20
1782.198646883446
 30
0.0
 70
    32
  0
VERTEX
  5
449
  8
0
  6
CONTINUOUS
 62
     7
 10
3972.942754847448
 20
1782.198646883446
 30
0.0
 70
    32
  0
VERTEX
  5
44A
  8
0
  6
CONTINUOUS
 62
     7
 10
3972.962365210521
 20
1782.198646883446
 30
0.0
 70
    32
  0
VERTEX
  5
44B
  8
0
  6
CONTINUOUS
 62
     7
 10
3972.981195811315
 20
1782.198646883447
 30
0.0
 70
    32
  0
VERTEX
  5
44C
  8
0
  6
CONTINUOUS
 62
     7
 10
3972.999402602285
 20
1782.198646883446
 30
0.0
 70
    32
  0
VERTEX
  5
44D
  8
0
  6
CONTINUOUS
 62
     7
 10
3973.017141535886
 20
1782.198646883446
 30
0.0
 70
    32
  0
VERTEX
  5
44E
  8
0
  6
CONTINUOUS
 62
     7
 10
3973.034568564577
 20
1782.198646883446
 30
0.0
 70
    32
  0
VERTEX
  5
44F
  8
0
  6
CONTINUOUS
 62
     7
 10
3973.051839640811
 20
1782.198646883446
 30
0.0
 70
    32
  0
SEQEND
  5
4DD
  8
0
  6
CONTINUOUS
 62
     7
  0
LINE
  5
116
  8
0
  6
CONTINUOUS
 62
     7
 10
3971.251839640821
 20
1726.198646883447
 30
0.0
 11
3971.251839640826
 21
1781.198646883445
 31
0.0
  0
LINE
  5
117
  8
0
  6
CONTINUOUS
 62
     7
 10
3971.051839640827
 20
1781.198646883445
 30
0.0
 11
3971.251839640826
 21
1781.198646883445
 31
0.0
  0
LINE
  5
118
  8
0
  6
CONTINUOUS
 62
     7
 10
3971.051839640821
 20
1726.198646883447
 30
0.0
 11
3971.251839640821
 21
1726.198646883447
 31
0.0
  0
LINE
  5
119
  8
0
  6
CONTINUOUS
 62
     7
 10
3971.051839640826
 20
1725.198646883444
 30
0.0
 11
3971.251839640825
 21
1725.198646883444
 31
0.0
  0
LINE
  5
11A
  8
0
  6
CONTINUOUS
 62
     7
 10
3971.251839640816
 20
1782.198646883447
 30
0.0
 11
3971.051839640817
 21
1782.198646883447
 31
0.0
  0
LINE
  5
11B
  8
0
  6
CONTINUOUS
 62
     7
 10
3956.051839640814
 20
1673.698646883447
 30
0.0
 11
3971.051839640813
 21
1673.698646883447
 31
0.0
  0
LINE
  5
11C
  8
0
  6
CONTINUOUS
 62
     7
 10
3956.051839640814
 20
2271.698646883447
 30
0.0
 11
3971.051839640813
 21
2271.698646883447
 31
0.0
  0
LINE
  5
11D
  8
0
  6
CONTINUOUS
 62
     7
 10
3971.051839640813
 20
1673.698646883447
 30
0.0
 11
3971.051839640813
 21
2271.698646883447
 31
0.0
  0
LINE
  5
11E
  8
0
  6
CONTINUOUS
 62
     7
 10
3956.051839640814
 20
1673.698646883447
 30
0.0
 11
3956.051839640814
 21
2271.698646883447
 31
0.0
  0
LINE
  5
11F
  8
0
  6
CONTINUOUS
 62
     7
 10
3973.051839640811
 20
1678.698646883447
 30
0.0
 11
4121.051839640811
 21
1678.698646883447
 31
0.0
  0
LINE
  5
120
  8
0
  6
CONTINUOUS
 62
     7
 10
3973.051839640811
 20
1678.698646883447
 30
0.0
 11
3973.051839640811
 21
2266.698646883446
 31
0.0
  0
LINE
  5
121
  8
0
  6
CONTINUOUS
 62
     7
 10
3973.051839640811
 20
2266.698646883446
 30
0.0
 11
4121.051839640811
 21
2266.698646883446
 31
0.0
  0
LINE
  5
122
  8
0
  6
CONTINUOUS
 62
     7
 10
4121.051839640811
 20
1678.698646883447
 30
0.0
 11
4121.051839640811
 21
2266.698646883446
 31
0.0
  0
LINE
  5
123
  8
0
  6
CONTINUOUS
 62
     8
 10
3971.251839640815
 20
2164.198646883448
 30
0.0
 11
3973.051839640809
 21
2164.198646883448
 31
0.0
  0
LINE
  5
124
  8
0
  6
CONTINUOUS
 62
     8
 10
3973.051839640809
 20
2219.198646883445
 30
0.0
 11
3971.251839640821
 21
2219.198646883446
 31
0.0
  0
LINE
  5
125
  8
0
  6
CONTINUOUS
 62
     8
 10
3971.251839640821
 20
1726.198646883447
 30
0.0
 11
3973.051839640809
 21
1726.198646883446
 31
0.0
  0
LINE
  5
126
  8
0
  6
CONTINUOUS
 62
     8
 10
3973.051839640809
 20
1781.198646883444
 30
0.0
 11
3971.251839640826
 21
1781.198646883445
 31
0.0
  0
LINE
  5
127
  8
0
  6
CONTINUOUS
 62
     7
 10
2721.225314509652
 20
3007.686457349617
 30
0.0
 11
2157.725314509652
 21
3007.686457349617
 31
0.0
  0
LINE
  5
128
  8
0
  6
CONTINUOUS
 62
     7
 10
2721.225314509652
 20
2860.186457349617
 30
0.0
 11
2157.725314509652
 21
2860.186457349617
 31
0.0
  0
LINE
  5
129
  8
0
  6
CONTINUOUS
 62
     7
 10
2181.22531451399
 20
2857.886457349618
 30
0.0
 11
2181.22531451399
 21
2857.686457349618
 31
0.0
  0
LINE
  5
12A
  8
0
  6
CONTINUOUS
 62
     7
 10
2161.225314513988
 20
2857.686457349635
 30
0.0
 11
2161.225314513988
 21
2857.886457349636
 31
0.0
  0
POLYLINE
  5
12B
  8
0
  6
CONTINUOUS
 62
     7
 66
     1
 10
0.0
 20
0.0
 30
0.0
  0
VERTEX
  5
450
  8
0
  6
CONTINUOUS
 62
     7
 10
2163.225314513989
 20
2859.886457349616
 30
0.0
  0
VERTEX
  5
451
  8
0
  6
CONTINUOUS
 62
     7
 10
2163.176082860175
 20
2859.88118212022
 30
0.0
  0
VERTEX
  5
452
  8
0
  6
CONTINUOUS
 62
     7
 10
2163.126881770143
 20
2859.875807123635
 30
0.0
  0
VERTEX
  5
453
  8
0
  6
CONTINUOUS
 62
     7
 10
2163.07774180768
 20
2859.870232592672
 30
0.0
  0
VERTEX
  5
454
  8
0
  6
CONTINUOUS
 62
     7
 10
2163.02869353657
 20
2859.864358760145
 30
0.0
  0
VERTEX
  5
455
  8
0
  6
CONTINUOUS
 62
     7
 10
2162.979767520594
 20
2859.858085858862
 30
0.0
  0
VERTEX
  5
456
  8
0
  6
CONTINUOUS
 62
     7
 10
2162.930994323538
 20
2859.851314121636
 30
0.0
  0
VERTEX
  5
457
  8
0
  6
CONTINUOUS
 62
     7
 10
2162.882404509186
 20
2859.843943781278
 30
0.0
  0
VERTEX
  5
458
  8
0
  6
CONTINUOUS
 62
     7
 10
2162.834028641321
 20
2859.835875070599
 30
0.0
  0
VERTEX
  5
459
  8
0
  6
CONTINUOUS
 62
     7
 10
2162.785897283727
 20
2859.827008222411
 30
0.0
  0
VERTEX
  5
45A
  8
0
  6
CONTINUOUS
 62
     7
 10
2162.738041000188
 20
2859.817243469526
 30
0.0
  0
VERTEX
  5
45B
  8
0
  6
CONTINUOUS
 62
     7
 10
2162.690490354489
 20
2859.806481044754
 30
0.0
  0
VERTEX
  5
45C
  8
0
  6
CONTINUOUS
 62
     7
 10
2162.643275910412
 20
2859.794621180907
 30
0.0
  0
VERTEX
  5
45D
  8
0
  6
CONTINUOUS
 62
     7
 10
2162.596428231742
 20
2859.781564110795
 30
0.0
  0
VERTEX
  5
45E
  8
0
  6
CONTINUOUS
 62
     7
 10
2162.549977882264
 20
2859.767210067232
 30
0.0
  0
VERTEX
  5
45F
  8
0
  6
CONTINUOUS
 62
     7
 10
2162.503955425761
 20
2859.751459283028
 30
0.0
  0
VERTEX
  5
460
  8
0
  6
CONTINUOUS
 62
     7
 10
2162.458391054653
 20
2859.734220888932
 30
0.0
  0
VERTEX
  5
461
  8
0
  6
CONTINUOUS
 62
     7
 10
2162.413310782057
 20
2859.715504152856
 30
0.0
  0
VERTEX
  5
462
  8
0
  6
CONTINUOUS
 62
     7
 10
2162.368737988777
 20
2859.69538141348
 30
0.0
  0
VERTEX
  5
463
  8
0
  6
CONTINUOUS
 62
     7
 10
2162.32469601454
 20
2859.673925993859
 30
0.0
  0
VERTEX
  5
464
  8
0
  6
CONTINUOUS
 62
     7
 10
2162.281208199064
 20
2859.651211217042
 30
0.0
  0
VERTEX
  5
465
  8
0
  6
CONTINUOUS
 62
     7
 10
2162.238297882073
 20
2859.627310406082
 30
0.0
  0
VERTEX
  5
466
  8
0
  6
CONTINUOUS
 62
     7
 10
2162.195988403291
 20
2859.602296884028
 30
0.0
  0
VERTEX
  5
467
  8
0
  6
CONTINUOUS
 62
     7
 10
2162.154303102438
 20
2859.576243973931
 30
0.0
  0
VERTEX
  5
468
  8
0
  6
CONTINUOUS
 62
     7
 10
2162.113265321072
 20
2859.549224551383
 30
0.0
  0
VERTEX
  5
469
  8
0
  6
CONTINUOUS
 62
     7
 10
2162.072898503282
 20
2859.521286475341
 30
0.0
  0
VERTEX
  5
46A
  8
0
  6
CONTINUOUS
 62
     7
 10
2162.03322624792
 20
2859.492439846782
 30
0.0
  0
VERTEX
  5
46B
  8
0
  6
CONTINUOUS
 62
     7
 10
2161.994272166668
 20
2859.462691634792
 30
0.0
  0
VERTEX
  5
46C
  8
0
  6
CONTINUOUS
 62
     7
 10
2161.956059871211
 20
2859.432048808457
 30
0.0
  0
VERTEX
  5
46D
  8
0
  6
CONTINUOUS
 62
     7
 10
2161.918612973234
 20
2859.400518336866
 30
0.0
  0
VERTEX
  5
46E
  8
0
  6
CONTINUOUS
 62
     7
 10
2161.881955084422
 20
2859.368107189105
 30
0.0
  0
VERTEX
  5
46F
  8
0
  6
CONTINUOUS
 62
     7
 10
2161.84610981646
 20
2859.33482233426
 30
0.0
  0
VERTEX
  5
470
  8
0
  6
CONTINUOUS
 62
     7
 10
2161.811100781031
 20
2859.30067074142
 30
0.0
  0
VERTEX
  5
471
  8
0
  6
CONTINUOUS
 62
     7
 10
2161.776948811005
 20
2859.265662148619
 30
0.0
  0
VERTEX
  5
472
  8
0
  6
CONTINUOUS
 62
     7
 10
2161.743663624152
 20
2859.229817369531
 30
0.0
  0
VERTEX
  5
473
  8
0
  6
CONTINUOUS
 62
     7
 10
2161.711252159509
 20
2859.19315998669
 30
0.0
  0
VERTEX
  5
474
  8
0
  6
CONTINUOUS
 62
     7
 10
2161.679721356112
 20
2859.155713582636
 30
0.0
  0
VERTEX
  5
475
  8
0
  6
CONTINUOUS
 62
     7
 10
2161.649078152997
 20
2859.117501739906
 30
0.0
  0
VERTEX
  5
476
  8
0
  6
CONTINUOUS
 62
     7
 10
2161.619329489202
 20
2859.078548041039
 30
0.0
  0
VERTEX
  5
477
  8
0
  6
CONTINUOUS
 62
     7
 10
2161.590482303762
 20
2859.038876068571
 30
0.0
  0
VERTEX
  5
478
  8
0
  6
CONTINUOUS
 62
     7
 10
2161.562543535715
 20
2858.998509405043
 30
0.0
  0
VERTEX
  5
479
  8
0
  6
CONTINUOUS
 62
     7
 10
2161.535523412678
 20
2858.957471622399
 30
0.0
  0
VERTEX
  5
47A
  8
0
  6
CONTINUOUS
 62
     7
 10
2161.509470255402
 20
2858.915786169891
 30
0.0
  0
VERTEX
  5
47B
  8
0
  6
CONTINUOUS
 62
     7
 10
2161.484456896128
 20
2858.873476417824
 30
0.0
  0
VERTEX
  5
47C
  8
0
  6
CONTINUOUS
 62
     7
 10
2161.460556572721
 20
2858.830565735197
 30
0.0
  0
VERTEX
  5
47D
  8
0
  6
CONTINUOUS
 62
     7
 10
2161.43784252305
 20
2858.787077491005
 30
0.0
  0
VERTEX
  5
47E
  8
0
  6
CONTINUOUS
 62
     7
 10
2161.416387984981
 20
2858.743035054247
 30
0.0
  0
VERTEX
  5
47F
  8
0
  6
CONTINUOUS
 62
     7
 10
2161.396266196381
 20
2858.69846179392
 30
0.0
  0
VERTEX
  5
480
  8
0
  6
CONTINUOUS
 62
     7
 10
2161.37755039512
 20
2858.653381079022
 30
0.0
  0
VERTEX
  5
481
  8
0
  6
CONTINUOUS
 62
     7
 10
2161.360312835237
 20
2858.607816319441
 30
0.0
  0
VERTEX
  5
482
  8
0
  6
CONTINUOUS
 62
     7
 10
2161.344562734816
 20
2858.561793544951
 30
0.0
  0
VERTEX
  5
483
  8
0
  6
CONTINUOUS
 62
     7
 10
2161.33020923005
 20
2858.51534294491
 30
0.0
  0
VERTEX
  5
484
  8
0
  6
CONTINUOUS
 62
     7
 10
2161.317152564109
 20
2858.468495078285
 30
0.0
  0
VERTEX
  5
485
  8
0
  6
CONTINUOUS
 62
     7
 10
2161.305292980158
 20
2858.421280504046
 30
0.0
  0
VERTEX
  5
486
  8
0
  6
CONTINUOUS
 62
     7
 10
2161.294530721366
 20
2858.373729781159
 30
0.0
  0
VERTEX
  5
487
  8
0
  6
CONTINUOUS
 62
     7
 10
2161.284766030899
 20
2858.325873468593
 30
0.0
  0
VERTEX
  5
488
  8
0
  6
CONTINUOUS
 62
     7
 10
2161.275899151926
 20
2858.277742125315
 30
0.0
  0
VERTEX
  5
489
  8
0
  6
CONTINUOUS
 62
     7
 10
2161.267830327613
 20
2858.229366310294
 30
0.0
  0
VERTEX
  5
48A
  8
0
  6
CONTINUOUS
 62
     7
 10
2161.260459801129
 20
2858.180776582497
 30
0.0
  0
VERTEX
  5
48B
  8
0
  6
CONTINUOUS
 62
     7
 10
2161.253687815641
 20
2858.132003500893
 30
0.0
  0
VERTEX
  5
48C
  8
0
  6
CONTINUOUS
 62
     7
 10
2161.247414614315
 20
2858.083077624449
 30
0.0
  0
VERTEX
  5
48D
  8
0
  6
CONTINUOUS
 62
     7
 10
2161.241540440319
 20
2858.034029512134
 30
0.0
  0
VERTEX
  5
48E
  8
0
  6
CONTINUOUS
 62
     7
 10
2161.235965536821
 20
2857.984889722915
 30
0.0
  0
VERTEX
  5
48F
  8
0
  6
CONTINUOUS
 62
     7
 10
2161.230590146989
 20
2857.935688815759
 30
0.0
  0
VERTEX
  5
490
  8
0
  6
CONTINUOUS
 62
     7
 10
2161.225314513988
 20
2857.886457349636
 30
0.0
  0
SEQEND
  5
4DE
  8
0
  6
CONTINUOUS
 62
     7
  0
LINE
  5
12C
  8
0
  6
CONTINUOUS
 62
     7
 10
2179.225314513989
 20
2859.886457349628
 30
0.0
 11
2163.225314513989
 21
2859.886457349616
 31
0.0
  0
POLYLINE
  5
12D
  8
0
  6
CONTINUOUS
 62
     7
 66
     1
 10
0.0
 20
0.0
 30
0.0
  0
VERTEX
  5
491
  8
0
  6
CONTINUOUS
 62
     7
 10
2181.22531451399
 20
2857.886457349618
 30
0.0
  0
VERTEX
  5
492
  8
0
  6
CONTINUOUS
 62
     7
 10
2181.220039284593
 20
2857.935689003433
 30
0.0
  0
VERTEX
  5
493
  8
0
  6
CONTINUOUS
 62
     7
 10
2181.214664288006
 20
2857.984890093463
 30
0.0
  0
VERTEX
  5
494
  8
0
  6
CONTINUOUS
 62
     7
 10
2181.209089757044
 20
2858.034030055927
 30
0.0
  0
VERTEX
  5
495
  8
0
  6
CONTINUOUS
 62
     7
 10
2181.203215924514
 20
2858.083078327038
 30
0.0
  0
VERTEX
  5
496
  8
0
  6
CONTINUOUS
 62
     7
 10
2181.196943023231
 20
2858.132004343014
 30
0.0
  0
VERTEX
  5
497
  8
0
  6
CONTINUOUS
 62
     7
 10
2181.190171286003
 20
2858.18077754007
 30
0.0
  0
VERTEX
  5
498
  8
0
  6
CONTINUOUS
 62
     7
 10
2181.182800945645
 20
2858.229367354423
 30
0.0
  0
VERTEX
  5
499
  8
0
  6
CONTINUOUS
 62
     7
 10
2181.174732234966
 20
2858.277743222287
 30
0.0
  0
VERTEX
  5
49A
  8
0
  6
CONTINUOUS
 62
     7
 10
2181.165865386778
 20
2858.325874579882
 30
0.0
  0
VERTEX
  5
49B
  8
0
  6
CONTINUOUS
 62
     7
 10
2181.156100633891
 20
2858.37373086342
 30
0.0
  0
VERTEX
  5
49C
  8
0
  6
CONTINUOUS
 62
     7
 10
2181.145338209119
 20
2858.42128150912
 30
0.0
  0
VERTEX
  5
49D
  8
0
  6
CONTINUOUS
 62
     7
 10
2181.133478345271
 20
2858.468495953197
 30
0.0
  0
VERTEX
  5
49E
  8
0
  6
CONTINUOUS
 62
     7
 10
2181.120421275159
 20
2858.515343631866
 30
0.0
  0
VERTEX
  5
49F
  8
0
  6
CONTINUOUS
 62
     7
 10
2181.106067231595
 20
2858.561793981345
 30
0.0
  0
VERTEX
  5
4A0
  8
0
  6
CONTINUOUS
 62
     7
 10
2181.09031644739
 20
2858.60781643785
 30
0.0
  0
VERTEX
  5
4A1
  8
0
  6
CONTINUOUS
 62
     7
 10
2181.073078053295
 20
2858.653380808958
 30
0.0
  0
VERTEX
  5
4A2
  8
0
  6
CONTINUOUS
 62
     7
 10
2181.054361317218
 20
2858.698461081553
 30
0.0
  0
VERTEX
  5
4A3
  8
0
  6
CONTINUOUS
 62
     7
 10
2181.034238577844
 20
2858.743033874832
 30
0.0
  0
VERTEX
  5
4A4
  8
0
  6
CONTINUOUS
 62
     7
 10
2181.012783158222
 20
2858.787075849071
 30
0.0
  0
VERTEX
  5
4A5
  8
0
  6
CONTINUOUS
 62
     7
 10
2180.990068381405
 20
2858.830563664547
 30
0.0
  0
VERTEX
  5
4A6
  8
0
  6
CONTINUOUS
 62
     7
 10
2180.966167570444
 20
2858.873473981538
 30
0.0
  0
VERTEX
  5
4A7
  8
0
  6
CONTINUOUS
 62
     7
 10
2180.94115404839
 20
2858.915783460321
 30
0.0
  0
VERTEX
  5
4A8
  8
0
  6
CONTINUOUS
 62
     7
 10
2180.915101138295
 20
2858.957468761174
 30
0.0
  0
VERTEX
  5
4A9
  8
0
  6
CONTINUOUS
 62
     7
 10
2180.888081715745
 20
2858.99850654254
 30
0.0
  0
VERTEX
  5
4AA
  8
0
  6
CONTINUOUS
 62
     7
 10
2180.860143639704
 20
2859.038873360329
 30
0.0
  0
VERTEX
  5
4AB
  8
0
  6
CONTINUOUS
 62
     7
 10
2180.831297011144
 20
2859.078545615692
 30
0.0
  0
VERTEX
  5
4AC
  8
0
  6
CONTINUOUS
 62
     7
 10
2180.801548799154
 20
2859.117499696944
 30
0.0
  0
VERTEX
  5
4AD
  8
0
  6
CONTINUOUS
 62
     7
 10
2180.770905972819
 20
2859.155711992402
 30
0.0
  0
VERTEX
  5
4AE
  8
0
  6
CONTINUOUS
 62
     7
 10
2180.739375501228
 20
2859.193158890379
 30
0.0
  0
VERTEX
  5
4AF
  8
0
  6
CONTINUOUS
 62
     7
 10
2180.706964353467
 20
2859.229816779191
 30
0.0
  0
VERTEX
  5
4B0
  8
0
  6
CONTINUOUS
 62
     7
 10
2180.673679498622
 20
2859.265662047154
 30
0.0
  0
VERTEX
  5
4B1
  8
0
  6
CONTINUOUS
 62
     7
 10
2180.639527905782
 20
2859.300671082583
 30
0.0
  0
VERTEX
  5
4B2
  8
0
  6
CONTINUOUS
 62
     7
 10
2180.604519312981
 20
2859.334823052609
 30
0.0
  0
VERTEX
  5
4B3
  8
0
  6
CONTINUOUS
 62
     7
 10
2180.568674533892
 20
2859.368108239463
 30
0.0
  0
VERTEX
  5
4B4
  8
0
  6
CONTINUOUS
 62
     7
 10
2180.532017151051
 20
2859.400519704106
 30
0.0
  0
VERTEX
  5
4B5
  8
0
  6
CONTINUOUS
 62
     7
 10
2180.494570746996
 20
2859.432050507504
 30
0.0
  0
VERTEX
  5
4B6
  8
0
  6
CONTINUOUS
 62
     7
 10
2180.456358904267
 20
2859.462693710619
 30
0.0
  0
VERTEX
  5
4B7
  8
0
  6
CONTINUOUS
 62
     7
 10
2180.4174052054
 20
2859.492442374415
 30
0.0
  0
VERTEX
  5
4B8
  8
0
  6
CONTINUOUS
 62
     7
 10
2180.377733232932
 20
2859.521289559854
 30
0.0
  0
VERTEX
  5
4B9
  8
0
  6
CONTINUOUS
 62
     7
 10
2180.337366569404
 20
2859.549228327901
 30
0.0
  0
VERTEX
  5
4BA
  8
0
  6
CONTINUOUS
 62
     7
 10
2180.296328786759
 20
2859.576248450938
 30
0.0
  0
VERTEX
  5
4BB
  8
0
  6
CONTINUOUS
 62
     7
 10
2180.254643334251
 20
2859.602301608214
 30
0.0
  0
VERTEX
  5
4BC
  8
0
  6
CONTINUOUS
 62
     7
 10
2180.212333582184
 20
2859.627314967489
 30
0.0
  0
VERTEX
  5
4BD
  8
0
  6
CONTINUOUS
 62
     7
 10
2180.169422899555
 20
2859.651215290895
 30
0.0
  0
VERTEX
  5
4BE
  8
0
  6
CONTINUOUS
 62
     7
 10
2180.125934655363
 20
2859.673929340567
 30
0.0
  0
VERTEX
  5
4BF
  8
0
  6
CONTINUOUS
 62
     7
 10
2180.081892218604
 20
2859.695383878635
 30
0.0
  0
VERTEX
  5
4C0
  8
0
  6
CONTINUOUS
 62
     7
 10
2180.037318958278
 20
2859.715505667235
 30
0.0
  0
VERTEX
  5
4C1
  8
0
  6
CONTINUOUS
 62
     7
 10
2179.99223824338
 20
2859.734221468497
 30
0.0
  0
VERTEX
  5
4C2
  8
0
  6
CONTINUOUS
 62
     7
 10
2179.946673483799
 20
2859.751459028379
 30
0.0
  0
VERTEX
  5
4C3
  8
0
  6
CONTINUOUS
 62
     7
 10
2179.900650709308
 20
2859.7672091288
 30
0.0
  0
VERTEX
  5
4C4
  8
0
  6
CONTINUOUS
 62
     7
 10
2179.854200109267
 20
2859.781562633566
 30
0.0
  0
VERTEX
  5
4C5
  8
0
  6
CONTINUOUS
 62
     7
 10
2179.807352242642
 20
2859.794619299507
 30
0.0
  0
VERTEX
  5
4C6
  8
0
  6
CONTINUOUS
 62
     7
 10
2179.760137668402
 20
2859.806478883458
 30
0.0
  0
VERTEX
  5
4C7
  8
0
  6
CONTINUOUS
 62
     7
 10
2179.712586945515
 20
2859.81724114225
 30
0.0
  0
VERTEX
  5
4C8
  8
0
  6
CONTINUOUS
 62
     7
 10
2179.664730632949
 20
2859.827005832717
 30
0.0
  0
VERTEX
  5
4C9
  8
0
  6
CONTINUOUS
 62
     7
 10
2179.616599289671
 20
2859.83587271169
 30
0.0
  0
VERTEX
  5
4CA
  8
0
  6
CONTINUOUS
 62
     7
 10
2179.56822347465
 20
2859.843941536002
 30
0.0
  0
VERTEX
  5
4CB
  8
0
  6
CONTINUOUS
 62
     7
 10
2179.519633746853
 20
2859.851312062487
 30
0.0
  0
VERTEX
  5
4CC
  8
0
  6
CONTINUOUS
 62
     7
 10
2179.470860665248
 20
2859.858084047976
 30
0.0
  0
VERTEX
  5
4CD
  8
0
  6
CONTINUOUS
 62
     7
 10
2179.421934788804
 20
2859.864357249302
 30
0.0
  0
VERTEX
  5
4CE
  8
0
  6
CONTINUOUS
 62
     7
 10
2179.372886676488
 20
2859.870231423298
 30
0.0
  0
VERTEX
  5
4CF
  8
0
  6
CONTINUOUS
 62
     7
 10
2179.323746887268
 20
2859.875806326796
 30
0.0
  0
VERTEX
  5
4D0
  8
0
  6
CONTINUOUS
 62
     7
 10
2179.274545980113
 20
2859.881181716628
 30
0.0
  0
VERTEX
  5
4D1
  8
0
  6
CONTINUOUS
 62
     7
 10
2179.225314513989
 20
2859.886457349628
 30
0.0
  0
SEQEND
  5
4DF
  8
0
  6
CONTINUOUS
 62
     7
  0
LINE
  5
12E
  8
0
  6
CONTINUOUS
 62
     7
 10
2160.225314513989
 20
2857.686457349634
 30
0.0
 11
2160.225314513989
 21
2857.886457349633
 31
0.0
  0
LINE
  5
12F
  8
0
  6
CONTINUOUS
 62
     7
 10
2160.225314513989
 20
2857.886457349633
 30
0.0
 11
2161.225314513988
 21
2857.886457349636
 31
0.0
  0
LINE
  5
130
  8
0
  6
CONTINUOUS
 62
     7
 10
2182.22531451399
 20
2857.686457349628
 30
0.0
 11
2182.22531451399
 21
2857.886457349628
 31
0.0
  0
LINE
  5
131
  8
0
  6
CONTINUOUS
 62
     7
 10
2181.22531451399
 20
2857.886457349618
 30
0.0
 11
2182.22531451399
 21
2857.886457349628
 31
0.0
  0
ARC
  5
132
  8
0
  6
CONTINUOUS
 62
     7
 10
2163.225314513988
 20
2857.886457349617
 30
0.0
 40
3.000000000000015
 50
129.944505189634
 51
179.9999999996784
  0
ARC
  5
133
  8
0
  6
CONTINUOUS
 62
     7
 10
2179.22531451399
 20
2857.886457349627
 30
0.0
 40
3.000000000000227
 50
0.0000000000364657
 51
50.05549481006359
  0
LINE
  5
134
  8
0
  6
CONTINUOUS
 62
     7
 10
2160.225314513989
 20
2858.186457349633
 30
0.0
 11
2146.037639760196
 21
2858.186457349636
 31
0.0
  0
LINE
  5
135
  8
0
  6
CONTINUOUS
 62
     7
 10
2160.225314513989
 20
2857.886457349633
 30
0.0
 11
2160.225314513989
 21
2858.186457349633
 31
0.0
  0
LINE
  5
136
  8
0
  6
CONTINUOUS
 62
     7
 10
2146.037639760196
 20
2858.186457349636
 30
0.0
 11
2146.037639760196
 21
2857.68645734962
 31
0.0
  0
LINE
  5
137
  8
0
  6
CONTINUOUS
 62
     7
 10
2158.188818913382
 20
2860.186457349622
 30
0.0
 11
2158.142714201415
 21
2858.186457349627
 31
0.0
  0
LINE
  5
138
  8
0
  6
CONTINUOUS
 62
     7
 10
2159.443059572762
 20
2858.186457349626
 30
0.0
 11
2159.489164284731
 21
2860.186457349622
 31
0.0
  0
LINE
  5
139
  8
0
  6
CONTINUOUS
 62
     7
 10
2737.725314509653
 20
2842.68645734962
 30
0.0
 11
2737.725314509653
 21
2857.68645734962
 31
0.0
  0
LINE
  5
13B
  8
0
  6
CONTINUOUS
 62
     7
 10
2737.725314509653
 20
2857.68645734962
 30
0.0
 11
2687.225314509653
 21
2857.68645734962
 31
0.0
  0
LINE
  5
13C
  8
0
  6
CONTINUOUS
 62
     7
 10
2737.725314509653
 20
2842.68645734962
 30
0.0
 11
2687.225314509653
 21
2842.68645734962
 31
0.0
  0
LINE
  5
13D
  8
0
  6
CONTINUOUS
 62
     7
 10
2192.225314509652
 20
2842.68645734962
 30
0.0
 11
2141.725314509652
 21
2842.68645734962
 31
0.0
  0
LINE
  5
13E
  8
0
  6
CONTINUOUS
 62
     7
 10
2192.225314509652
 20
2857.68645734962
 30
0.0
 11
2141.725314509652
 21
2857.68645734962
 31
0.0
  0
LINE
  5
140
  8
0
  6
CONTINUOUS
 62
     7
 10
2141.725314509652
 20
2842.68645734962
 30
0.0
 11
2141.725314509652
 21
2857.68645734962
 31
0.0
  0
LINE
  5
141
  8
0
  6
CONTINUOUS
 62
     7
 10
2687.225314509653
 20
2842.68645734962
 30
0.0
 11
2192.225314509652
 21
2842.686457349618
 31
0.0
  0
LINE
  5
142
  8
0
  6
CONTINUOUS
 62
     7
 10
2687.225314509653
 20
2857.68645734962
 30
0.0
 11
2192.225314509652
 21
2857.686457349618
 31
0.0
  0
LINE
  5
143
  8
0
  6
CONTINUOUS
 62
     7
 10
2738.725314509652
 20
2859.686457349617
 30
0.0
 11
2738.725314509652
 21
3007.686457349617
 31
0.0
  0
LINE
  5
144
  8
0
  6
CONTINUOUS
 62
     7
 10
2738.725314509652
 20
2859.686457349617
 30
0.0
 11
2721.225314509652
 21
2859.686457349617
 31
0.0
  0
LINE
  5
145
  8
0
  6
CONTINUOUS
 62
     7
 10
2721.225314509652
 20
2859.686457349617
 30
0.0
 11
2721.225314509652
 21
3007.686457349617
 31
0.0
  0
LINE
  5
146
  8
0
  6
CONTINUOUS
 62
     7
 10
2738.725314509652
 20
3007.686457349617
 30
0.0
 11
2721.225314509652
 21
3007.686457349617
 31
0.0
  0
LINE
  5
147
  8
0
  6
CONTINUOUS
 62
     7
 10
2157.725314509652
 20
2859.686457349617
 30
0.0
 11
2157.725314509652
 21
3007.686457349617
 31
0.0
  0
LINE
  5
148
  8
0
  6
CONTINUOUS
 62
     7
 10
2157.725314509652
 20
2859.686457349617
 30
0.0
 11
2140.225314509652
 21
2859.686457349617
 31
0.0
  0
LINE
  5
149
  8
0
  6
CONTINUOUS
 62
     7
 10
2140.225314509652
 20
2859.686457349617
 30
0.0
 11
2140.225314509652
 21
3007.686457349617
 31
0.0
  0
LINE
  5
14A
  8
0
  6
CONTINUOUS
 62
     7
 10
2157.725314509652
 20
3007.686457349617
 30
0.0
 11
2140.225314509652
 21
3007.686457349617
 31
0.0
  0
LINE
  5
14B
  8
0
  6
CONTINUOUS
 62
     8
 10
2179.225314513989
 20
2859.886457349628
 30
0.0
 11
2179.225314513989
 21
2860.186457349617
 31
0.0
  0
LINE
  5
14C
  8
0
  6
CONTINUOUS
 62
     8
 10
2163.225314513989
 20
2860.186457349617
 30
0.0
 11
2163.225314513989
 21
2859.886457349616
 31
0.0
  0
LINE
  5
14D
  8
0
  6
CONTINUOUS
 62
     7
 10
2165.058209561818
 20
1014.731230678282
 30
0.0
 11
2723.058209561818
 21
1014.731230678282
 31
0.0
  0
LINE
  5
14E
  8
0
  6
CONTINUOUS
 62
     7
 10
2722.808209561818
 20
777.3312306782885
 30
0.0
 11
2723.058209561818
 21
777.3312306782885
 31
0.0
  0
LINE
  5
14F
  8
0
  6
CONTINUOUS
 62
     7
 10
2723.058209561818
 20
785.1312306782884
 30
0.0
 11
2722.808209561818
 21
785.1312306782884
 31
0.0
  0
LINE
  5
150
  8
0
  6
CONTINUOUS
 62
     7
 10
2159.808209561818
 20
625.1312306782885
 30
0.0
 11
2159.558209561818
 21
625.1312306782885
 31
0.0
  0
LINE
  5
151
  8
0
  6
CONTINUOUS
 62
     7
 10
2159.558209561818
 20
617.3312306782886
 30
0.0
 11
2159.808209561818
 21
617.3312306782886
 31
0.0
  0
LINE
  5
152
  8
0
  6
CONTINUOUS
 62
     7
 10
2159.808209561818
 20
1105.131230678289
 30
0.0
 11
2159.558209561818
 21
1105.131230678289
 31
0.0
  0
LINE
  5
153
  8
0
  6
CONTINUOUS
 62
     7
 10
2159.558209561818
 20
1097.331230678288
 30
0.0
 11
2159.808209561818
 21
1097.331230678288
 31
0.0
  0
LINE
  5
154
  8
0
  6
CONTINUOUS
 62
     7
 10
2159.808209561818
 20
785.1312306782885
 30
0.0
 11
2159.558209561818
 21
785.1312306782885
 31
0.0
  0
LINE
  5
155
  8
0
  6
CONTINUOUS
 62
     7
 10
2159.558209561818
 20
777.3312306782886
 30
0.0
 11
2159.808209561818
 21
777.3312306782886
 31
0.0
  0
LINE
  5
156
  8
0
  6
CONTINUOUS
 62
     7
 10
2159.808209561818
 20
945.1312306782884
 30
0.0
 11
2159.558209561818
 21
945.1312306782884
 31
0.0
  0
LINE
  5
157
  8
0
  6
CONTINUOUS
 62
     7
 10
2159.558209561818
 20
937.3312306782886
 30
0.0
 11
2159.808209561818
 21
937.3312306782886
 31
0.0
  0
LINE
  5
158
  8
0
  6
CONTINUOUS
 62
     7
 10
2160.058209561818
 20
585.7312306782885
 30
0.0
 11
2160.058209561818
 21
635.7312306782885
 31
0.0
  0
LINE
  5
159
  8
0
  6
CONTINUOUS
 62
     7
 10
2160.058209561818
 20
635.7312306782885
 30
0.0
 11
2723.058209561818
 21
635.7312306782885
 31
0.0
  0
LINE
  5
15A
  8
0
  6
CONTINUOUS
 62
     7
 10
2165.058209561818
 20
1017.731230678283
 30
0.0
 11
2723.058209561818
 21
1017.731230678283
 31
0.0
  0
LINE
  5
15B
  8
0
  6
CONTINUOUS
 62
     7
 10
2165.058209561818
 20
1133.731230678283
 30
0.0
 11
2165.058209561818
 21
1017.731230678283
 31
0.0
  0
LINE
  5
15C
  8
0
  6
CONTINUOUS
 62
     7
 10
2165.058209561818
 20
1133.731230678283
 30
0.0
 11
2723.058209561818
 21
1133.731230678283
 31
0.0
  0
CIRCLE
  5
15D
  8
0
  6
CONTINUOUS
 62
     7
 10
2219.058209561818
 20
1076.731230678283
 30
0.0
 40
4.999999999999545
  0
CIRCLE
  5
15E
  8
0
  6
CONTINUOUS
 62
     7
 10
2444.058209561818
 20
1076.731230678283
 30
0.0
 40
5.000000000000455
  0
CIRCLE
  5
15F
  8
0
  6
CONTINUOUS
 62
     7
 10
2669.058209561818
 20
1076.731230678283
 30
0.0
 40
5.000000000000455
  0
LINE
  5
160
  8
0
  6
CONTINUOUS
 62
     7
 10
2165.058209561818
 20
1136.731230678283
 30
0.0
 11
2165.058209561818
 21
1133.731230678283
 31
0.0
  0
LINE
  5
161
  8
0
  6
CONTINUOUS
 62
     7
 10
2165.058209561818
 20
1017.731230678283
 30
0.0
 11
2165.058209561818
 21
1014.731230678282
 31
0.0
  0
CIRCLE
  5
162
  8
0
  6
CONTINUOUS
 62
     7
 10
2669.058209561818
 20
1076.731230678283
 30
0.0
 40
1.5
  0
CIRCLE
  5
163
  8
0
  6
CONTINUOUS
 62
     7
 10
2444.058209561818
 20
1076.731230678283
 30
0.0
 40
1.5
  0
CIRCLE
  5
164
  8
0
  6
CONTINUOUS
 62
     7
 10
2219.058209561818
 20
1076.731230678283
 30
0.0
 40
1.5
  0
LINE
  5
165
  8
0
  6
CONTINUOUS
 62
     7
 10
2165.058209561818
 20
1010.488589991163
 30
0.0
 11
2723.058209561818
 21
1010.488589991163
 31
0.0
  0
LINE
  5
166
  8
0
  6
CONTINUOUS
 62
     7
 10
2165.058209561818
 20
1014.731230678282
 30
0.0
 11
2165.058209561818
 21
1010.488589991163
 31
0.0
  0
LINE
  5
167
  8
0
  6
CONTINUOUS
 62
     7
 10
2165.058209561818
 20
902.2459493040441
 30
0.0
 11
2165.058209561818
 21
1010.488589991163
 31
0.0
  0
LINE
  5
168
  8
0
  6
CONTINUOUS
 62
     7
 10
2165.058209561818
 20
902.2459493040441
 30
0.0
 11
2723.058209561818
 21
902.2459493040441
 31
0.0
  0
LINE
  5
169
  8
0
  6
CONTINUOUS
 62
     7
 10
2159.808209561818
 20
1136.481230678289
 30
0.0
 11
2159.808209561818
 21
585.9812306782885
 31
0.0
  0
LINE
  5
16A
  8
0
  6
CONTINUOUS
 62
     7
 10
2159.808209561818
 20
585.9812306782885
 30
0.0
 11
2160.058209561818
 21
585.9812306782885
 31
0.0
  0
LINE
  5
16B
  8
0
  6
CONTINUOUS
 62
     7
 10
2159.808209561818
 20
1136.481230678289
 30
0.0
 11
2165.058209561818
 21
1136.481230678289
 31
0.0
  0
LINE
  5
16C
  8
0
  6
CONTINUOUS
 62
     7
 10
2722.808209561818
 20
902.2459493040442
 30
0.0
 11
2722.808209561818
 21
635.7312306782885
 31
0.0
  0
LINE
  5
16D
  8
0
  6
CONTINUOUS
 62
     7
 10
2159.808209561818
 20
771.7312306782864
 30
0.0
 11
2159.558209561818
 21
771.7312306782864
 31
0.0
  0
LINE
  5
16E
  8
0
  6
CONTINUOUS
 62
     7
 10
2159.558209561818
 20
788.7312306782864
 30
0.0
 11
2159.808209561818
 21
788.7312306782864
 31
0.0
  0
LINE
  5
16F
  8
0
  6
CONTINUOUS
 62
     7
 10
2159.558209561818
 20
968.7312306782885
 30
0.0
 11
2159.808209561818
 21
968.7312306782885
 31
0.0
  0
LINE
  5
170
  8
0
  6
CONTINUOUS
 62
     7
 10
2159.808209561818
 20
951.7312306782885
 30
0.0
 11
2159.558209561818
 21
951.7312306782885
 31
0.0
  0
LINE
  5
171
  8
0
  6
CONTINUOUS
 62
     7
 10
2159.558209561818
 20
568.2312306782886
 30
0.0
 11
2723.058209561818
 21
568.2312306782886
 31
0.0
  0
LINE
  5
172
  8
0
  6
CONTINUOUS
 62
     7
 10
2159.558209561818
 20
568.2312306782886
 30
0.0
 11
2159.558209561818
 21
585.7312306782885
 31
0.0
  0
LINE
  5
173
  8
0
  6
CONTINUOUS
 62
     7
 10
2723.058209561818
 20
568.2312306782886
 30
0.0
 11
2723.058209561818
 21
585.7312306782885
 31
0.0
  0
LINE
  5
174
  8
0
  6
CONTINUOUS
 62
     7
 10
2159.558209561818
 20
585.7312306782885
 30
0.0
 11
2723.058209561818
 21
585.7312306782885
 31
0.0
  0
LINE
  5
175
  8
0
  6
CONTINUOUS
 62
     7
 10
2159.558209561818
 20
1136.731230678289
 30
0.0
 11
2159.558209561818
 21
1154.231230678288
 31
0.0
  0
LINE
  5
176
  8
0
  6
CONTINUOUS
 62
     7
 10
2723.058209561818
 20
1136.731230678289
 30
0.0
 11
2723.058209561818
 21
1154.231230678288
 31
0.0
  0
LINE
  5
177
  8
0
  6
CONTINUOUS
 62
     7
 10
2159.558209561818
 20
1136.731230678289
 30
0.0
 11
2723.058209561818
 21
1136.731230678289
 31
0.0
  0
LINE
  5
178
  8
0
  6
CONTINUOUS
 62
     7
 10
2159.558209561818
 20
1154.231230678288
 30
0.0
 11
2723.058209561818
 21
1154.231230678288
 31
0.0
  0
LINE
  5
179
  8
0
  6
CONTINUOUS
 62
     7
 10
2723.058209561818
 20
636.7312306782663
 30
0.0
 11
2722.808209561817
 21
636.7312306782666
 31
0.0
  0
LINE
  5
17A
  8
0
  6
CONTINUOUS
 62
     7
 10
2723.058209561818
 20
639.4812306782659
 30
0.0
 11
2722.808209561817
 21
639.4812306782659
 31
0.0
  0
LINE
  5
17B
  8
0
  6
CONTINUOUS
 62
     7
 10
2723.058209561818
 20
647.731230678268
 30
0.0
 11
2722.808209561817
 21
647.7312306782683
 31
0.0
  0
LINE
  5
17C
  8
0
  6
CONTINUOUS
 62
     7
 10
2722.808209561817
 20
644.9812306782683
 30
0.0
 11
2723.058209561818
 21
644.9812306782679
 31
0.0
  0
LINE
  5
17D
  8
0
  6
CONTINUOUS
 62
     7
 10
2722.808209561817
 20
670.3812306782605
 30
0.0
 11
2723.058209561817
 21
670.3812306782603
 31
0.0
  0
LINE
  5
17E
  8
0
  6
CONTINUOUS
 62
     7
 10
2722.808209561817
 20
650.7312306782669
 30
0.0
 11
2723.058209561817
 21
650.7312306782669
 31
0.0
  0
LINE
  5
17F
  8
0
  6
CONTINUOUS
 62
     7
 10
2193.558209561818
 20
562.2312306782889
 30
0.0
 11
2143.058209561818
 21
562.2312306782889
 31
0.0
  0
LINE
  5
180
  8
0
  6
CONTINUOUS
 62
     7
 10
2143.058209561818
 20
562.2312306782889
 30
0.0
 11
2143.058209561818
 21
567.2312306782885
 31
0.0
  0
LINE
  5
181
  8
0
  6
CONTINUOUS
 62
     7
 10
2143.058209561818
 20
1155.231230678289
 30
0.0
 11
2143.058209561818
 21
1160.231230678289
 31
0.0
  0
LINE
  5
182
  8
0
  6
CONTINUOUS
 62
     7
 10
2143.058209561818
 20
1160.231230678289
 30
0.0
 11
2193.558209561818
 21
1160.231230678289
 31
0.0
  0
LINE
  5
187
  8
0
  6
CONTINUOUS
 62
     7
 10
2739.058209561818
 20
1160.231230678289
 30
0.0
 11
2739.058209561818
 21
1155.231230678289
 31
0.0
  0
LINE
  5
188
  8
0
  6
CONTINUOUS
 62
     7
 10
2739.058209561818
 20
567.2312306782885
 30
0.0
 11
2739.058209561818
 21
562.2312306782889
 31
0.0
  0
LINE
  5
189
  8
0
  6
CONTINUOUS
 62
     7
 10
2688.558209561818
 20
1160.231230678289
 30
0.0
 11
2739.058209561818
 21
1160.231230678289
 31
0.0
  0
LINE
  5
18A
  8
0
  6
CONTINUOUS
 62
     7
 10
2739.058209561818
 20
562.2312306782889
 30
0.0
 11
2688.558209561818
 21
562.2312306782889
 31
0.0
  0
LINE
  5
18B
  8
0
  6
CONTINUOUS
 62
     7
 10
2193.558209561818
 20
1160.231230678289
 30
0.0
 11
2688.558209561818
 21
1160.231230678289
 31
0.0
  0
LINE
  5
18C
  8
0
  6
CONTINUOUS
 62
     7
 10
2688.558209561818
 20
562.2312306782889
 30
0.0
 11
2193.558209561818
 21
562.2312306782889
 31
0.0
  0
LINE
  5
18D
  8
0
  6
CONTINUOUS
 62
     7
 10
2142.058209561818
 20
567.2312306782885
 30
0.0
 11
2142.058209561818
 21
1155.231230678289
 31
0.0
  0
LINE
  5
18E
  8
0
  6
CONTINUOUS
 62
     7
 10
2159.558209561818
 20
567.2312306782885
 30
0.0
 11
2142.058209561818
 21
567.2312306782885
 31
0.0
  0
LINE
  5
18F
  8
0
  6
CONTINUOUS
 62
     7
 10
2142.058209561818
 20
1155.231230678289
 30
0.0
 11
2159.558209561818
 21
1155.231230678289
 31
0.0
  0
LINE
  5
190
  8
0
  6
CONTINUOUS
 62
     7
 10
2159.558209561818
 20
1155.231230678289
 30
0.0
 11
2159.558209561818
 21
567.2312306782885
 31
0.0
  0
LINE
  5
191
  8
0
  6
CONTINUOUS
 62
     7
 10
2723.058209561818
 20
567.2312306782885
 30
0.0
 11
2723.058209561818
 21
1155.231230678289
 31
0.0
  0
LINE
  5
192
  8
0
  6
CONTINUOUS
 62
     7
 10
2740.558209561818
 20
1155.231230678289
 30
0.0
 11
2740.558209561818
 21
567.2312306782885
 31
0.0
  0
LINE
  5
193
  8
0
  6
CONTINUOUS
 62
     7
 10
2723.058209561818
 20
1155.231230678289
 30
0.0
 11
2740.558209561818
 21
1155.231230678289
 31
0.0
  0
LINE
  5
194
  8
0
  6
CONTINUOUS
 62
     7
 10
2740.558209561818
 20
567.2312306782885
 30
0.0
 11
2723.058209561818
 21
567.2312306782885
 31
0.0
  0
LINE
  5
195
  8
0
  6
CONTINUOUS
 62
     8
 10
2722.808209561817
 20
665.1312306782686
 30
0.0
 11
2723.058209561817
 21
665.1312306782679
 31
0.0
  0
LINE
  5
196
  8
0
  6
CONTINUOUS
 62
     8
 10
2723.033083291631
 20
639.4812306782658
 30
0.0
 11
2723.033083291631
 21
644.981230678268
 31
0.0
  0
ENDSEC
  0
EOF
