  0
SECTION
  2
HEADER
  9
$ACADVER
  1
AC1006
  9
$DWGCODEPAGE
  3
ansi_932
  9
$INSBASE
 10
0.0
 20
0.0
 30
0.0
  9
$EXTMIN
 10
468.8870793538676
 20
165.7088516276313
  9
$EXTMAX
 10
4839.484712179223
 20
3280.431146134536
  9
$LIMMIN
 10
0.0
 20
0.0
  9
$LIMMAX
 10
5000.0
 20
3500.0
  9
$ORTHOMODE
 70
     0
  9
$REGENMODE
 70
     1
  9
$FILLMODE
 70
     1
  9
$QTEXTMODE
 70
     0
  9
$MIRRTEXT
 70
     1
  9
$DRAGMODE
 70
     2
  9
$LTSCALE
 40
1.0
  9
$OSMODE
 70
    37
  9
$ATTMODE
 70
     1
  9
$TEXTSIZE
 40
3.5
  9
$TRACEWID
 40
1.0
  9
$TEXTSTYLE
  7
STANDARD
  9
$CLAYER
  8
0
  9
$CELTYPE
  6
BYLAYER
  9
$CECOLOR
 62
   256
  9
$DIMSCALE
 40
1.0
  9
$DIMASZ
 40
3.302
  9
$DIMEXO
 40
1.0
  9
$DIMDLI
 40
3.75
  9
$DIMRND
 40
0.0
  9
$DIMDLE
 40
0.0
  9
$DIMEXE
 40
1.0
  9
$DIMTP
 40
0.0
  9
$DIMTM
 40
0.0
  9
$DIMTXT
 40
3.5
  9
$DIMCEN
 40
2.5
  9
$DIMTSZ
 40
0.0
  9
$DIMTOL
 70
     0
  9
$DIMLIM
 70
     0
  9
$DIMTIH
 70
     1
  9
$DIMTOH
 70
     1
  9
$DIMSE1
 70
     0
  9
$DIMSE2
 70
     0
  9
$DIMTAD
 70
     1
  9
$DIMZIN
 70
     0
  9
$DIMBLK
  1

  9
$DIMASO
 70
     1
  9
$DIMSHO
 70
     1
  9
$DIMPOST
  1

  9
$DIMAPOST
  1

  9
$DIMALT
 70
     0
  9
$DIMALTD
 70
     3
  9
$DIMALTF
 40
0.0393700787401575
  9
$DIMLFAC
 40
1.0
  9
$DIMTOFL
 70
     1
  9
$DIMTVP
 40
0.0
  9
$DIMTIX
 70
     0
  9
$DIMSOXD
 70
     0
  9
$DIMSAH
 70
     0
  9
$DIMBLK1
  1

  9
$DIMBLK2
  1

  9
$LUNITS
 70
     2
  9
$LUPREC
 70
     3
  9
$SKETCHINC
 40
1.0
  9
$FILLETRAD
 40
10.0
  9
$AUNITS
 70
     0
  9
$AUPREC
 70
     2
  9
$MENU
  1
.
  9
$ELEVATION
 40
0.0
  9
$THICKNESS
 40
0.0
  9
$LIMCHECK
 70
     0
  9
$CHAMFERA
 40
0.0
  9
$CHAMFERB
 40
0.0
  9
$SKPOLY
 70
     0
  9
$TDCREATE
 40
2459847.193905868
  9
$TDUPDATE
 40
2460140.102498634
  9
$TDINDWG
 40
0.0028065162
  9
$TDUSRTIMER
 40
0.0028065162
  9
$USRTIMER
 70
     1
  9
$ANGBASE
 50
0.0
  9
$ANGDIR
 70
     0
  9
$PDMODE
 70
     0
  9
$PDSIZE
 40
-1.0
  9
$PLINEWID
 40
0.0
  9
$COORDS
 70
     1
  9
$SPLFRAME
 70
     0
  9
$SPLINETYPE
 70
     6
  9
$SPLINESEGS
 70
     8
  9
$ATTDIA
 70
     0
  9
$ATTREQ
 70
     1
  9
$HANDLING
 70
     1
  9
$HANDSEED
  5
4D2
  9
$SURFTAB1
 70
     6
  9
$SURFTAB2
 70
     6
  9
$SURFTYPE
 70
     6
  9
$SURFU
 70
     6
  9
$SURFV
 70
     6
  9
$UCSNAME
  2

  9
$UCSORG
 10
0.0
 20
0.0
 30
0.0
  9
$UCSXDIR
 10
1.0
 20
0.0
 30
0.0
  9
$UCSYDIR
 10
0.0
 20
1.0
 30
0.0
  9
$USERI1
 70
     0
  9
$USERI2
 70
     0
  9
$USERI3
 70
     0
  9
$USERI4
 70
     0
  9
$USERI5
 70
     0
  9
$USERR1
 40
0.0
  9
$USERR2
 40
0.0
  9
$USERR3
 40
0.0
  9
$USERR4
 40
0.0
  9
$USERR5
 40
0.0
  9
$WORLDVIEW
 70
     1
  0
ENDSEC
  0
SECTION
  2
TABLES
  0
TABLE
  2
VPORT
 70
     1
  0
VPORT
  2
*ACTIVE
 70
     0
 10
0.0
 20
0.0
 11
1.0
 21
1.0
 12
3225.885136687548
 22
1721.580582178738
 13
0.0
 23
0.0
 14
10.0
 24
10.0
 15
10.0
 25
10.0
 16
0.0
 26
0.0
 36
1.0
 17
0.0
 27
0.0
 37
0.0
 40
3322.548907783405
 41
2.235364396654719
 42
50.0
 43
0.0
 44
0.0
 50
0.0
 51
0.0
 71
     0
 72
  2000
 73
     1
 74
     3
 75
     0
 76
     0
 77
     0
 78
     0
  0
ENDTAB
  0
TABLE
  2
LTYPE
 70
     6
  0
LTYPE
  2
CONTINUOUS
 70
     0
  3
Solid line
 72
    65
 73
     0
 40
0.0
  0
LTYPE
  2
HIDDEN
 70
     0
  3
Hidden __ __ __ __ __ __ __ __ __ __ __ __ __ __
 72
    65
 73
     2
 40
1.905
 49
1.27
 49
-0.635
  0
LTYPE
  2
PHANTOM
 70
     0
  3
Phantom ______  __  __  ______  __  __  ______
 72
    65
 73
     6
 40
12.7
 49
6.35
 49
-1.27
 49
1.27
 49
-1.27
 49
1.27
 49
-1.27
  0
LTYPE
  2
CENTER
 70
     0
  3
Center ____ _ ____ _ ____ _ ____ _ ____ _ ____
 72
    65
 73
     4
 40
10.16
 49
6.35
 49
-1.27
 49
1.27
 49
-1.27
  0
LTYPE
  2
CENTERX2
 70
     0
  3
Center (2x) ________  __  ________  __  _____
 72
    65
 73
     4
 40
20.32
 49
12.7
 49
-2.54
 49
2.54
 49
-2.54
  0
LTYPE
  2
DOT2
 70
     0
  3
Dot (.5x) ........................................
 72
    65
 73
     2
 40
0.635
 49
0.0
 49
-0.635
  0
ENDTAB
  0
TABLE
  2
LAYER
 70
     3
  0
LAYER
  2
0
 70
     0
 62
     7
  6
CONTINUOUS
  0
LAYER
  2
SLD-0
 70
     0
 62
   179
  6
CONTINUOUS
  0
LAYER
  2
寸法
 70
     0
 62
   179
  6
CONTINUOUS
  0
ENDTAB
  0
TABLE
  2
STYLE
 70
     2
  0
STYLE
  2
STANDARD
 70
     0
 40
0.0
 41
1.0
 50
0.0
 71
     0
 42
3.5
  3
txt
  4
bigfont
  0
STYLE
  2
SLDTEXTSTYLE0
 70
     0
 40
0.0
 41
0.75
 50
0.0
 71
     0
 42
3.5
  3
TXT
  4
bigfont
  0
ENDTAB
  0
TABLE
  2
VIEW
 70
     0
  0
ENDTAB
  0
TABLE
  2
UCS
 70
     0
  0
ENDTAB
  0
ENDSEC
  0
SECTION
  2
BLOCKS
  0
ENDSEC
  0
SECTION
  2
ENTITIES
  0
LINE
  5
75
  8
0
  6
CONTINUOUS
 62
     7
 10
4839.484712179223
 20
284.470902007842
 30
0.0
 11
3312.374599790194
 21
284.4709020078419
 31
0.0
  0
TEXT
  5
77
  8
0
  6
CONTINUOUS
 62
     7
 10
1403.679317180367
 20
3227.514479467869
 30
0.0
 40
52.91666666666666
  1
＜上面＞
 41
0.75
  7
SLDTEXTSTYLE0
  0
TEXT
  5
78
  8
0
  6
CONTINUOUS
 62
     7
 10
460.9495793538676
 20
2444.939730285465
 30
0.0
 40
52.91666666666666
  1
＜左側面＞
 41
0.75
  7
SLDTEXTSTYLE0
  0
TEXT
  5
79
  8
0
  6
CONTINUOUS
 62
     7
 10
1394.955675414448
 20
2444.743332205345
 30
0.0
 40
52.91666666666666
  1
＜正面＞
 41
0.75
  7
SLDTEXTSTYLE0
  0
TEXT
  5
7A
  8
0
  6
CONTINUOUS
 62
     7
 10
3377.814243189123
 20
326.489054196763
 30
0.0
 40
52.91666666666666
  1
品名：
 41
0.75
  7
SLDTEXTSTYLE0
  0
TEXT
  5
7B
  8
0
  6
CONTINUOUS
 62
     7
 10
4446.663437481703
 20
332.3177187478654
 30
0.0
 40
52.91666666666666
  1
Pamouna
 41
0.75
  7
SLDTEXTSTYLE0
  0
TEXT
  5
7C
  8
寸法
  6
CONTINUOUS
 62
     7
 10
4688.007304885427
 20
165.7088516276312
 30
0.0
 40
52.91666666666666
  1
1/1
 41
0.75
  7
SLDTEXTSTYLE0
  0
TEXT
  5
7D
  8
寸法
  6
CONTINUOUS
 62
     7
 10
3611.283129349216
 20
332.2465883182592
 30
0.0
 40
66.14583333333331
  1
MA-WM300
 41
0.75
  7
SLDTEXTSTYLE0
  0
TEXT
  5
7E
  8
寸法
  6
CONTINUOUS
 62
     7
 10
3817.918628884302
 20
2444.939730285464
 30
0.0
 40
52.91666666666666
  1
＜右側面＞
 41
0.75
  7
SLDTEXTSTYLE0
  0
TEXT
  5
7F
  8
寸法
  6
CONTINUOUS
 62
     7
 10
4198.79693921183
 20
165.7088544215994
 30
0.0
 40
52.91666666666666
  1
2022/09/24
 41
0.75
  7
SLDTEXTSTYLE0
  0
TEXT
  5
80
  8
寸法
  6
CONTINUOUS
 62
     7
 10
1394.955675414448
 20
1265.268061545298
 30
0.0
 40
52.91666666666666
  1
＜背面＞
 41
0.75
  7
SLDTEXTSTYLE0
  0
LINE
  5
81
  8
0
  6
CONTINUOUS
 62
     7
 10
2141.725314509647
 20
2179.610744247915
 30
0.0
 11
2141.725314509647
 21
2221.497805764913
 31
0.0
  0
LINE
  5
82
  8
0
  6
CONTINUOUS
 62
     7
 10
2141.725314509647
 20
1741.610744247914
 30
0.0
 11
2141.725314509647
 21
1783.497805764912
 31
0.0
  0
LINE
  5
83
  8
0
  6
CONTINUOUS
 62
     7
 10
2437.725314509652
 20
2271.698646883447
 30
0.0
 11
2387.225314509652
 21
2271.698646883447
 31
0.0
  0
LINE
  5
84
  8
0
  6
CONTINUOUS
 62
     7
 10
2437.725314509652
 20
1673.698646883447
 30
0.0
 11
2437.725314509652
 21
2271.698646883447
 31
0.0
  0
LINE
  5
85
  8
0
  6
CONTINUOUS
 62
     7
 10
2387.225314509652
 20
1673.698646883447
 30
0.0
 11
2437.725314509652
 21
1673.698646883447
 31
0.0
  0
LINE
  5
8B
  8
0
  6
CONTINUOUS
 62
     7
 10
2192.225314509652
 20
2271.698646883447
 30
0.0
 11
2141.725314509652
 21
2271.698646883447
 31
0.0
  0
LINE
  5
8D
  8
0
  6
CONTINUOUS
 62
     7
 10
2141.725314509652
 20
1673.698646883447
 30
0.0
 11
2192.225314509652
 21
1673.698646883447
 31
0.0
  0
LINE
  5
8E
  8
0
  6
CONTINUOUS
 62
     7
 10
2141.725314509652
 20
2271.698646883447
 30
0.0
 11
2141.725314509652
 21
1673.698646883447
 31
0.0
  0
LINE
  5
90
  8
0
  6
CONTINUOUS
 62
     7
 10
2387.225314509652
 20
2271.698646883447
 30
0.0
 11
2192.225314509652
 21
2271.698646883447
 31
0.0
  0
LINE
  5
93
  8
0
  6
CONTINUOUS
 62
     7
 10
2192.225314509652
 20
1673.698646883447
 30
0.0
 11
2387.225314509653
 21
1673.698646883447
 31
0.0
  0
LINE
  5
95
  8
0
  6
CONTINUOUS
 62
     7
 10
2437.725314509652
 20
1678.698646883447
 30
0.0
 11
2438.725314509653
 21
1678.698646883447
 31
0.0
  0
LINE
  5
96
  8
0
  6
CONTINUOUS
 62
     7
 10
2438.725314509653
 20
2266.698646883446
 30
0.0
 11
2437.725314509652
 21
2266.698646883446
 31
0.0
  0
LINE
  5
97
  8
0
  6
CONTINUOUS
 62
     7
 10
2438.725314509653
 20
1678.698646883447
 30
0.0
 11
2438.725314509653
 21
2266.698646883446
 31
0.0
  0
LINE
  5
98
  8
0
  6
CONTINUOUS
 62
     7
 10
2141.725314509652
 20
2266.698646883446
 30
0.0
 11
2140.225314509652
 21
2266.698646883446
 31
0.0
  0
LINE
  5
99
  8
0
  6
CONTINUOUS
 62
     7
 10
2140.225314509652
 20
1678.698646883447
 30
0.0
 11
2141.725314509652
 21
1678.698646883447
 31
0.0
  0
LINE
  5
9A
  8
0
  6
CONTINUOUS
 62
     7
 10
2140.225314509652
 20
2266.698646883446
 30
0.0
 11
2140.225314509652
 21
1678.698646883447
 31
0.0
  0
LINE
  5
9B
  8
0
  6
CONTINUOUS
 62
     7
 10
721.534810965399
 20
1762.073646883446
 30
0.0
 11
721.5348109653984
 21
1761.148646883445
 31
0.0
  0
LINE
  5
9C
  8
0
  6
CONTINUOUS
 62
     7
 10
721.5348109653897
 20
1746.248646883444
 30
0.0
 11
721.5348109653892
 21
1745.323646883445
 31
0.0
  0
LINE
  5
9D
  8
0
  6
CONTINUOUS
 62
     7
 10
721.5348109653892
 20
1745.323646883445
 30
0.0
 11
721.3999958904864
 21
1745.323646883445
 31
0.0
  0
LINE
  5
9E
  8
0
  6
CONTINUOUS
 62
     7
 10
721.3999958904864
 20
1762.073646883445
 30
0.0
 11
721.534810965399
 21
1762.073646883446
 31
0.0
  0
LINE
  5
9F
  8
0
  6
CONTINUOUS
 62
     7
 10
722.8999958904604
 20
1745.323646883445
 30
0.0
 11
721.5348109653892
 21
1745.323646883445
 31
0.0
  0
LINE
  5
A0
  8
0
  6
CONTINUOUS
 62
     7
 10
721.534810965399
 20
1762.073646883446
 30
0.0
 11
722.8999958904503
 21
1762.073646883445
 31
0.0
  0
LINE
  5
A1
  8
0
  6
CONTINUOUS
 62
     7
 10
721.534810965416
 20
2200.073646883448
 30
0.0
 11
721.5348109654155
 21
2199.148646883446
 31
0.0
  0
LINE
  5
A2
  8
0
  6
CONTINUOUS
 62
     7
 10
721.5348109654068
 20
2184.248646883445
 30
0.0
 11
721.5348109654063
 21
2183.323646883447
 31
0.0
  0
LINE
  5
A3
  8
0
  6
CONTINUOUS
 62
     7
 10
721.5348109654063
 20
2183.323646883447
 30
0.0
 11
721.3999958904853
 21
2183.323646883447
 31
0.0
  0
LINE
  5
A4
  8
0
  6
CONTINUOUS
 62
     7
 10
721.3999958904853
 20
2200.073646883447
 30
0.0
 11
721.534810965416
 21
2200.073646883448
 31
0.0
  0
LINE
  5
A5
  8
0
  6
CONTINUOUS
 62
     7
 10
722.8999958904775
 20
2183.323646883447
 30
0.0
 11
721.5348109654063
 21
2183.323646883447
 31
0.0
  0
LINE
  5
A6
  8
0
  6
CONTINUOUS
 62
     7
 10
721.534810965416
 20
2200.073646883448
 30
0.0
 11
722.8999958904674
 21
2200.073646883447
 31
0.0
  0
LINE
  5
A7
  8
0
  6
CONTINUOUS
 62
     7
 10
722.8999958904502
 20
1762.654605022504
 30
0.0
 11
723.3999958904831
 21
1762.654605022505
 31
0.0
  0
LINE
  5
A8
  8
0
  6
CONTINUOUS
 62
     7
 10
722.8999958904503
 20
1761.098646883212
 30
0.0
 11
723.3999958904502
 21
1761.098646883212
 31
0.0
  0
LINE
  5
A9
  8
0
  6
CONTINUOUS
 62
     7
 10
722.8999958904503
 20
1761.098646883212
 30
0.0
 11
722.8999958904502
 21
1762.654605022504
 31
0.0
  0
LINE
  5
AA
  8
0
  6
CONTINUOUS
 62
     7
 10
723.3999958904831
 20
1744.742688744376
 30
0.0
 11
722.8999958904569
 21
1744.742688744377
 31
0.0
  0
LINE
  5
AB
  8
0
  6
CONTINUOUS
 62
     7
 10
722.8999958904569
 20
1744.742688744377
 30
0.0
 11
722.899995890466
 21
1746.298646883663
 31
0.0
  0
LINE
  5
AC
  8
0
  6
CONTINUOUS
 62
     7
 10
723.399995890466
 20
1746.298646883663
 30
0.0
 11
722.899995890466
 21
1746.298646883663
 31
0.0
  0
LINE
  5
AD
  8
0
  6
CONTINUOUS
 62
     7
 10
723.1999958904531
 20
1772.090221041197
 30
0.0
 11
722.8999958904529
 21
1772.090221041197
 31
0.0
  0
LINE
  5
AE
  8
0
  6
CONTINUOUS
 62
     7
 10
723.3999958904532
 20
1772.090221041197
 30
0.0
 11
723.1999958904531
 21
1772.090221041197
 31
0.0
  0
LINE
  5
AF
  8
0
  6
CONTINUOUS
 62
     7
 10
722.8999958904529
 20
1772.090221041197
 30
0.0
 11
722.8999958904502
 21
1762.654605022504
 31
0.0
  0
LINE
  5
B0
  8
0
  6
CONTINUOUS
 62
     7
 10
723.1999958904588
 20
1735.307072725696
 30
0.0
 11
723.3999958904587
 21
1735.307072725696
 31
0.0
  0
LINE
  5
B1
  8
0
  6
CONTINUOUS
 62
     7
 10
722.8999958904589
 20
1735.307072725696
 30
0.0
 11
723.1999958904588
 21
1735.307072725696
 31
0.0
  0
LINE
  5
B2
  8
0
  6
CONTINUOUS
 62
     7
 10
722.8999958904569
 20
1744.742688744377
 30
0.0
 11
722.8999958904589
 21
1735.307072725696
 31
0.0
  0
POLYLINE
  5
B3
  8
0
  6
CONTINUOUS
 62
     7
 10
0.0
 20
0.0
 30
0.0
 66
     1
 70
     8
  0
VERTEX
  5
1C6
  8
0
  6
CONTINUOUS
 62
     7
 10
721.3999958904853
 20
1782.198646883446
 30
0.0
 70
    32
  0
VERTEX
  5
1C7
  8
0
  6
CONTINUOUS
 62
     7
 10
721.4172647158645
 20
1782.198646883446
 30
0.0
 70
    32
  0
VERTEX
  5
1C8
  8
0
  6
CONTINUOUS
 62
     7
 10
721.4346897993349
 20
1782.198646883447
 30
0.0
 70
    32
  0
VERTEX
  5
1C9
  8
0
  6
CONTINUOUS
 62
     7
 10
721.4524273989881
 20
1782.198646883446
 30
0.0
 70
    32
  0
VERTEX
  5
1CA
  8
0
  6
CONTINUOUS
 62
     7
 10
721.4706337729154
 20
1782.198646883446
 30
0.0
 70
    32
  0
VERTEX
  5
1CB
  8
0
  6
CONTINUOUS
 62
     7
 10
721.4894651792087
 20
1782.198646883446
 30
0.0
 70
    32
  0
VERTEX
  5
1CC
  8
0
  6
CONTINUOUS
 62
     7
 10
721.5090778759588
 20
1782.198646883446
 30
0.0
 70
    32
  0
VERTEX
  5
1CD
  8
0
  6
CONTINUOUS
 62
     7
 10
721.5296280992482
 20
1782.198646883446
 30
0.0
 70
    32
  0
VERTEX
  5
1CE
  8
0
  6
CONTINUOUS
 62
     7
 10
721.5512258868678
 20
1782.198646883446
 30
0.0
 70
    32
  0
VERTEX
  5
1CF
  8
0
  6
CONTINUOUS
 62
     7
 10
721.5738376821892
 20
1782.198646883446
 30
0.0
 70
    32
  0
VERTEX
  5
1D0
  8
0
  6
CONTINUOUS
 62
     7
 10
721.5974021109708
 20
1782.198646883445
 30
0.0
 70
    32
  0
VERTEX
  5
1D1
  8
0
  6
CONTINUOUS
 62
     7
 10
721.6218577989717
 20
1782.198646883446
 30
0.0
 70
    32
  0
VERTEX
  5
1D2
  8
0
  6
CONTINUOUS
 62
     7
 10
721.6471433719506
 20
1782.198646883446
 30
0.0
 70
    32
  0
VERTEX
  5
1D3
  8
0
  6
CONTINUOUS
 62
     7
 10
721.6731974556658
 20
1782.198646883446
 30
0.0
 70
    32
  0
VERTEX
  5
1D4
  8
0
  6
CONTINUOUS
 62
     7
 10
721.6999586758764
 20
1782.198646883446
 30
0.0
 70
    32
  0
VERTEX
  5
1D5
  8
0
  6
CONTINUOUS
 62
     7
 10
721.7273656583402
 20
1782.198646883446
 30
0.0
 70
    32
  0
VERTEX
  5
1D6
  8
0
  6
CONTINUOUS
 62
     7
 10
721.7553570288169
 20
1782.198646883446
 30
0.0
 70
    32
  0
VERTEX
  5
1D7
  8
0
  6
CONTINUOUS
 62
     7
 10
721.7838714130644
 20
1782.198646883446
 30
0.0
 70
    32
  0
VERTEX
  5
1D8
  8
0
  6
CONTINUOUS
 62
     7
 10
721.8128560639178
 20
1782.198646883446
 30
0.0
 70
    32
  0
VERTEX
  5
1D9
  8
0
  6
CONTINUOUS
 62
     7
 10
721.8423003727977
 20
1782.198646883447
 30
0.0
 70
    32
  0
VERTEX
  5
1DA
  8
0
  6
CONTINUOUS
 62
     7
 10
721.8722065772064
 20
1782.198646883446
 30
0.0
 70
    32
  0
VERTEX
  5
1DB
  8
0
  6
CONTINUOUS
 62
     7
 10
721.9025769177524
 20
1782.198646883447
 30
0.0
 70
    32
  0
VERTEX
  5
1DC
  8
0
  6
CONTINUOUS
 62
     7
 10
721.9334136350445
 20
1782.198646883446
 30
0.0
 70
    32
  0
VERTEX
  5
1DD
  8
0
  6
CONTINUOUS
 62
     7
 10
721.964718969692
 20
1782.198646883446
 30
0.0
 70
    32
  0
VERTEX
  5
1DE
  8
0
  6
CONTINUOUS
 62
     7
 10
721.9964951623027
 20
1782.198646883447
 30
0.0
 70
    32
  0
VERTEX
  5
1DF
  8
0
  6
CONTINUOUS
 62
     7
 10
722.0287444534861
 20
1782.198646883446
 30
0.0
 70
    32
  0
VERTEX
  5
1E0
  8
0
  6
CONTINUOUS
 62
     7
 10
722.0614690838503
 20
1782.198646883446
 30
0.0
 70
    32
  0
VERTEX
  5
1E1
  8
0
  6
CONTINUOUS
 62
     7
 10
722.0946712940047
 20
1782.198646883446
 30
0.0
 70
    32
  0
VERTEX
  5
1E2
  8
0
  6
CONTINUOUS
 62
     7
 10
722.1283517328128
 20
1782.198646883446
 30
0.0
 70
    32
  0
VERTEX
  5
1E3
  8
0
  6
CONTINUOUS
 62
     7
 10
722.1624991261353
 20
1782.198646883447
 30
0.0
 70
    32
  0
VERTEX
  5
1E4
  8
0
  6
CONTINUOUS
 62
     7
 10
722.1970967930448
 20
1782.198646883446
 30
0.0
 70
    32
  0
VERTEX
  5
1E5
  8
0
  6
CONTINUOUS
 62
     7
 10
722.2321280257337
 20
1782.198646883446
 30
0.0
 70
    32
  0
VERTEX
  5
1E6
  8
0
  6
CONTINUOUS
 62
     7
 10
722.2675761163945
 20
1782.198646883446
 30
0.0
 70
    32
  0
VERTEX
  5
1E7
  8
0
  6
CONTINUOUS
 62
     7
 10
722.3034243572191
 20
1782.198646883446
 30
0.0
 70
    32
  0
VERTEX
  5
1E8
  8
0
  6
CONTINUOUS
 62
     7
 10
722.3396560404002
 20
1782.198646883446
 30
0.0
 70
    32
  0
VERTEX
  5
1E9
  8
0
  6
CONTINUOUS
 62
     7
 10
722.3762544581301
 20
1782.198646883446
 30
0.0
 70
    32
  0
VERTEX
  5
1EA
  8
0
  6
CONTINUOUS
 62
     7
 10
722.4132029026009
 20
1782.198646883446
 30
0.0
 70
    32
  0
VERTEX
  5
1EB
  8
0
  6
CONTINUOUS
 62
     7
 10
722.4504846660053
 20
1782.198646883447
 30
0.0
 70
    32
  0
VERTEX
  5
1EC
  8
0
  6
CONTINUOUS
 62
     7
 10
722.4880830425409
 20
1782.198646883446
 30
0.0
 70
    32
  0
VERTEX
  5
1ED
  8
0
  6
CONTINUOUS
 62
     7
 10
722.5259813516817
 20
1782.198646883446
 30
0.0
 70
    32
  0
VERTEX
  5
1EE
  8
0
  6
CONTINUOUS
 62
     7
 10
722.564162930188
 20
1782.198646883447
 30
0.0
 70
    32
  0
VERTEX
  5
1EF
  8
0
  6
CONTINUOUS
 62
     7
 10
722.6026111151558
 20
1782.198646883446
 30
0.0
 70
    32
  0
VERTEX
  5
1F0
  8
0
  6
CONTINUOUS
 62
     7
 10
722.6413092436815
 20
1782.198646883447
 30
0.0
 70
    32
  0
VERTEX
  5
1F1
  8
0
  6
CONTINUOUS
 62
     7
 10
722.680240652861
 20
1782.198646883447
 30
0.0
 70
    32
  0
VERTEX
  5
1F2
  8
0
  6
CONTINUOUS
 62
     7
 10
722.7193886797905
 20
1782.198646883448
 30
0.0
 70
    32
  0
VERTEX
  5
1F3
  8
0
  6
CONTINUOUS
 62
     7
 10
722.7587366615668
 20
1782.198646883448
 30
0.0
 70
    32
  0
VERTEX
  5
1F4
  8
0
  6
CONTINUOUS
 62
     7
 10
722.798267935285
 20
1782.198646883448
 30
0.0
 70
    32
  0
VERTEX
  5
1F5
  8
0
  6
CONTINUOUS
 62
     7
 10
722.8379658380417
 20
1782.198646883448
 30
0.0
 70
    32
  0
VERTEX
  5
1F6
  8
0
  6
CONTINUOUS
 62
     7
 10
722.877813706933
 20
1782.198646883448
 30
0.0
 70
    32
  0
VERTEX
  5
1F7
  8
0
  6
CONTINUOUS
 62
     7
 10
722.9177948790555
 20
1782.198646883449
 30
0.0
 70
    32
  0
VERTEX
  5
1F8
  8
0
  6
CONTINUOUS
 62
     7
 10
722.9578926915048
 20
1782.198646883449
 30
0.0
 70
    32
  0
VERTEX
  5
1F9
  8
0
  6
CONTINUOUS
 62
     7
 10
722.9980904813771
 20
1782.19864688345
 30
0.0
 70
    32
  0
VERTEX
  5
1FA
  8
0
  6
CONTINUOUS
 62
     7
 10
723.0383715857687
 20
1782.19864688345
 30
0.0
 70
    32
  0
VERTEX
  5
1FB
  8
0
  6
CONTINUOUS
 62
     7
 10
723.0787193417757
 20
1782.19864688345
 30
0.0
 70
    32
  0
VERTEX
  5
1FC
  8
0
  6
CONTINUOUS
 62
     7
 10
723.1191170864945
 20
1782.198646883451
 30
0.0
 70
    32
  0
VERTEX
  5
1FD
  8
0
  6
CONTINUOUS
 62
     7
 10
723.1595481570208
 20
1782.198646883451
 30
0.0
 70
    32
  0
VERTEX
  5
1FE
  8
0
  6
CONTINUOUS
 62
     7
 10
723.1999958904509
 20
1782.198646883452
 30
0.0
 70
    32
  0
SEQEND
  5
4C4
  8
0
  6
CONTINUOUS
 62
     7
  0
LINE
  5
B4
  8
0
  6
CONTINUOUS
 62
     7
 10
723.1999958904526
 20
1781.198646883453
 30
0.0
 11
723.1999958904509
 21
1782.198646883452
 31
0.0
  0
POLYLINE
  5
B5
  8
0
  6
CONTINUOUS
 62
     7
 10
0.0
 20
0.0
 30
0.0
 66
     1
 70
     8
  0
VERTEX
  5
1FF
  8
0
  6
CONTINUOUS
 62
     7
 10
723.1999958904747
 20
1725.198646883448
 30
0.0
 70
    32
  0
VERTEX
  5
200
  8
0
  6
CONTINUOUS
 62
     7
 10
723.1595474117787
 20
1725.198646883448
 30
0.0
 70
    32
  0
VERTEX
  5
201
  8
0
  6
CONTINUOUS
 62
     7
 10
723.1191155994776
 20
1725.198646883448
 30
0.0
 70
    32
  0
VERTEX
  5
202
  8
0
  6
CONTINUOUS
 62
     7
 10
723.078717119966
 20
1725.198646883447
 30
0.0
 70
    32
  0
VERTEX
  5
203
  8
0
  6
CONTINUOUS
 62
     7
 10
723.0383686396389
 20
1725.198646883448
 30
0.0
 70
    32
  0
VERTEX
  5
204
  8
0
  6
CONTINUOUS
 62
     7
 10
722.998086824891
 20
1725.198646883447
 30
0.0
 70
    32
  0
VERTEX
  5
205
  8
0
  6
CONTINUOUS
 62
     7
 10
722.9578883421171
 20
1725.198646883448
 30
0.0
 70
    32
  0
VERTEX
  5
206
  8
0
  6
CONTINUOUS
 62
     7
 10
722.9177898577124
 20
1725.198646883448
 30
0.0
 70
    32
  0
VERTEX
  5
207
  8
0
  6
CONTINUOUS
 62
     7
 10
722.8778080380708
 20
1725.198646883447
 30
0.0
 70
    32
  0
VERTEX
  5
208
  8
0
  6
CONTINUOUS
 62
     7
 10
722.8379595495885
 20
1725.198646883448
 30
0.0
 70
    32
  0
VERTEX
  5
209
  8
0
  6
CONTINUOUS
 62
     7
 10
722.7982610586589
 20
1725.198646883447
 30
0.0
 70
    32
  0
VERTEX
  5
20A
  8
0
  6
CONTINUOUS
 62
     7
 10
722.7587292316776
 20
1725.198646883448
 30
0.0
 70
    32
  0
VERTEX
  5
20B
  8
0
  6
CONTINUOUS
 62
     7
 10
722.7193807350393
 20
1725.198646883447
 30
0.0
 70
    32
  0
VERTEX
  5
20C
  8
0
  6
CONTINUOUS
 62
     7
 10
722.6802322351388
 20
1725.198646883447
 30
0.0
 70
    32
  0
VERTEX
  5
20D
  8
0
  6
CONTINUOUS
 62
     7
 10
722.6413003983708
 20
1725.198646883447
 30
0.0
 70
    32
  0
VERTEX
  5
20E
  8
0
  6
CONTINUOUS
 62
     7
 10
722.6026018911301
 20
1725.198646883447
 30
0.0
 70
    32
  0
VERTEX
  5
20F
  8
0
  6
CONTINUOUS
 62
     7
 10
722.5641533798118
 20
1725.198646883447
 30
0.0
 70
    32
  0
VERTEX
  5
210
  8
0
  6
CONTINUOUS
 62
     7
 10
722.5259715308107
 20
1725.198646883447
 30
0.0
 70
    32
  0
VERTEX
  5
211
  8
0
  6
CONTINUOUS
 62
     7
 10
722.488073010521
 20
1725.198646883447
 30
0.0
 70
    32
  0
VERTEX
  5
212
  8
0
  6
CONTINUOUS
 62
     7
 10
722.4504744855806
 20
1725.198646883448
 30
0.0
 70
    32
  0
VERTEX
  5
213
  8
0
  6
CONTINUOUS
 62
     7
 10
722.4131926350873
 20
1725.198646883447
 30
0.0
 70
    32
  0
VERTEX
  5
214
  8
0
  6
CONTINUOUS
 62
     7
 10
722.3762441563459
 20
1725.198646883448
 30
0.0
 70
    32
  0
VERTEX
  5
215
  8
0
  6
CONTINUOUS
 62
     7
 10
722.3396457481042
 20
1725.198646883447
 30
0.0
 70
    32
  0
VERTEX
  5
216
  8
0
  6
CONTINUOUS
 62
     7
 10
722.3034141091105
 20
1725.198646883448
 30
0.0
 70
    32
  0
VERTEX
  5
217
  8
0
  6
CONTINUOUS
 62
     7
 10
722.2675659381119
 20
1725.198646883447
 30
0.0
 70
    32
  0
VERTEX
  5
218
  8
0
  6
CONTINUOUS
 62
     7
 10
722.2321179338571
 20
1725.198646883448
 30
0.0
 70
    32
  0
VERTEX
  5
219
  8
0
  6
CONTINUOUS
 62
     7
 10
722.1970867950935
 20
1725.198646883447
 30
0.0
 70
    32
  0
VERTEX
  5
21A
  8
0
  6
CONTINUOUS
 62
     7
 10
722.1624892205695
 20
1725.198646883448
 30
0.0
 70
    32
  0
VERTEX
  5
21B
  8
0
  6
CONTINUOUS
 62
     7
 10
722.1283419090325
 20
1725.198646883447
 30
0.0
 70
    32
  0
VERTEX
  5
21C
  8
0
  6
CONTINUOUS
 62
     7
 10
722.0946615266348
 20
1725.198646883447
 30
0.0
 70
    32
  0
VERTEX
  5
21D
  8
0
  6
CONTINUOUS
 62
     7
 10
722.061459180092
 20
1725.198646883447
 30
0.0
 70
    32
  0
VERTEX
  5
21E
  8
0
  6
CONTINUOUS
 62
     7
 10
722.0287341779351
 20
1725.198646883447
 30
0.0
 70
    32
  0
VERTEX
  5
21F
  8
0
  6
CONTINUOUS
 62
     7
 10
721.9964843221579
 20
1725.198646883447
 30
0.0
 70
    32
  0
VERTEX
  5
220
  8
0
  6
CONTINUOUS
 62
     7
 10
721.9647074147547
 20
1725.198646883447
 30
0.0
 70
    32
  0
VERTEX
  5
221
  8
0
  6
CONTINUOUS
 62
     7
 10
721.9334012577191
 20
1725.198646883448
 30
0.0
 70
    32
  0
VERTEX
  5
222
  8
0
  6
CONTINUOUS
 62
     7
 10
721.9025636530453
 20
1725.198646883448
 30
0.0
 70
    32
  0
VERTEX
  5
223
  8
0
  6
CONTINUOUS
 62
     7
 10
721.8721924027268
 20
1725.198646883448
 30
0.0
 70
    32
  0
VERTEX
  5
224
  8
0
  6
CONTINUOUS
 62
     7
 10
721.842285308758
 20
1725.198646883447
 30
0.0
 70
    32
  0
VERTEX
  5
225
  8
0
  6
CONTINUOUS
 62
     7
 10
721.8128401731329
 20
1725.198646883447
 30
0.0
 70
    32
  0
VERTEX
  5
226
  8
0
  6
CONTINUOUS
 62
     7
 10
721.7838548010351
 20
1725.198646883447
 30
0.0
 70
    32
  0
VERTEX
  5
227
  8
0
  6
CONTINUOUS
 62
     7
 10
721.755339870716
 20
1725.198646883448
 30
0.0
 70
    32
  0
VERTEX
  5
228
  8
0
  6
CONTINUOUS
 62
     7
 10
721.7273482155989
 20
1725.198646883447
 30
0.0
 70
    32
  0
VERTEX
  5
229
  8
0
  6
CONTINUOUS
 62
     7
 10
721.6999412845753
 20
1725.198646883447
 30
0.0
 70
    32
  0
VERTEX
  5
22A
  8
0
  6
CONTINUOUS
 62
     7
 10
721.6731805265364
 20
1725.198646883447
 30
0.0
 70
    32
  0
VERTEX
  5
22B
  8
0
  6
CONTINUOUS
 62
     7
 10
721.6471273903735
 20
1725.198646883447
 30
0.0
 70
    32
  0
VERTEX
  5
22C
  8
0
  6
CONTINUOUS
 62
     7
 10
721.6218433249782
 20
1725.198646883447
 30
0.0
 70
    32
  0
VERTEX
  5
22D
  8
0
  6
CONTINUOUS
 62
     7
 10
721.5973897792413
 20
1725.198646883447
 30
0.0
 70
    32
  0
VERTEX
  5
22E
  8
0
  6
CONTINUOUS
 62
     7
 10
721.5738282020546
 20
1725.198646883448
 30
0.0
 70
    32
  0
VERTEX
  5
22F
  8
0
  6
CONTINUOUS
 62
     7
 10
721.5512200423092
 20
1725.198646883448
 30
0.0
 70
    32
  0
VERTEX
  5
230
  8
0
  6
CONTINUOUS
 62
     7
 10
721.5296267488966
 20
1725.198646883448
 30
0.0
 70
    32
  0
VERTEX
  5
231
  8
0
  6
CONTINUOUS
 62
     7
 10
721.5090806838472
 20
1725.198646883447
 30
0.0
 70
    32
  0
VERTEX
  5
232
  8
0
  6
CONTINUOUS
 62
     7
 10
721.4894703207743
 20
1725.198646883448
 30
0.0
 70
    32
  0
VERTEX
  5
233
  8
0
  6
CONTINUOUS
 62
     7
 10
721.4706397199809
 20
1725.198646883447
 30
0.0
 70
    32
  0
VERTEX
  5
234
  8
0
  6
CONTINUOUS
 62
     7
 10
721.4524329290111
 20
1725.198646883447
 30
0.0
 70
    32
  0
VERTEX
  5
235
  8
0
  6
CONTINUOUS
 62
     7
 10
721.4346939954095
 20
1725.198646883448
 30
0.0
 70
    32
  0
VERTEX
  5
236
  8
0
  6
CONTINUOUS
 62
     7
 10
721.4172669667195
 20
1725.198646883447
 30
0.0
 70
    32
  0
VERTEX
  5
237
  8
0
  6
CONTINUOUS
 62
     7
 10
721.3999958904853
 20
1725.198646883447
 30
0.0
 70
    32
  0
SEQEND
  5
4C5
  8
0
  6
CONTINUOUS
 62
     7
  0
LINE
  5
B6
  8
0
  6
CONTINUOUS
 62
     7
 10
723.1999958904618
 20
1726.198646883446
 30
0.0
 11
723.1999958904747
 21
1725.198646883448
 31
0.0
  0
LINE
  5
B7
  8
0
  6
CONTINUOUS
 62
     7
 10
723.3999958904526
 20
1781.198646883453
 30
0.0
 11
723.1999958904526
 21
1781.198646883453
 31
0.0
  0
LINE
  5
B8
  8
0
  6
CONTINUOUS
 62
     7
 10
723.1999958904526
 20
1781.198646883453
 30
0.0
 11
723.1999958904531
 21
1772.090221041197
 31
0.0
  0
POLYLINE
  5
B9
  8
0
  6
CONTINUOUS
 62
     7
 66
     1
 10
0.0
 20
0.0
 30
0.0
  0
VERTEX
  5
238
  8
0
  6
CONTINUOUS
 62
     7
 10
721.3999958904853
 20
1763.941145525095
 30
0.0
  0
VERTEX
  5
239
  8
0
  6
CONTINUOUS
 62
     7
 10
721.4088602327449
 20
1763.932349042287
 30
0.0
  0
VERTEX
  5
23A
  8
0
  6
CONTINUOUS
 62
     7
 10
721.4178435516379
 20
1763.923703242899
 30
0.0
  0
VERTEX
  5
23B
  8
0
  6
CONTINUOUS
 62
     7
 10
721.4270365772387
 20
1763.915323488314
 30
0.0
  0
VERTEX
  5
23C
  8
0
  6
CONTINUOUS
 62
     7
 10
721.4364432300844
 20
1763.907216585465
 30
0.0
  0
VERTEX
  5
23D
  8
0
  6
CONTINUOUS
 62
     7
 10
721.4460508089111
 20
1763.899368555891
 30
0.0
  0
VERTEX
  5
23E
  8
0
  6
CONTINUOUS
 62
     7
 10
721.4558466124566
 20
1763.891765421134
 30
0.0
  0
VERTEX
  5
23F
  8
0
  6
CONTINUOUS
 62
     7
 10
721.4658179394569
 20
1763.884393202731
 30
0.0
  0
VERTEX
  5
240
  8
0
  6
CONTINUOUS
 62
     7
 10
721.4759520886497
 20
1763.877237922226
 30
0.0
  0
VERTEX
  5
241
  8
0
  6
CONTINUOUS
 62
     7
 10
721.4862363587712
 20
1763.870285601156
 30
0.0
  0
VERTEX
  5
242
  8
0
  6
CONTINUOUS
 62
     7
 10
721.4966580485585
 20
1763.863522261064
 30
0.0
  0
VERTEX
  5
243
  8
0
  6
CONTINUOUS
 62
     7
 10
721.5072044567485
 20
1763.856933923487
 30
0.0
  0
VERTEX
  5
244
  8
0
  6
CONTINUOUS
 62
     7
 10
721.517862882078
 20
1763.850506609967
 30
0.0
  0
VERTEX
  5
245
  8
0
  6
CONTINUOUS
 62
     7
 10
721.5286206232837
 20
1763.844226342044
 30
0.0
  0
VERTEX
  5
246
  8
0
  6
CONTINUOUS
 62
     7
 10
721.5394649791027
 20
1763.838079141257
 30
0.0
  0
VERTEX
  5
247
  8
0
  6
CONTINUOUS
 62
     7
 10
721.5503832482719
 20
1763.832051029147
 30
0.0
  0
VERTEX
  5
248
  8
0
  6
CONTINUOUS
 62
     7
 10
721.5613627295278
 20
1763.826128027254
 30
0.0
  0
VERTEX
  5
249
  8
0
  6
CONTINUOUS
 62
     7
 10
721.5723924904211
 20
1763.820298300163
 30
0.0
  0
VERTEX
  5
24A
  8
0
  6
CONTINUOUS
 62
     7
 10
721.5834712678329
 20
1763.81456172755
 30
0.0
  0
VERTEX
  5
24B
  8
0
  6
CONTINUOUS
 62
     7
 10
721.594601086107
 20
1763.808922172092
 30
0.0
  0
VERTEX
  5
24C
  8
0
  6
CONTINUOUS
 62
     7
 10
721.6057839723065
 20
1763.803383499754
 30
0.0
  0
VERTEX
  5
24D
  8
0
  6
CONTINUOUS
 62
     7
 10
721.6170219534948
 20
1763.797949576509
 30
0.0
  0
VERTEX
  5
24E
  8
0
  6
CONTINUOUS
 62
     7
 10
721.6283170567352
 20
1763.792624268325
 30
0.0
  0
VERTEX
  5
24F
  8
0
  6
CONTINUOUS
 62
     7
 10
721.6396713090912
 20
1763.787411441172
 30
0.0
  0
VERTEX
  5
250
  8
0
  6
CONTINUOUS
 62
     7
 10
721.6510867376263
 20
1763.782314961019
 30
0.0
  0
VERTEX
  5
251
  8
0
  6
CONTINUOUS
 62
     7
 10
721.6625653694032
 20
1763.777338693834
 30
0.0
  0
VERTEX
  5
252
  8
0
  6
CONTINUOUS
 62
     7
 10
721.6741092314858
 20
1763.772486505589
 30
0.0
  0
VERTEX
  5
253
  8
0
  6
CONTINUOUS
 62
     7
 10
721.6857203509371
 20
1763.767762262253
 30
0.0
  0
VERTEX
  5
254
  8
0
  6
CONTINUOUS
 62
     7
 10
721.6974007548207
 20
1763.763169829793
 30
0.0
  0
VERTEX
  5
255
  8
0
  6
CONTINUOUS
 62
     7
 10
721.7091524702
 20
1763.758713074182
 30
0.0
  0
VERTEX
  5
256
  8
0
  6
CONTINUOUS
 62
     7
 10
721.7209775241381
 20
1763.754395861386
 30
0.0
  0
VERTEX
  5
257
  8
0
  6
CONTINUOUS
 62
     7
 10
721.7328779172561
 20
1763.750222062959
 30
0.0
  0
VERTEX
  5
258
  8
0
  6
CONTINUOUS
 62
     7
 10
721.7448542647331
 20
1763.746195842967
 30
0.0
  0
VERTEX
  5
259
  8
0
  6
CONTINUOUS
 62
     7
 10
721.7569051425853
 20
1763.742321796012
 30
0.0
  0
VERTEX
  5
25A
  8
0
  6
CONTINUOUS
 62
     7
 10
721.7690289634888
 20
1763.738604551182
 30
0.0
  0
VERTEX
  5
25B
  8
0
  6
CONTINUOUS
 62
     7
 10
721.7812241401197
 20
1763.735048737567
 30
0.0
  0
VERTEX
  5
25C
  8
0
  6
CONTINUOUS
 62
     7
 10
721.7934890851539
 20
1763.731658984253
 30
0.0
  0
VERTEX
  5
25D
  8
0
  6
CONTINUOUS
 62
     7
 10
721.805822211268
 20
1763.728439920332
 30
0.0
  0
VERTEX
  5
25E
  8
0
  6
CONTINUOUS
 62
     7
 10
721.8182219311377
 20
1763.72539617489
 30
0.0
  0
VERTEX
  5
25F
  8
0
  6
CONTINUOUS
 62
     7
 10
721.8306866574394
 20
1763.722532377018
 30
0.0
  0
VERTEX
  5
260
  8
0
  6
CONTINUOUS
 62
     7
 10
721.8432148028492
 20
1763.719853155804
 30
0.0
  0
VERTEX
  5
261
  8
0
  6
CONTINUOUS
 62
     7
 10
721.8558047800431
 20
1763.717363140335
 30
0.0
  0
VERTEX
  5
262
  8
0
  6
CONTINUOUS
 62
     7
 10
721.8684550016973
 20
1763.715066959702
 30
0.0
  0
VERTEX
  5
263
  8
0
  6
CONTINUOUS
 62
     7
 10
721.8811638804879
 20
1763.712969242992
 30
0.0
  0
VERTEX
  5
264
  8
0
  6
CONTINUOUS
 62
     7
 10
721.8939295621053
 20
1763.711072690094
 30
0.0
  0
VERTEX
  5
265
  8
0
  6
CONTINUOUS
 62
     7
 10
721.9067483768446
 20
1763.709366883114
 30
0.0
  0
VERTEX
  5
266
  8
0
  6
CONTINUOUS
 62
     7
 10
721.919615899225
 20
1763.707835943027
 30
0.0
  0
VERTEX
  5
267
  8
0
  6
CONTINUOUS
 62
     7
 10
721.9325277012794
 20
1763.706463972845
 30
0.0
  0
VERTEX
  5
268
  8
0
  6
CONTINUOUS
 62
     7
 10
721.94547935504
 20
1763.705235075575
 30
0.0
  0
VERTEX
  5
269
  8
0
  6
CONTINUOUS
 62
     7
 10
721.9584664325395
 20
1763.704133354228
 30
0.0
  0
VERTEX
  5
26A
  8
0
  6
CONTINUOUS
 62
     7
 10
721.9714845058105
 20
1763.703142911813
 30
0.0
  0
VERTEX
  5
26B
  8
0
  6
CONTINUOUS
 62
     7
 10
721.9845291468858
 20
1763.70224785134
 30
0.0
  0
VERTEX
  5
26C
  8
0
  6
CONTINUOUS
 62
     7
 10
721.9975959277979
 20
1763.701432275819
 30
0.0
  0
VERTEX
  5
26D
  8
0
  6
CONTINUOUS
 62
     7
 10
722.0106804205795
 20
1763.700680288259
 30
0.0
  0
VERTEX
  5
26E
  8
0
  6
CONTINUOUS
 62
     7
 10
722.0237781972634
 20
1763.699975991671
 30
0.0
  0
VERTEX
  5
26F
  8
0
  6
CONTINUOUS
 62
     7
 10
722.036884829882
 20
1763.699303489063
 30
0.0
  0
VERTEX
  5
270
  8
0
  6
CONTINUOUS
 62
     7
 10
722.0499958904677
 20
1763.698646883445
 30
0.0
  0
SEQEND
  5
4C6
  8
0
  6
CONTINUOUS
 62
     7
  0
LINE
  5
BA
  8
0
  6
CONTINUOUS
 62
     7
 10
722.8999958904604
 20
1763.698646883445
 30
0.0
 11
722.0499958904677
 21
1763.698646883445
 31
0.0
  0
LINE
  5
BB
  8
0
  6
CONTINUOUS
 62
     7
 10
723.3999958904618
 20
1726.198646883446
 30
0.0
 11
723.1999958904618
 21
1726.198646883446
 31
0.0
  0
LINE
  5
BC
  8
0
  6
CONTINUOUS
 62
     7
 10
723.1999958904588
 20
1735.307072725696
 30
0.0
 11
723.1999958904618
 21
1726.198646883446
 31
0.0
  0
POLYLINE
  5
BD
  8
0
  6
CONTINUOUS
 62
     7
 66
     1
 10
0.0
 20
0.0
 30
0.0
  0
VERTEX
  5
271
  8
0
  6
CONTINUOUS
 62
     7
 10
722.0499958904567
 20
1743.698646883445
 30
0.0
  0
VERTEX
  5
272
  8
0
  6
CONTINUOUS
 62
     7
 10
722.0271104318276
 20
1743.696371560453
 30
0.0
  0
VERTEX
  5
273
  8
0
  6
CONTINUOUS
 62
     7
 10
722.0042449676279
 20
1743.694055309979
 30
0.0
  0
VERTEX
  5
274
  8
0
  6
CONTINUOUS
 62
     7
 10
721.9814194922872
 20
1743.69165720454
 30
0.0
  0
VERTEX
  5
275
  8
0
  6
CONTINUOUS
 62
     7
 10
721.9586540002352
 20
1743.689136316655
 30
0.0
  0
VERTEX
  5
276
  8
0
  6
CONTINUOUS
 62
     7
 10
721.9359684859012
 20
1743.68645171884
 30
0.0
  0
VERTEX
  5
277
  8
0
  6
CONTINUOUS
 62
     7
 10
721.9133829437145
 20
1743.683562483614
 30
0.0
  0
VERTEX
  5
278
  8
0
  6
CONTINUOUS
 62
     7
 10
721.8909173681051
 20
1743.680427683493
 30
0.0
  0
VERTEX
  5
279
  8
0
  6
CONTINUOUS
 62
     7
 10
721.8685917535021
 20
1743.677006390997
 30
0.0
  0
VERTEX
  5
27A
  8
0
  6
CONTINUOUS
 62
     7
 10
721.8464260943351
 20
1743.673257678642
 30
0.0
  0
VERTEX
  5
27B
  8
0
  6
CONTINUOUS
 62
     7
 10
721.8244403850338
 20
1743.669140618947
 30
0.0
  0
VERTEX
  5
27C
  8
0
  6
CONTINUOUS
 62
     7
 10
721.8026546200274
 20
1743.664614284428
 30
0.0
  0
VERTEX
  5
27D
  8
0
  6
CONTINUOUS
 62
     7
 10
721.7810887937455
 20
1743.659637747604
 30
0.0
  0
VERTEX
  5
27E
  8
0
  6
CONTINUOUS
 62
     7
 10
721.7597629006178
 20
1743.654170080993
 30
0.0
  0
VERTEX
  5
27F
  8
0
  6
CONTINUOUS
 62
     7
 10
721.7386969350738
 20
1743.648170357111
 30
0.0
  0
VERTEX
  5
280
  8
0
  6
CONTINUOUS
 62
     7
 10
721.7179108915427
 20
1743.641597648477
 30
0.0
  0
VERTEX
  5
281
  8
0
  6
CONTINUOUS
 62
     7
 10
721.6974247644544
 20
1743.63441102761
 30
0.0
  0
VERTEX
  5
282
  8
0
  6
CONTINUOUS
 62
     7
 10
721.6772545617163
 20
1743.626577727211
 30
0.0
  0
VERTEX
  5
283
  8
0
  6
CONTINUOUS
 62
     7
 10
721.6573903165767
 20
1743.61811814867
 30
0.0
  0
VERTEX
  5
284
  8
0
  6
CONTINUOUS
 62
     7
 10
721.6378116577248
 20
1743.609073990922
 30
0.0
  0
VERTEX
  5
285
  8
0
  6
CONTINUOUS
 62
     7
 10
721.6184981861401
 20
1743.599487009625
 30
0.0
  0
VERTEX
  5
286
  8
0
  6
CONTINUOUS
 62
     7
 10
721.5994295028022
 20
1743.589398960437
 30
0.0
  0
VERTEX
  5
287
  8
0
  6
CONTINUOUS
 62
     7
 10
721.5805852086903
 20
1743.578851599014
 30
0.0
  0
VERTEX
  5
288
  8
0
  6
CONTINUOUS
 62
     7
 10
721.5619449047839
 20
1743.567886681016
 30
0.0
  0
VERTEX
  5
289
  8
0
  6
CONTINUOUS
 62
     7
 10
721.5434881920628
 20
1743.556545962099
 30
0.0
  0
VERTEX
  5
28A
  8
0
  6
CONTINUOUS
 62
     7
 10
721.5251946715058
 20
1743.54487119792
 30
0.0
  0
VERTEX
  5
28B
  8
0
  6
CONTINUOUS
 62
     7
 10
721.5070439440929
 20
1743.532904144139
 30
0.0
  0
VERTEX
  5
28C
  8
0
  6
CONTINUOUS
 62
     7
 10
721.4890156108031
 20
1743.520686556412
 30
0.0
  0
VERTEX
  5
28D
  8
0
  6
CONTINUOUS
 62
     7
 10
721.4710892726164
 20
1743.508260190396
 30
0.0
  0
VERTEX
  5
28E
  8
0
  6
CONTINUOUS
 62
     7
 10
721.4532445305115
 20
1743.495666801751
 30
0.0
  0
VERTEX
  5
28F
  8
0
  6
CONTINUOUS
 62
     7
 10
721.4354609854686
 20
1743.482948146132
 30
0.0
  0
VERTEX
  5
290
  8
0
  6
CONTINUOUS
 62
     7
 10
721.4177182384667
 20
1743.470145979198
 30
0.0
  0
VERTEX
  5
291
  8
0
  6
CONTINUOUS
 62
     7
 10
721.3999958904853
 20
1743.457302056607
 30
0.0
  0
SEQEND
  5
4C7
  8
0
  6
CONTINUOUS
 62
     7
  0
LINE
  5
BE
  8
0
  6
CONTINUOUS
 62
     7
 10
722.0499958904567
 20
1743.698646883445
 30
0.0
 11
722.8999958904601
 21
1743.698646883448
 31
0.0
  0
LINE
  5
BF
  8
0
  6
CONTINUOUS
 62
     7
 10
723.3999958904508
 20
1782.198646883452
 30
0.0
 11
723.1999958904509
 21
1782.198646883452
 31
0.0
  0
LINE
  5
C0
  8
0
  6
CONTINUOUS
 62
     7
 10
723.3999958904747
 20
1725.198646883448
 30
0.0
 11
723.1999958904747
 21
1725.198646883448
 31
0.0
  0
LINE
  5
C1
  8
0
  6
CONTINUOUS
 62
     7
 10
722.8999958904673
 20
2200.654605022506
 30
0.0
 11
723.3999958904831
 21
2200.654605022507
 31
0.0
  0
LINE
  5
C2
  8
0
  6
CONTINUOUS
 62
     7
 10
722.8999958904674
 20
2199.098646883213
 30
0.0
 11
723.3999958904674
 21
2199.098646883213
 31
0.0
  0
LINE
  5
C3
  8
0
  6
CONTINUOUS
 62
     7
 10
722.8999958904674
 20
2199.098646883213
 30
0.0
 11
722.8999958904673
 21
2200.654605022506
 31
0.0
  0
LINE
  5
C4
  8
0
  6
CONTINUOUS
 62
     7
 10
723.3999958904831
 20
2182.742688744377
 30
0.0
 11
722.8999958904741
 21
2182.742688744378
 31
0.0
  0
LINE
  5
C5
  8
0
  6
CONTINUOUS
 62
     7
 10
722.8999958904741
 20
2182.742688744378
 30
0.0
 11
722.8999958904832
 21
2184.298646883664
 31
0.0
  0
LINE
  5
C6
  8
0
  6
CONTINUOUS
 62
     7
 10
723.3999958904831
 20
2184.298646883664
 30
0.0
 11
722.8999958904832
 21
2184.298646883664
 31
0.0
  0
LINE
  5
C7
  8
0
  6
CONTINUOUS
 62
     7
 10
723.1999958904703
 20
2210.090221041198
 30
0.0
 11
722.89999589047
 21
2210.090221041198
 31
0.0
  0
LINE
  5
C8
  8
0
  6
CONTINUOUS
 62
     7
 10
723.3999958904702
 20
2210.090221041198
 30
0.0
 11
723.1999958904703
 21
2210.090221041198
 31
0.0
  0
LINE
  5
C9
  8
0
  6
CONTINUOUS
 62
     7
 10
722.89999589047
 20
2210.090221041198
 30
0.0
 11
722.8999958904673
 21
2200.654605022506
 31
0.0
  0
LINE
  5
CA
  8
0
  6
CONTINUOUS
 62
     7
 10
723.1999958904759
 20
2173.307072725697
 30
0.0
 11
723.3999958904759
 21
2173.307072725697
 31
0.0
  0
LINE
  5
CB
  8
0
  6
CONTINUOUS
 62
     7
 10
722.8999958904759
 20
2173.307072725697
 30
0.0
 11
723.1999958904759
 21
2173.307072725697
 31
0.0
  0
LINE
  5
CC
  8
0
  6
CONTINUOUS
 62
     7
 10
722.8999958904741
 20
2182.742688744378
 30
0.0
 11
722.8999958904759
 21
2173.307072725697
 31
0.0
  0
POLYLINE
  5
CD
  8
0
  6
CONTINUOUS
 62
     7
 10
0.0
 20
0.0
 30
0.0
 66
     1
 70
     8
  0
VERTEX
  5
292
  8
0
  6
CONTINUOUS
 62
     7
 10
721.3999958904853
 20
2220.198646883448
 30
0.0
 70
    32
  0
VERTEX
  5
293
  8
0
  6
CONTINUOUS
 62
     7
 10
721.4172647158646
 20
2220.198646883448
 30
0.0
 70
    32
  0
VERTEX
  5
294
  8
0
  6
CONTINUOUS
 62
     7
 10
721.4346897993352
 20
2220.198646883448
 30
0.0
 70
    32
  0
VERTEX
  5
295
  8
0
  6
CONTINUOUS
 62
     7
 10
721.4524273989886
 20
2220.198646883448
 30
0.0
 70
    32
  0
VERTEX
  5
296
  8
0
  6
CONTINUOUS
 62
     7
 10
721.4706337729161
 20
2220.198646883448
 30
0.0
 70
    32
  0
VERTEX
  5
297
  8
0
  6
CONTINUOUS
 62
     7
 10
721.4894651792091
 20
2220.198646883448
 30
0.0
 70
    32
  0
VERTEX
  5
298
  8
0
  6
CONTINUOUS
 62
     7
 10
721.5090778759591
 20
2220.198646883448
 30
0.0
 70
    32
  0
VERTEX
  5
299
  8
0
  6
CONTINUOUS
 62
     7
 10
721.5296280992483
 20
2220.198646883448
 30
0.0
 70
    32
  0
VERTEX
  5
29A
  8
0
  6
CONTINUOUS
 62
     7
 10
721.5512258868674
 20
2220.198646883448
 30
0.0
 70
    32
  0
VERTEX
  5
29B
  8
0
  6
CONTINUOUS
 62
     7
 10
721.5738376821885
 20
2220.198646883448
 30
0.0
 70
    32
  0
VERTEX
  5
29C
  8
0
  6
CONTINUOUS
 62
     7
 10
721.5974021109702
 20
2220.198646883448
 30
0.0
 70
    32
  0
VERTEX
  5
29D
  8
0
  6
CONTINUOUS
 62
     7
 10
721.6218577989707
 20
2220.198646883448
 30
0.0
 70
    32
  0
VERTEX
  5
29E
  8
0
  6
CONTINUOUS
 62
     7
 10
721.6471433719494
 20
2220.198646883448
 30
0.0
 70
    32
  0
VERTEX
  5
29F
  8
0
  6
CONTINUOUS
 62
     7
 10
721.6731974556645
 20
2220.198646883448
 30
0.0
 70
    32
  0
VERTEX
  5
2A0
  8
0
  6
CONTINUOUS
 62
     7
 10
721.6999586758747
 20
2220.198646883448
 30
0.0
 70
    32
  0
VERTEX
  5
2A1
  8
0
  6
CONTINUOUS
 62
     7
 10
721.7273656583387
 20
2220.198646883448
 30
0.0
 70
    32
  0
VERTEX
  5
2A2
  8
0
  6
CONTINUOUS
 62
     7
 10
721.7553570288152
 20
2220.198646883448
 30
0.0
 70
    32
  0
VERTEX
  5
2A3
  8
0
  6
CONTINUOUS
 62
     7
 10
721.7838714130629
 20
2220.198646883448
 30
0.0
 70
    32
  0
VERTEX
  5
2A4
  8
0
  6
CONTINUOUS
 62
     7
 10
721.8128560639165
 20
2220.198646883448
 30
0.0
 70
    32
  0
VERTEX
  5
2A5
  8
0
  6
CONTINUOUS
 62
     7
 10
721.8423003727964
 20
2220.198646883448
 30
0.0
 70
    32
  0
VERTEX
  5
2A6
  8
0
  6
CONTINUOUS
 62
     7
 10
721.8722065772054
 20
2220.198646883448
 30
0.0
 70
    32
  0
VERTEX
  5
2A7
  8
0
  6
CONTINUOUS
 62
     7
 10
721.9025769177517
 20
2220.198646883448
 30
0.0
 70
    32
  0
VERTEX
  5
2A8
  8
0
  6
CONTINUOUS
 62
     7
 10
721.9334136350442
 20
2220.198646883448
 30
0.0
 70
    32
  0
VERTEX
  5
2A9
  8
0
  6
CONTINUOUS
 62
     7
 10
721.9647189696917
 20
2220.198646883448
 30
0.0
 70
    32
  0
VERTEX
  5
2AA
  8
0
  6
CONTINUOUS
 62
     7
 10
721.996495162303
 20
2220.198646883448
 30
0.0
 70
    32
  0
VERTEX
  5
2AB
  8
0
  6
CONTINUOUS
 62
     7
 10
722.0287444534864
 20
2220.198646883448
 30
0.0
 70
    32
  0
VERTEX
  5
2AC
  8
0
  6
CONTINUOUS
 62
     7
 10
722.0614690838511
 20
2220.198646883448
 30
0.0
 70
    32
  0
VERTEX
  5
2AD
  8
0
  6
CONTINUOUS
 62
     7
 10
722.0946712940057
 20
2220.198646883448
 30
0.0
 70
    32
  0
VERTEX
  5
2AE
  8
0
  6
CONTINUOUS
 62
     7
 10
722.128351732814
 20
2220.198646883448
 30
0.0
 70
    32
  0
VERTEX
  5
2AF
  8
0
  6
CONTINUOUS
 62
     7
 10
722.1624991261369
 20
2220.198646883448
 30
0.0
 70
    32
  0
VERTEX
  5
2B0
  8
0
  6
CONTINUOUS
 62
     7
 10
722.197096793047
 20
2220.198646883448
 30
0.0
 70
    32
  0
VERTEX
  5
2B1
  8
0
  6
CONTINUOUS
 62
     7
 10
722.2321280257363
 20
2220.198646883448
 30
0.0
 70
    32
  0
VERTEX
  5
2B2
  8
0
  6
CONTINUOUS
 62
     7
 10
722.2675761163974
 20
2220.198646883448
 30
0.0
 70
    32
  0
VERTEX
  5
2B3
  8
0
  6
CONTINUOUS
 62
     7
 10
722.3034243572224
 20
2220.198646883448
 30
0.0
 70
    32
  0
VERTEX
  5
2B4
  8
0
  6
CONTINUOUS
 62
     7
 10
722.3396560404042
 20
2220.198646883447
 30
0.0
 70
    32
  0
VERTEX
  5
2B5
  8
0
  6
CONTINUOUS
 62
     7
 10
722.3762544581344
 20
2220.198646883447
 30
0.0
 70
    32
  0
VERTEX
  5
2B6
  8
0
  6
CONTINUOUS
 62
     7
 10
722.4132029026058
 20
2220.198646883448
 30
0.0
 70
    32
  0
VERTEX
  5
2B7
  8
0
  6
CONTINUOUS
 62
     7
 10
722.4504846660105
 20
2220.198646883447
 30
0.0
 70
    32
  0
VERTEX
  5
2B8
  8
0
  6
CONTINUOUS
 62
     7
 10
722.4880830425468
 20
2220.198646883448
 30
0.0
 70
    32
  0
VERTEX
  5
2B9
  8
0
  6
CONTINUOUS
 62
     7
 10
722.5259813516882
 20
2220.198646883448
 30
0.0
 70
    32
  0
VERTEX
  5
2BA
  8
0
  6
CONTINUOUS
 62
     7
 10
722.5641629301949
 20
2220.198646883448
 30
0.0
 70
    32
  0
VERTEX
  5
2BB
  8
0
  6
CONTINUOUS
 62
     7
 10
722.6026111151632
 20
2220.198646883448
 30
0.0
 70
    32
  0
VERTEX
  5
2BC
  8
0
  6
CONTINUOUS
 62
     7
 10
722.6413092436895
 20
2220.198646883448
 30
0.0
 70
    32
  0
VERTEX
  5
2BD
  8
0
  6
CONTINUOUS
 62
     7
 10
722.6802406528697
 20
2220.198646883448
 30
0.0
 70
    32
  0
VERTEX
  5
2BE
  8
0
  6
CONTINUOUS
 62
     7
 10
722.7193886798001
 20
2220.198646883449
 30
0.0
 70
    32
  0
VERTEX
  5
2BF
  8
0
  6
CONTINUOUS
 62
     7
 10
722.7587366615764
 20
2220.198646883449
 30
0.0
 70
    32
  0
VERTEX
  5
2C0
  8
0
  6
CONTINUOUS
 62
     7
 10
722.7982679352953
 20
2220.198646883449
 30
0.0
 70
    32
  0
VERTEX
  5
2C1
  8
0
  6
CONTINUOUS
 62
     7
 10
722.8379658380527
 20
2220.19864688345
 30
0.0
 70
    32
  0
VERTEX
  5
2C2
  8
0
  6
CONTINUOUS
 62
     7
 10
722.877813706945
 20
2220.198646883451
 30
0.0
 70
    32
  0
VERTEX
  5
2C3
  8
0
  6
CONTINUOUS
 62
     7
 10
722.9177948790677
 20
2220.19864688345
 30
0.0
 70
    32
  0
VERTEX
  5
2C4
  8
0
  6
CONTINUOUS
 62
     7
 10
722.9578926915177
 20
2220.198646883451
 30
0.0
 70
    32
  0
VERTEX
  5
2C5
  8
0
  6
CONTINUOUS
 62
     7
 10
722.9980904813908
 20
2220.198646883451
 30
0.0
 70
    32
  0
VERTEX
  5
2C6
  8
0
  6
CONTINUOUS
 62
     7
 10
723.0383715857831
 20
2220.198646883452
 30
0.0
 70
    32
  0
VERTEX
  5
2C7
  8
0
  6
CONTINUOUS
 62
     7
 10
723.0787193417907
 20
2220.198646883452
 30
0.0
 70
    32
  0
VERTEX
  5
2C8
  8
0
  6
CONTINUOUS
 62
     7
 10
723.1191170865101
 20
2220.198646883453
 30
0.0
 70
    32
  0
VERTEX
  5
2C9
  8
0
  6
CONTINUOUS
 62
     7
 10
723.159548157037
 20
2220.198646883453
 30
0.0
 70
    32
  0
VERTEX
  5
2CA
  8
0
  6
CONTINUOUS
 62
     7
 10
723.1999958904679
 20
2220.198646883453
 30
0.0
 70
    32
  0
SEQEND
  5
4C8
  8
0
  6
CONTINUOUS
 62
     7
  0
LINE
  5
CE
  8
0
  6
CONTINUOUS
 62
     7
 10
723.1999958904697
 20
2219.198646883454
 30
0.0
 11
723.1999958904679
 21
2220.198646883453
 31
0.0
  0
POLYLINE
  5
CF
  8
0
  6
CONTINUOUS
 62
     7
 10
0.0
 20
0.0
 30
0.0
 66
     1
 70
     8
  0
VERTEX
  5
2CB
  8
0
  6
CONTINUOUS
 62
     7
 10
723.1999958904918
 20
2163.198646883449
 30
0.0
 70
    32
  0
VERTEX
  5
2CC
  8
0
  6
CONTINUOUS
 62
     7
 10
723.1595474117951
 20
2163.198646883449
 30
0.0
 70
    32
  0
VERTEX
  5
2CD
  8
0
  6
CONTINUOUS
 62
     7
 10
723.1191155994932
 20
2163.198646883449
 30
0.0
 70
    32
  0
VERTEX
  5
2CE
  8
0
  6
CONTINUOUS
 62
     7
 10
723.0787171199811
 20
2163.198646883449
 30
0.0
 70
    32
  0
VERTEX
  5
2CF
  8
0
  6
CONTINUOUS
 62
     7
 10
723.0383686396533
 20
2163.198646883449
 30
0.0
 70
    32
  0
VERTEX
  5
2D0
  8
0
  6
CONTINUOUS
 62
     7
 10
722.9980868249047
 20
2163.198646883449
 30
0.0
 70
    32
  0
VERTEX
  5
2D1
  8
0
  6
CONTINUOUS
 62
     7
 10
722.9578883421302
 20
2163.198646883449
 30
0.0
 70
    32
  0
VERTEX
  5
2D2
  8
0
  6
CONTINUOUS
 62
     7
 10
722.9177898577246
 20
2163.198646883448
 30
0.0
 70
    32
  0
VERTEX
  5
2D3
  8
0
  6
CONTINUOUS
 62
     7
 10
722.8778080380828
 20
2163.198646883449
 30
0.0
 70
    32
  0
VERTEX
  5
2D4
  8
0
  6
CONTINUOUS
 62
     7
 10
722.8379595495994
 20
2163.198646883449
 30
0.0
 70
    32
  0
VERTEX
  5
2D5
  8
0
  6
CONTINUOUS
 62
     7
 10
722.7982610586693
 20
2163.198646883449
 30
0.0
 70
    32
  0
VERTEX
  5
2D6
  8
0
  6
CONTINUOUS
 62
     7
 10
722.7587292316874
 20
2163.198646883448
 30
0.0
 70
    32
  0
VERTEX
  5
2D7
  8
0
  6
CONTINUOUS
 62
     7
 10
722.7193807350486
 20
2163.198646883448
 30
0.0
 70
    32
  0
VERTEX
  5
2D8
  8
0
  6
CONTINUOUS
 62
     7
 10
722.6802322351474
 20
2163.198646883449
 30
0.0
 70
    32
  0
VERTEX
  5
2D9
  8
0
  6
CONTINUOUS
 62
     7
 10
722.6413003983788
 20
2163.198646883448
 30
0.0
 70
    32
  0
VERTEX
  5
2DA
  8
0
  6
CONTINUOUS
 62
     7
 10
722.6026018911377
 20
2163.198646883449
 30
0.0
 70
    32
  0
VERTEX
  5
2DB
  8
0
  6
CONTINUOUS
 62
     7
 10
722.5641533798189
 20
2163.198646883449
 30
0.0
 70
    32
  0
VERTEX
  5
2DC
  8
0
  6
CONTINUOUS
 62
     7
 10
722.5259715308168
 20
2163.198646883449
 30
0.0
 70
    32
  0
VERTEX
  5
2DD
  8
0
  6
CONTINUOUS
 62
     7
 10
722.4880730105267
 20
2163.198646883448
 30
0.0
 70
    32
  0
VERTEX
  5
2DE
  8
0
  6
CONTINUOUS
 62
     7
 10
722.4504744855858
 20
2163.198646883448
 30
0.0
 70
    32
  0
VERTEX
  5
2DF
  8
0
  6
CONTINUOUS
 62
     7
 10
722.4131926350921
 20
2163.198646883449
 30
0.0
 70
    32
  0
VERTEX
  5
2E0
  8
0
  6
CONTINUOUS
 62
     7
 10
722.3762441563503
 20
2163.198646883449
 30
0.0
 70
    32
  0
VERTEX
  5
2E1
  8
0
  6
CONTINUOUS
 62
     7
 10
722.3396457481081
 20
2163.198646883448
 30
0.0
 70
    32
  0
VERTEX
  5
2E2
  8
0
  6
CONTINUOUS
 62
     7
 10
722.3034141091136
 20
2163.198646883448
 30
0.0
 70
    32
  0
VERTEX
  5
2E3
  8
0
  6
CONTINUOUS
 62
     7
 10
722.2675659381151
 20
2163.198646883449
 30
0.0
 70
    32
  0
VERTEX
  5
2E4
  8
0
  6
CONTINUOUS
 62
     7
 10
722.2321179338596
 20
2163.198646883449
 30
0.0
 70
    32
  0
VERTEX
  5
2E5
  8
0
  6
CONTINUOUS
 62
     7
 10
722.1970867950959
 20
2163.198646883449
 30
0.0
 70
    32
  0
VERTEX
  5
2E6
  8
0
  6
CONTINUOUS
 62
     7
 10
722.1624892205713
 20
2163.198646883449
 30
0.0
 70
    32
  0
VERTEX
  5
2E7
  8
0
  6
CONTINUOUS
 62
     7
 10
722.128341909034
 20
2163.198646883449
 30
0.0
 70
    32
  0
VERTEX
  5
2E8
  8
0
  6
CONTINUOUS
 62
     7
 10
722.0946615266357
 20
2163.198646883449
 30
0.0
 70
    32
  0
VERTEX
  5
2E9
  8
0
  6
CONTINUOUS
 62
     7
 10
722.0614591800927
 20
2163.198646883449
 30
0.0
 70
    32
  0
VERTEX
  5
2EA
  8
0
  6
CONTINUOUS
 62
     7
 10
722.0287341779357
 20
2163.198646883449
 30
0.0
 70
    32
  0
VERTEX
  5
2EB
  8
0
  6
CONTINUOUS
 62
     7
 10
721.9964843221583
 20
2163.198646883449
 30
0.0
 70
    32
  0
VERTEX
  5
2EC
  8
0
  6
CONTINUOUS
 62
     7
 10
721.9647074147546
 20
2163.198646883449
 30
0.0
 70
    32
  0
VERTEX
  5
2ED
  8
0
  6
CONTINUOUS
 62
     7
 10
721.9334012577187
 20
2163.198646883449
 30
0.0
 70
    32
  0
VERTEX
  5
2EE
  8
0
  6
CONTINUOUS
 62
     7
 10
721.9025636530445
 20
2163.198646883448
 30
0.0
 70
    32
  0
VERTEX
  5
2EF
  8
0
  6
CONTINUOUS
 62
     7
 10
721.8721924027259
 20
2163.198646883449
 30
0.0
 70
    32
  0
VERTEX
  5
2F0
  8
0
  6
CONTINUOUS
 62
     7
 10
721.842285308757
 20
2163.198646883449
 30
0.0
 70
    32
  0
VERTEX
  5
2F1
  8
0
  6
CONTINUOUS
 62
     7
 10
721.8128401731318
 20
2163.198646883449
 30
0.0
 70
    32
  0
VERTEX
  5
2F2
  8
0
  6
CONTINUOUS
 62
     7
 10
721.7838548010336
 20
2163.198646883449
 30
0.0
 70
    32
  0
VERTEX
  5
2F3
  8
0
  6
CONTINUOUS
 62
     7
 10
721.7553398707144
 20
2163.198646883449
 30
0.0
 70
    32
  0
VERTEX
  5
2F4
  8
0
  6
CONTINUOUS
 62
     7
 10
721.7273482155974
 20
2163.198646883449
 30
0.0
 70
    32
  0
VERTEX
  5
2F5
  8
0
  6
CONTINUOUS
 62
     7
 10
721.6999412845738
 20
2163.198646883449
 30
0.0
 70
    32
  0
VERTEX
  5
2F6
  8
0
  6
CONTINUOUS
 62
     7
 10
721.6731805265351
 20
2163.198646883449
 30
0.0
 70
    32
  0
VERTEX
  5
2F7
  8
0
  6
CONTINUOUS
 62
     7
 10
721.6471273903724
 20
2163.198646883449
 30
0.0
 70
    32
  0
VERTEX
  5
2F8
  8
0
  6
CONTINUOUS
 62
     7
 10
721.6218433249771
 20
2163.198646883449
 30
0.0
 70
    32
  0
VERTEX
  5
2F9
  8
0
  6
CONTINUOUS
 62
     7
 10
721.5973897792404
 20
2163.198646883449
 30
0.0
 70
    32
  0
VERTEX
  5
2FA
  8
0
  6
CONTINUOUS
 62
     7
 10
721.573828202054
 20
2163.198646883449
 30
0.0
 70
    32
  0
VERTEX
  5
2FB
  8
0
  6
CONTINUOUS
 62
     7
 10
721.5512200423088
 20
2163.198646883449
 30
0.0
 70
    32
  0
VERTEX
  5
2FC
  8
0
  6
CONTINUOUS
 62
     7
 10
721.5296267488966
 20
2163.198646883449
 30
0.0
 70
    32
  0
VERTEX
  5
2FD
  8
0
  6
CONTINUOUS
 62
     7
 10
721.5090806838474
 20
2163.198646883449
 30
0.0
 70
    32
  0
VERTEX
  5
2FE
  8
0
  6
CONTINUOUS
 62
     7
 10
721.4894703207746
 20
2163.198646883449
 30
0.0
 70
    32
  0
VERTEX
  5
2FF
  8
0
  6
CONTINUOUS
 62
     7
 10
721.4706397199815
 20
2163.198646883449
 30
0.0
 70
    32
  0
VERTEX
  5
300
  8
0
  6
CONTINUOUS
 62
     7
 10
721.4524329290118
 20
2163.198646883449
 30
0.0
 70
    32
  0
VERTEX
  5
301
  8
0
  6
CONTINUOUS
 62
     7
 10
721.4346939954097
 20
2163.198646883449
 30
0.0
 70
    32
  0
VERTEX
  5
302
  8
0
  6
CONTINUOUS
 62
     7
 10
721.4172669667197
 20
2163.198646883449
 30
0.0
 70
    32
  0
VERTEX
  5
303
  8
0
  6
CONTINUOUS
 62
     7
 10
721.3999958904853
 20
2163.198646883449
 30
0.0
 70
    32
  0
SEQEND
  5
4C9
  8
0
  6
CONTINUOUS
 62
     7
  0
LINE
  5
D0
  8
0
  6
CONTINUOUS
 62
     7
 10
723.1999958904789
 20
2164.198646883448
 30
0.0
 11
723.1999958904918
 21
2163.198646883449
 31
0.0
  0
LINE
  5
D1
  8
0
  6
CONTINUOUS
 62
     7
 10
723.3999958904697
 20
2219.198646883454
 30
0.0
 11
723.1999958904697
 21
2219.198646883454
 31
0.0
  0
LINE
  5
D2
  8
0
  6
CONTINUOUS
 62
     7
 10
723.1999958904697
 20
2219.198646883454
 30
0.0
 11
723.1999958904703
 21
2210.090221041198
 31
0.0
  0
POLYLINE
  5
D3
  8
0
  6
CONTINUOUS
 62
     7
 66
     1
 10
0.0
 20
0.0
 30
0.0
  0
VERTEX
  5
304
  8
0
  6
CONTINUOUS
 62
     7
 10
721.3999958904853
 20
2201.941145525113
 30
0.0
  0
VERTEX
  5
305
  8
0
  6
CONTINUOUS
 62
     7
 10
721.4088602327453
 20
2201.932349042305
 30
0.0
  0
VERTEX
  5
306
  8
0
  6
CONTINUOUS
 62
     7
 10
721.417843551638
 20
2201.923703242916
 30
0.0
  0
VERTEX
  5
307
  8
0
  6
CONTINUOUS
 62
     7
 10
721.427036577239
 20
2201.915323488331
 30
0.0
  0
VERTEX
  5
308
  8
0
  6
CONTINUOUS
 62
     7
 10
721.4364432300846
 20
2201.90721658548
 30
0.0
  0
VERTEX
  5
309
  8
0
  6
CONTINUOUS
 62
     7
 10
721.4460508089117
 20
2201.899368555906
 30
0.0
  0
VERTEX
  5
30A
  8
0
  6
CONTINUOUS
 62
     7
 10
721.455846612457
 20
2201.891765421147
 30
0.0
  0
VERTEX
  5
30B
  8
0
  6
CONTINUOUS
 62
     7
 10
721.4658179394578
 20
2201.884393202746
 30
0.0
  0
VERTEX
  5
30C
  8
0
  6
CONTINUOUS
 62
     7
 10
721.4759520886505
 20
2201.87723792224
 30
0.0
  0
VERTEX
  5
30D
  8
0
  6
CONTINUOUS
 62
     7
 10
721.486236358772
 20
2201.870285601169
 30
0.0
  0
VERTEX
  5
30E
  8
0
  6
CONTINUOUS
 62
     7
 10
721.4966580485594
 20
2201.863522261076
 30
0.0
  0
VERTEX
  5
30F
  8
0
  6
CONTINUOUS
 62
     7
 10
721.5072044567495
 20
2201.856933923499
 30
0.0
  0
VERTEX
  5
310
  8
0
  6
CONTINUOUS
 62
     7
 10
721.517862882079
 20
2201.850506609978
 30
0.0
  0
VERTEX
  5
311
  8
0
  6
CONTINUOUS
 62
     7
 10
721.5286206232851
 20
2201.844226342054
 30
0.0
  0
VERTEX
  5
312
  8
0
  6
CONTINUOUS
 62
     7
 10
721.5394649791044
 20
2201.838079141267
 30
0.0
  0
VERTEX
  5
313
  8
0
  6
CONTINUOUS
 62
     7
 10
721.5503832482736
 20
2201.832051029156
 30
0.0
  0
VERTEX
  5
314
  8
0
  6
CONTINUOUS
 62
     7
 10
721.56136272953
 20
2201.826128027264
 30
0.0
  0
VERTEX
  5
315
  8
0
  6
CONTINUOUS
 62
     7
 10
721.5723924904232
 20
2201.820298300172
 30
0.0
  0
VERTEX
  5
316
  8
0
  6
CONTINUOUS
 62
     7
 10
721.5834712678354
 20
2201.814561727559
 30
0.0
  0
VERTEX
  5
317
  8
0
  6
CONTINUOUS
 62
     7
 10
721.5946010861097
 20
2201.808922172099
 30
0.0
  0
VERTEX
  5
318
  8
0
  6
CONTINUOUS
 62
     7
 10
721.6057839723096
 20
2201.803383499762
 30
0.0
  0
VERTEX
  5
319
  8
0
  6
CONTINUOUS
 62
     7
 10
721.6170219534984
 20
2201.797949576517
 30
0.0
  0
VERTEX
  5
31A
  8
0
  6
CONTINUOUS
 62
     7
 10
721.6283170567392
 20
2201.792624268333
 30
0.0
  0
VERTEX
  5
31B
  8
0
  6
CONTINUOUS
 62
     7
 10
721.6396713090955
 20
2201.787411441179
 30
0.0
  0
VERTEX
  5
31C
  8
0
  6
CONTINUOUS
 62
     7
 10
721.6510867376306
 20
2201.782314961025
 30
0.0
  0
VERTEX
  5
31D
  8
0
  6
CONTINUOUS
 62
     7
 10
721.6625653694081
 20
2201.777338693842
 30
0.0
  0
VERTEX
  5
31E
  8
0
  6
CONTINUOUS
 62
     7
 10
721.6741092314909
 20
2201.772486505596
 30
0.0
  0
VERTEX
  5
31F
  8
0
  6
CONTINUOUS
 62
     7
 10
721.6857203509426
 20
2201.767762262259
 30
0.0
  0
VERTEX
  5
320
  8
0
  6
CONTINUOUS
 62
     7
 10
721.6974007548266
 20
2201.763169829799
 30
0.0
  0
VERTEX
  5
321
  8
0
  6
CONTINUOUS
 62
     7
 10
721.7091524702062
 20
2201.758713074187
 30
0.0
  0
VERTEX
  5
322
  8
0
  6
CONTINUOUS
 62
     7
 10
721.7209775241446
 20
2201.754395861391
 30
0.0
  0
VERTEX
  5
323
  8
0
  6
CONTINUOUS
 62
     7
 10
721.7328779172631
 20
2201.750222062964
 30
0.0
  0
VERTEX
  5
324
  8
0
  6
CONTINUOUS
 62
     7
 10
721.7448542647403
 20
2201.746195842972
 30
0.0
  0
VERTEX
  5
325
  8
0
  6
CONTINUOUS
 62
     7
 10
721.7569051425928
 20
2201.742321796017
 30
0.0
  0
VERTEX
  5
326
  8
0
  6
CONTINUOUS
 62
     7
 10
721.7690289634967
 20
2201.738604551186
 30
0.0
  0
VERTEX
  5
327
  8
0
  6
CONTINUOUS
 62
     7
 10
721.781224140128
 20
2201.735048737571
 30
0.0
  0
VERTEX
  5
328
  8
0
  6
CONTINUOUS
 62
     7
 10
721.7934890851627
 20
2201.731658984258
 30
0.0
  0
VERTEX
  5
329
  8
0
  6
CONTINUOUS
 62
     7
 10
721.805822211277
 20
2201.728439920335
 30
0.0
  0
VERTEX
  5
32A
  8
0
  6
CONTINUOUS
 62
     7
 10
721.8182219311471
 20
2201.725396174894
 30
0.0
  0
VERTEX
  5
32B
  8
0
  6
CONTINUOUS
 62
     7
 10
721.8306866574493
 20
2201.722532377022
 30
0.0
  0
VERTEX
  5
32C
  8
0
  6
CONTINUOUS
 62
     7
 10
721.8432148028594
 20
2201.719853155807
 30
0.0
  0
VERTEX
  5
32D
  8
0
  6
CONTINUOUS
 62
     7
 10
721.8558047800536
 20
2201.717363140338
 30
0.0
  0
VERTEX
  5
32E
  8
0
  6
CONTINUOUS
 62
     7
 10
721.8684550017083
 20
2201.715066959704
 30
0.0
  0
VERTEX
  5
32F
  8
0
  6
CONTINUOUS
 62
     7
 10
721.8811638804993
 20
2201.712969242994
 30
0.0
  0
VERTEX
  5
330
  8
0
  6
CONTINUOUS
 62
     7
 10
721.8939295621171
 20
2201.711072690097
 30
0.0
  0
VERTEX
  5
331
  8
0
  6
CONTINUOUS
 62
     7
 10
721.9067483768569
 20
2201.709366883116
 30
0.0
  0
VERTEX
  5
332
  8
0
  6
CONTINUOUS
 62
     7
 10
721.9196158992379
 20
2201.70783594303
 30
0.0
  0
VERTEX
  5
333
  8
0
  6
CONTINUOUS
 62
     7
 10
721.9325277012924
 20
2201.706463972846
 30
0.0
  0
VERTEX
  5
334
  8
0
  6
CONTINUOUS
 62
     7
 10
721.9454793550534
 20
2201.705235075576
 30
0.0
  0
VERTEX
  5
335
  8
0
  6
CONTINUOUS
 62
     7
 10
721.9584664325535
 20
2201.704133354229
 30
0.0
  0
VERTEX
  5
336
  8
0
  6
CONTINUOUS
 62
     7
 10
721.971484505825
 20
2201.703142911814
 30
0.0
  0
VERTEX
  5
337
  8
0
  6
CONTINUOUS
 62
     7
 10
721.9845291469006
 20
2201.702247851341
 30
0.0
  0
VERTEX
  5
338
  8
0
  6
CONTINUOUS
 62
     7
 10
721.9975959278132
 20
2201.70143227582
 30
0.0
  0
VERTEX
  5
339
  8
0
  6
CONTINUOUS
 62
     7
 10
722.0106804205953
 20
2201.700680288261
 30
0.0
  0
VERTEX
  5
33A
  8
0
  6
CONTINUOUS
 62
     7
 10
722.0237781972795
 20
2201.699975991672
 30
0.0
  0
VERTEX
  5
33B
  8
0
  6
CONTINUOUS
 62
     7
 10
722.0368848298984
 20
2201.699303489064
 30
0.0
  0
VERTEX
  5
33C
  8
0
  6
CONTINUOUS
 62
     7
 10
722.0499958904848
 20
2201.698646883446
 30
0.0
  0
SEQEND
  5
4CA
  8
0
  6
CONTINUOUS
 62
     7
  0
LINE
  5
D4
  8
0
  6
CONTINUOUS
 62
     7
 10
722.8999958904774
 20
2201.698646883446
 30
0.0
 11
722.0499958904848
 21
2201.698646883446
 31
0.0
  0
LINE
  5
D5
  8
0
  6
CONTINUOUS
 62
     7
 10
723.3999958904789
 20
2164.198646883448
 30
0.0
 11
723.1999958904789
 21
2164.198646883448
 31
0.0
  0
LINE
  5
D6
  8
0
  6
CONTINUOUS
 62
     7
 10
723.1999958904759
 20
2173.307072725697
 30
0.0
 11
723.1999958904789
 21
2164.198646883448
 31
0.0
  0
POLYLINE
  5
D7
  8
0
  6
CONTINUOUS
 62
     7
 66
     1
 10
0.0
 20
0.0
 30
0.0
  0
VERTEX
  5
33D
  8
0
  6
CONTINUOUS
 62
     7
 10
722.0499958904738
 20
2181.698646883446
 30
0.0
  0
VERTEX
  5
33E
  8
0
  6
CONTINUOUS
 62
     7
 10
722.027110431844
 20
2181.696371560454
 30
0.0
  0
VERTEX
  5
33F
  8
0
  6
CONTINUOUS
 62
     7
 10
722.0042449676438
 20
2181.69405530998
 30
0.0
  0
VERTEX
  5
340
  8
0
  6
CONTINUOUS
 62
     7
 10
721.9814194923025
 20
2181.691657204541
 30
0.0
  0
VERTEX
  5
341
  8
0
  6
CONTINUOUS
 62
     7
 10
721.9586540002498
 20
2181.689136316656
 30
0.0
  0
VERTEX
  5
342
  8
0
  6
CONTINUOUS
 62
     7
 10
721.935968485915
 20
2181.68645171884
 30
0.0
  0
VERTEX
  5
343
  8
0
  6
CONTINUOUS
 62
     7
 10
721.9133829437279
 20
2181.683562483614
 30
0.0
  0
VERTEX
  5
344
  8
0
  6
CONTINUOUS
 62
     7
 10
721.8909173681178
 20
2181.680427683493
 30
0.0
  0
VERTEX
  5
345
  8
0
  6
CONTINUOUS
 62
     7
 10
721.8685917535141
 20
2181.677006390997
 30
0.0
  0
VERTEX
  5
346
  8
0
  6
CONTINUOUS
 62
     7
 10
721.8464260943467
 20
2181.673257678642
 30
0.0
  0
VERTEX
  5
347
  8
0
  6
CONTINUOUS
 62
     7
 10
721.8244403850446
 20
2181.669140618946
 30
0.0
  0
VERTEX
  5
348
  8
0
  6
CONTINUOUS
 62
     7
 10
721.8026546200376
 20
2181.664614284427
 30
0.0
  0
VERTEX
  5
349
  8
0
  6
CONTINUOUS
 62
     7
 10
721.7810887937554
 20
2181.659637747603
 30
0.0
  0
VERTEX
  5
34A
  8
0
  6
CONTINUOUS
 62
     7
 10
721.7597629006273
 20
2181.654170080991
 30
0.0
  0
VERTEX
  5
34B
  8
0
  6
CONTINUOUS
 62
     7
 10
721.7386969350824
 20
2181.64817035711
 30
0.0
  0
VERTEX
  5
34C
  8
0
  6
CONTINUOUS
 62
     7
 10
721.717910891551
 20
2181.641597648475
 30
0.0
  0
VERTEX
  5
34D
  8
0
  6
CONTINUOUS
 62
     7
 10
721.6974247644621
 20
2181.634411027607
 30
0.0
  0
VERTEX
  5
34E
  8
0
  6
CONTINUOUS
 62
     7
 10
721.6772545617235
 20
2181.626577727209
 30
0.0
  0
VERTEX
  5
34F
  8
0
  6
CONTINUOUS
 62
     7
 10
721.6573903165835
 20
2181.618118148668
 30
0.0
  0
VERTEX
  5
350
  8
0
  6
CONTINUOUS
 62
     7
 10
721.6378116577309
 20
2181.609073990919
 30
0.0
  0
VERTEX
  5
351
  8
0
  6
CONTINUOUS
 62
     7
 10
721.618498186146
 20
2181.599487009621
 30
0.0
  0
VERTEX
  5
352
  8
0
  6
CONTINUOUS
 62
     7
 10
721.5994295028075
 20
2181.589398960433
 30
0.0
  0
VERTEX
  5
353
  8
0
  6
CONTINUOUS
 62
     7
 10
721.5805852086951
 20
2181.57885159901
 30
0.0
  0
VERTEX
  5
354
  8
0
  6
CONTINUOUS
 62
     7
 10
721.5619449047884
 20
2181.567886681011
 30
0.0
  0
VERTEX
  5
355
  8
0
  6
CONTINUOUS
 62
     7
 10
721.5434881920665
 20
2181.556545962093
 30
0.0
  0
VERTEX
  5
356
  8
0
  6
CONTINUOUS
 62
     7
 10
721.5251946715092
 20
2181.544871197915
 30
0.0
  0
VERTEX
  5
357
  8
0
  6
CONTINUOUS
 62
     7
 10
721.5070439440956
 20
2181.532904144132
 30
0.0
  0
VERTEX
  5
358
  8
0
  6
CONTINUOUS
 62
     7
 10
721.4890156108055
 20
2181.520686556405
 30
0.0
  0
VERTEX
  5
359
  8
0
  6
CONTINUOUS
 62
     7
 10
721.4710892726182
 20
2181.508260190389
 30
0.0
  0
VERTEX
  5
35A
  8
0
  6
CONTINUOUS
 62
     7
 10
721.453244530513
 20
2181.495666801743
 30
0.0
  0
VERTEX
  5
35B
  8
0
  6
CONTINUOUS
 62
     7
 10
721.4354609854696
 20
2181.482948146124
 30
0.0
  0
VERTEX
  5
35C
  8
0
  6
CONTINUOUS
 62
     7
 10
721.4177182384672
 20
2181.47014597919
 30
0.0
  0
VERTEX
  5
35D
  8
0
  6
CONTINUOUS
 62
     7
 10
721.3999958904853
 20
2181.457302056598
 30
0.0
  0
SEQEND
  5
4CB
  8
0
  6
CONTINUOUS
 62
     7
  0
LINE
  5
D8
  8
0
  6
CONTINUOUS
 62
     7
 10
722.0499958904738
 20
2181.698646883446
 30
0.0
 11
722.8999958904772
 21
2181.698646883449
 31
0.0
  0
LINE
  5
D9
  8
0
  6
CONTINUOUS
 62
     7
 10
723.3999958904678
 20
2220.198646883453
 30
0.0
 11
723.1999958904679
 21
2220.198646883453
 31
0.0
  0
LINE
  5
DA
  8
0
  6
CONTINUOUS
 62
     7
 10
723.3999958904917
 20
2163.198646883449
 30
0.0
 11
723.1999958904918
 21
2163.198646883449
 31
0.0
  0
LINE
  5
DB
  8
0
  6
CONTINUOUS
 62
     7
 10
721.3999958904863
 20
1760.198646883445
 30
0.0
 11
723.3999958904832
 21
1760.198646883447
 31
0.0
  0
LINE
  5
DC
  8
0
  6
CONTINUOUS
 62
     7
 10
723.3999958904832
 20
1747.198646883447
 30
0.0
 11
721.3999958904863
 21
1747.198646883447
 31
0.0
  0
LINE
  5
DD
  8
0
  6
CONTINUOUS
 62
     7
 10
722.1287133452728
 20
1746.248646883444
 30
0.0
 11
722.1287133452724
 21
1747.198646883447
 31
0.0
  0
LINE
  5
DE
  8
0
  6
CONTINUOUS
 62
     7
 10
722.1287133452673
 20
1760.198646883445
 30
0.0
 11
722.128713345267
 21
1761.148646883445
 31
0.0
  0
LINE
  5
DF
  8
0
  6
CONTINUOUS
 62
     7
 10
722.1287133452728
 20
1746.248646883444
 30
0.0
 11
721.3999958904864
 21
1746.248646883444
 31
0.0
  0
LINE
  5
E0
  8
0
  6
CONTINUOUS
 62
     7
 10
722.128713345267
 20
1761.148646883445
 30
0.0
 11
721.3999958904864
 21
1761.148646883445
 31
0.0
  0
LINE
  5
E1
  8
0
  6
CONTINUOUS
 62
     7
 10
722.1900828408682
 20
1746.248646883447
 30
0.0
 11
722.1900828408685
 21
1747.198646883447
 31
0.0
  0
LINE
  5
E2
  8
0
  6
CONTINUOUS
 62
     7
 10
722.1900828408727
 20
1760.198646883445
 30
0.0
 11
722.1900828408731
 21
1761.148646883443
 31
0.0
  0
LINE
  5
E3
  8
0
  6
CONTINUOUS
 62
     7
 10
722.1900828408682
 20
1746.248646883447
 30
0.0
 11
722.1287133452728
 21
1746.248646883444
 31
0.0
  0
LINE
  5
E4
  8
0
  6
CONTINUOUS
 62
     7
 10
722.1900828408731
 20
1761.148646883443
 30
0.0
 11
722.128713345267
 21
1761.148646883445
 31
0.0
  0
LINE
  5
E5
  8
0
  6
CONTINUOUS
 62
     7
 10
721.3999958904853
 20
2198.198646883447
 30
0.0
 11
723.3999958904759
 21
2198.198646883447
 31
0.0
  0
LINE
  5
E6
  8
0
  6
CONTINUOUS
 62
     7
 10
723.3999958904758
 20
2185.198646883445
 30
0.0
 11
721.3999958904853
 21
2185.198646883448
 31
0.0
  0
LINE
  5
E7
  8
0
  6
CONTINUOUS
 62
     7
 10
722.1287133452898
 20
2184.248646883446
 30
0.0
 11
722.1287133452895
 21
2185.198646883448
 31
0.0
  0
LINE
  5
E8
  8
0
  6
CONTINUOUS
 62
     7
 10
722.1287133452844
 20
2198.198646883447
 30
0.0
 11
722.128713345284
 21
2199.148646883446
 31
0.0
  0
LINE
  5
E9
  8
0
  6
CONTINUOUS
 62
     7
 10
722.128713345284
 20
2199.148646883446
 30
0.0
 11
721.3999958904853
 21
2199.148646883446
 31
0.0
  0
LINE
  5
EA
  8
0
  6
CONTINUOUS
 62
     7
 10
722.1287133452898
 20
2184.248646883446
 30
0.0
 11
721.3999958904853
 21
2184.248646883445
 31
0.0
  0
LINE
  5
EB
  8
0
  6
CONTINUOUS
 62
     7
 10
722.1900828408852
 20
2184.248646883448
 30
0.0
 11
722.1900828408856
 21
2185.198646883448
 31
0.0
  0
LINE
  5
EC
  8
0
  6
CONTINUOUS
 62
     7
 10
722.1900828408898
 20
2198.198646883447
 30
0.0
 11
722.19008284089
 21
2199.148646883445
 31
0.0
  0
LINE
  5
ED
  8
0
  6
CONTINUOUS
 62
     7
 10
722.19008284089
 20
2199.148646883445
 30
0.0
 11
722.128713345284
 21
2199.148646883446
 31
0.0
  0
LINE
  5
EE
  8
0
  6
CONTINUOUS
 62
     7
 10
722.1900828408852
 20
2184.248646883448
 30
0.0
 11
722.1287133452898
 21
2184.248646883446
 31
0.0
  0
LINE
  5
EF
  8
0
  6
CONTINUOUS
 62
     7
 10
722.8999958904828
 20
2184.223646883446
 30
0.0
 11
722.5884300876448
 21
2184.223646883446
 31
0.0
  0
LINE
  5
F0
  8
0
  6
CONTINUOUS
 62
     7
 10
722.5884300876477
 20
2199.173646883446
 30
0.0
 11
722.5884300876476
 21
2198.198646883448
 31
0.0
  0
LINE
  5
F1
  8
0
  6
CONTINUOUS
 62
     7
 10
722.588430087645
 20
2185.198646883448
 30
0.0
 11
722.5884300876448
 21
2184.223646883446
 31
0.0
  0
LINE
  5
F2
  8
0
  6
CONTINUOUS
 62
     7
 10
722.8999958904675
 20
2199.173646883446
 30
0.0
 11
722.5884300876477
 21
2199.173646883446
 31
0.0
  0
LINE
  5
F3
  8
0
  6
CONTINUOUS
 62
     7
 10
722.5884300876477
 20
2199.173646883446
 30
0.0
 11
722.549287493188
 21
2199.173646883446
 31
0.0
  0
LINE
  5
F4
  8
0
  6
CONTINUOUS
 62
     7
 10
722.5884300876448
 20
2184.223646883446
 30
0.0
 11
722.5492874931853
 21
2184.223646883446
 31
0.0
  0
LINE
  5
F5
  8
0
  6
CONTINUOUS
 62
     7
 10
722.8999958904657
 20
1746.223646883445
 30
0.0
 11
722.5884300876278
 21
1746.223646883444
 31
0.0
  0
LINE
  5
F6
  8
0
  6
CONTINUOUS
 62
     7
 10
722.5884300876307
 20
1761.173646883444
 30
0.0
 11
722.5884300876305
 21
1760.198646883446
 31
0.0
  0
LINE
  5
F7
  8
0
  6
CONTINUOUS
 62
     7
 10
722.588430087628
 20
1747.198646883447
 30
0.0
 11
722.5884300876278
 21
1746.223646883444
 31
0.0
  0
LINE
  5
F8
  8
0
  6
CONTINUOUS
 62
     7
 10
722.8999958904504
 20
1761.173646883444
 30
0.0
 11
722.5884300876307
 21
1761.173646883444
 31
0.0
  0
LINE
  5
F9
  8
0
  6
CONTINUOUS
 62
     7
 10
722.5884300876278
 20
1746.223646883444
 30
0.0
 11
722.5492874931682
 21
1746.223646883444
 31
0.0
  0
LINE
  5
FA
  8
0
  6
CONTINUOUS
 62
     7
 10
722.5884300876307
 20
1761.173646883444
 30
0.0
 11
722.549287493171
 21
1761.173646883444
 31
0.0
  0
LINE
  5
FB
  8
0
  6
CONTINUOUS
 62
     7
 10
738.3999958904831
 20
2271.698646883447
 30
0.0
 11
723.3999958904831
 21
2271.698646883447
 31
0.0
  0
LINE
  5
FC
  8
0
  6
CONTINUOUS
 62
     7
 10
738.3999958904831
 20
2271.698646883447
 30
0.0
 11
738.3999958904831
 21
1673.698646883447
 31
0.0
  0
LINE
  5
FD
  8
0
  6
CONTINUOUS
 62
     7
 10
723.3999958904831
 20
2271.698646883447
 30
0.0
 11
723.3999958904831
 21
1673.698646883447
 31
0.0
  0
LINE
  5
FE
  8
0
  6
CONTINUOUS
 62
     7
 10
738.3999958904831
 20
1673.698646883447
 30
0.0
 11
723.3999958904831
 21
1673.698646883447
 31
0.0
  0
LINE
  5
FF
  8
0
  6
CONTINUOUS
 62
     7
 10
721.3999958904863
 20
2266.698646883446
 30
0.0
 11
573.3999958904861
 21
2266.698646883446
 31
0.0
  0
LINE
  5
100
  8
0
  6
CONTINUOUS
 62
     7
 10
721.3999958904863
 20
2266.698646883446
 30
0.0
 11
721.3999958904863
 21
1678.698646883447
 31
0.0
  0
LINE
  5
101
  8
0
  6
CONTINUOUS
 62
     7
 10
721.3999958904863
 20
1678.698646883447
 30
0.0
 11
573.3999958904861
 21
1678.698646883447
 31
0.0
  0
LINE
  5
102
  8
0
  6
CONTINUOUS
 62
     7
 10
573.3999958904861
 20
2266.698646883446
 30
0.0
 11
573.3999958904861
 21
1678.698646883447
 31
0.0
  0
LINE
  5
103
  8
0
  6
CONTINUOUS
 62
     8
 10
723.1999958904526
 20
1781.198646883453
 30
0.0
 11
721.3999958904861
 21
1781.198646883453
 31
0.0
  0
LINE
  5
104
  8
0
  6
CONTINUOUS
 62
     8
 10
723.1999958904618
 20
1726.198646883446
 30
0.0
 11
721.3999958904861
 21
1726.198646883447
 31
0.0
  0
LINE
  5
105
  8
0
  6
CONTINUOUS
 62
     8
 10
722.0499958904607
 20
1762.073646883445
 30
0.0
 11
722.0499958904578
 21
1763.698646883442
 31
0.0
  0
LINE
  5
106
  8
0
  6
CONTINUOUS
 62
     8
 10
722.049995890473
 20
1743.698646883446
 30
0.0
 11
722.0499958904604
 21
1745.323646883446
 31
0.0
  0
LINE
  5
107
  8
0
  6
CONTINUOUS
 62
     8
 10
723.1999958904697
 20
2219.198646883454
 30
0.0
 11
721.3999958904861
 21
2219.198646883454
 31
0.0
  0
LINE
  5
108
  8
0
  6
CONTINUOUS
 62
     8
 10
723.1999958904789
 20
2164.198646883448
 30
0.0
 11
721.3999958904861
 21
2164.198646883448
 31
0.0
  0
LINE
  5
109
  8
0
  6
CONTINUOUS
 62
     8
 10
722.0499958904776
 20
2200.073646883447
 30
0.0
 11
722.0499958904749
 21
2201.698646883444
 31
0.0
  0
LINE
  5
10A
  8
0
  6
CONTINUOUS
 62
     8
 10
722.0499958904901
 20
2181.698646883448
 30
0.0
 11
722.0499958904774
 21
2183.323646883448
 31
0.0
  0
POLYLINE
  5
10B
  8
0
  6
CONTINUOUS
 62
     7
 10
0.0
 20
0.0
 30
0.0
 66
     1
 70
     8
  0
VERTEX
  5
35E
  8
0
  6
CONTINUOUS
 62
     7
 10
3973.05183964081
 20
1725.198646883448
 30
0.0
 70
    32
  0
VERTEX
  5
35F
  8
0
  6
CONTINUOUS
 62
     7
 10
3973.034570815431
 20
1725.198646883447
 30
0.0
 70
    32
  0
VERTEX
  5
360
  8
0
  6
CONTINUOUS
 62
     7
 10
3973.01714573196
 20
1725.198646883447
 30
0.0
 70
    32
  0
VERTEX
  5
361
  8
0
  6
CONTINUOUS
 62
     7
 10
3972.999408132308
 20
1725.198646883448
 30
0.0
 70
    32
  0
VERTEX
  5
362
  8
0
  6
CONTINUOUS
 62
     7
 10
3972.98120175838
 20
1725.198646883448
 30
0.0
 70
    32
  0
VERTEX
  5
363
  8
0
  6
CONTINUOUS
 62
     7
 10
3972.962370352086
 20
1725.198646883447
 30
0.0
 70
    32
  0
VERTEX
  5
364
  8
0
  6
CONTINUOUS
 62
     7
 10
3972.942757655336
 20
1725.198646883448
 30
0.0
 70
    32
  0
VERTEX
  5
365
  8
0
  6
CONTINUOUS
 62
     7
 10
3972.922207432047
 20
1725.198646883448
 30
0.0
 70
    32
  0
VERTEX
  5
366
  8
0
  6
CONTINUOUS
 62
     7
 10
3972.900609644427
 20
1725.198646883448
 30
0.0
 70
    32
  0
VERTEX
  5
367
  8
0
  6
CONTINUOUS
 62
     7
 10
3972.877997849105
 20
1725.198646883447
 30
0.0
 70
    32
  0
VERTEX
  5
368
  8
0
  6
CONTINUOUS
 62
     7
 10
3972.854433420324
 20
1725.198646883448
 30
0.0
 70
    32
  0
VERTEX
  5
369
  8
0
  6
CONTINUOUS
 62
     7
 10
3972.829977732323
 20
1725.198646883447
 30
0.0
 70
    32
  0
VERTEX
  5
36A
  8
0
  6
CONTINUOUS
 62
     7
 10
3972.804692159344
 20
1725.198646883447
 30
0.0
 70
    32
  0
VERTEX
  5
36B
  8
0
  6
CONTINUOUS
 62
     7
 10
3972.778638075628
 20
1725.198646883447
 30
0.0
 70
    32
  0
VERTEX
  5
36C
  8
0
  6
CONTINUOUS
 62
     7
 10
3972.751876855418
 20
1725.198646883447
 30
0.0
 70
    32
  0
VERTEX
  5
36D
  8
0
  6
CONTINUOUS
 62
     7
 10
3972.724469872954
 20
1725.198646883447
 30
0.0
 70
    32
  0
VERTEX
  5
36E
  8
0
  6
CONTINUOUS
 62
     7
 10
3972.696478502478
 20
1725.198646883448
 30
0.0
 70
    32
  0
VERTEX
  5
36F
  8
0
  6
CONTINUOUS
 62
     7
 10
3972.66796411823
 20
1725.198646883447
 30
0.0
 70
    32
  0
VERTEX
  5
370
  8
0
  6
CONTINUOUS
 62
     7
 10
3972.638979467376
 20
1725.198646883447
 30
0.0
 70
    32
  0
VERTEX
  5
371
  8
0
  6
CONTINUOUS
 62
     7
 10
3972.609535158495
 20
1725.198646883447
 30
0.0
 70
    32
  0
VERTEX
  5
372
  8
0
  6
CONTINUOUS
 62
     7
 10
3972.579628954089
 20
1725.198646883448
 30
0.0
 70
    32
  0
VERTEX
  5
373
  8
0
  6
CONTINUOUS
 62
     7
 10
3972.549258613541
 20
1725.198646883447
 30
0.0
 70
    32
  0
VERTEX
  5
374
  8
0
  6
CONTINUOUS
 62
     7
 10
3972.518421896249
 20
1725.198646883447
 30
0.0
 70
    32
  0
VERTEX
  5
375
  8
0
  6
CONTINUOUS
 62
     7
 10
3972.487116561602
 20
1725.198646883447
 30
0.0
 70
    32
  0
VERTEX
  5
376
  8
0
  6
CONTINUOUS
 62
     7
 10
3972.455340368991
 20
1725.198646883447
 30
0.0
 70
    32
  0
VERTEX
  5
377
  8
0
  6
CONTINUOUS
 62
     7
 10
3972.423091077808
 20
1725.198646883447
 30
0.0
 70
    32
  0
VERTEX
  5
378
  8
0
  6
CONTINUOUS
 62
     7
 10
3972.390366447444
 20
1725.198646883448
 30
0.0
 70
    32
  0
VERTEX
  5
379
  8
0
  6
CONTINUOUS
 62
     7
 10
3972.357164237289
 20
1725.198646883448
 30
0.0
 70
    32
  0
VERTEX
  5
37A
  8
0
  6
CONTINUOUS
 62
     7
 10
3972.323483798481
 20
1725.198646883448
 30
0.0
 70
    32
  0
VERTEX
  5
37B
  8
0
  6
CONTINUOUS
 62
     7
 10
3972.289336405159
 20
1725.198646883448
 30
0.0
 70
    32
  0
VERTEX
  5
37C
  8
0
  6
CONTINUOUS
 62
     7
 10
3972.254738738248
 20
1725.198646883448
 30
0.0
 70
    32
  0
VERTEX
  5
37D
  8
0
  6
CONTINUOUS
 62
     7
 10
3972.219707505559
 20
1725.198646883448
 30
0.0
 70
    32
  0
VERTEX
  5
37E
  8
0
  6
CONTINUOUS
 62
     7
 10
3972.184259414898
 20
1725.198646883448
 30
0.0
 70
    32
  0
VERTEX
  5
37F
  8
0
  6
CONTINUOUS
 62
     7
 10
3972.148411174073
 20
1725.198646883448
 30
0.0
 70
    32
  0
VERTEX
  5
380
  8
0
  6
CONTINUOUS
 62
     7
 10
3972.112179490892
 20
1725.198646883447
 30
0.0
 70
    32
  0
VERTEX
  5
381
  8
0
  6
CONTINUOUS
 62
     7
 10
3972.075581073163
 20
1725.198646883448
 30
0.0
 70
    32
  0
VERTEX
  5
382
  8
0
  6
CONTINUOUS
 62
     7
 10
3972.038632628691
 20
1725.198646883448
 30
0.0
 70
    32
  0
VERTEX
  5
383
  8
0
  6
CONTINUOUS
 62
     7
 10
3972.001350865286
 20
1725.198646883448
 30
0.0
 70
    32
  0
VERTEX
  5
384
  8
0
  6
CONTINUOUS
 62
     7
 10
3971.963752488751
 20
1725.198646883448
 30
0.0
 70
    32
  0
VERTEX
  5
385
  8
0
  6
CONTINUOUS
 62
     7
 10
3971.92585417961
 20
1725.198646883448
 30
0.0
 70
    32
  0
VERTEX
  5
386
  8
0
  6
CONTINUOUS
 62
     7
 10
3971.887672601103
 20
1725.198646883447
 30
0.0
 70
    32
  0
VERTEX
  5
387
  8
0
  6
CONTINUOUS
 62
     7
 10
3971.849224416135
 20
1725.198646883448
 30
0.0
 70
    32
  0
VERTEX
  5
388
  8
0
  6
CONTINUOUS
 62
     7
 10
3971.810526287609
 20
1725.198646883447
 30
0.0
 70
    32
  0
VERTEX
  5
389
  8
0
  6
CONTINUOUS
 62
     7
 10
3971.771594878429
 20
1725.198646883447
 30
0.0
 70
    32
  0
VERTEX
  5
38A
  8
0
  6
CONTINUOUS
 62
     7
 10
3971.7324468515
 20
1725.198646883447
 30
0.0
 70
    32
  0
VERTEX
  5
38B
  8
0
  6
CONTINUOUS
 62
     7
 10
3971.693098869724
 20
1725.198646883447
 30
0.0
 70
    32
  0
VERTEX
  5
38C
  8
0
  6
CONTINUOUS
 62
     7
 10
3971.653567596005
 20
1725.198646883447
 30
0.0
 70
    32
  0
VERTEX
  5
38D
  8
0
  6
CONTINUOUS
 62
     7
 10
3971.613869693248
 20
1725.198646883446
 30
0.0
 70
    32
  0
VERTEX
  5
38E
  8
0
  6
CONTINUOUS
 62
     7
 10
3971.574021824357
 20
1725.198646883446
 30
0.0
 70
    32
  0
VERTEX
  5
38F
  8
0
  6
CONTINUOUS
 62
     7
 10
3971.534040652234
 20
1725.198646883446
 30
0.0
 70
    32
  0
VERTEX
  5
390
  8
0
  6
CONTINUOUS
 62
     7
 10
3971.493942839785
 20
1725.198646883446
 30
0.0
 70
    32
  0
VERTEX
  5
391
  8
0
  6
CONTINUOUS
 62
     7
 10
3971.453745049913
 20
1725.198646883446
 30
0.0
 70
    32
  0
VERTEX
  5
392
  8
0
  6
CONTINUOUS
 62
     7
 10
3971.41346394552
 20
1725.198646883445
 30
0.0
 70
    32
  0
VERTEX
  5
393
  8
0
  6
CONTINUOUS
 62
     7
 10
3971.373116189513
 20
1725.198646883445
 30
0.0
 70
    32
  0
VERTEX
  5
394
  8
0
  6
CONTINUOUS
 62
     7
 10
3971.332718444794
 20
1725.198646883445
 30
0.0
 70
    32
  0
VERTEX
  5
395
  8
0
  6
CONTINUOUS
 62
     7
 10
3971.292287374267
 20
1725.198646883445
 30
0.0
 70
    32
  0
VERTEX
  5
396
  8
0
  6
CONTINUOUS
 62
     7
 10
3971.251839640837
 20
1725.198646883445
 30
0.0
 70
    32
  0
SEQEND
  5
4CC
  8
0
  6
CONTINUOUS
 62
     7
  0
LINE
  5
10C
  8
0
  6
CONTINUOUS
 62
     7
 10
3971.251839640833
 20
1726.198646883448
 30
0.0
 11
3971.251839640837
 21
1725.198646883445
 31
0.0
  0
LINE
  5
10D
  8
0
  6
CONTINUOUS
 62
     7
 10
3971.251839640829
 20
1782.198646883447
 30
0.0
 11
3971.251839640838
 21
1781.198646883445
 31
0.0
  0
POLYLINE
  5
10E
  8
0
  6
CONTINUOUS
 62
     7
 10
0.0
 20
0.0
 30
0.0
 66
     1
 70
     8
  0
VERTEX
  5
397
  8
0
  6
CONTINUOUS
 62
     7
 10
3971.251839640829
 20
1782.198646883447
 30
0.0
 70
    32
  0
VERTEX
  5
398
  8
0
  6
CONTINUOUS
 62
     7
 10
3971.292288119524
 20
1782.198646883447
 30
0.0
 70
    32
  0
VERTEX
  5
399
  8
0
  6
CONTINUOUS
 62
     7
 10
3971.332719931825
 20
1782.198646883447
 30
0.0
 70
    32
  0
VERTEX
  5
39A
  8
0
  6
CONTINUOUS
 62
     7
 10
3971.373118411337
 20
1782.198646883447
 30
0.0
 70
    32
  0
VERTEX
  5
39B
  8
0
  6
CONTINUOUS
 62
     7
 10
3971.413466891664
 20
1782.198646883447
 30
0.0
 70
    32
  0
VERTEX
  5
39C
  8
0
  6
CONTINUOUS
 62
     7
 10
3971.45374870641
 20
1782.198646883446
 30
0.0
 70
    32
  0
VERTEX
  5
39D
  8
0
  6
CONTINUOUS
 62
     7
 10
3971.493947189185
 20
1782.198646883447
 30
0.0
 70
    32
  0
VERTEX
  5
39E
  8
0
  6
CONTINUOUS
 62
     7
 10
3971.534045673589
 20
1782.198646883446
 30
0.0
 70
    32
  0
VERTEX
  5
39F
  8
0
  6
CONTINUOUS
 62
     7
 10
3971.57402749323
 20
1782.198646883447
 30
0.0
 70
    32
  0
VERTEX
  5
3A0
  8
0
  6
CONTINUOUS
 62
     7
 10
3971.613875981713
 20
1782.198646883446
 30
0.0
 70
    32
  0
VERTEX
  5
3A1
  8
0
  6
CONTINUOUS
 62
     7
 10
3971.653574472641
 20
1782.198646883446
 30
0.0
 70
    32
  0
VERTEX
  5
3A2
  8
0
  6
CONTINUOUS
 62
     7
 10
3971.693106299622
 20
1782.198646883446
 30
0.0
 70
    32
  0
VERTEX
  5
3A3
  8
0
  6
CONTINUOUS
 62
     7
 10
3971.732454796261
 20
1782.198646883446
 30
0.0
 70
    32
  0
VERTEX
  5
3A4
  8
0
  6
CONTINUOUS
 62
     7
 10
3971.771603296162
 20
1782.198646883447
 30
0.0
 70
    32
  0
VERTEX
  5
3A5
  8
0
  6
CONTINUOUS
 62
     7
 10
3971.810535132929
 20
1782.198646883447
 30
0.0
 70
    32
  0
VERTEX
  5
3A6
  8
0
  6
CONTINUOUS
 62
     7
 10
3971.84923364017
 20
1782.198646883447
 30
0.0
 70
    32
  0
VERTEX
  5
3A7
  8
0
  6
CONTINUOUS
 62
     7
 10
3971.887682151487
 20
1782.198646883446
 30
0.0
 70
    32
  0
VERTEX
  5
3A8
  8
0
  6
CONTINUOUS
 62
     7
 10
3971.925864000488
 20
1782.198646883446
 30
0.0
 70
    32
  0
VERTEX
  5
3A9
  8
0
  6
CONTINUOUS
 62
     7
 10
3971.963762520777
 20
1782.198646883446
 30
0.0
 70
    32
  0
VERTEX
  5
3AA
  8
0
  6
CONTINUOUS
 62
     7
 10
3972.001361045718
 20
1782.198646883446
 30
0.0
 70
    32
  0
VERTEX
  5
3AB
  8
0
  6
CONTINUOUS
 62
     7
 10
3972.038642896212
 20
1782.198646883447
 30
0.0
 70
    32
  0
VERTEX
  5
3AC
  8
0
  6
CONTINUOUS
 62
     7
 10
3972.075591374952
 20
1782.198646883446
 30
0.0
 70
    32
  0
VERTEX
  5
3AD
  8
0
  6
CONTINUOUS
 62
     7
 10
3972.112189783194
 20
1782.198646883446
 30
0.0
 70
    32
  0
VERTEX
  5
3AE
  8
0
  6
CONTINUOUS
 62
     7
 10
3972.148421422186
 20
1782.198646883446
 30
0.0
 70
    32
  0
VERTEX
  5
3AF
  8
0
  6
CONTINUOUS
 62
     7
 10
3972.184269593185
 20
1782.198646883446
 30
0.0
 70
    32
  0
VERTEX
  5
3B0
  8
0
  6
CONTINUOUS
 62
     7
 10
3972.21971759744
 20
1782.198646883446
 30
0.0
 70
    32
  0
VERTEX
  5
3B1
  8
0
  6
CONTINUOUS
 62
     7
 10
3972.254748736203
 20
1782.198646883446
 30
0.0
 70
    32
  0
VERTEX
  5
3B2
  8
0
  6
CONTINUOUS
 62
     7
 10
3972.289346310726
 20
1782.198646883446
 30
0.0
 70
    32
  0
VERTEX
  5
3B3
  8
0
  6
CONTINUOUS
 62
     7
 10
3972.323493622264
 20
1782.198646883446
 30
0.0
 70
    32
  0
VERTEX
  5
3B4
  8
0
  6
CONTINUOUS
 62
     7
 10
3972.357174004661
 20
1782.198646883446
 30
0.0
 70
    32
  0
VERTEX
  5
3B5
  8
0
  6
CONTINUOUS
 62
     7
 10
3972.390376351204
 20
1782.198646883446
 30
0.0
 70
    32
  0
VERTEX
  5
3B6
  8
0
  6
CONTINUOUS
 62
     7
 10
3972.423101353361
 20
1782.198646883446
 30
0.0
 70
    32
  0
VERTEX
  5
3B7
  8
0
  6
CONTINUOUS
 62
     7
 10
3972.455351209138
 20
1782.198646883446
 30
0.0
 70
    32
  0
VERTEX
  5
3B8
  8
0
  6
CONTINUOUS
 62
     7
 10
3972.487128116541
 20
1782.198646883446
 30
0.0
 70
    32
  0
VERTEX
  5
3B9
  8
0
  6
CONTINUOUS
 62
     7
 10
3972.518434273577
 20
1782.198646883446
 30
0.0
 70
    32
  0
VERTEX
  5
3BA
  8
0
  6
CONTINUOUS
 62
     7
 10
3972.54927187825
 20
1782.198646883446
 30
0.0
 70
    32
  0
VERTEX
  5
3BB
  8
0
  6
CONTINUOUS
 62
     7
 10
3972.579643128569
 20
1782.198646883446
 30
0.0
 70
    32
  0
VERTEX
  5
3BC
  8
0
  6
CONTINUOUS
 62
     7
 10
3972.609550222538
 20
1782.198646883446
 30
0.0
 70
    32
  0
VERTEX
  5
3BD
  8
0
  6
CONTINUOUS
 62
     7
 10
3972.638995358163
 20
1782.198646883446
 30
0.0
 70
    32
  0
VERTEX
  5
3BE
  8
0
  6
CONTINUOUS
 62
     7
 10
3972.66798073026
 20
1782.198646883446
 30
0.0
 70
    32
  0
VERTEX
  5
3BF
  8
0
  6
CONTINUOUS
 62
     7
 10
3972.696495660579
 20
1782.198646883446
 30
0.0
 70
    32
  0
VERTEX
  5
3C0
  8
0
  6
CONTINUOUS
 62
     7
 10
3972.724487315696
 20
1782.198646883446
 30
0.0
 70
    32
  0
VERTEX
  5
3C1
  8
0
  6
CONTINUOUS
 62
     7
 10
3972.75189424672
 20
1782.198646883446
 30
0.0
 70
    32
  0
VERTEX
  5
3C2
  8
0
  6
CONTINUOUS
 62
     7
 10
3972.778655004759
 20
1782.198646883446
 30
0.0
 70
    32
  0
VERTEX
  5
3C3
  8
0
  6
CONTINUOUS
 62
     7
 10
3972.804708140922
 20
1782.198646883446
 30
0.0
 70
    32
  0
VERTEX
  5
3C4
  8
0
  6
CONTINUOUS
 62
     7
 10
3972.829992206317
 20
1782.198646883447
 30
0.0
 70
    32
  0
VERTEX
  5
3C5
  8
0
  6
CONTINUOUS
 62
     7
 10
3972.854445752054
 20
1782.198646883446
 30
0.0
 70
    32
  0
VERTEX
  5
3C6
  8
0
  6
CONTINUOUS
 62
     7
 10
3972.87800732924
 20
1782.198646883446
 30
0.0
 70
    32
  0
VERTEX
  5
3C7
  8
0
  6
CONTINUOUS
 62
     7
 10
3972.900615488986
 20
1782.198646883446
 30
0.0
 70
    32
  0
VERTEX
  5
3C8
  8
0
  6
CONTINUOUS
 62
     7
 10
3972.922208782398
 20
1782.198646883446
 30
0.0
 70
    32
  0
VERTEX
  5
3C9
  8
0
  6
CONTINUOUS
 62
     7
 10
3972.942754847447
 20
1782.198646883446
 30
0.0
 70
    32
  0
VERTEX
  5
3CA
  8
0
  6
CONTINUOUS
 62
     7
 10
3972.96236521052
 20
1782.198646883446
 30
0.0
 70
    32
  0
VERTEX
  5
3CB
  8
0
  6
CONTINUOUS
 62
     7
 10
3972.981195811314
 20
1782.198646883446
 30
0.0
 70
    32
  0
VERTEX
  5
3CC
  8
0
  6
CONTINUOUS
 62
     7
 10
3972.999402602283
 20
1782.198646883446
 30
0.0
 70
    32
  0
VERTEX
  5
3CD
  8
0
  6
CONTINUOUS
 62
     7
 10
3973.017141535885
 20
1782.198646883446
 30
0.0
 70
    32
  0
VERTEX
  5
3CE
  8
0
  6
CONTINUOUS
 62
     7
 10
3973.034568564575
 20
1782.198646883446
 30
0.0
 70
    32
  0
VERTEX
  5
3CF
  8
0
  6
CONTINUOUS
 62
     7
 10
3973.05183964081
 20
1782.198646883446
 30
0.0
 70
    32
  0
SEQEND
  5
4CD
  8
0
  6
CONTINUOUS
 62
     7
  0
LINE
  5
10F
  8
0
  6
CONTINUOUS
 62
     7
 10
3971.251839640833
 20
1726.198646883448
 30
0.0
 11
3971.251839640838
 21
1781.198646883445
 31
0.0
  0
LINE
  5
110
  8
0
  6
CONTINUOUS
 62
     7
 10
3971.051839640837
 20
1725.198646883445
 30
0.0
 11
3971.251839640837
 21
1725.198646883445
 31
0.0
  0
LINE
  5
111
  8
0
  6
CONTINUOUS
 62
     7
 10
3971.051839640833
 20
1726.198646883448
 30
0.0
 11
3971.251839640833
 21
1726.198646883448
 31
0.0
  0
LINE
  5
112
  8
0
  6
CONTINUOUS
 62
     7
 10
3971.051839640838
 20
1781.198646883445
 30
0.0
 11
3971.251839640838
 21
1781.198646883445
 31
0.0
  0
LINE
  5
113
  8
0
  6
CONTINUOUS
 62
     7
 10
3971.251839640829
 20
1782.198646883447
 30
0.0
 11
3971.051839640828
 21
1782.198646883447
 31
0.0
  0
POLYLINE
  5
114
  8
0
  6
CONTINUOUS
 62
     7
 10
0.0
 20
0.0
 30
0.0
 66
     1
 70
     8
  0
VERTEX
  5
3D0
  8
0
  6
CONTINUOUS
 62
     7
 10
3973.051839640811
 20
2163.198646883448
 30
0.0
 70
    32
  0
VERTEX
  5
3D1
  8
0
  6
CONTINUOUS
 62
     7
 10
3973.03457081543
 20
2163.198646883448
 30
0.0
 70
    32
  0
VERTEX
  5
3D2
  8
0
  6
CONTINUOUS
 62
     7
 10
3973.01714573196
 20
2163.198646883448
 30
0.0
 70
    32
  0
VERTEX
  5
3D3
  8
0
  6
CONTINUOUS
 62
     7
 10
3972.999408132308
 20
2163.198646883449
 30
0.0
 70
    32
  0
VERTEX
  5
3D4
  8
0
  6
CONTINUOUS
 62
     7
 10
3972.981201758379
 20
2163.198646883448
 30
0.0
 70
    32
  0
VERTEX
  5
3D5
  8
0
  6
CONTINUOUS
 62
     7
 10
3972.962370352087
 20
2163.198646883449
 30
0.0
 70
    32
  0
VERTEX
  5
3D6
  8
0
  6
CONTINUOUS
 62
     7
 10
3972.942757655337
 20
2163.198646883448
 30
0.0
 70
    32
  0
VERTEX
  5
3D7
  8
0
  6
CONTINUOUS
 62
     7
 10
3972.922207432048
 20
2163.198646883449
 30
0.0
 70
    32
  0
VERTEX
  5
3D8
  8
0
  6
CONTINUOUS
 62
     7
 10
3972.900609644429
 20
2163.198646883449
 30
0.0
 70
    32
  0
VERTEX
  5
3D9
  8
0
  6
CONTINUOUS
 62
     7
 10
3972.877997849107
 20
2163.198646883449
 30
0.0
 70
    32
  0
VERTEX
  5
3DA
  8
0
  6
CONTINUOUS
 62
     7
 10
3972.854433420326
 20
2163.198646883449
 30
0.0
 70
    32
  0
VERTEX
  5
3DB
  8
0
  6
CONTINUOUS
 62
     7
 10
3972.829977732325
 20
2163.198646883448
 30
0.0
 70
    32
  0
VERTEX
  5
3DC
  8
0
  6
CONTINUOUS
 62
     7
 10
3972.804692159347
 20
2163.198646883448
 30
0.0
 70
    32
  0
VERTEX
  5
3DD
  8
0
  6
CONTINUOUS
 62
     7
 10
3972.778638075632
 20
2163.198646883449
 30
0.0
 70
    32
  0
VERTEX
  5
3DE
  8
0
  6
CONTINUOUS
 62
     7
 10
3972.751876855421
 20
2163.198646883449
 30
0.0
 70
    32
  0
VERTEX
  5
3DF
  8
0
  6
CONTINUOUS
 62
     7
 10
3972.724469872957
 20
2163.198646883449
 30
0.0
 70
    32
  0
VERTEX
  5
3E0
  8
0
  6
CONTINUOUS
 62
     7
 10
3972.696478502481
 20
2163.198646883449
 30
0.0
 70
    32
  0
VERTEX
  5
3E1
  8
0
  6
CONTINUOUS
 62
     7
 10
3972.667964118233
 20
2163.198646883449
 30
0.0
 70
    32
  0
VERTEX
  5
3E2
  8
0
  6
CONTINUOUS
 62
     7
 10
3972.638979467379
 20
2163.198646883448
 30
0.0
 70
    32
  0
VERTEX
  5
3E3
  8
0
  6
CONTINUOUS
 62
     7
 10
3972.609535158499
 20
2163.198646883449
 30
0.0
 70
    32
  0
VERTEX
  5
3E4
  8
0
  6
CONTINUOUS
 62
     7
 10
3972.57962895409
 20
2163.198646883449
 30
0.0
 70
    32
  0
VERTEX
  5
3E5
  8
0
  6
CONTINUOUS
 62
     7
 10
3972.549258613544
 20
2163.198646883449
 30
0.0
 70
    32
  0
VERTEX
  5
3E6
  8
0
  6
CONTINUOUS
 62
     7
 10
3972.518421896251
 20
2163.198646883448
 30
0.0
 70
    32
  0
VERTEX
  5
3E7
  8
0
  6
CONTINUOUS
 62
     7
 10
3972.487116561604
 20
2163.198646883449
 30
0.0
 70
    32
  0
VERTEX
  5
3E8
  8
0
  6
CONTINUOUS
 62
     7
 10
3972.455340368992
 20
2163.198646883449
 30
0.0
 70
    32
  0
VERTEX
  5
3E9
  8
0
  6
CONTINUOUS
 62
     7
 10
3972.423091077809
 20
2163.198646883449
 30
0.0
 70
    32
  0
VERTEX
  5
3EA
  8
0
  6
CONTINUOUS
 62
     7
 10
3972.390366447442
 20
2163.198646883448
 30
0.0
 70
    32
  0
VERTEX
  5
3EB
  8
0
  6
CONTINUOUS
 62
     7
 10
3972.357164237289
 20
2163.198646883449
 30
0.0
 70
    32
  0
VERTEX
  5
3EC
  8
0
  6
CONTINUOUS
 62
     7
 10
3972.323483798481
 20
2163.198646883449
 30
0.0
 70
    32
  0
VERTEX
  5
3ED
  8
0
  6
CONTINUOUS
 62
     7
 10
3972.289336405157
 20
2163.198646883449
 30
0.0
 70
    32
  0
VERTEX
  5
3EE
  8
0
  6
CONTINUOUS
 62
     7
 10
3972.254738738247
 20
2163.198646883449
 30
0.0
 70
    32
  0
VERTEX
  5
3EF
  8
0
  6
CONTINUOUS
 62
     7
 10
3972.219707505557
 20
2163.198646883448
 30
0.0
 70
    32
  0
VERTEX
  5
3F0
  8
0
  6
CONTINUOUS
 62
     7
 10
3972.184259414895
 20
2163.198646883449
 30
0.0
 70
    32
  0
VERTEX
  5
3F1
  8
0
  6
CONTINUOUS
 62
     7
 10
3972.148411174071
 20
2163.198646883449
 30
0.0
 70
    32
  0
VERTEX
  5
3F2
  8
0
  6
CONTINUOUS
 62
     7
 10
3972.112179490889
 20
2163.198646883449
 30
0.0
 70
    32
  0
VERTEX
  5
3F3
  8
0
  6
CONTINUOUS
 62
     7
 10
3972.075581073158
 20
2163.198646883449
 30
0.0
 70
    32
  0
VERTEX
  5
3F4
  8
0
  6
CONTINUOUS
 62
     7
 10
3972.038632628687
 20
2163.198646883449
 30
0.0
 70
    32
  0
VERTEX
  5
3F5
  8
0
  6
CONTINUOUS
 62
     7
 10
3972.001350865281
 20
2163.198646883449
 30
0.0
 70
    32
  0
VERTEX
  5
3F6
  8
0
  6
CONTINUOUS
 62
     7
 10
3971.963752488745
 20
2163.198646883448
 30
0.0
 70
    32
  0
VERTEX
  5
3F7
  8
0
  6
CONTINUOUS
 62
     7
 10
3971.925854179603
 20
2163.198646883448
 30
0.0
 70
    32
  0
VERTEX
  5
3F8
  8
0
  6
CONTINUOUS
 62
     7
 10
3971.887672601096
 20
2163.198646883449
 30
0.0
 70
    32
  0
VERTEX
  5
3F9
  8
0
  6
CONTINUOUS
 62
     7
 10
3971.849224416128
 20
2163.198646883448
 30
0.0
 70
    32
  0
VERTEX
  5
3FA
  8
0
  6
CONTINUOUS
 62
     7
 10
3971.810526287602
 20
2163.198646883448
 30
0.0
 70
    32
  0
VERTEX
  5
3FB
  8
0
  6
CONTINUOUS
 62
     7
 10
3971.771594878421
 20
2163.198646883448
 30
0.0
 70
    32
  0
VERTEX
  5
3FC
  8
0
  6
CONTINUOUS
 62
     7
 10
3971.732446851491
 20
2163.198646883448
 30
0.0
 70
    32
  0
VERTEX
  5
3FD
  8
0
  6
CONTINUOUS
 62
     7
 10
3971.693098869715
 20
2163.198646883448
 30
0.0
 70
    32
  0
VERTEX
  5
3FE
  8
0
  6
CONTINUOUS
 62
     7
 10
3971.653567595995
 20
2163.198646883448
 30
0.0
 70
    32
  0
VERTEX
  5
3FF
  8
0
  6
CONTINUOUS
 62
     7
 10
3971.613869693237
 20
2163.198646883448
 30
0.0
 70
    32
  0
VERTEX
  5
400
  8
0
  6
CONTINUOUS
 62
     7
 10
3971.574021824345
 20
2163.198646883448
 30
0.0
 70
    32
  0
VERTEX
  5
401
  8
0
  6
CONTINUOUS
 62
     7
 10
3971.534040652221
 20
2163.198646883448
 30
0.0
 70
    32
  0
VERTEX
  5
402
  8
0
  6
CONTINUOUS
 62
     7
 10
3971.493942839772
 20
2163.198646883448
 30
0.0
 70
    32
  0
VERTEX
  5
403
  8
0
  6
CONTINUOUS
 62
     7
 10
3971.453745049898
 20
2163.198646883447
 30
0.0
 70
    32
  0
VERTEX
  5
404
  8
0
  6
CONTINUOUS
 62
     7
 10
3971.413463945506
 20
2163.198646883447
 30
0.0
 70
    32
  0
VERTEX
  5
405
  8
0
  6
CONTINUOUS
 62
     7
 10
3971.373116189498
 20
2163.198646883447
 30
0.0
 70
    32
  0
VERTEX
  5
406
  8
0
  6
CONTINUOUS
 62
     7
 10
3971.332718444778
 20
2163.198646883447
 30
0.0
 70
    32
  0
VERTEX
  5
407
  8
0
  6
CONTINUOUS
 62
     7
 10
3971.292287374251
 20
2163.198646883447
 30
0.0
 70
    32
  0
VERTEX
  5
408
  8
0
  6
CONTINUOUS
 62
     7
 10
3971.25183964082
 20
2163.198646883446
 30
0.0
 70
    32
  0
SEQEND
  5
4CE
  8
0
  6
CONTINUOUS
 62
     7
  0
LINE
  5
115
  8
0
  6
CONTINUOUS
 62
     7
 10
3971.251839640816
 20
2164.198646883449
 30
0.0
 11
3971.25183964082
 21
2163.198646883446
 31
0.0
  0
LINE
  5
116
  8
0
  6
CONTINUOUS
 62
     7
 10
3971.251839640811
 20
2220.198646883448
 30
0.0
 11
3971.251839640821
 21
2219.198646883446
 31
0.0
  0
POLYLINE
  5
117
  8
0
  6
CONTINUOUS
 62
     7
 10
0.0
 20
0.0
 30
0.0
 66
     1
 70
     8
  0
VERTEX
  5
409
  8
0
  6
CONTINUOUS
 62
     7
 10
3971.251839640811
 20
2220.198646883448
 30
0.0
 70
    32
  0
VERTEX
  5
40A
  8
0
  6
CONTINUOUS
 62
     7
 10
3971.292288119508
 20
2220.198646883448
 30
0.0
 70
    32
  0
VERTEX
  5
40B
  8
0
  6
CONTINUOUS
 62
     7
 10
3971.33271993181
 20
2220.198646883448
 30
0.0
 70
    32
  0
VERTEX
  5
40C
  8
0
  6
CONTINUOUS
 62
     7
 10
3971.373118411322
 20
2220.198646883448
 30
0.0
 70
    32
  0
VERTEX
  5
40D
  8
0
  6
CONTINUOUS
 62
     7
 10
3971.413466891649
 20
2220.198646883448
 30
0.0
 70
    32
  0
VERTEX
  5
40E
  8
0
  6
CONTINUOUS
 62
     7
 10
3971.453748706398
 20
2220.198646883448
 30
0.0
 70
    32
  0
VERTEX
  5
40F
  8
0
  6
CONTINUOUS
 62
     7
 10
3971.493947189172
 20
2220.198646883448
 30
0.0
 70
    32
  0
VERTEX
  5
410
  8
0
  6
CONTINUOUS
 62
     7
 10
3971.534045673577
 20
2220.198646883448
 30
0.0
 70
    32
  0
VERTEX
  5
411
  8
0
  6
CONTINUOUS
 62
     7
 10
3971.574027493219
 20
2220.198646883448
 30
0.0
 70
    32
  0
VERTEX
  5
412
  8
0
  6
CONTINUOUS
 62
     7
 10
3971.613875981702
 20
2220.198646883448
 30
0.0
 70
    32
  0
VERTEX
  5
413
  8
0
  6
CONTINUOUS
 62
     7
 10
3971.653574472632
 20
2220.198646883448
 30
0.0
 70
    32
  0
VERTEX
  5
414
  8
0
  6
CONTINUOUS
 62
     7
 10
3971.693106299614
 20
2220.198646883448
 30
0.0
 70
    32
  0
VERTEX
  5
415
  8
0
  6
CONTINUOUS
 62
     7
 10
3971.732454796252
 20
2220.198646883448
 30
0.0
 70
    32
  0
VERTEX
  5
416
  8
0
  6
CONTINUOUS
 62
     7
 10
3971.771603296153
 20
2220.198646883448
 30
0.0
 70
    32
  0
VERTEX
  5
417
  8
0
  6
CONTINUOUS
 62
     7
 10
3971.810535132921
 20
2220.198646883448
 30
0.0
 70
    32
  0
VERTEX
  5
418
  8
0
  6
CONTINUOUS
 62
     7
 10
3971.849233640162
 20
2220.198646883448
 30
0.0
 70
    32
  0
VERTEX
  5
419
  8
0
  6
CONTINUOUS
 62
     7
 10
3971.887682151481
 20
2220.198646883448
 30
0.0
 70
    32
  0
VERTEX
  5
41A
  8
0
  6
CONTINUOUS
 62
     7
 10
3971.925864000483
 20
2220.198646883448
 30
0.0
 70
    32
  0
VERTEX
  5
41B
  8
0
  6
CONTINUOUS
 62
     7
 10
3971.963762520772
 20
2220.198646883448
 30
0.0
 70
    32
  0
VERTEX
  5
41C
  8
0
  6
CONTINUOUS
 62
     7
 10
3972.001361045713
 20
2220.198646883448
 30
0.0
 70
    32
  0
VERTEX
  5
41D
  8
0
  6
CONTINUOUS
 62
     7
 10
3972.038642896207
 20
2220.198646883448
 30
0.0
 70
    32
  0
VERTEX
  5
41E
  8
0
  6
CONTINUOUS
 62
     7
 10
3972.075591374948
 20
2220.198646883447
 30
0.0
 70
    32
  0
VERTEX
  5
41F
  8
0
  6
CONTINUOUS
 62
     7
 10
3972.11218978319
 20
2220.198646883448
 30
0.0
 70
    32
  0
VERTEX
  5
420
  8
0
  6
CONTINUOUS
 62
     7
 10
3972.148421422184
 20
2220.198646883447
 30
0.0
 70
    32
  0
VERTEX
  5
421
  8
0
  6
CONTINUOUS
 62
     7
 10
3972.184269593183
 20
2220.198646883448
 30
0.0
 70
    32
  0
VERTEX
  5
422
  8
0
  6
CONTINUOUS
 62
     7
 10
3972.219717597437
 20
2220.198646883447
 30
0.0
 70
    32
  0
VERTEX
  5
423
  8
0
  6
CONTINUOUS
 62
     7
 10
3972.254748736202
 20
2220.198646883448
 30
0.0
 70
    32
  0
VERTEX
  5
424
  8
0
  6
CONTINUOUS
 62
     7
 10
3972.289346310726
 20
2220.198646883448
 30
0.0
 70
    32
  0
VERTEX
  5
425
  8
0
  6
CONTINUOUS
 62
     7
 10
3972.323493622263
 20
2220.198646883448
 30
0.0
 70
    32
  0
VERTEX
  5
426
  8
0
  6
CONTINUOUS
 62
     7
 10
3972.357174004662
 20
2220.198646883448
 30
0.0
 70
    32
  0
VERTEX
  5
427
  8
0
  6
CONTINUOUS
 62
     7
 10
3972.390376351205
 20
2220.198646883448
 30
0.0
 70
    32
  0
VERTEX
  5
428
  8
0
  6
CONTINUOUS
 62
     7
 10
3972.423101353361
 20
2220.198646883448
 30
0.0
 70
    32
  0
VERTEX
  5
429
  8
0
  6
CONTINUOUS
 62
     7
 10
3972.455351209139
 20
2220.198646883448
 30
0.0
 70
    32
  0
VERTEX
  5
42A
  8
0
  6
CONTINUOUS
 62
     7
 10
3972.487128116542
 20
2220.198646883448
 30
0.0
 70
    32
  0
VERTEX
  5
42B
  8
0
  6
CONTINUOUS
 62
     7
 10
3972.518434273578
 20
2220.198646883448
 30
0.0
 70
    32
  0
VERTEX
  5
42C
  8
0
  6
CONTINUOUS
 62
     7
 10
3972.549271878253
 20
2220.198646883448
 30
0.0
 70
    32
  0
VERTEX
  5
42D
  8
0
  6
CONTINUOUS
 62
     7
 10
3972.57964312857
 20
2220.198646883448
 30
0.0
 70
    32
  0
VERTEX
  5
42E
  8
0
  6
CONTINUOUS
 62
     7
 10
3972.60955022254
 20
2220.198646883448
 30
0.0
 70
    32
  0
VERTEX
  5
42F
  8
0
  6
CONTINUOUS
 62
     7
 10
3972.638995358165
 20
2220.198646883448
 30
0.0
 70
    32
  0
VERTEX
  5
430
  8
0
  6
CONTINUOUS
 62
     7
 10
3972.667980730263
 20
2220.198646883448
 30
0.0
 70
    32
  0
VERTEX
  5
431
  8
0
  6
CONTINUOUS
 62
     7
 10
3972.696495660581
 20
2220.198646883447
 30
0.0
 70
    32
  0
VERTEX
  5
432
  8
0
  6
CONTINUOUS
 62
     7
 10
3972.724487315699
 20
2220.198646883448
 30
0.0
 70
    32
  0
VERTEX
  5
433
  8
0
  6
CONTINUOUS
 62
     7
 10
3972.751894246722
 20
2220.198646883447
 30
0.0
 70
    32
  0
VERTEX
  5
434
  8
0
  6
CONTINUOUS
 62
     7
 10
3972.778655004761
 20
2220.198646883448
 30
0.0
 70
    32
  0
VERTEX
  5
435
  8
0
  6
CONTINUOUS
 62
     7
 10
3972.804708140923
 20
2220.198646883447
 30
0.0
 70
    32
  0
VERTEX
  5
436
  8
0
  6
CONTINUOUS
 62
     7
 10
3972.829992206319
 20
2220.198646883448
 30
0.0
 70
    32
  0
VERTEX
  5
437
  8
0
  6
CONTINUOUS
 62
     7
 10
3972.854445752055
 20
2220.198646883448
 30
0.0
 70
    32
  0
VERTEX
  5
438
  8
0
  6
CONTINUOUS
 62
     7
 10
3972.878007329242
 20
2220.198646883448
 30
0.0
 70
    32
  0
VERTEX
  5
439
  8
0
  6
CONTINUOUS
 62
     7
 10
3972.900615488986
 20
2220.198646883448
 30
0.0
 70
    32
  0
VERTEX
  5
43A
  8
0
  6
CONTINUOUS
 62
     7
 10
3972.922208782398
 20
2220.198646883448
 30
0.0
 70
    32
  0
VERTEX
  5
43B
  8
0
  6
CONTINUOUS
 62
     7
 10
3972.942754847448
 20
2220.198646883447
 30
0.0
 70
    32
  0
VERTEX
  5
43C
  8
0
  6
CONTINUOUS
 62
     7
 10
3972.96236521052
 20
2220.198646883447
 30
0.0
 70
    32
  0
VERTEX
  5
43D
  8
0
  6
CONTINUOUS
 62
     7
 10
3972.981195811314
 20
2220.198646883448
 30
0.0
 70
    32
  0
VERTEX
  5
43E
  8
0
  6
CONTINUOUS
 62
     7
 10
3972.999402602284
 20
2220.198646883448
 30
0.0
 70
    32
  0
VERTEX
  5
43F
  8
0
  6
CONTINUOUS
 62
     7
 10
3973.017141535886
 20
2220.198646883448
 30
0.0
 70
    32
  0
VERTEX
  5
440
  8
0
  6
CONTINUOUS
 62
     7
 10
3973.034568564576
 20
2220.198646883448
 30
0.0
 70
    32
  0
VERTEX
  5
441
  8
0
  6
CONTINUOUS
 62
     7
 10
3973.051839640811
 20
2220.198646883448
 30
0.0
 70
    32
  0
SEQEND
  5
4CF
  8
0
  6
CONTINUOUS
 62
     7
  0
LINE
  5
118
  8
0
  6
CONTINUOUS
 62
     7
 10
3971.251839640816
 20
2164.198646883449
 30
0.0
 11
3971.251839640821
 21
2219.198646883446
 31
0.0
  0
LINE
  5
119
  8
0
  6
CONTINUOUS
 62
     7
 10
3971.051839640821
 20
2219.198646883446
 30
0.0
 11
3971.251839640821
 21
2219.198646883446
 31
0.0
  0
LINE
  5
11A
  8
0
  6
CONTINUOUS
 62
     7
 10
3971.051839640817
 20
2164.198646883449
 30
0.0
 11
3971.251839640816
 21
2164.198646883449
 31
0.0
  0
LINE
  5
11B
  8
0
  6
CONTINUOUS
 62
     7
 10
3971.05183964082
 20
2163.198646883446
 30
0.0
 11
3971.25183964082
 21
2163.198646883446
 31
0.0
  0
LINE
  5
11C
  8
0
  6
CONTINUOUS
 62
     7
 10
3971.251839640811
 20
2220.198646883448
 30
0.0
 11
3971.051839640811
 21
2220.198646883448
 31
0.0
  0
LINE
  5
11D
  8
0
  6
CONTINUOUS
 62
     7
 10
3956.051839640813
 20
1673.698646883447
 30
0.0
 11
3971.051839640813
 21
1673.698646883447
 31
0.0
  0
LINE
  5
11E
  8
0
  6
CONTINUOUS
 62
     7
 10
3956.051839640813
 20
1673.698646883447
 30
0.0
 11
3956.051839640813
 21
2271.698646883447
 31
0.0
  0
LINE
  5
11F
  8
0
  6
CONTINUOUS
 62
     7
 10
3956.051839640813
 20
2271.698646883447
 30
0.0
 11
3971.051839640813
 21
2271.698646883447
 31
0.0
  0
LINE
  5
120
  8
0
  6
CONTINUOUS
 62
     7
 10
3971.051839640813
 20
1673.698646883447
 30
0.0
 11
3971.051839640813
 21
2271.698646883447
 31
0.0
  0
LINE
  5
121
  8
0
  6
CONTINUOUS
 62
     7
 10
3973.051839640811
 20
1678.698646883447
 30
0.0
 11
4121.051839640811
 21
1678.698646883447
 31
0.0
  0
LINE
  5
122
  8
0
  6
CONTINUOUS
 62
     7
 10
3973.051839640811
 20
1678.698646883447
 30
0.0
 11
3973.051839640811
 21
2266.698646883446
 31
0.0
  0
LINE
  5
123
  8
0
  6
CONTINUOUS
 62
     7
 10
4121.051839640811
 20
1678.698646883447
 30
0.0
 11
4121.051839640811
 21
2266.698646883446
 31
0.0
  0
LINE
  5
124
  8
0
  6
CONTINUOUS
 62
     7
 10
3973.051839640811
 20
2266.698646883446
 30
0.0
 11
4121.051839640811
 21
2266.698646883446
 31
0.0
  0
LINE
  5
125
  8
0
  6
CONTINUOUS
 62
     8
 10
3971.251839640833
 20
1726.198646883448
 30
0.0
 11
3973.05183964081
 21
1726.198646883447
 31
0.0
  0
LINE
  5
126
  8
0
  6
CONTINUOUS
 62
     8
 10
3973.05183964081
 20
1781.198646883444
 30
0.0
 11
3971.251839640838
 21
1781.198646883445
 31
0.0
  0
LINE
  5
127
  8
0
  6
CONTINUOUS
 62
     8
 10
3971.251839640816
 20
2164.198646883449
 30
0.0
 11
3973.05183964081
 21
2164.198646883448
 31
0.0
  0
LINE
  5
128
  8
0
  6
CONTINUOUS
 62
     8
 10
3973.05183964081
 20
2219.198646883445
 30
0.0
 11
3971.251839640821
 21
2219.198646883446
 31
0.0
  0
LINE
  5
129
  8
0
  6
CONTINUOUS
 62
     7
 10
2421.225314509653
 20
3007.686457349617
 30
0.0
 11
2157.725314509652
 21
3007.686457349617
 31
0.0
  0
LINE
  5
12A
  8
0
  6
CONTINUOUS
 62
     7
 10
2421.225314509653
 20
2860.186457349617
 30
0.0
 11
2157.725314509652
 21
2860.186457349617
 31
0.0
  0
LINE
  5
12B
  8
0
  6
CONTINUOUS
 62
     7
 10
2179.225314513989
 20
2859.886457349628
 30
0.0
 11
2163.225314513989
 21
2859.886457349616
 31
0.0
  0
LINE
  5
12C
  8
0
  6
CONTINUOUS
 62
     7
 10
2181.22531451399
 20
2857.886457349618
 30
0.0
 11
2181.22531451399
 21
2857.686457349618
 31
0.0
  0
LINE
  5
12D
  8
0
  6
CONTINUOUS
 62
     7
 10
2161.225314513988
 20
2857.686457349635
 30
0.0
 11
2161.225314513988
 21
2857.886457349636
 31
0.0
  0
POLYLINE
  5
12E
  8
0
  6
CONTINUOUS
 62
     7
 66
     1
 10
0.0
 20
0.0
 30
0.0
  0
VERTEX
  5
442
  8
0
  6
CONTINUOUS
 62
     7
 10
2163.225314513989
 20
2859.886457349616
 30
0.0
  0
VERTEX
  5
443
  8
0
  6
CONTINUOUS
 62
     7
 10
2163.176082860174
 20
2859.88118212022
 30
0.0
  0
VERTEX
  5
444
  8
0
  6
CONTINUOUS
 62
     7
 10
2163.126881770143
 20
2859.875807123634
 30
0.0
  0
VERTEX
  5
445
  8
0
  6
CONTINUOUS
 62
     7
 10
2163.07774180768
 20
2859.870232592673
 30
0.0
  0
VERTEX
  5
446
  8
0
  6
CONTINUOUS
 62
     7
 10
2163.02869353657
 20
2859.864358760145
 30
0.0
  0
VERTEX
  5
447
  8
0
  6
CONTINUOUS
 62
     7
 10
2162.979767520594
 20
2859.858085858861
 30
0.0
  0
VERTEX
  5
448
  8
0
  6
CONTINUOUS
 62
     7
 10
2162.930994323538
 20
2859.851314121635
 30
0.0
  0
VERTEX
  5
449
  8
0
  6
CONTINUOUS
 62
     7
 10
2162.882404509185
 20
2859.843943781278
 30
0.0
  0
VERTEX
  5
44A
  8
0
  6
CONTINUOUS
 62
     7
 10
2162.83402864132
 20
2859.8358750706
 30
0.0
  0
VERTEX
  5
44B
  8
0
  6
CONTINUOUS
 62
     7
 10
2162.785897283727
 20
2859.827008222411
 30
0.0
  0
VERTEX
  5
44C
  8
0
  6
CONTINUOUS
 62
     7
 10
2162.738041000188
 20
2859.817243469526
 30
0.0
  0
VERTEX
  5
44D
  8
0
  6
CONTINUOUS
 62
     7
 10
2162.690490354488
 20
2859.806481044754
 30
0.0
  0
VERTEX
  5
44E
  8
0
  6
CONTINUOUS
 62
     7
 10
2162.643275910412
 20
2859.794621180907
 30
0.0
  0
VERTEX
  5
44F
  8
0
  6
CONTINUOUS
 62
     7
 10
2162.596428231743
 20
2859.781564110795
 30
0.0
  0
VERTEX
  5
450
  8
0
  6
CONTINUOUS
 62
     7
 10
2162.549977882264
 20
2859.767210067232
 30
0.0
  0
VERTEX
  5
451
  8
0
  6
CONTINUOUS
 62
     7
 10
2162.503955425761
 20
2859.751459283028
 30
0.0
  0
VERTEX
  5
452
  8
0
  6
CONTINUOUS
 62
     7
 10
2162.458391054652
 20
2859.734220888932
 30
0.0
  0
VERTEX
  5
453
  8
0
  6
CONTINUOUS
 62
     7
 10
2162.413310782056
 20
2859.715504152856
 30
0.0
  0
VERTEX
  5
454
  8
0
  6
CONTINUOUS
 62
     7
 10
2162.368737988778
 20
2859.695381413481
 30
0.0
  0
VERTEX
  5
455
  8
0
  6
CONTINUOUS
 62
     7
 10
2162.32469601454
 20
2859.673925993859
 30
0.0
  0
VERTEX
  5
456
  8
0
  6
CONTINUOUS
 62
     7
 10
2162.281208199064
 20
2859.651211217043
 30
0.0
  0
VERTEX
  5
457
  8
0
  6
CONTINUOUS
 62
     7
 10
2162.238297882073
 20
2859.627310406082
 30
0.0
  0
VERTEX
  5
458
  8
0
  6
CONTINUOUS
 62
     7
 10
2162.19598840329
 20
2859.602296884028
 30
0.0
  0
VERTEX
  5
459
  8
0
  6
CONTINUOUS
 62
     7
 10
2162.154303102438
 20
2859.576243973932
 30
0.0
  0
VERTEX
  5
45A
  8
0
  6
CONTINUOUS
 62
     7
 10
2162.113265321072
 20
2859.549224551383
 30
0.0
  0
VERTEX
  5
45B
  8
0
  6
CONTINUOUS
 62
     7
 10
2162.072898503283
 20
2859.521286475341
 30
0.0
  0
VERTEX
  5
45C
  8
0
  6
CONTINUOUS
 62
     7
 10
2162.03322624792
 20
2859.492439846782
 30
0.0
  0
VERTEX
  5
45D
  8
0
  6
CONTINUOUS
 62
     7
 10
2161.994272166668
 20
2859.462691634791
 30
0.0
  0
VERTEX
  5
45E
  8
0
  6
CONTINUOUS
 62
     7
 10
2161.956059871212
 20
2859.432048808457
 30
0.0
  0
VERTEX
  5
45F
  8
0
  6
CONTINUOUS
 62
     7
 10
2161.918612973235
 20
2859.400518336866
 30
0.0
  0
VERTEX
  5
460
  8
0
  6
CONTINUOUS
 62
     7
 10
2161.881955084422
 20
2859.368107189105
 30
0.0
  0
VERTEX
  5
461
  8
0
  6
CONTINUOUS
 62
     7
 10
2161.84610981646
 20
2859.33482233426
 30
0.0
  0
VERTEX
  5
462
  8
0
  6
CONTINUOUS
 62
     7
 10
2161.811100781031
 20
2859.30067074142
 30
0.0
  0
VERTEX
  5
463
  8
0
  6
CONTINUOUS
 62
     7
 10
2161.776948811005
 20
2859.26566214862
 30
0.0
  0
VERTEX
  5
464
  8
0
  6
CONTINUOUS
 62
     7
 10
2161.743663624152
 20
2859.22981736953
 30
0.0
  0
VERTEX
  5
465
  8
0
  6
CONTINUOUS
 62
     7
 10
2161.711252159509
 20
2859.193159986689
 30
0.0
  0
VERTEX
  5
466
  8
0
  6
CONTINUOUS
 62
     7
 10
2161.679721356112
 20
2859.155713582636
 30
0.0
  0
VERTEX
  5
467
  8
0
  6
CONTINUOUS
 62
     7
 10
2161.649078152997
 20
2859.117501739905
 30
0.0
  0
VERTEX
  5
468
  8
0
  6
CONTINUOUS
 62
     7
 10
2161.619329489202
 20
2859.078548041039
 30
0.0
  0
VERTEX
  5
469
  8
0
  6
CONTINUOUS
 62
     7
 10
2161.590482303763
 20
2859.038876068572
 30
0.0
  0
VERTEX
  5
46A
  8
0
  6
CONTINUOUS
 62
     7
 10
2161.562543535715
 20
2858.998509405043
 30
0.0
  0
VERTEX
  5
46B
  8
0
  6
CONTINUOUS
 62
     7
 10
2161.535523412678
 20
2858.957471622399
 30
0.0
  0
VERTEX
  5
46C
  8
0
  6
CONTINUOUS
 62
     7
 10
2161.509470255402
 20
2858.915786169891
 30
0.0
  0
VERTEX
  5
46D
  8
0
  6
CONTINUOUS
 62
     7
 10
2161.484456896128
 20
2858.873476417825
 30
0.0
  0
VERTEX
  5
46E
  8
0
  6
CONTINUOUS
 62
     7
 10
2161.460556572721
 20
2858.830565735197
 30
0.0
  0
VERTEX
  5
46F
  8
0
  6
CONTINUOUS
 62
     7
 10
2161.437842523049
 20
2858.787077491004
 30
0.0
  0
VERTEX
  5
470
  8
0
  6
CONTINUOUS
 62
     7
 10
2161.416387984981
 20
2858.743035054247
 30
0.0
  0
VERTEX
  5
471
  8
0
  6
CONTINUOUS
 62
     7
 10
2161.396266196382
 20
2858.69846179392
 30
0.0
  0
VERTEX
  5
472
  8
0
  6
CONTINUOUS
 62
     7
 10
2161.37755039512
 20
2858.653381079023
 30
0.0
  0
VERTEX
  5
473
  8
0
  6
CONTINUOUS
 62
     7
 10
2161.360312835237
 20
2858.607816319441
 30
0.0
  0
VERTEX
  5
474
  8
0
  6
CONTINUOUS
 62
     7
 10
2161.344562734816
 20
2858.56179354495
 30
0.0
  0
VERTEX
  5
475
  8
0
  6
CONTINUOUS
 62
     7
 10
2161.330209230051
 20
2858.51534294491
 30
0.0
  0
VERTEX
  5
476
  8
0
  6
CONTINUOUS
 62
     7
 10
2161.317152564108
 20
2858.468495078285
 30
0.0
  0
VERTEX
  5
477
  8
0
  6
CONTINUOUS
 62
     7
 10
2161.305292980157
 20
2858.421280504045
 30
0.0
  0
VERTEX
  5
478
  8
0
  6
CONTINUOUS
 62
     7
 10
2161.294530721366
 20
2858.373729781159
 30
0.0
  0
VERTEX
  5
479
  8
0
  6
CONTINUOUS
 62
     7
 10
2161.284766030899
 20
2858.325873468593
 30
0.0
  0
VERTEX
  5
47A
  8
0
  6
CONTINUOUS
 62
     7
 10
2161.275899151926
 20
2858.277742125315
 30
0.0
  0
VERTEX
  5
47B
  8
0
  6
CONTINUOUS
 62
     7
 10
2161.267830327614
 20
2858.229366310294
 30
0.0
  0
VERTEX
  5
47C
  8
0
  6
CONTINUOUS
 62
     7
 10
2161.26045980113
 20
2858.180776582498
 30
0.0
  0
VERTEX
  5
47D
  8
0
  6
CONTINUOUS
 62
     7
 10
2161.25368781564
 20
2858.132003500893
 30
0.0
  0
VERTEX
  5
47E
  8
0
  6
CONTINUOUS
 62
     7
 10
2161.247414614314
 20
2858.083077624449
 30
0.0
  0
VERTEX
  5
47F
  8
0
  6
CONTINUOUS
 62
     7
 10
2161.241540440319
 20
2858.034029512134
 30
0.0
  0
VERTEX
  5
480
  8
0
  6
CONTINUOUS
 62
     7
 10
2161.235965536821
 20
2857.984889722914
 30
0.0
  0
VERTEX
  5
481
  8
0
  6
CONTINUOUS
 62
     7
 10
2161.230590146989
 20
2857.935688815759
 30
0.0
  0
VERTEX
  5
482
  8
0
  6
CONTINUOUS
 62
     7
 10
2161.225314513988
 20
2857.886457349636
 30
0.0
  0
SEQEND
  5
4D0
  8
0
  6
CONTINUOUS
 62
     7
  0
POLYLINE
  5
12F
  8
0
  6
CONTINUOUS
 62
     7
 66
     1
 10
0.0
 20
0.0
 30
0.0
  0
VERTEX
  5
483
  8
0
  6
CONTINUOUS
 62
     7
 10
2181.22531451399
 20
2857.886457349618
 30
0.0
  0
VERTEX
  5
484
  8
0
  6
CONTINUOUS
 62
     7
 10
2181.220039284593
 20
2857.935689003433
 30
0.0
  0
VERTEX
  5
485
  8
0
  6
CONTINUOUS
 62
     7
 10
2181.214664288007
 20
2857.984890093464
 30
0.0
  0
VERTEX
  5
486
  8
0
  6
CONTINUOUS
 62
     7
 10
2181.209089757043
 20
2858.034030055926
 30
0.0
  0
VERTEX
  5
487
  8
0
  6
CONTINUOUS
 62
     7
 10
2181.203215924515
 20
2858.083078327038
 30
0.0
  0
VERTEX
  5
488
  8
0
  6
CONTINUOUS
 62
     7
 10
2181.196943023231
 20
2858.132004343014
 30
0.0
  0
VERTEX
  5
489
  8
0
  6
CONTINUOUS
 62
     7
 10
2181.190171286004
 20
2858.18077754007
 30
0.0
  0
VERTEX
  5
48A
  8
0
  6
CONTINUOUS
 62
     7
 10
2181.182800945645
 20
2858.229367354423
 30
0.0
  0
VERTEX
  5
48B
  8
0
  6
CONTINUOUS
 62
     7
 10
2181.174732234965
 20
2858.277743222287
 30
0.0
  0
VERTEX
  5
48C
  8
0
  6
CONTINUOUS
 62
     7
 10
2181.165865386777
 20
2858.325874579882
 30
0.0
  0
VERTEX
  5
48D
  8
0
  6
CONTINUOUS
 62
     7
 10
2181.156100633891
 20
2858.37373086342
 30
0.0
  0
VERTEX
  5
48E
  8
0
  6
CONTINUOUS
 62
     7
 10
2181.145338209119
 20
2858.42128150912
 30
0.0
  0
VERTEX
  5
48F
  8
0
  6
CONTINUOUS
 62
     7
 10
2181.13347834527
 20
2858.468495953196
 30
0.0
  0
VERTEX
  5
490
  8
0
  6
CONTINUOUS
 62
     7
 10
2181.120421275159
 20
2858.515343631867
 30
0.0
  0
VERTEX
  5
491
  8
0
  6
CONTINUOUS
 62
     7
 10
2181.106067231595
 20
2858.561793981345
 30
0.0
  0
VERTEX
  5
492
  8
0
  6
CONTINUOUS
 62
     7
 10
2181.09031644739
 20
2858.60781643785
 30
0.0
  0
VERTEX
  5
493
  8
0
  6
CONTINUOUS
 62
     7
 10
2181.073078053295
 20
2858.653380808957
 30
0.0
  0
VERTEX
  5
494
  8
0
  6
CONTINUOUS
 62
     7
 10
2181.054361317218
 20
2858.698461081553
 30
0.0
  0
VERTEX
  5
495
  8
0
  6
CONTINUOUS
 62
     7
 10
2181.034238577843
 20
2858.743033874832
 30
0.0
  0
VERTEX
  5
496
  8
0
  6
CONTINUOUS
 62
     7
 10
2181.012783158222
 20
2858.787075849071
 30
0.0
  0
VERTEX
  5
497
  8
0
  6
CONTINUOUS
 62
     7
 10
2180.990068381405
 20
2858.830563664547
 30
0.0
  0
VERTEX
  5
498
  8
0
  6
CONTINUOUS
 62
     7
 10
2180.966167570444
 20
2858.873473981538
 30
0.0
  0
VERTEX
  5
499
  8
0
  6
CONTINUOUS
 62
     7
 10
2180.94115404839
 20
2858.915783460321
 30
0.0
  0
VERTEX
  5
49A
  8
0
  6
CONTINUOUS
 62
     7
 10
2180.915101138295
 20
2858.957468761174
 30
0.0
  0
VERTEX
  5
49B
  8
0
  6
CONTINUOUS
 62
     7
 10
2180.888081715746
 20
2858.99850654254
 30
0.0
  0
VERTEX
  5
49C
  8
0
  6
CONTINUOUS
 62
     7
 10
2180.860143639703
 20
2859.038873360329
 30
0.0
  0
VERTEX
  5
49D
  8
0
  6
CONTINUOUS
 62
     7
 10
2180.831297011144
 20
2859.078545615692
 30
0.0
  0
VERTEX
  5
49E
  8
0
  6
CONTINUOUS
 62
     7
 10
2180.801548799153
 20
2859.117499696944
 30
0.0
  0
VERTEX
  5
49F
  8
0
  6
CONTINUOUS
 62
     7
 10
2180.770905972819
 20
2859.155711992402
 30
0.0
  0
VERTEX
  5
4A0
  8
0
  6
CONTINUOUS
 62
     7
 10
2180.739375501228
 20
2859.193158890379
 30
0.0
  0
VERTEX
  5
4A1
  8
0
  6
CONTINUOUS
 62
     7
 10
2180.706964353466
 20
2859.229816779191
 30
0.0
  0
VERTEX
  5
4A2
  8
0
  6
CONTINUOUS
 62
     7
 10
2180.673679498623
 20
2859.265662047154
 30
0.0
  0
VERTEX
  5
4A3
  8
0
  6
CONTINUOUS
 62
     7
 10
2180.639527905782
 20
2859.300671082583
 30
0.0
  0
VERTEX
  5
4A4
  8
0
  6
CONTINUOUS
 62
     7
 10
2180.604519312981
 20
2859.334823052609
 30
0.0
  0
VERTEX
  5
4A5
  8
0
  6
CONTINUOUS
 62
     7
 10
2180.568674533892
 20
2859.368108239462
 30
0.0
  0
VERTEX
  5
4A6
  8
0
  6
CONTINUOUS
 62
     7
 10
2180.532017151051
 20
2859.400519704107
 30
0.0
  0
VERTEX
  5
4A7
  8
0
  6
CONTINUOUS
 62
     7
 10
2180.494570746997
 20
2859.432050507504
 30
0.0
  0
VERTEX
  5
4A8
  8
0
  6
CONTINUOUS
 62
     7
 10
2180.456358904267
 20
2859.462693710619
 30
0.0
  0
VERTEX
  5
4A9
  8
0
  6
CONTINUOUS
 62
     7
 10
2180.417405205399
 20
2859.492442374414
 30
0.0
  0
VERTEX
  5
4AA
  8
0
  6
CONTINUOUS
 62
     7
 10
2180.377733232932
 20
2859.521289559854
 30
0.0
  0
VERTEX
  5
4AB
  8
0
  6
CONTINUOUS
 62
     7
 10
2180.337366569403
 20
2859.549228327902
 30
0.0
  0
VERTEX
  5
4AC
  8
0
  6
CONTINUOUS
 62
     7
 10
2180.296328786759
 20
2859.576248450938
 30
0.0
  0
VERTEX
  5
4AD
  8
0
  6
CONTINUOUS
 62
     7
 10
2180.254643334251
 20
2859.602301608214
 30
0.0
  0
VERTEX
  5
4AE
  8
0
  6
CONTINUOUS
 62
     7
 10
2180.212333582184
 20
2859.627314967489
 30
0.0
  0
VERTEX
  5
4AF
  8
0
  6
CONTINUOUS
 62
     7
 10
2180.169422899556
 20
2859.651215290896
 30
0.0
  0
VERTEX
  5
4B0
  8
0
  6
CONTINUOUS
 62
     7
 10
2180.125934655363
 20
2859.673929340567
 30
0.0
  0
VERTEX
  5
4B1
  8
0
  6
CONTINUOUS
 62
     7
 10
2180.081892218605
 20
2859.695383878636
 30
0.0
  0
VERTEX
  5
4B2
  8
0
  6
CONTINUOUS
 62
     7
 10
2180.037318958278
 20
2859.715505667235
 30
0.0
  0
VERTEX
  5
4B3
  8
0
  6
CONTINUOUS
 62
     7
 10
2179.99223824338
 20
2859.734221468497
 30
0.0
  0
VERTEX
  5
4B4
  8
0
  6
CONTINUOUS
 62
     7
 10
2179.946673483799
 20
2859.751459028379
 30
0.0
  0
VERTEX
  5
4B5
  8
0
  6
CONTINUOUS
 62
     7
 10
2179.900650709308
 20
2859.7672091288
 30
0.0
  0
VERTEX
  5
4B6
  8
0
  6
CONTINUOUS
 62
     7
 10
2179.854200109267
 20
2859.781562633565
 30
0.0
  0
VERTEX
  5
4B7
  8
0
  6
CONTINUOUS
 62
     7
 10
2179.807352242643
 20
2859.794619299508
 30
0.0
  0
VERTEX
  5
4B8
  8
0
  6
CONTINUOUS
 62
     7
 10
2179.760137668402
 20
2859.806478883458
 30
0.0
  0
VERTEX
  5
4B9
  8
0
  6
CONTINUOUS
 62
     7
 10
2179.712586945515
 20
2859.817241142251
 30
0.0
  0
VERTEX
  5
4BA
  8
0
  6
CONTINUOUS
 62
     7
 10
2179.664730632949
 20
2859.827005832717
 30
0.0
  0
VERTEX
  5
4BB
  8
0
  6
CONTINUOUS
 62
     7
 10
2179.616599289671
 20
2859.83587271169
 30
0.0
  0
VERTEX
  5
4BC
  8
0
  6
CONTINUOUS
 62
     7
 10
2179.56822347465
 20
2859.843941536003
 30
0.0
  0
VERTEX
  5
4BD
  8
0
  6
CONTINUOUS
 62
     7
 10
2179.519633746853
 20
2859.851312062487
 30
0.0
  0
VERTEX
  5
4BE
  8
0
  6
CONTINUOUS
 62
     7
 10
2179.470860665248
 20
2859.858084047976
 30
0.0
  0
VERTEX
  5
4BF
  8
0
  6
CONTINUOUS
 62
     7
 10
2179.421934788804
 20
2859.864357249302
 30
0.0
  0
VERTEX
  5
4C0
  8
0
  6
CONTINUOUS
 62
     7
 10
2179.372886676488
 20
2859.870231423298
 30
0.0
  0
VERTEX
  5
4C1
  8
0
  6
CONTINUOUS
 62
     7
 10
2179.323746887268
 20
2859.875806326796
 30
0.0
  0
VERTEX
  5
4C2
  8
0
  6
CONTINUOUS
 62
     7
 10
2179.274545980113
 20
2859.881181716628
 30
0.0
  0
VERTEX
  5
4C3
  8
0
  6
CONTINUOUS
 62
     7
 10
2179.225314513989
 20
2859.886457349628
 30
0.0
  0
SEQEND
  5
4D1
  8
0
  6
CONTINUOUS
 62
     7
  0
LINE
  5
130
  8
0
  6
CONTINUOUS
 62
     7
 10
2160.225314513989
 20
2857.686457349634
 30
0.0
 11
2160.225314513989
 21
2857.886457349634
 31
0.0
  0
LINE
  5
131
  8
0
  6
CONTINUOUS
 62
     7
 10
2160.225314513989
 20
2857.886457349634
 30
0.0
 11
2161.225314513988
 21
2857.886457349636
 31
0.0
  0
LINE
  5
132
  8
0
  6
CONTINUOUS
 62
     7
 10
2182.22531451399
 20
2857.686457349628
 30
0.0
 11
2182.22531451399
 21
2857.886457349628
 31
0.0
  0
LINE
  5
133
  8
0
  6
CONTINUOUS
 62
     7
 10
2181.22531451399
 20
2857.886457349618
 30
0.0
 11
2182.22531451399
 21
2857.886457349628
 31
0.0
  0
ARC
  5
134
  8
0
  6
CONTINUOUS
 62
     7
 10
2163.225314513988
 20
2857.886457349617
 30
0.0
 40
2.999999999999627
 50
129.9445051897874
 51
179.9999999996697
  0
ARC
  5
135
  8
0
  6
CONTINUOUS
 62
     7
 10
2179.22531451399
 20
2857.886457349627
 30
0.0
 40
2.99999999999984
 50
0.0000000000364657
 51
50.05549480991012
  0
LINE
  5
136
  8
0
  6
CONTINUOUS
 62
     7
 10
2160.225314513989
 20
2858.186457349634
 30
0.0
 11
2146.037639760196
 21
2858.186457349636
 31
0.0
  0
LINE
  5
137
  8
0
  6
CONTINUOUS
 62
     7
 10
2146.037639760196
 20
2858.186457349636
 30
0.0
 11
2146.037639760196
 21
2857.686457349626
 31
0.0
  0
LINE
  5
138
  8
0
  6
CONTINUOUS
 62
     7
 10
2160.225314513989
 20
2857.886457349633
 30
0.0
 11
2160.225314513989
 21
2858.186457349634
 31
0.0
  0
LINE
  5
139
  8
0
  6
CONTINUOUS
 62
     7
 10
2158.188818913382
 20
2860.186457349617
 30
0.0
 11
2158.142714201415
 21
2858.186457349627
 31
0.0
  0
LINE
  5
13A
  8
0
  6
CONTINUOUS
 62
     7
 10
2159.443059572762
 20
2858.186457349626
 30
0.0
 11
2159.489164284731
 21
2860.186457349617
 31
0.0
  0
LINE
  5
13B
  8
0
  6
CONTINUOUS
 62
     7
 10
2437.725314509652
 20
2842.68645734962
 30
0.0
 11
2387.225314509652
 21
2842.68645734962
 31
0.0
  0
LINE
  5
13C
  8
0
  6
CONTINUOUS
 62
     7
 10
2437.725314509652
 20
2857.68645734962
 30
0.0
 11
2387.225314509652
 21
2857.68645734962
 31
0.0
  0
LINE
  5
13D
  8
0
  6
CONTINUOUS
 62
     7
 10
2437.725314509652
 20
2842.68645734962
 30
0.0
 11
2437.725314509652
 21
2857.68645734962
 31
0.0
  0
LINE
  5
140
  8
0
  6
CONTINUOUS
 62
     7
 10
2141.725314509652
 20
2842.68645734962
 30
0.0
 11
2141.725314509652
 21
2857.68645734962
 31
0.0
  0
LINE
  5
141
  8
0
  6
CONTINUOUS
 62
     7
 10
2192.225314509652
 20
2857.68645734962
 30
0.0
 11
2141.725314509652
 21
2857.68645734962
 31
0.0
  0
LINE
  5
142
  8
0
  6
CONTINUOUS
 62
     7
 10
2192.225314509652
 20
2842.68645734962
 30
0.0
 11
2141.725314509652
 21
2842.68645734962
 31
0.0
  0
LINE
  5
143
  8
0
  6
CONTINUOUS
 62
     7
 10
2387.225314509652
 20
2842.68645734962
 30
0.0
 11
2192.225314509652
 21
2842.68645734962
 31
0.0
  0
LINE
  5
144
  8
0
  6
CONTINUOUS
 62
     7
 10
2387.225314509652
 20
2857.68645734962
 30
0.0
 11
2192.225314509652
 21
2857.68645734962
 31
0.0
  0
LINE
  5
145
  8
0
  6
CONTINUOUS
 62
     7
 10
2438.725314509653
 20
2859.686457349617
 30
0.0
 11
2421.225314509653
 21
2859.686457349617
 31
0.0
  0
LINE
  5
146
  8
0
  6
CONTINUOUS
 62
     7
 10
2421.225314509653
 20
2859.686457349617
 30
0.0
 11
2421.225314509653
 21
3007.686457349617
 31
0.0
  0
LINE
  5
147
  8
0
  6
CONTINUOUS
 62
     7
 10
2438.725314509653
 20
3007.686457349617
 30
0.0
 11
2421.225314509653
 21
3007.686457349617
 31
0.0
  0
LINE
  5
148
  8
0
  6
CONTINUOUS
 62
     7
 10
2438.725314509653
 20
2859.686457349617
 30
0.0
 11
2438.725314509653
 21
3007.686457349617
 31
0.0
  0
LINE
  5
149
  8
0
  6
CONTINUOUS
 62
     7
 10
2157.725314509652
 20
2859.686457349617
 30
0.0
 11
2157.725314509652
 21
3007.686457349617
 31
0.0
  0
LINE
  5
14A
  8
0
  6
CONTINUOUS
 62
     7
 10
2157.725314509652
 20
2859.686457349617
 30
0.0
 11
2140.225314509652
 21
2859.686457349617
 31
0.0
  0
LINE
  5
14B
  8
0
  6
CONTINUOUS
 62
     7
 10
2140.225314509652
 20
2859.686457349617
 30
0.0
 11
2140.225314509652
 21
3007.686457349617
 31
0.0
  0
LINE
  5
14C
  8
0
  6
CONTINUOUS
 62
     7
 10
2157.725314509652
 20
3007.686457349617
 30
0.0
 11
2140.225314509652
 21
3007.686457349617
 31
0.0
  0
LINE
  5
14D
  8
0
  6
CONTINUOUS
 62
     8
 10
2179.225314513989
 20
2859.886457349628
 30
0.0
 11
2179.225314513989
 21
2860.186457349617
 31
0.0
  0
LINE
  5
14E
  8
0
  6
CONTINUOUS
 62
     8
 10
2163.225314513989
 20
2860.186457349617
 30
0.0
 11
2163.225314513989
 21
2859.886457349616
 31
0.0
  0
LINE
  5
150
  8
0
  6
CONTINUOUS
 62
     7
 10
2420.481426091345
 20
720.3321763138701
 30
0.0
 11
2420.731426091345
 21
720.3321763138701
 31
0.0
  0
LINE
  5
151
  8
0
  6
CONTINUOUS
 62
     7
 10
2420.731426091345
 20
728.13217631387
 30
0.0
 11
2420.481426091345
 21
728.13217631387
 31
0.0
  0
LINE
  5
156
  8
0
  6
CONTINUOUS
 62
     7
 10
2157.481426091345
 20
568.13217631387
 30
0.0
 11
2157.231426091345
 21
568.13217631387
 31
0.0
  0
LINE
  5
157
  8
0
  6
CONTINUOUS
 62
     7
 10
2157.231426091345
 20
560.3321763138703
 30
0.0
 11
2157.481426091345
 21
560.3321763138703
 31
0.0
  0
LINE
  5
158
  8
0
  6
CONTINUOUS
 62
     7
 10
2157.481426091345
 20
728.13217631387
 30
0.0
 11
2157.231426091345
 21
728.13217631387
 31
0.0
  0
LINE
  5
159
  8
0
  6
CONTINUOUS
 62
     7
 10
2157.231426091345
 20
720.3321763138701
 30
0.0
 11
2157.481426091345
 21
720.3321763138701
 31
0.0
  0
LINE
  5
15A
  8
0
  6
CONTINUOUS
 62
     7
 10
2162.731426091345
 20
957.7321763138642
 30
0.0
 11
2420.731426091345
 21
957.7321763138642
 31
0.0
  0
LINE
  5
15B
  8
0
  6
CONTINUOUS
 62
     7
 10
2157.731426091345
 20
528.7321763138701
 30
0.0
 11
2157.731426091345
 21
578.7321763138702
 31
0.0
  0
LINE
  5
15C
  8
0
  6
CONTINUOUS
 62
     7
 10
2157.731426091345
 20
578.7321763138702
 30
0.0
 11
2420.731426091345
 21
578.7321763138702
 31
0.0
  0
LINE
  5
15F
  8
0
  6
CONTINUOUS
 62
     7
 10
2157.481426091345
 20
528.9821763138701
 30
0.0
 11
2157.731426091345
 21
528.9821763138701
 31
0.0
  0
LINE
  5
160
  8
0
  6
CONTINUOUS
 62
     7
 10
2420.481426091345
 20
845.2468949396257
 30
0.0
 11
2420.481426091345
 21
578.7321763138701
 31
0.0
  0
LINE
  5
161
  8
0
  6
CONTINUOUS
 62
     7
 10
2157.231426091345
 20
511.2321763138701
 30
0.0
 11
2420.731426091345
 21
511.2321763138701
 31
0.0
  0
LINE
  5
162
  8
0
  6
CONTINUOUS
 62
     7
 10
2157.231426091345
 20
511.2321763138701
 30
0.0
 11
2157.231426091345
 21
528.7321763138701
 31
0.0
  0
LINE
  5
163
  8
0
  6
CONTINUOUS
 62
     7
 10
2420.731426091345
 20
511.2321763138701
 30
0.0
 11
2420.731426091345
 21
528.7321763138701
 31
0.0
  0
LINE
  5
164
  8
0
  6
CONTINUOUS
 62
     7
 10
2157.231426091345
 20
528.7321763138701
 30
0.0
 11
2420.731426091345
 21
528.7321763138701
 31
0.0
  0
LINE
  5
165
  8
0
  6
CONTINUOUS
 62
     7
 10
2157.231426091345
 20
1079.73217631387
 30
0.0
 11
2420.731426091345
 21
1079.73217631387
 31
0.0
  0
LINE
  5
166
  8
0
  6
CONTINUOUS
 62
     7
 10
2157.231426091345
 20
1079.73217631387
 30
0.0
 11
2157.231426091345
 21
1097.23217631387
 31
0.0
  0
LINE
  5
167
  8
0
  6
CONTINUOUS
 62
     7
 10
2420.731426091345
 20
1079.73217631387
 30
0.0
 11
2420.731426091345
 21
1097.23217631387
 31
0.0
  0
LINE
  5
168
  8
0
  6
CONTINUOUS
 62
     7
 10
2157.231426091345
 20
1097.23217631387
 30
0.0
 11
2420.731426091345
 21
1097.23217631387
 31
0.0
  0
LINE
  5
169
  8
0
  6
CONTINUOUS
 62
     7
 10
2157.481426091345
 20
714.7321763138679
 30
0.0
 11
2157.231426091345
 21
714.7321763138679
 31
0.0
  0
LINE
  5
16A
  8
0
  6
CONTINUOUS
 62
     7
 10
2157.231426091345
 20
731.7321763138679
 30
0.0
 11
2157.481426091344
 21
731.7321763138679
 31
0.0
  0
LINE
  5
16D
  8
0
  6
CONTINUOUS
 62
     7
 10
2162.731426091345
 20
960.7321763138642
 30
0.0
 11
2420.731426091345
 21
960.7321763138642
 31
0.0
  0
LINE
  5
16E
  8
0
  6
CONTINUOUS
 62
     7
 10
2162.731426091345
 20
1076.732176313864
 30
0.0
 11
2162.731426091345
 21
960.7321763138642
 31
0.0
  0
LINE
  5
16F
  8
0
  6
CONTINUOUS
 62
     7
 10
2162.731426091345
 20
1076.732176313864
 30
0.0
 11
2420.731426091345
 21
1076.732176313864
 31
0.0
  0
CIRCLE
  5
170
  8
0
  6
CONTINUOUS
 62
     7
 10
2216.731426091345
 20
1019.732176313864
 30
0.0
 40
4.999999999999545
  0
CIRCLE
  5
171
  8
0
  6
CONTINUOUS
 62
     7
 10
2366.731426091345
 20
1019.732176313864
 30
0.0
 40
5.0
  0
LINE
  5
172
  8
0
  6
CONTINUOUS
 62
     7
 10
2162.731426091345
 20
960.7321763138642
 30
0.0
 11
2162.731426091345
 21
957.7321763138642
 31
0.0
  0
LINE
  5
173
  8
0
  6
CONTINUOUS
 62
     7
 10
2162.731426091345
 20
1079.732176313864
 30
0.0
 11
2162.731426091345
 21
1076.732176313864
 31
0.0
  0
CIRCLE
  5
174
  8
0
  6
CONTINUOUS
 62
     7
 10
2366.731426091345
 20
1019.732176313864
 30
0.0
 40
1.5
  0
CIRCLE
  5
175
  8
0
  6
CONTINUOUS
 62
     7
 10
2216.731426091345
 20
1019.732176313864
 30
0.0
 40
1.5
  0
LINE
  5
176
  8
0
  6
CONTINUOUS
 62
     7
 10
2162.731426091345
 20
845.2468949396257
 30
0.0
 11
2162.731426091345
 21
953.4895356267448
 31
0.0
  0
LINE
  5
177
  8
0
  6
CONTINUOUS
 62
     7
 10
2162.731426091345
 20
953.4895356267448
 30
0.0
 11
2420.731426091345
 21
953.4895356267448
 31
0.0
  0
LINE
  5
178
  8
0
  6
CONTINUOUS
 62
     7
 10
2162.731426091345
 20
845.2468949396257
 30
0.0
 11
2420.731426091345
 21
845.2468949396257
 31
0.0
  0
LINE
  5
179
  8
0
  6
CONTINUOUS
 62
     7
 10
2162.731426091345
 20
957.7321763138642
 30
0.0
 11
2162.731426091345
 21
953.4895356267448
 31
0.0
  0
LINE
  5
17A
  8
0
  6
CONTINUOUS
 62
     7
 10
2420.731426091344
 20
579.7321763138494
 30
0.0
 11
2420.481426091344
 21
579.7321763138497
 31
0.0
  0
LINE
  5
17B
  8
0
  6
CONTINUOUS
 62
     7
 10
2420.731426091344
 20
582.4821763138489
 30
0.0
 11
2420.481426091344
 21
582.482176313849
 31
0.0
  0
LINE
  5
17C
  8
0
  6
CONTINUOUS
 62
     7
 10
2420.731426091344
 20
590.7321763138511
 30
0.0
 11
2420.481426091344
 21
590.7321763138515
 31
0.0
  0
LINE
  5
17D
  8
0
  6
CONTINUOUS
 62
     7
 10
2420.481426091344
 20
587.9821763138514
 30
0.0
 11
2420.731426091344
 21
587.982176313851
 31
0.0
  0
LINE
  5
17E
  8
0
  6
CONTINUOUS
 62
     7
 10
2420.481426091344
 20
613.3821763138436
 30
0.0
 11
2420.731426091344
 21
613.3821763138434
 31
0.0
  0
LINE
  5
17F
  8
0
  6
CONTINUOUS
 62
     7
 10
2420.481426091344
 20
593.73217631385
 30
0.0
 11
2420.731426091344
 21
593.73217631385
 31
0.0
  0
LINE
  5
180
  8
0
  6
CONTINUOUS
 62
     7
 10
2191.231426091345
 20
505.2321763138703
 30
0.0
 11
2140.731426091345
 21
505.2321763138703
 31
0.0
  0
LINE
  5
181
  8
0
  6
CONTINUOUS
 62
     7
 10
2140.731426091345
 20
505.2321763138703
 30
0.0
 11
2140.731426091345
 21
510.2321763138701
 31
0.0
  0
LINE
  5
182
  8
0
  6
CONTINUOUS
 62
     7
 10
2140.731426091345
 20
1098.23217631387
 30
0.0
 11
2140.731426091345
 21
1103.23217631387
 31
0.0
  0
LINE
  5
183
  8
0
  6
CONTINUOUS
 62
     7
 10
2140.731426091345
 20
1103.23217631387
 30
0.0
 11
2191.231426091345
 21
1103.23217631387
 31
0.0
  0
LINE
  5
188
  8
0
  6
CONTINUOUS
 62
     7
 10
2436.731426091345
 20
505.2321763138703
 30
0.0
 11
2386.231426091345
 21
505.2321763138703
 31
0.0
  0
LINE
  5
189
  8
0
  6
CONTINUOUS
 62
     7
 10
2386.231426091345
 20
1103.23217631387
 30
0.0
 11
2436.731426091345
 21
1103.23217631387
 31
0.0
  0
LINE
  5
18A
  8
0
  6
CONTINUOUS
 62
     7
 10
2436.731426091345
 20
1103.23217631387
 30
0.0
 11
2436.731426091345
 21
1098.23217631387
 31
0.0
  0
LINE
  5
18B
  8
0
  6
CONTINUOUS
 62
     7
 10
2436.731426091345
 20
510.23217631387
 30
0.0
 11
2436.731426091345
 21
505.2321763138703
 31
0.0
  0
LINE
  5
18C
  8
0
  6
CONTINUOUS
 62
     7
 10
2191.231426091345
 20
1103.23217631387
 30
0.0
 11
2386.231426091345
 21
1103.23217631387
 31
0.0
  0
LINE
  5
18D
  8
0
  6
CONTINUOUS
 62
     7
 10
2386.231426091345
 20
505.2321763138703
 30
0.0
 11
2191.231426091345
 21
505.2321763138703
 31
0.0
  0
LINE
  5
18E
  8
0
  6
CONTINUOUS
 62
     7
 10
2157.231426091345
 20
510.2321763138701
 30
0.0
 11
2139.731426091344
 21
510.2321763138701
 31
0.0
  0
LINE
  5
18F
  8
0
  6
CONTINUOUS
 62
     7
 10
2139.731426091344
 20
510.2321763138701
 30
0.0
 11
2139.731426091344
 21
1098.23217631387
 31
0.0
  0
LINE
  5
190
  8
0
  6
CONTINUOUS
 62
     7
 10
2139.731426091344
 20
1098.23217631387
 30
0.0
 11
2157.231426091345
 21
1098.23217631387
 31
0.0
  0
LINE
  5
191
  8
0
  6
CONTINUOUS
 62
     7
 10
2157.231426091345
 20
1098.23217631387
 30
0.0
 11
2157.231426091345
 21
510.2321763138701
 31
0.0
  0
LINE
  5
192
  8
0
  6
CONTINUOUS
 62
     7
 10
2420.731426091345
 20
510.2321763138701
 30
0.0
 11
2420.731426091345
 21
1098.23217631387
 31
0.0
  0
LINE
  5
193
  8
0
  6
CONTINUOUS
 62
     7
 10
2420.731426091345
 20
1098.23217631387
 30
0.0
 11
2438.231426091345
 21
1098.23217631387
 31
0.0
  0
LINE
  5
194
  8
0
  6
CONTINUOUS
 62
     7
 10
2438.231426091345
 20
1098.23217631387
 30
0.0
 11
2438.231426091345
 21
510.2321763138701
 31
0.0
  0
LINE
  5
195
  8
0
  6
CONTINUOUS
 62
     7
 10
2438.231426091345
 20
510.2321763138701
 30
0.0
 11
2420.731426091345
 21
510.2321763138701
 31
0.0
  0
LINE
  5
196
  8
0
  6
CONTINUOUS
 62
     8
 10
2420.481426091344
 20
608.1321763138517
 30
0.0
 11
2420.731426091344
 21
608.132176313851
 31
0.0
  0
LINE
  5
197
  8
0
  6
CONTINUOUS
 62
     8
 10
2420.706299821158
 20
582.4821763138489
 30
0.0
 11
2420.706299821158
 21
587.982176313851
 31
0.0
  0
ENDSEC
  0
EOF
