  0
SECTION
  2
HEADER
  9
$ACADVER
  1
AC1006
  9
$DWGCODEPAGE
  3
dos932
  9
$INSBASE
 10
0.0
 20
0.0
 30
0.0
  9
$EXTMIN
 10
0.0
 20
0.0
  9
$EXTMAX
 10
5000.0
 20
3500.0
  9
$LIMMIN
 10
0.0
 20
0.0
  9
$LIMMAX
 10
5000.0
 20
3500.0
  9
$ORTHOMODE
 70
     0
  9
$REGENMODE
 70
     1
  9
$FILLMODE
 70
     1
  9
$QTEXTMODE
 70
     0
  9
$MIRRTEXT
 70
     1
  9
$DRAGMODE
 70
     2
  9
$LTSCALE
 40
1.0
  9
$OSMODE
 70
    37
  9
$ATTMODE
 70
     1
  9
$TEXTSIZE
 40
3.5
  9
$TRACEWID
 40
1.0
  9
$TEXTSTYLE
  7
STANDARD
  9
$CLAYER
  8
0
  9
$CELTYPE
  6
BYLAYER
  9
$CECOLOR
 62
   256
  9
$DIMSCALE
 40
1.0
  9
$DIMASZ
 40
3.302
  9
$DIMEXO
 40
1.0
  9
$DIMDLI
 40
3.75
  9
$DIMRND
 40
0.0
  9
$DIMDLE
 40
0.0
  9
$DIMEXE
 40
1.0
  9
$DIMTP
 40
0.0
  9
$DIMTM
 40
0.0
  9
$DIMTXT
 40
3.5
  9
$DIMCEN
 40
2.5
  9
$DIMTSZ
 40
0.0
  9
$DIMTOL
 70
     0
  9
$DIMLIM
 70
     0
  9
$DIMTIH
 70
     1
  9
$DIMTOH
 70
     1
  9
$DIMSE1
 70
     0
  9
$DIMSE2
 70
     0
  9
$DIMTAD
 70
     1
  9
$DIMZIN
 70
     0
  9
$DIMBLK
  1

  9
$DIMASO
 70
     1
  9
$DIMSHO
 70
     1
  9
$DIMPOST
  1

  9
$DIMAPOST
  1

  9
$DIMALT
 70
     0
  9
$DIMALTD
 70
     3
  9
$DIMALTF
 40
0.0393700787401575
  9
$DIMLFAC
 40
1.0
  9
$DIMTOFL
 70
     1
  9
$DIMTVP
 40
0.0
  9
$DIMTIX
 70
     0
  9
$DIMSOXD
 70
     0
  9
$DIMSAH
 70
     0
  9
$DIMBLK1
  1

  9
$DIMBLK2
  1

  9
$LUNITS
 70
     2
  9
$LUPREC
 70
     2
  9
$SKETCHINC
 40
1.0
  9
$FILLETRAD
 40
10.0
  9
$AUNITS
 70
     0
  9
$AUPREC
 70
     2
  9
$MENU
  1
.
  9
$ELEVATION
 40
0.0
  9
$THICKNESS
 40
0.0
  9
$LIMCHECK
 70
     0
  9
$CHAMFERA
 40
0.0
  9
$CHAMFERB
 40
0.0
  9
$SKPOLY
 70
     0
  9
$TDCREATE
 40
2459795.265681354
  9
$TDUPDATE
 40
2460140.101229618
  9
$TDINDWG
 40
0.0000000116
  9
$TDUSRTIMER
 40
0.0000000116
  9
$USRTIMER
 70
     1
  9
$ANGBASE
 50
0.0
  9
$ANGDIR
 70
     0
  9
$PDMODE
 70
     0
  9
$PDSIZE
 40
-1.0
  9
$PLINEWID
 40
0.0
  9
$COORDS
 70
     1
  9
$SPLFRAME
 70
     0
  9
$SPLINETYPE
 70
     6
  9
$SPLINESEGS
 70
     8
  9
$ATTDIA
 70
     0
  9
$ATTREQ
 70
     1
  9
$HANDLING
 70
     1
  9
$HANDSEED
  5
16F
  9
$SURFTAB1
 70
     6
  9
$SURFTAB2
 70
     6
  9
$SURFTYPE
 70
     6
  9
$SURFU
 70
     6
  9
$SURFV
 70
     6
  9
$UCSNAME
  2

  9
$UCSORG
 10
0.0
 20
0.0
 30
0.0
  9
$UCSXDIR
 10
1.0
 20
0.0
 30
0.0
  9
$UCSYDIR
 10
0.0
 20
1.0
 30
0.0
  9
$USERI1
 70
     0
  9
$USERI2
 70
     0
  9
$USERI3
 70
     0
  9
$USERI4
 70
     0
  9
$USERI5
 70
     0
  9
$USERR1
 40
0.0
  9
$USERR2
 40
0.0
  9
$USERR3
 40
0.0
  9
$USERR4
 40
0.0
  9
$USERR5
 40
0.0
  9
$WORLDVIEW
 70
     1
  0
ENDSEC
  0
SECTION
  2
TABLES
  0
TABLE
  2
VPORT
 70
     1
  0
VPORT
  2
*ACTIVE
 70
     0
 10
0.0
 20
0.0
 11
1.0
 21
1.0
 12
2500.0
 22
1750.0
 13
0.0
 23
0.0
 14
10.0
 24
10.0
 15
10.0
 25
10.0
 16
0.0
 26
0.0
 36
1.0
 17
0.0
 27
0.0
 37
0.0
 40
3500.0
 41
1.428571428571429
 42
50.0
 43
0.0
 44
0.0
 50
0.0
 51
0.0
 71
     0
 72
  2000
 73
     1
 74
     3
 75
     0
 76
     0
 77
     0
 78
     0
  0
ENDTAB
  0
TABLE
  2
LTYPE
 70
     6
  0
LTYPE
  2
CONTINUOUS
 70
     0
  3
Solid line
 72
    65
 73
     0
 40
0.0
  0
LTYPE
  2
HIDDEN
 70
     0
  3
Hidden __ __ __ __ __ __ __ __ __ __ __ __ __ __
 72
    65
 73
     2
 40
1.905
 49
1.27
 49
-0.635
  0
LTYPE
  2
PHANTOM
 70
     0
  3
Phantom ______  __  __  ______  __  __  ______
 72
    65
 73
     6
 40
12.7
 49
6.35
 49
-1.27
 49
1.27
 49
-1.27
 49
1.27
 49
-1.27
  0
LTYPE
  2
CENTER
 70
     0
  3
Center ____ _ ____ _ ____ _ ____ _ ____ _ ____
 72
    65
 73
     4
 40
10.16
 49
6.35
 49
-1.27
 49
1.27
 49
-1.27
  0
LTYPE
  2
CENTERX2
 70
     0
  3
Center (2x) ________  __  ________  __  _____
 72
    65
 73
     4
 40
20.32
 49
12.7
 49
-2.54
 49
2.54
 49
-2.54
  0
LTYPE
  2
DOT2
 70
     0
  3
Dot (.5x) ........................................
 72
    65
 73
     2
 40
0.635
 49
0.0
 49
-0.635
  0
ENDTAB
  0
TABLE
  2
LAYER
 70
     3
  0
LAYER
  2
0
 70
     0
 62
     7
  6
CONTINUOUS
  0
LAYER
  2
SLD-0
 70
     0
 62
   179
  6
CONTINUOUS
  0
LAYER
  2
寸法
 70
     0
 62
   179
  6
CONTINUOUS
  0
ENDTAB
  0
TABLE
  2
STYLE
 70
     2
  0
STYLE
  2
STANDARD
 70
     0
 40
0.0
 41
1.0
 50
0.0
 71
     0
 42
3.5
  3
txt
  4
bigfont
  0
STYLE
  2
SLDTEXTSTYLE0
 70
     0
 40
0.0
 41
0.75
 50
0.0
 71
     0
 42
3.5
  3
TXT
  4
bigfont
  0
ENDTAB
  0
TABLE
  2
VIEW
 70
     0
  0
ENDTAB
  0
TABLE
  2
UCS
 70
     0
  0
ENDTAB
  0
ENDSEC
  0
SECTION
  2
BLOCKS
  0
ENDSEC
  0
SECTION
  2
ENTITIES
  0
LINE
  5
75
  8
0
  6
CONTINUOUS
 62
     7
 10
4839.484712179223
 20
258.5233124172521
 30
0.0
 11
3312.374599790194
 21
258.5233124172519
 31
0.0
  0
TEXT
  5
77
  8
0
  6
CONTINUOUS
 62
     7
 10
1337.215680779194
 20
3114.41964929089
 30
0.0
 40
52.91666666666666
  1
＜上面＞
 41
0.75
  7
SLDTEXTSTYLE0
  0
TEXT
  5
78
  8
0
  6
CONTINUOUS
 62
     7
 10
332.3654343110794
 20
2032.110857055502
 30
0.0
 40
52.91666666666666
  1
＜左側面＞
 41
0.75
  7
SLDTEXTSTYLE0
  0
TEXT
  5
79
  8
0
  6
CONTINUOUS
 62
     7
 10
3990.052715420779
 20
2032.110857055501
 30
0.0
 40
52.91666666666666
  1
＜右側面＞
 41
0.75
  7
SLDTEXTSTYLE0
  0
TEXT
  5
7A
  8
0
  6
CONTINUOUS
 62
     7
 10
1337.215680779194
 20
2032.110857055502
 30
0.0
 40
52.91666666666666
  1
＜正面＞
 41
0.75
  7
SLDTEXTSTYLE0
  0
TEXT
  5
7B
  8
0
  6
CONTINUOUS
 62
     7
 10
3377.814243189123
 20
326.489054196763
 30
0.0
 40
52.91666666666666
  1
品名：
 41
0.75
  7
SLDTEXTSTYLE0
  0
TEXT
  5
7C
  8
0
  6
CONTINUOUS
 62
     7
 10
4446.663437481703
 20
332.3177187478654
 30
0.0
 40
52.91666666666666
  1
Pamouna
 41
0.75
  7
SLDTEXTSTYLE0
  0
TEXT
  5
7D
  8
寸法
  6
CONTINUOUS
 62
     7
 10
4688.007304885427
 20
165.7088516276312
 30
0.0
 40
52.91666666666666
  1
1/1
 41
0.75
  7
SLDTEXTSTYLE0
  0
TEXT
  5
7E
  8
寸法
  6
CONTINUOUS
 62
     7
 10
4198.79693921183
 20
165.7088544215994
 30
0.0
 40
52.91666666666666
  1
2022/08/03
 41
0.75
  7
SLDTEXTSTYLE0
  0
TEXT
  5
7F
  8
寸法
  6
CONTINUOUS
 62
     7
 10
1324.579282869304
 20
1254.872805937933
 30
0.0
 40
52.91666666666666
  1
＜下面＞
 41
0.75
  7
SLDTEXTSTYLE0
  0
TEXT
  5
80
  8
寸法
  6
CONTINUOUS
 62
     7
 10
3611.283129349215
 20
326.4179237671586
 30
0.0
 40
66.14583333333331
  1
MA-TTD180
 41
0.75
  7
SLDTEXTSTYLE0
  0
LINE
  5
81
  8
0
  6
CONTINUOUS
 62
     7
 10
3168.795356461567
 20
1597.439286684227
 30
0.0
 11
3168.795356461567
 21
1687.939286684221
 31
0.0
  0
LINE
  5
82
  8
0
  6
CONTINUOUS
 62
     7
 10
3149.695356461567
 20
1687.939286684221
 30
0.0
 11
3149.695356461567
 21
1597.439286684227
 31
0.0
  0
LINE
  5
83
  8
0
  6
CONTINUOUS
 62
     7
 10
2583.295356461565
 20
1597.439286684227
 30
0.0
 11
2583.295356461565
 21
1687.939286684221
 31
0.0
  0
LINE
  5
84
  8
0
  6
CONTINUOUS
 62
     7
 10
2564.195356461565
 20
1687.939286684221
 30
0.0
 11
2564.195356461565
 21
1597.439286684227
 31
0.0
  0
LINE
  5
85
  8
0
  6
CONTINUOUS
 62
     7
 10
1397.795356461567
 20
1597.439286684227
 30
0.0
 11
1397.795356461567
 21
1687.939286684221
 31
0.0
  0
LINE
  5
86
  8
0
  6
CONTINUOUS
 62
     7
 10
1378.695356461567
 20
1687.939286684221
 30
0.0
 11
1378.695356461567
 21
1597.439286684227
 31
0.0
  0
ARC
  5
87
  8
0
  6
CONTINUOUS
 62
     7
 10
3169.045356461566
 20
1594.739286684223
 30
0.0
 40
0.2000000000007276
 50
0.0
 51
90.0
  0
ARC
  5
88
  8
0
  6
CONTINUOUS
 62
     7
 10
3149.445356461567
 20
1594.739286684223
 30
0.0
 40
0.2000000000000455
 50
89.99999999986973
 51
180.0
  0
LINE
  5
89
  8
0
  6
CONTINUOUS
 62
     7
 10
3149.245356461567
 20
1594.739286684223
 30
0.0
 11
3149.245356461567
 21
1590.139286684223
 31
0.0
  0
LINE
  5
8A
  8
0
  6
CONTINUOUS
 62
     7
 10
3169.245356461567
 20
1590.139286684223
 30
0.0
 11
3169.245356461567
 21
1594.739286684223
 31
0.0
  0
ARC
  5
8B
  8
0
  6
CONTINUOUS
 62
     7
 10
3169.045356461566
 20
1590.139286684223
 30
0.0
 40
0.2000000000007276
 50
270.0000000000008
 51
0.0
  0
ARC
  5
8C
  8
0
  6
CONTINUOUS
 62
     7
 10
3149.445356461567
 20
1590.139286684223
 30
0.0
 40
0.2000000000000455
 50
180.0
 51
270.0000000001311
  0
LINE
  5
8D
  8
0
  6
CONTINUOUS
 62
     7
 10
3150.745356461567
 20
1589.939286684223
 30
0.0
 11
3150.745356461567
 21
1587.439286684223
 31
0.0
  0
LINE
  5
8E
  8
0
  6
CONTINUOUS
 62
     7
 10
3167.745356461567
 20
1587.439286684223
 30
0.0
 11
3167.745356461567
 21
1589.939286684223
 31
0.0
  0
ARC
  5
8F
  8
0
  6
CONTINUOUS
 62
     7
 10
3167.245356461567
 20
1587.439286684223
 30
0.0
 40
0.5000000000002274
 50
269.9999999998966
 51
0.0
  0
ARC
  5
90
  8
0
  6
CONTINUOUS
 62
     7
 10
3151.245356461567
 20
1587.439286684223
 30
0.0
 40
0.5000000000002274
 50
180.0
 51
270.0000000000008
  0
LINE
  5
91
  8
0
  6
CONTINUOUS
 62
     7
 10
3165.155282047233
 20
1594.939286684223
 30
0.0
 11
3164.245356461567
 21
1597.439286684223
 31
0.0
  0
LINE
  5
92
  8
0
  6
CONTINUOUS
 62
     7
 10
3154.245356461568
 20
1597.439286684223
 30
0.0
 11
3153.335430875901
 21
1594.939286684223
 31
0.0
  0
ARC
  5
93
  8
0
  6
CONTINUOUS
 62
     7
 10
1398.045356461567
 20
1594.739286684223
 30
0.0
 40
0.2000000000002728
 50
0.0
 51
90.00000000006513
  0
ARC
  5
94
  8
0
  6
CONTINUOUS
 62
     7
 10
1378.445356461567
 20
1594.739286684223
 30
0.0
 40
0.2000000000000455
 50
89.99999999986973
 51
180.0
  0
ARC
  5
95
  8
0
  6
CONTINUOUS
 62
     7
 10
1398.045356461567
 20
1590.139286684223
 30
0.0
 40
0.2000000000002728
 50
269.9999999999357
 51
0.0
  0
ARC
  5
96
  8
0
  6
CONTINUOUS
 62
     7
 10
1378.445356461567
 20
1590.139286684223
 30
0.0
 40
0.2000000000000455
 50
180.0
 51
270.0000000001311
  0
LINE
  5
97
  8
0
  6
CONTINUOUS
 62
     7
 10
1378.245356461567
 20
1594.739286684223
 30
0.0
 11
1378.245356461567
 21
1590.139286684223
 31
0.0
  0
LINE
  5
98
  8
0
  6
CONTINUOUS
 62
     7
 10
1398.245356461567
 20
1590.139286684223
 30
0.0
 11
1398.245356461567
 21
1594.739286684223
 31
0.0
  0
ARC
  5
99
  8
0
  6
CONTINUOUS
 62
     7
 10
1396.245356461567
 20
1587.439286684223
 30
0.0
 40
0.5000000000002274
 50
269.9999999999748
 51
0.0
  0
ARC
  5
9A
  8
0
  6
CONTINUOUS
 62
     7
 10
1380.245356461567
 20
1587.439286684223
 30
0.0
 40
0.5
 50
180.0
 51
270.0000000000268
  0
LINE
  5
9B
  8
0
  6
CONTINUOUS
 62
     7
 10
1379.745356461567
 20
1589.939286684223
 30
0.0
 11
1379.745356461567
 21
1587.439286684223
 31
0.0
  0
LINE
  5
9C
  8
0
  6
CONTINUOUS
 62
     7
 10
1396.745356461567
 20
1587.439286684223
 30
0.0
 11
1396.745356461567
 21
1589.939286684223
 31
0.0
  0
LINE
  5
9D
  8
0
  6
CONTINUOUS
 62
     7
 10
1394.155282047233
 20
1594.939286684223
 30
0.0
 11
1393.245356461567
 21
1597.439286684223
 31
0.0
  0
LINE
  5
9E
  8
0
  6
CONTINUOUS
 62
     7
 10
1383.245356461567
 20
1597.439286684223
 30
0.0
 11
1382.335430875901
 21
1594.939286684223
 31
0.0
  0
ARC
  5
9F
  8
0
  6
CONTINUOUS
 62
     7
 10
2583.545356461564
 20
1590.139286684223
 30
0.0
 40
0.2000000000007276
 50
270.0000000000008
 51
0.0
  0
ARC
  5
A0
  8
0
  6
CONTINUOUS
 62
     7
 10
2563.945356461565
 20
1590.139286684223
 30
0.0
 40
0.2000000000002728
 50
180.0
 51
270.0000000000008
  0
ARC
  5
A1
  8
0
  6
CONTINUOUS
 62
     7
 10
2583.545356461564
 20
1594.739286684223
 30
0.0
 40
0.2000000000007276
 50
0.0
 51
90.0
  0
ARC
  5
A2
  8
0
  6
CONTINUOUS
 62
     7
 10
2563.945356461565
 20
1594.739286684223
 30
0.0
 40
0.2000000000002728
 50
90.0
 51
180.0
  0
LINE
  5
A3
  8
0
  6
CONTINUOUS
 62
     7
 10
2563.745356461564
 20
1594.739286684223
 30
0.0
 11
2563.745356461564
 21
1590.139286684223
 31
0.0
  0
LINE
  5
A4
  8
0
  6
CONTINUOUS
 62
     7
 10
2583.745356461565
 20
1590.139286684223
 30
0.0
 11
2583.745356461565
 21
1594.739286684223
 31
0.0
  0
ARC
  5
A5
  8
0
  6
CONTINUOUS
 62
     7
 10
2581.745356461564
 20
1587.439286684223
 30
0.0
 40
0.5000000000004547
 50
269.9999999999487
 51
0.0
  0
ARC
  5
A6
  8
0
  6
CONTINUOUS
 62
     7
 10
2565.745356461564
 20
1587.439286684223
 30
0.0
 40
0.5000000000002274
 50
180.0
 51
270.0000000000529
  0
LINE
  5
A7
  8
0
  6
CONTINUOUS
 62
     7
 10
2565.245356461564
 20
1589.939286684223
 30
0.0
 11
2565.245356461564
 21
1587.439286684223
 31
0.0
  0
LINE
  5
A8
  8
0
  6
CONTINUOUS
 62
     7
 10
2582.245356461565
 20
1587.439286684223
 30
0.0
 11
2582.245356461565
 21
1589.939286684223
 31
0.0
  0
LINE
  5
A9
  8
0
  6
CONTINUOUS
 62
     7
 10
2579.65528204723
 20
1594.939286684223
 30
0.0
 11
2578.745356461564
 21
1597.439286684223
 31
0.0
  0
LINE
  5
AA
  8
0
  6
CONTINUOUS
 62
     7
 10
2568.745356461564
 20
1597.439286684223
 30
0.0
 11
2567.835430875899
 21
1594.939286684223
 31
0.0
  0
LINE
  5
AB
  8
0
  6
CONTINUOUS
 62
     7
 10
3173.245356461567
 20
1687.939286684223
 30
0.0
 11
3173.245356461567
 21
1586.439286684223
 31
0.0
  0
LINE
  5
AC
  8
0
  6
CONTINUOUS
 62
     7
 10
1374.245356461567
 20
1586.439286684223
 30
0.0
 11
3173.245356461567
 21
1586.439286684223
 31
0.0
  0
LINE
  5
AD
  8
0
  6
CONTINUOUS
 62
     7
 10
1374.245356461567
 20
1687.939286684223
 30
0.0
 11
1374.245356461567
 21
1586.439286684223
 31
0.0
  0
LINE
  5
AE
  8
0
  6
CONTINUOUS
 62
     7
 10
3174.245356461567
 20
1715.939286684223
 30
0.0
 11
1373.245356461567
 21
1715.939286684223
 31
0.0
  0
LINE
  5
AF
  8
0
  6
CONTINUOUS
 62
     7
 10
3174.245356461567
 20
1715.939286684223
 30
0.0
 11
3174.245356461567
 21
1687.939286684223
 31
0.0
  0
LINE
  5
B0
  8
0
  6
CONTINUOUS
 62
     7
 10
3174.245356461567
 20
1687.939286684223
 30
0.0
 11
1373.245356461567
 21
1687.939286684223
 31
0.0
  0
LINE
  5
B1
  8
0
  6
CONTINUOUS
 62
     7
 10
1373.245356461567
 20
1715.939286684223
 30
0.0
 11
1373.245356461567
 21
1687.939286684223
 31
0.0
  0
LINE
  5
B2
  8
0
  6
CONTINUOUS
 62
     7
 10
3156.787715563083
 20
1597.439286684223
 30
0.0
 11
3168.795356461567
 21
1597.439286684223
 31
0.0
  0
LINE
  5
B3
  8
0
  6
CONTINUOUS
 62
     7
 10
3149.695356461567
 20
1597.439286684223
 30
0.0
 11
3156.787715563083
 21
1597.439286684223
 31
0.0
  0
LINE
  5
B4
  8
0
  6
CONTINUOUS
 62
     7
 10
2564.195356461565
 20
1597.439286684223
 30
0.0
 11
2583.295356461565
 21
1597.439286684223
 31
0.0
  0
LINE
  5
B5
  8
0
  6
CONTINUOUS
 62
     7
 10
1385.797212788432
 20
1597.439286684223
 30
0.0
 11
1397.795356461567
 21
1597.439286684223
 31
0.0
  0
LINE
  5
B6
  8
0
  6
CONTINUOUS
 62
     7
 10
1378.695356461567
 20
1597.439286684223
 30
0.0
 11
1385.797212788432
 21
1597.439286684223
 31
0.0
  0
LINE
  5
B7
  8
0
  6
CONTINUOUS
 62
     7
 10
3149.445356461567
 20
1594.939286684223
 30
0.0
 11
3169.045356461567
 21
1594.939286684223
 31
0.0
  0
LINE
  5
B8
  8
0
  6
CONTINUOUS
 62
     7
 10
3169.045356461567
 20
1589.939286684223
 30
0.0
 11
3149.445356461567
 21
1589.939286684223
 31
0.0
  0
LINE
  5
B9
  8
0
  6
CONTINUOUS
 62
     7
 10
3167.245356461567
 20
1586.939286684223
 30
0.0
 11
3151.245356461567
 21
1586.939286684223
 31
0.0
  0
LINE
  5
BA
  8
0
  6
CONTINUOUS
 62
     7
 10
1378.445356461567
 20
1594.939286684223
 30
0.0
 11
1398.045356461567
 21
1594.939286684223
 31
0.0
  0
LINE
  5
BB
  8
0
  6
CONTINUOUS
 62
     7
 10
1398.045356461567
 20
1589.939286684223
 30
0.0
 11
1378.445356461567
 21
1589.939286684223
 31
0.0
  0
LINE
  5
BC
  8
0
  6
CONTINUOUS
 62
     7
 10
1396.245356461567
 20
1586.939286684223
 30
0.0
 11
1380.245356461567
 21
1586.939286684223
 31
0.0
  0
LINE
  5
BD
  8
0
  6
CONTINUOUS
 62
     7
 10
2564.861404910599
 20
1589.939286684223
 30
0.0
 11
2563.945356461565
 21
1589.939286684223
 31
0.0
  0
LINE
  5
BE
  8
0
  6
CONTINUOUS
 62
     7
 10
2583.545356461564
 20
1589.939286684223
 30
0.0
 11
2564.861404910599
 21
1589.939286684223
 31
0.0
  0
LINE
  5
BF
  8
0
  6
CONTINUOUS
 62
     7
 10
2564.861404910599
 20
1594.939286684223
 30
0.0
 11
2583.545356461564
 21
1594.939286684223
 31
0.0
  0
LINE
  5
C0
  8
0
  6
CONTINUOUS
 62
     7
 10
2563.945356461565
 20
1594.939286684223
 30
0.0
 11
2564.861404910599
 21
1594.939286684223
 31
0.0
  0
LINE
  5
C1
  8
0
  6
CONTINUOUS
 62
     7
 10
2566.493151113837
 20
1586.939286684223
 30
0.0
 11
2565.745356461564
 21
1586.939286684223
 31
0.0
  0
LINE
  5
C2
  8
0
  6
CONTINUOUS
 62
     7
 10
2581.745356461564
 20
1586.939286684223
 30
0.0
 11
2566.493151113837
 21
1586.939286684223
 31
0.0
  0
LINE
  5
C3
  8
0
  6
CONTINUOUS
 62
     7
 10
3174.245356461567
 20
2890.456058273807
 30
0.0
 11
3174.245356461567
 21
2439.956058273807
 31
0.0
  0
LINE
  5
C4
  8
0
  6
CONTINUOUS
 62
     7
 10
3174.245356461567
 20
2439.956058273807
 30
0.0
 11
1373.245356461567
 21
2439.956058273807
 31
0.0
  0
LINE
  5
C5
  8
0
  6
CONTINUOUS
 62
     7
 10
3174.245356461567
 20
2890.456058273807
 30
0.0
 11
1373.245356461567
 21
2890.456058273807
 31
0.0
  0
LINE
  5
C6
  8
0
  6
CONTINUOUS
 62
     7
 10
1373.245356461567
 20
2890.456058273807
 30
0.0
 11
1373.245356461567
 21
2439.956058273807
 31
0.0
  0
LINE
  5
C7
  8
0
  6
CONTINUOUS
 62
     7
 10
565.4042824722527
 20
1597.439286684226
 30
0.0
 11
565.4042824722527
 21
1687.939286684222
 31
0.0
  0
LINE
  5
C8
  8
0
  6
CONTINUOUS
 62
     7
 10
546.3042824722526
 20
1687.939286684222
 30
0.0
 11
546.3042824722526
 21
1597.439286684226
 31
0.0
  0
LINE
  5
C9
  8
0
  6
CONTINUOUS
 62
     7
 10
745.6542824722527
 20
1597.439286684226
 30
0.0
 11
745.6542824722527
 21
1687.939286684222
 31
0.0
  0
LINE
  5
CA
  8
0
  6
CONTINUOUS
 62
     7
 10
726.5542824722526
 20
1687.939286684222
 30
0.0
 11
726.5542824722526
 21
1597.439286684226
 31
0.0
  0
ARC
  5
CB
  8
0
  6
CONTINUOUS
 62
     7
 10
745.9042824722526
 20
1594.739286684223
 30
0.0
 40
0.2000000000000455
 50
0.0
 51
90.0000000000977
  0
ARC
  5
CC
  8
0
  6
CONTINUOUS
 62
     7
 10
726.3042824722528
 20
1594.739286684223
 30
0.0
 40
0.2000000000000455
 50
89.9999999999023
 51
180.0
  0
LINE
  5
CD
  8
0
  6
CONTINUOUS
 62
     7
 10
726.1042824722526
 20
1594.739286684223
 30
0.0
 11
726.1042824722526
 21
1590.139286684223
 31
0.0
  0
LINE
  5
CE
  8
0
  6
CONTINUOUS
 62
     7
 10
746.1042824722526
 20
1590.139286684223
 30
0.0
 11
746.1042824722526
 21
1594.739286684223
 31
0.0
  0
ARC
  5
CF
  8
0
  6
CONTINUOUS
 62
     7
 10
745.9042824722526
 20
1590.139286684223
 30
0.0
 40
0.2000000000000455
 50
269.9999999999031
 51
0.0
  0
ARC
  5
D0
  8
0
  6
CONTINUOUS
 62
     7
 10
726.3042824722528
 20
1590.139286684223
 30
0.0
 40
0.2000000000000455
 50
180.0
 51
270.0000000000985
  0
LINE
  5
D1
  8
0
  6
CONTINUOUS
 62
     7
 10
727.6042824722526
 20
1589.939286684223
 30
0.0
 11
727.6042824722526
 21
1587.439286684223
 31
0.0
  0
LINE
  5
D2
  8
0
  6
CONTINUOUS
 62
     7
 10
744.6042824722527
 20
1587.439286684223
 30
0.0
 11
744.6042824722527
 21
1589.939286684223
 31
0.0
  0
ARC
  5
D3
  8
0
  6
CONTINUOUS
 62
     7
 10
744.1042824722525
 20
1587.439286684223
 30
0.0
 40
0.5000000000001137
 50
269.9999999999878
 51
0.0
  0
ARC
  5
D4
  8
0
  6
CONTINUOUS
 62
     7
 10
728.1042824722527
 20
1587.439286684223
 30
0.0
 40
0.5
 50
180.0
 51
270.0000000000268
  0
LINE
  5
D5
  8
0
  6
CONTINUOUS
 62
     7
 10
742.0142080579182
 20
1594.939286684223
 30
0.0
 11
741.1042824722526
 21
1597.439286684223
 31
0.0
  0
LINE
  5
D6
  8
0
  6
CONTINUOUS
 62
     7
 10
731.1042824722526
 20
1597.439286684223
 30
0.0
 11
730.1943568865872
 21
1594.939286684223
 31
0.0
  0
LINE
  5
D7
  8
0
  6
CONTINUOUS
 62
     7
 10
545.8542824722526
 20
1594.739286684223
 30
0.0
 11
545.8542824722526
 21
1590.139286684223
 31
0.0
  0
LINE
  5
D8
  8
0
  6
CONTINUOUS
 62
     7
 10
565.8542824722526
 20
1590.139286684223
 30
0.0
 11
565.8542824722526
 21
1594.739286684223
 31
0.0
  0
ARC
  5
D9
  8
0
  6
CONTINUOUS
 62
     7
 10
565.6542824722526
 20
1590.139286684223
 30
0.0
 40
0.2000000000000455
 50
269.9999999998706
 51
0.0
  0
ARC
  5
DA
  8
0
  6
CONTINUOUS
 62
     7
 10
546.0542824722528
 20
1590.139286684223
 30
0.0
 40
0.2000000000000455
 50
180.0
 51
270.0000000000985
  0
ARC
  5
DB
  8
0
  6
CONTINUOUS
 62
     7
 10
565.6542824722526
 20
1594.739286684223
 30
0.0
 40
0.2000000000002728
 50
0.0
 51
90.00000000013027
  0
ARC
  5
DC
  8
0
  6
CONTINUOUS
 62
     7
 10
546.0542824722528
 20
1594.739286684223
 30
0.0
 40
0.2000000000002728
 50
89.9999999999023
 51
180.0
  0
LINE
  5
DD
  8
0
  6
CONTINUOUS
 62
     7
 10
547.3542824722526
 20
1589.939286684223
 30
0.0
 11
547.3542824722526
 21
1587.439286684223
 31
0.0
  0
LINE
  5
DE
  8
0
  6
CONTINUOUS
 62
     7
 10
564.3542824722527
 20
1587.439286684223
 30
0.0
 11
564.3542824722527
 21
1589.939286684223
 31
0.0
  0
ARC
  5
DF
  8
0
  6
CONTINUOUS
 62
     7
 10
563.8542824722525
 20
1587.439286684223
 30
0.0
 40
0.5000000000002274
 50
269.9999999999748
 51
0.0
  0
ARC
  5
E0
  8
0
  6
CONTINUOUS
 62
     7
 10
547.8542824722527
 20
1587.439286684223
 30
0.0
 40
0.5000000000002274
 50
180.0
 51
270.0000000000268
  0
LINE
  5
E1
  8
0
  6
CONTINUOUS
 62
     7
 10
561.7642080579182
 20
1594.939286684223
 30
0.0
 11
560.8542824722526
 21
1597.439286684223
 31
0.0
  0
LINE
  5
E2
  8
0
  6
CONTINUOUS
 62
     7
 10
550.8542824722526
 20
1597.439286684223
 30
0.0
 11
549.9443568865871
 21
1594.939286684223
 31
0.0
  0
LINE
  5
E3
  8
0
  6
CONTINUOUS
 62
     7
 10
330.6042824722526
 20
1687.939286684223
 30
0.0
 11
330.6042824722526
 21
1586.439286684223
 31
0.0
  0
LINE
  5
E4
  8
0
  6
CONTINUOUS
 62
     7
 10
348.6042824722526
 20
1687.939286684223
 30
0.0
 11
348.6042824722526
 21
1586.439286684223
 31
0.0
  0
LINE
  5
E5
  8
0
  6
CONTINUOUS
 62
     7
 10
330.6042824722526
 20
1586.439286684223
 30
0.0
 11
348.6042824722526
 21
1586.439286684223
 31
0.0
  0
LINE
  5
E6
  8
0
  6
CONTINUOUS
 62
     7
 10
330.6042824722526
 20
1715.939286684223
 30
0.0
 11
781.1042824722527
 21
1715.939286684223
 31
0.0
  0
LINE
  5
E7
  8
0
  6
CONTINUOUS
 62
     7
 10
781.1042824722527
 20
1715.939286684223
 30
0.0
 11
781.1042824722527
 21
1687.939286684223
 31
0.0
  0
LINE
  5
E8
  8
0
  6
CONTINUOUS
 62
     7
 10
781.1042824722527
 20
1687.939286684223
 30
0.0
 11
330.6042824722526
 21
1687.939286684223
 31
0.0
  0
LINE
  5
E9
  8
0
  6
CONTINUOUS
 62
     7
 10
330.6042824722526
 20
1687.939286684223
 30
0.0
 11
330.6042824722526
 21
1715.939286684223
 31
0.0
  0
LINE
  5
EA
  8
0
  6
CONTINUOUS
 62
     7
 10
546.3042824722526
 20
1597.439286684223
 30
0.0
 11
565.4042824722527
 21
1597.439286684223
 31
0.0
  0
LINE
  5
EB
  8
0
  6
CONTINUOUS
 62
     7
 10
745.3351596004396
 20
1597.439286684223
 30
0.0
 11
745.6542824722527
 21
1597.439286684223
 31
0.0
  0
LINE
  5
EC
  8
0
  6
CONTINUOUS
 62
     7
 10
726.5542824722526
 20
1597.439286684223
 30
0.0
 11
745.3351596004396
 21
1597.439286684223
 31
0.0
  0
LINE
  5
ED
  8
0
  6
CONTINUOUS
 62
     7
 10
726.3042824722528
 20
1594.939286684223
 30
0.0
 11
745.9042824722526
 21
1594.939286684223
 31
0.0
  0
LINE
  5
EE
  8
0
  6
CONTINUOUS
 62
     7
 10
745.9042824722526
 20
1589.939286684223
 30
0.0
 11
726.3042824722528
 21
1589.939286684223
 31
0.0
  0
LINE
  5
EF
  8
0
  6
CONTINUOUS
 62
     7
 10
744.1042824722526
 20
1586.939286684223
 30
0.0
 11
728.1042824722526
 21
1586.939286684223
 31
0.0
  0
LINE
  5
F0
  8
0
  6
CONTINUOUS
 62
     7
 10
559.9913593195075
 20
1589.939286684223
 30
0.0
 11
546.0542824722527
 21
1589.939286684223
 31
0.0
  0
LINE
  5
F1
  8
0
  6
CONTINUOUS
 62
     7
 10
565.6542824722527
 20
1589.939286684223
 30
0.0
 11
559.9913593195075
 21
1589.939286684223
 31
0.0
  0
LINE
  5
F2
  8
0
  6
CONTINUOUS
 62
     7
 10
559.9913593195075
 20
1594.939286684223
 30
0.0
 11
565.6542824722527
 21
1594.939286684223
 31
0.0
  0
LINE
  5
F3
  8
0
  6
CONTINUOUS
 62
     7
 10
546.0542824722527
 20
1594.939286684223
 30
0.0
 11
559.9913593195075
 21
1594.939286684223
 31
0.0
  0
LINE
  5
F4
  8
0
  6
CONTINUOUS
 62
     7
 10
559.2314880618484
 20
1586.939286684223
 30
0.0
 11
547.8542824722526
 21
1586.939286684223
 31
0.0
  0
LINE
  5
F5
  8
0
  6
CONTINUOUS
 62
     7
 10
563.8542824722526
 20
1586.939286684223
 30
0.0
 11
559.2314880618484
 21
1586.939286684223
 31
0.0
  0
LINE
  5
F6
  8
0
  6
CONTINUOUS
 62
     7
 10
4131.168687391578
 20
1597.439286684227
 30
0.0
 11
4131.168687391578
 21
1687.939286684221
 31
0.0
  0
LINE
  5
F7
  8
0
  6
CONTINUOUS
 62
     7
 10
4112.068687391578
 20
1687.939286684221
 30
0.0
 11
4112.068687391578
 21
1597.439286684227
 31
0.0
  0
LINE
  5
F8
  8
0
  6
CONTINUOUS
 62
     7
 10
4311.418687391578
 20
1597.439286684227
 30
0.0
 11
4311.418687391578
 21
1687.939286684221
 31
0.0
  0
LINE
  5
F9
  8
0
  6
CONTINUOUS
 62
     7
 10
4292.318687391578
 20
1687.939286684221
 30
0.0
 11
4292.318687391578
 21
1597.439286684227
 31
0.0
  0
ARC
  5
FA
  8
0
  6
CONTINUOUS
 62
     7
 10
4311.668687391578
 20
1590.139286684223
 30
0.0
 40
0.2000000000000455
 50
270.0000000000008
 51
0.0
  0
ARC
  5
FB
  8
0
  6
CONTINUOUS
 62
     7
 10
4292.068687391577
 20
1590.139286684223
 30
0.0
 40
0.2000000000000455
 50
180.0
 51
270.0000000002614
  0
LINE
  5
FC
  8
0
  6
CONTINUOUS
 62
     7
 10
4291.868687391579
 20
1594.739286684223
 30
0.0
 11
4291.868687391579
 21
1590.139286684223
 31
0.0
  0
LINE
  5
FD
  8
0
  6
CONTINUOUS
 62
     7
 10
4311.868687391578
 20
1590.139286684223
 30
0.0
 11
4311.868687391578
 21
1594.739286684223
 31
0.0
  0
ARC
  5
FE
  8
0
  6
CONTINUOUS
 62
     7
 10
4311.668687391578
 20
1594.739286684223
 30
0.0
 40
0.2000000000002728
 50
0.0
 51
90.0
  0
ARC
  5
FF
  8
0
  6
CONTINUOUS
 62
     7
 10
4292.068687391577
 20
1594.739286684223
 30
0.0
 40
0.2000000000002728
 50
89.99999999973944
 51
180.0
  0
ARC
  5
100
  8
0
  6
CONTINUOUS
 62
     7
 10
4309.868687391579
 20
1587.439286684223
 30
0.0
 40
0.5000000000002274
 50
269.9999999998966
 51
0.0
  0
ARC
  5
101
  8
0
  6
CONTINUOUS
 62
     7
 10
4293.868687391579
 20
1587.439286684223
 30
0.0
 40
0.5000000000002274
 50
180.0
 51
270.0000000000008
  0
LINE
  5
102
  8
0
  6
CONTINUOUS
 62
     7
 10
4293.368687391578
 20
1589.939286684223
 30
0.0
 11
4293.368687391578
 21
1587.439286684223
 31
0.0
  0
LINE
  5
103
  8
0
  6
CONTINUOUS
 62
     7
 10
4310.368687391578
 20
1587.439286684223
 30
0.0
 11
4310.368687391578
 21
1589.939286684223
 31
0.0
  0
LINE
  5
104
  8
0
  6
CONTINUOUS
 62
     7
 10
4307.778612977243
 20
1594.939286684223
 30
0.0
 11
4306.868687391578
 21
1597.439286684223
 31
0.0
  0
LINE
  5
105
  8
0
  6
CONTINUOUS
 62
     7
 10
4296.868687391579
 20
1597.439286684223
 30
0.0
 11
4295.958761805912
 21
1594.939286684223
 31
0.0
  0
LINE
  5
106
  8
0
  6
CONTINUOUS
 62
     7
 10
4111.618687391578
 20
1594.739286684223
 30
0.0
 11
4111.618687391578
 21
1590.139286684223
 31
0.0
  0
LINE
  5
107
  8
0
  6
CONTINUOUS
 62
     7
 10
4131.618687391578
 20
1590.139286684223
 30
0.0
 11
4131.618687391578
 21
1594.739286684223
 31
0.0
  0
ARC
  5
108
  8
0
  6
CONTINUOUS
 62
     7
 10
4131.418687391578
 20
1594.739286684223
 30
0.0
 40
0.2000000000000455
 50
0.0
 51
90.0
  0
ARC
  5
109
  8
0
  6
CONTINUOUS
 62
     7
 10
4111.818687391577
 20
1594.739286684223
 30
0.0
 40
0.2000000000000455
 50
90.0
 51
180.0
  0
ARC
  5
10A
  8
0
  6
CONTINUOUS
 62
     7
 10
4131.418687391578
 20
1590.139286684223
 30
0.0
 40
0.2000000000000455
 50
270.0000000000008
 51
0.0
  0
ARC
  5
10B
  8
0
  6
CONTINUOUS
 62
     7
 10
4111.818687391577
 20
1590.139286684223
 30
0.0
 40
0.2000000000000455
 50
180.0
 51
270.0000000000008
  0
LINE
  5
10C
  8
0
  6
CONTINUOUS
 62
     7
 10
4113.118687391578
 20
1589.939286684223
 30
0.0
 11
4113.118687391578
 21
1587.439286684223
 31
0.0
  0
LINE
  5
10D
  8
0
  6
CONTINUOUS
 62
     7
 10
4130.118687391578
 20
1587.439286684223
 30
0.0
 11
4130.118687391578
 21
1589.939286684223
 31
0.0
  0
ARC
  5
10E
  8
0
  6
CONTINUOUS
 62
     7
 10
4129.618687391579
 20
1587.439286684223
 30
0.0
 40
0.5000000000002274
 50
269.9999999998966
 51
0.0
  0
ARC
  5
10F
  8
0
  6
CONTINUOUS
 62
     7
 10
4113.618687391579
 20
1587.439286684223
 30
0.0
 40
0.5000000000002274
 50
180.0
 51
270.0000000000008
  0
LINE
  5
110
  8
0
  6
CONTINUOUS
 62
     7
 10
4127.528612977243
 20
1594.939286684223
 30
0.0
 11
4126.618687391578
 21
1597.439286684223
 31
0.0
  0
LINE
  5
111
  8
0
  6
CONTINUOUS
 62
     7
 10
4116.618687391579
 20
1597.439286684223
 30
0.0
 11
4115.708761805912
 21
1594.939286684223
 31
0.0
  0
LINE
  5
112
  8
0
  6
CONTINUOUS
 62
     7
 10
4112.068687391578
 20
1597.439286684223
 30
0.0
 11
4131.168687391578
 21
1597.439286684223
 31
0.0
  0
LINE
  5
113
  8
0
  6
CONTINUOUS
 62
     7
 10
4305.900226564157
 20
1597.439286684223
 30
0.0
 11
4311.418687391578
 21
1597.439286684223
 31
0.0
  0
LINE
  5
114
  8
0
  6
CONTINUOUS
 62
     7
 10
4292.318687391578
 20
1597.439286684223
 30
0.0
 11
4305.900226564157
 21
1597.439286684223
 31
0.0
  0
LINE
  5
115
  8
0
  6
CONTINUOUS
 62
     7
 10
4311.668687391579
 20
1589.939286684223
 30
0.0
 11
4292.068687391577
 21
1589.939286684223
 31
0.0
  0
LINE
  5
116
  8
0
  6
CONTINUOUS
 62
     7
 10
4292.068687391577
 20
1594.939286684223
 30
0.0
 11
4311.668687391579
 21
1594.939286684223
 31
0.0
  0
LINE
  5
117
  8
0
  6
CONTINUOUS
 62
     7
 10
4309.868687391579
 20
1586.939286684223
 30
0.0
 11
4293.868687391579
 21
1586.939286684223
 31
0.0
  0
LINE
  5
118
  8
0
  6
CONTINUOUS
 62
     7
 10
4131.088620430996
 20
1594.939286684223
 30
0.0
 11
4131.418687391578
 21
1594.939286684223
 31
0.0
  0
LINE
  5
119
  8
0
  6
CONTINUOUS
 62
     7
 10
4111.818687391577
 20
1594.939286684223
 30
0.0
 11
4131.088620430996
 21
1594.939286684223
 31
0.0
  0
LINE
  5
11A
  8
0
  6
CONTINUOUS
 62
     7
 10
4131.088620430996
 20
1589.939286684223
 30
0.0
 11
4111.818687391577
 21
1589.939286684223
 31
0.0
  0
LINE
  5
11B
  8
0
  6
CONTINUOUS
 62
     7
 10
4131.418687391578
 20
1589.939286684223
 30
0.0
 11
4131.088620430996
 21
1589.939286684223
 31
0.0
  0
LINE
  5
11C
  8
0
  6
CONTINUOUS
 62
     7
 10
4129.349244974776
 20
1586.939286684223
 30
0.0
 11
4113.618687391579
 21
1586.939286684223
 31
0.0
  0
LINE
  5
11D
  8
0
  6
CONTINUOUS
 62
     7
 10
4129.618687391579
 20
1586.939286684223
 30
0.0
 11
4129.349244974776
 21
1586.939286684223
 31
0.0
  0
LINE
  5
11E
  8
0
  6
CONTINUOUS
 62
     7
 10
4509.118687391579
 20
1687.939286684223
 30
0.0
 11
4509.118687391579
 21
1586.439286684223
 31
0.0
  0
LINE
  5
11F
  8
0
  6
CONTINUOUS
 62
     7
 10
4509.118687391579
 20
1586.439286684223
 30
0.0
 11
4527.118687391578
 21
1586.439286684223
 31
0.0
  0
LINE
  5
120
  8
0
  6
CONTINUOUS
 62
     7
 10
4527.118687391578
 20
1687.939286684223
 30
0.0
 11
4527.118687391578
 21
1586.439286684223
 31
0.0
  0
LINE
  5
121
  8
0
  6
CONTINUOUS
 62
     7
 10
4076.618687391578
 20
1715.939286684223
 30
0.0
 11
4076.618687391578
 21
1687.939286684223
 31
0.0
  0
LINE
  5
122
  8
0
  6
CONTINUOUS
 62
     7
 10
4527.118687391578
 20
1715.939286684223
 30
0.0
 11
4076.618687391578
 21
1715.939286684223
 31
0.0
  0
LINE
  5
123
  8
0
  6
CONTINUOUS
 62
     7
 10
4527.118687391578
 20
1687.939286684223
 30
0.0
 11
4527.118687391578
 21
1715.939286684223
 31
0.0
  0
LINE
  5
124
  8
0
  6
CONTINUOUS
 62
     7
 10
4076.618687391578
 20
1687.939286684223
 30
0.0
 11
4527.118687391578
 21
1687.939286684223
 31
0.0
  0
LINE
  5
125
  8
0
  6
CONTINUOUS
 62
     7
 10
1374.245356461567
 20
674.7763092285443
 30
0.0
 11
3173.245356461567
 21
674.7763092285443
 31
0.0
  0
LINE
  5
126
  8
0
  6
CONTINUOUS
 62
     7
 10
3173.245356461567
 20
674.7763092285443
 30
0.0
 11
3173.245356461567
 21
656.7763092285443
 31
0.0
  0
LINE
  5
127
  8
0
  6
CONTINUOUS
 62
     7
 10
3173.245356461567
 20
656.7763092285443
 30
0.0
 11
1374.245356461567
 21
656.7763092285443
 31
0.0
  0
LINE
  5
128
  8
0
  6
CONTINUOUS
 62
     7
 10
1374.245356461567
 20
656.7763092285443
 30
0.0
 11
1374.245356461567
 21
674.7763092285443
 31
0.0
  0
CIRCLE
  5
129
  8
0
  6
CONTINUOUS
 62
     7
 10
1973.745356461567
 20
882.0263092285443
 30
0.0
 40
6.75
  0
CIRCLE
  5
12A
  8
0
  6
CONTINUOUS
 62
     7
 10
2873.745356461561
 20
1062.276309228544
 30
0.0
 40
6.75
  0
CIRCLE
  5
12B
  8
0
  6
CONTINUOUS
 62
     7
 10
2073.745356461567
 20
882.0263092285443
 30
0.0
 40
6.75
  0
CIRCLE
  5
12C
  8
0
  6
CONTINUOUS
 62
     7
 10
2173.745356461566
 20
882.0263092285443
 30
0.0
 40
6.75
  0
CIRCLE
  5
12D
  8
0
  6
CONTINUOUS
 62
     7
 10
2373.745356461566
 20
882.0263092285443
 30
0.0
 40
6.75
  0
CIRCLE
  5
12E
  8
0
  6
CONTINUOUS
 62
     7
 10
2473.745356461565
 20
882.0263092285443
 30
0.0
 40
6.75
  0
CIRCLE
  5
12F
  8
0
  6
CONTINUOUS
 62
     7
 10
2973.74535646156
 20
1062.276309228544
 30
0.0
 40
6.75
  0
CIRCLE
  5
130
  8
0
  6
CONTINUOUS
 62
     7
 10
1673.745356461567
 20
1062.276309228544
 30
0.0
 40
6.75
  0
CIRCLE
  5
131
  8
0
  6
CONTINUOUS
 62
     7
 10
1573.745356461568
 20
1062.276309228544
 30
0.0
 40
6.75
  0
LINE
  5
132
  8
0
  6
CONTINUOUS
 62
     7
 10
3174.245356461567
 20
1107.276309228544
 30
0.0
 11
1373.245356461567
 21
1107.276309228544
 31
0.0
  0
LINE
  5
133
  8
0
  6
CONTINUOUS
 62
     7
 10
3174.245356461567
 20
1107.276309228544
 30
0.0
 11
3174.245356461567
 21
656.7763092285443
 31
0.0
  0
LINE
  5
134
  8
0
  6
CONTINUOUS
 62
     7
 10
3174.245356461567
 20
656.7763092285443
 30
0.0
 11
3173.245356461567
 21
656.7763092285443
 31
0.0
  0
LINE
  5
135
  8
0
  6
CONTINUOUS
 62
     7
 10
1374.245356461567
 20
656.7763092285443
 30
0.0
 11
1373.245356461567
 21
656.7763092285443
 31
0.0
  0
LINE
  5
136
  8
0
  6
CONTINUOUS
 62
     7
 10
1373.245356461567
 20
1107.276309228544
 30
0.0
 11
1373.245356461567
 21
656.7763092285443
 31
0.0
  0
CIRCLE
  5
137
  8
0
  6
CONTINUOUS
 62
     7
 10
2473.745356461565
 20
882.0263092285443
 30
0.0
 40
4.5
  0
CIRCLE
  5
138
  8
0
  6
CONTINUOUS
 62
     7
 10
2073.745356461567
 20
882.0263092285443
 30
0.0
 40
4.5
  0
CIRCLE
  5
139
  8
0
  6
CONTINUOUS
 62
     7
 10
2173.745356461566
 20
882.0263092285443
 30
0.0
 40
4.5
  0
CIRCLE
  5
13A
  8
0
  6
CONTINUOUS
 62
     7
 10
1973.745356461567
 20
882.0263092285443
 30
0.0
 40
4.5
  0
CIRCLE
  5
13B
  8
0
  6
CONTINUOUS
 62
     7
 10
2373.745356461566
 20
882.0263092285443
 30
0.0
 40
4.5
  0
CIRCLE
  5
13C
  8
0
  6
CONTINUOUS
 62
     7
 10
2873.745356461561
 20
1062.276309228544
 30
0.0
 40
4.500000000000227
  0
CIRCLE
  5
13D
  8
0
  6
CONTINUOUS
 62
     7
 10
1673.745356461567
 20
1062.276309228544
 30
0.0
 40
4.500000000000227
  0
CIRCLE
  5
13E
  8
0
  6
CONTINUOUS
 62
     7
 10
2973.74535646156
 20
1062.276309228544
 30
0.0
 40
4.500000000000227
  0
CIRCLE
  5
13F
  8
0
  6
CONTINUOUS
 62
     7
 10
1573.745356461568
 20
1062.276309228544
 30
0.0
 40
4.500000000000227
  0
CIRCLE
  5
140
  8
0
  6
CONTINUOUS
 62
     7
 10
3159.245356461567
 20
1062.276309228544
 30
0.0
 40
8.499999999999952
  0
CIRCLE
  5
141
  8
0
  6
CONTINUOUS
 62
     7
 10
3159.245356461567
 20
1062.276309228544
 30
0.0
 40
9.999999999999744
  0
CIRCLE
  5
142
  8
0
  6
CONTINUOUS
 62
     7
 10
1388.245356461567
 20
1062.276309228544
 30
0.0
 40
8.49999999999998
  0
CIRCLE
  5
143
  8
0
  6
CONTINUOUS
 62
     7
 10
1388.245356461567
 20
1062.276309228544
 30
0.0
 40
9.99999999999982
  0
CIRCLE
  5
144
  8
0
  6
CONTINUOUS
 62
     7
 10
2573.745356461565
 20
882.0263092285443
 30
0.0
 40
8.500000000000233
  0
CIRCLE
  5
145
  8
0
  6
CONTINUOUS
 62
     7
 10
2573.745356461565
 20
882.0263092285443
 30
0.0
 40
9.999999999999819
  0
ENDSEC
  0
EOF
