  0
SECTION
  2
HEADER
  9
$ACADVER
  1
AC1006
  9
$DWGCODEPAGE
  3
dos932
  9
$INSBASE
 10
0.0
 20
0.0
 30
0.0
  9
$EXTMIN
 10
0.0
 20
0.0
  9
$EXTMAX
 10
5000.0
 20
3500.0
  9
$LIMMIN
 10
0.0
 20
0.0
  9
$LIMMAX
 10
5000.0
 20
3500.0
  9
$ORTHOMODE
 70
     0
  9
$REGENMODE
 70
     1
  9
$FILLMODE
 70
     1
  9
$QTEXTMODE
 70
     0
  9
$MIRRTEXT
 70
     1
  9
$DRAGMODE
 70
     2
  9
$LTSCALE
 40
1.0
  9
$OSMODE
 70
    37
  9
$ATTMODE
 70
     1
  9
$TEXTSIZE
 40
3.5
  9
$TRACEWID
 40
1.0
  9
$TEXTSTYLE
  7
STANDARD
  9
$CLAYER
  8
0
  9
$CELTYPE
  6
BYLAYER
  9
$CECOLOR
 62
   256
  9
$DIMSCALE
 40
1.0
  9
$DIMASZ
 40
3.302
  9
$DIMEXO
 40
1.0
  9
$DIMDLI
 40
3.75
  9
$DIMRND
 40
0.0
  9
$DIMDLE
 40
0.0
  9
$DIMEXE
 40
1.0
  9
$DIMTP
 40
0.0
  9
$DIMTM
 40
0.0
  9
$DIMTXT
 40
3.5
  9
$DIMCEN
 40
2.5
  9
$DIMTSZ
 40
0.0
  9
$DIMTOL
 70
     0
  9
$DIMLIM
 70
     0
  9
$DIMTIH
 70
     1
  9
$DIMTOH
 70
     1
  9
$DIMSE1
 70
     0
  9
$DIMSE2
 70
     0
  9
$DIMTAD
 70
     1
  9
$DIMZIN
 70
     0
  9
$DIMBLK
  1

  9
$DIMASO
 70
     1
  9
$DIMSHO
 70
     1
  9
$DIMPOST
  1

  9
$DIMAPOST
  1

  9
$DIMALT
 70
     0
  9
$DIMALTD
 70
     3
  9
$DIMALTF
 40
0.0393700787401575
  9
$DIMLFAC
 40
1.0
  9
$DIMTOFL
 70
     1
  9
$DIMTVP
 40
0.0
  9
$DIMTIX
 70
     0
  9
$DIMSOXD
 70
     0
  9
$DIMSAH
 70
     0
  9
$DIMBLK1
  1

  9
$DIMBLK2
  1

  9
$LUNITS
 70
     2
  9
$LUPREC
 70
     2
  9
$SKETCHINC
 40
1.0
  9
$FILLETRAD
 40
10.0
  9
$AUNITS
 70
     0
  9
$AUPREC
 70
     2
  9
$MENU
  1
.
  9
$ELEVATION
 40
0.0
  9
$THICKNESS
 40
0.0
  9
$LIMCHECK
 70
     0
  9
$CHAMFERA
 40
0.0
  9
$CHAMFERB
 40
0.0
  9
$SKPOLY
 70
     0
  9
$TDCREATE
 40
2459795.285652789
  9
$TDUPDATE
 40
2460139.571516713
  9
$TDINDWG
 40
0.0000000116
  9
$TDUSRTIMER
 40
0.0000000116
  9
$USRTIMER
 70
     1
  9
$ANGBASE
 50
0.0
  9
$ANGDIR
 70
     0
  9
$PDMODE
 70
     0
  9
$PDSIZE
 40
-1.0
  9
$PLINEWID
 40
0.0
  9
$COORDS
 70
     1
  9
$SPLFRAME
 70
     0
  9
$SPLINETYPE
 70
     6
  9
$SPLINESEGS
 70
     8
  9
$ATTDIA
 70
     0
  9
$ATTREQ
 70
     1
  9
$HANDLING
 70
     1
  9
$HANDSEED
  5
16C
  9
$SURFTAB1
 70
     6
  9
$SURFTAB2
 70
     6
  9
$SURFTYPE
 70
     6
  9
$SURFU
 70
     6
  9
$SURFV
 70
     6
  9
$UCSNAME
  2

  9
$UCSORG
 10
0.0
 20
0.0
 30
0.0
  9
$UCSXDIR
 10
1.0
 20
0.0
 30
0.0
  9
$UCSYDIR
 10
0.0
 20
1.0
 30
0.0
  9
$USERI1
 70
     0
  9
$USERI2
 70
     0
  9
$USERI3
 70
     0
  9
$USERI4
 70
     0
  9
$USERI5
 70
     0
  9
$USERR1
 40
0.0
  9
$USERR2
 40
0.0
  9
$USERR3
 40
0.0
  9
$USERR4
 40
0.0
  9
$USERR5
 40
0.0
  9
$WORLDVIEW
 70
     1
  0
ENDSEC
  0
SECTION
  2
TABLES
  0
TABLE
  2
VPORT
 70
     1
  0
VPORT
  2
*ACTIVE
 70
     0
 10
0.0
 20
0.0
 11
1.0
 21
1.0
 12
2500.0
 22
1750.0
 13
0.0
 23
0.0
 14
10.0
 24
10.0
 15
10.0
 25
10.0
 16
0.0
 26
0.0
 36
1.0
 17
0.0
 27
0.0
 37
0.0
 40
3500.0
 41
1.428571428571429
 42
50.0
 43
0.0
 44
0.0
 50
0.0
 51
0.0
 71
     0
 72
  2000
 73
     1
 74
     3
 75
     0
 76
     0
 77
     0
 78
     0
  0
ENDTAB
  0
TABLE
  2
LTYPE
 70
     6
  0
LTYPE
  2
CONTINUOUS
 70
     0
  3
Solid line
 72
    65
 73
     0
 40
0.0
  0
LTYPE
  2
HIDDEN
 70
     0
  3
Hidden __ __ __ __ __ __ __ __ __ __ __ __ __ __
 72
    65
 73
     2
 40
1.905
 49
1.27
 49
-0.635
  0
LTYPE
  2
PHANTOM
 70
     0
  3
Phantom ______  __  __  ______  __  __  ______
 72
    65
 73
     6
 40
12.7
 49
6.35
 49
-1.27
 49
1.27
 49
-1.27
 49
1.27
 49
-1.27
  0
LTYPE
  2
CENTER
 70
     0
  3
Center ____ _ ____ _ ____ _ ____ _ ____ _ ____
 72
    65
 73
     4
 40
10.16
 49
6.35
 49
-1.27
 49
1.27
 49
-1.27
  0
LTYPE
  2
CENTERX2
 70
     0
  3
Center (2x) ________  __  ________  __  _____
 72
    65
 73
     4
 40
20.32
 49
12.7
 49
-2.54
 49
2.54
 49
-2.54
  0
LTYPE
  2
DOT2
 70
     0
  3
Dot (.5x) ........................................
 72
    65
 73
     2
 40
0.635
 49
0.0
 49
-0.635
  0
ENDTAB
  0
TABLE
  2
LAYER
 70
     3
  0
LAYER
  2
0
 70
     0
 62
     7
  6
CONTINUOUS
  0
LAYER
  2
SLD-0
 70
     0
 62
   179
  6
CONTINUOUS
  0
LAYER
  2
寸法
 70
     0
 62
   179
  6
CONTINUOUS
  0
ENDTAB
  0
TABLE
  2
STYLE
 70
     2
  0
STYLE
  2
STANDARD
 70
     0
 40
0.0
 41
1.0
 50
0.0
 71
     0
 42
3.5
  3
txt
  4
bigfont
  0
STYLE
  2
SLDTEXTSTYLE0
 70
     0
 40
0.0
 41
0.75
 50
0.0
 71
     0
 42
3.5
  3
TXT
  4
bigfont
  0
ENDTAB
  0
TABLE
  2
VIEW
 70
     0
  0
ENDTAB
  0
TABLE
  2
UCS
 70
     0
  0
ENDTAB
  0
ENDSEC
  0
SECTION
  2
BLOCKS
  0
ENDSEC
  0
SECTION
  2
ENTITIES
  0
LINE
  5
75
  8
0
  6
CONTINUOUS
 62
     7
 10
4839.484712179223
 20
258.5233124172521
 30
0.0
 11
3312.374599790194
 21
258.5233124172519
 31
0.0
  0
TEXT
  5
77
  8
0
  6
CONTINUOUS
 62
     7
 10
1337.215680779194
 20
3114.41964929089
 30
0.0
 40
52.91666666666666
  1
＜上面＞
 41
0.75
  7
SLDTEXTSTYLE0
  0
TEXT
  5
78
  8
0
  6
CONTINUOUS
 62
     7
 10
332.3654343110794
 20
2032.110857055502
 30
0.0
 40
52.91666666666666
  1
＜左側面＞
 41
0.75
  7
SLDTEXTSTYLE0
  0
TEXT
  5
79
  8
0
  6
CONTINUOUS
 62
     7
 10
3990.052715420779
 20
2032.110857055501
 30
0.0
 40
52.91666666666666
  1
＜右側面＞
 41
0.75
  7
SLDTEXTSTYLE0
  0
TEXT
  5
7A
  8
0
  6
CONTINUOUS
 62
     7
 10
1337.215680779194
 20
2032.110857055502
 30
0.0
 40
52.91666666666666
  1
＜正面＞
 41
0.75
  7
SLDTEXTSTYLE0
  0
TEXT
  5
7B
  8
0
  6
CONTINUOUS
 62
     7
 10
3377.814243189123
 20
326.489054196763
 30
0.0
 40
52.91666666666666
  1
品名：
 41
0.75
  7
SLDTEXTSTYLE0
  0
TEXT
  5
7C
  8
0
  6
CONTINUOUS
 62
     7
 10
4446.663437481703
 20
332.3177187478654
 30
0.0
 40
52.91666666666666
  1
Pamouna
 41
0.75
  7
SLDTEXTSTYLE0
  0
TEXT
  5
7D
  8
寸法
  6
CONTINUOUS
 62
     7
 10
4688.007304885427
 20
165.7088516276312
 30
0.0
 40
52.91666666666666
  1
1/1
 41
0.75
  7
SLDTEXTSTYLE0
  0
TEXT
  5
7E
  8
寸法
  6
CONTINUOUS
 62
     7
 10
4198.79693921183
 20
165.7088544215994
 30
0.0
 40
52.91666666666666
  1
2022/08/03
 41
0.75
  7
SLDTEXTSTYLE0
  0
TEXT
  5
7F
  8
寸法
  6
CONTINUOUS
 62
     7
 10
1324.579282869304
 20
1254.872805937933
 30
0.0
 40
52.91666666666666
  1
＜下面＞
 41
0.75
  7
SLDTEXTSTYLE0
  0
TEXT
  5
80
  8
寸法
  6
CONTINUOUS
 62
     7
 10
3611.283129349215
 20
326.4179237671586
 30
0.0
 40
66.14583333333331
  1
MA-TT210
 41
0.75
  7
SLDTEXTSTYLE0
  0
LINE
  5
81
  8
0
  6
CONTINUOUS
 62
     7
 10
2352.237963287886
 20
1607.79175107546
 30
0.0
 11
2352.237963287886
 21
1698.291751075445
 31
0.0
  0
LINE
  5
82
  8
0
  6
CONTINUOUS
 62
     7
 10
2333.137963287887
 20
1698.291751075445
 30
0.0
 11
2333.137963287887
 21
1607.79175107546
 31
0.0
  0
LINE
  5
83
  8
0
  6
CONTINUOUS
 62
     7
 10
3437.737963287889
 20
1607.79175107546
 30
0.0
 11
3437.737963287889
 21
1698.291751075445
 31
0.0
  0
LINE
  5
84
  8
0
  6
CONTINUOUS
 62
     7
 10
3418.637963287889
 20
1698.291751075445
 30
0.0
 11
3418.637963287889
 21
1607.79175107546
 31
0.0
  0
LINE
  5
85
  8
0
  6
CONTINUOUS
 62
     7
 10
1366.737963287889
 20
1607.79175107546
 30
0.0
 11
1366.737963287889
 21
1698.291751075445
 31
0.0
  0
LINE
  5
86
  8
0
  6
CONTINUOUS
 62
     7
 10
1347.637963287889
 20
1698.291751075445
 30
0.0
 11
1347.637963287889
 21
1607.79175107546
 31
0.0
  0
ARC
  5
87
  8
0
  6
CONTINUOUS
 62
     7
 10
3437.987963287888
 20
1605.091751075449
 30
0.0
 40
0.2000000000002728
 50
0.0
 51
90.00000000026056
  0
ARC
  5
88
  8
0
  6
CONTINUOUS
 62
     7
 10
3418.387963287889
 20
1605.091751075449
 30
0.0
 40
0.2000000000002728
 50
89.99999999960917
 51
180.0
  0
LINE
  5
89
  8
0
  6
CONTINUOUS
 62
     7
 10
3418.187963287889
 20
1605.091751075449
 30
0.0
 11
3418.187963287889
 21
1600.491751075449
 31
0.0
  0
LINE
  5
8A
  8
0
  6
CONTINUOUS
 62
     7
 10
3438.187963287889
 20
1600.491751075449
 30
0.0
 11
3438.187963287889
 21
1605.091751075449
 31
0.0
  0
ARC
  5
8B
  8
0
  6
CONTINUOUS
 62
     7
 10
3437.987963287888
 20
1600.491751075449
 30
0.0
 40
0.2000000000002728
 50
269.9999999997402
 51
0.0
  0
ARC
  5
8C
  8
0
  6
CONTINUOUS
 62
     7
 10
3418.387963287889
 20
1600.491751075449
 30
0.0
 40
0.1999999999998181
 50
180.0
 51
270.0000000003917
  0
ARC
  5
8D
  8
0
  6
CONTINUOUS
 62
     7
 10
3436.187963287888
 20
1597.791751075449
 30
0.0
 40
0.5000000000004547
 50
270.0000000000008
 51
0.0
  0
ARC
  5
8E
  8
0
  6
CONTINUOUS
 62
     7
 10
3420.187963287889
 20
1597.791751075449
 30
0.0
 40
0.5000000000002274
 50
180.0
 51
270.000000000105
  0
LINE
  5
8F
  8
0
  6
CONTINUOUS
 62
     7
 10
3419.687963287888
 20
1600.291751075449
 30
0.0
 11
3419.687963287888
 21
1597.791751075449
 31
0.0
  0
LINE
  5
90
  8
0
  6
CONTINUOUS
 62
     7
 10
3436.687963287889
 20
1597.791751075449
 30
0.0
 11
3436.687963287889
 21
1600.291751075449
 31
0.0
  0
LINE
  5
91
  8
0
  6
CONTINUOUS
 62
     7
 10
3434.097888873554
 20
1605.291751075449
 30
0.0
 11
3433.187963287889
 21
1607.791751075449
 31
0.0
  0
LINE
  5
92
  8
0
  6
CONTINUOUS
 62
     7
 10
3423.187963287889
 20
1607.791751075449
 30
0.0
 11
3422.278037702223
 21
1605.291751075449
 31
0.0
  0
ARC
  5
93
  8
0
  6
CONTINUOUS
 62
     7
 10
2352.487963287887
 20
1600.491751075449
 30
0.0
 40
0.1999999999998181
 50
269.9999999997402
 51
0.0
  0
ARC
  5
94
  8
0
  6
CONTINUOUS
 62
     7
 10
2332.887963287887
 20
1600.491751075449
 30
0.0
 40
0.1999999999998181
 50
180.0
 51
270.0000000002614
  0
LINE
  5
95
  8
0
  6
CONTINUOUS
 62
     7
 10
2332.687963287887
 20
1605.091751075449
 30
0.0
 11
2332.687963287887
 21
1600.491751075449
 31
0.0
  0
LINE
  5
96
  8
0
  6
CONTINUOUS
 62
     7
 10
2352.687963287887
 20
1600.491751075449
 30
0.0
 11
2352.687963287887
 21
1605.091751075449
 31
0.0
  0
ARC
  5
97
  8
0
  6
CONTINUOUS
 62
     7
 10
2352.487963287887
 20
1605.091751075449
 30
0.0
 40
0.2000000000002728
 50
0.0
 51
90.00000000026056
  0
ARC
  5
98
  8
0
  6
CONTINUOUS
 62
     7
 10
2332.887963287887
 20
1605.091751075449
 30
0.0
 40
0.2000000000002728
 50
89.99999999973944
 51
180.0
  0
ARC
  5
99
  8
0
  6
CONTINUOUS
 62
     7
 10
2350.687963287887
 20
1597.791751075449
 30
0.0
 40
0.5
 50
269.9999999998966
 51
0.0
  0
ARC
  5
9A
  8
0
  6
CONTINUOUS
 62
     7
 10
2334.687963287887
 20
1597.791751075449
 30
0.0
 40
0.5
 50
180.0
 51
270.0000000000529
  0
LINE
  5
9B
  8
0
  6
CONTINUOUS
 62
     7
 10
2334.187963287887
 20
1600.291751075449
 30
0.0
 11
2334.187963287887
 21
1597.791751075449
 31
0.0
  0
LINE
  5
9C
  8
0
  6
CONTINUOUS
 62
     7
 10
2351.187963287887
 20
1597.791751075449
 30
0.0
 11
2351.187963287887
 21
1600.291751075449
 31
0.0
  0
LINE
  5
9D
  8
0
  6
CONTINUOUS
 62
     7
 10
2348.597888873552
 20
1605.291751075449
 30
0.0
 11
2347.687963287886
 21
1607.791751075449
 31
0.0
  0
LINE
  5
9E
  8
0
  6
CONTINUOUS
 62
     7
 10
2337.687963287887
 20
1607.791751075449
 30
0.0
 11
2336.778037702221
 21
1605.291751075449
 31
0.0
  0
ARC
  5
9F
  8
0
  6
CONTINUOUS
 62
     7
 10
1366.987963287889
 20
1605.091751075449
 30
0.0
 40
0.2000000000002728
 50
0.0
 51
90.00000000026056
  0
ARC
  5
A0
  8
0
  6
CONTINUOUS
 62
     7
 10
1347.387963287889
 20
1605.091751075449
 30
0.0
 40
0.2000000000000455
 50
89.99999999973944
 51
180.0
  0
ARC
  5
A1
  8
0
  6
CONTINUOUS
 62
     7
 10
1366.987963287889
 20
1600.491751075449
 30
0.0
 40
0.2000000000002728
 50
269.9999999997402
 51
0.0
  0
ARC
  5
A2
  8
0
  6
CONTINUOUS
 62
     7
 10
1347.387963287889
 20
1600.491751075449
 30
0.0
 40
0.2000000000000455
 50
180.0
 51
270.0000000002614
  0
LINE
  5
A3
  8
0
  6
CONTINUOUS
 62
     7
 10
1347.187963287889
 20
1605.091751075449
 30
0.0
 11
1347.187963287889
 21
1600.491751075449
 31
0.0
  0
LINE
  5
A4
  8
0
  6
CONTINUOUS
 62
     7
 10
1367.187963287889
 20
1600.491751075449
 30
0.0
 11
1367.187963287889
 21
1605.091751075449
 31
0.0
  0
LINE
  5
A5
  8
0
  6
CONTINUOUS
 62
     7
 10
1348.687963287889
 20
1600.291751075449
 30
0.0
 11
1348.687963287889
 21
1597.791751075449
 31
0.0
  0
LINE
  5
A6
  8
0
  6
CONTINUOUS
 62
     7
 10
1365.687963287889
 20
1597.791751075449
 30
0.0
 11
1365.687963287889
 21
1600.291751075449
 31
0.0
  0
ARC
  5
A7
  8
0
  6
CONTINUOUS
 62
     7
 10
1365.187963287889
 20
1597.791751075449
 30
0.0
 40
0.5000000000002274
 50
269.9999999998966
 51
0.0
  0
ARC
  5
A8
  8
0
  6
CONTINUOUS
 62
     7
 10
1349.187963287889
 20
1597.791751075449
 30
0.0
 40
0.5000000000002274
 50
180.0
 51
270.000000000105
  0
LINE
  5
A9
  8
0
  6
CONTINUOUS
 62
     7
 10
1363.097888873554
 20
1605.291751075449
 30
0.0
 11
1362.187963287889
 21
1607.791751075449
 31
0.0
  0
LINE
  5
AA
  8
0
  6
CONTINUOUS
 62
     7
 10
1352.187963287889
 20
1607.791751075449
 30
0.0
 11
1351.278037702223
 21
1605.291751075449
 31
0.0
  0
LINE
  5
AB
  8
0
  6
CONTINUOUS
 62
     7
 10
3443.187963287889
 20
1726.291751075449
 30
0.0
 11
3443.187963287889
 21
1698.291751075449
 31
0.0
  0
LINE
  5
AC
  8
0
  6
CONTINUOUS
 62
     7
 10
3443.187963287889
 20
1698.291751075449
 30
0.0
 11
1342.187963287889
 21
1698.291751075449
 31
0.0
  0
LINE
  5
AD
  8
0
  6
CONTINUOUS
 62
     7
 10
3443.187963287889
 20
1726.291751075449
 30
0.0
 11
1342.187963287889
 21
1726.291751075449
 31
0.0
  0
LINE
  5
AE
  8
0
  6
CONTINUOUS
 62
     7
 10
1342.187963287889
 20
1726.291751075449
 30
0.0
 11
1342.187963287889
 21
1698.291751075449
 31
0.0
  0
LINE
  5
AF
  8
0
  6
CONTINUOUS
 62
     7
 10
1343.187963287889
 20
1698.291751075449
 30
0.0
 11
1343.187963287889
 21
1596.791751075449
 31
0.0
  0
LINE
  5
B0
  8
0
  6
CONTINUOUS
 62
     7
 10
2392.687963287889
 20
1698.291751075449
 30
0.0
 11
2392.687963287889
 21
1596.791751075449
 31
0.0
  0
LINE
  5
B1
  8
0
  6
CONTINUOUS
 62
     7
 10
1343.187963287889
 20
1596.791751075449
 30
0.0
 11
2392.687963287889
 21
1596.791751075449
 31
0.0
  0
LINE
  5
B2
  8
0
  6
CONTINUOUS
 62
     7
 10
2392.687963287889
 20
1596.791751075449
 30
0.0
 11
3442.187963287889
 21
1596.791751075449
 31
0.0
  0
LINE
  5
B3
  8
0
  6
CONTINUOUS
 62
     7
 10
3442.187963287889
 20
1698.291751075449
 30
0.0
 11
3442.187963287889
 21
1596.791751075449
 31
0.0
  0
LINE
  5
B4
  8
0
  6
CONTINUOUS
 62
     7
 10
2333.137963287887
 20
1607.791751075449
 30
0.0
 11
2352.237963287886
 21
1607.791751075449
 31
0.0
  0
LINE
  5
B5
  8
0
  6
CONTINUOUS
 62
     7
 10
3425.730322389405
 20
1607.791751075449
 30
0.0
 11
3437.737963287889
 21
1607.791751075449
 31
0.0
  0
LINE
  5
B6
  8
0
  6
CONTINUOUS
 62
     7
 10
3418.637963287889
 20
1607.791751075449
 30
0.0
 11
3425.730322389405
 21
1607.791751075449
 31
0.0
  0
LINE
  5
B7
  8
0
  6
CONTINUOUS
 62
     7
 10
1354.739819614754
 20
1607.791751075449
 30
0.0
 11
1366.737963287889
 21
1607.791751075449
 31
0.0
  0
LINE
  5
B8
  8
0
  6
CONTINUOUS
 62
     7
 10
1347.637963287889
 20
1607.791751075449
 30
0.0
 11
1354.739819614754
 21
1607.791751075449
 31
0.0
  0
LINE
  5
B9
  8
0
  6
CONTINUOUS
 62
     7
 10
3418.387963287889
 20
1605.291751075449
 30
0.0
 11
3437.987963287888
 21
1605.291751075449
 31
0.0
  0
LINE
  5
BA
  8
0
  6
CONTINUOUS
 62
     7
 10
3437.987963287888
 20
1600.291751075449
 30
0.0
 11
3418.387963287889
 21
1600.291751075449
 31
0.0
  0
LINE
  5
BB
  8
0
  6
CONTINUOUS
 62
     7
 10
3436.187963287889
 20
1597.291751075449
 30
0.0
 11
3420.187963287889
 21
1597.291751075449
 31
0.0
  0
LINE
  5
BC
  8
0
  6
CONTINUOUS
 62
     7
 10
2333.804011736921
 20
1600.291751075449
 30
0.0
 11
2332.887963287887
 21
1600.291751075449
 31
0.0
  0
LINE
  5
BD
  8
0
  6
CONTINUOUS
 62
     7
 10
2352.487963287887
 20
1600.291751075449
 30
0.0
 11
2333.804011736921
 21
1600.291751075449
 31
0.0
  0
LINE
  5
BE
  8
0
  6
CONTINUOUS
 62
     7
 10
2333.804011736921
 20
1605.291751075449
 30
0.0
 11
2352.487963287887
 21
1605.291751075449
 31
0.0
  0
LINE
  5
BF
  8
0
  6
CONTINUOUS
 62
     7
 10
2332.887963287887
 20
1605.291751075449
 30
0.0
 11
2333.804011736921
 21
1605.291751075449
 31
0.0
  0
LINE
  5
C0
  8
0
  6
CONTINUOUS
 62
     7
 10
2335.43575794016
 20
1597.291751075449
 30
0.0
 11
2334.687963287886
 21
1597.291751075449
 31
0.0
  0
LINE
  5
C1
  8
0
  6
CONTINUOUS
 62
     7
 10
2350.687963287887
 20
1597.291751075449
 30
0.0
 11
2335.43575794016
 21
1597.291751075449
 31
0.0
  0
LINE
  5
C2
  8
0
  6
CONTINUOUS
 62
     7
 10
1347.387963287889
 20
1605.291751075449
 30
0.0
 11
1366.987963287889
 21
1605.291751075449
 31
0.0
  0
LINE
  5
C3
  8
0
  6
CONTINUOUS
 62
     7
 10
1366.987963287889
 20
1600.291751075449
 30
0.0
 11
1347.387963287889
 21
1600.291751075449
 31
0.0
  0
LINE
  5
C4
  8
0
  6
CONTINUOUS
 62
     7
 10
1365.187963287889
 20
1597.291751075449
 30
0.0
 11
1349.187963287889
 21
1597.291751075449
 31
0.0
  0
LINE
  5
C5
  8
0
  6
CONTINUOUS
 62
     7
 10
3443.187963287889
 20
2890.456058273807
 30
0.0
 11
3443.187963287889
 21
2559.956058273807
 31
0.0
  0
LINE
  5
C6
  8
0
  6
CONTINUOUS
 62
     7
 10
3443.187963287889
 20
2559.956058273807
 30
0.0
 11
1342.187963287889
 21
2559.956058273807
 31
0.0
  0
LINE
  5
C7
  8
0
  6
CONTINUOUS
 62
     7
 10
1342.187963287889
 20
2890.456058273807
 30
0.0
 11
1342.187963287889
 21
2559.956058273807
 31
0.0
  0
LINE
  5
C8
  8
0
  6
CONTINUOUS
 62
     7
 10
3443.187963287889
 20
2890.456058273807
 30
0.0
 11
1342.187963287889
 21
2890.456058273807
 31
0.0
  0
LINE
  5
C9
  8
0
  6
CONTINUOUS
 62
     7
 10
505.4042824722526
 20
1607.79175107546
 30
0.0
 11
505.4042824722526
 21
1698.291751075445
 31
0.0
  0
LINE
  5
CA
  8
0
  6
CONTINUOUS
 62
     7
 10
486.3042824722527
 20
1698.291751075445
 30
0.0
 11
486.3042824722527
 21
1607.79175107546
 31
0.0
  0
LINE
  5
CB
  8
0
  6
CONTINUOUS
 62
     7
 10
625.6542824722526
 20
1607.79175107546
 30
0.0
 11
625.6542824722526
 21
1698.291751075445
 31
0.0
  0
LINE
  5
CC
  8
0
  6
CONTINUOUS
 62
     7
 10
606.5542824722527
 20
1698.291751075445
 30
0.0
 11
606.5542824722527
 21
1607.79175107546
 31
0.0
  0
ARC
  5
CD
  8
0
  6
CONTINUOUS
 62
     7
 10
505.6542824722524
 20
1605.091751075449
 30
0.0
 40
0.2000000000002728
 50
0.0
 51
90.00000000029313
  0
ARC
  5
CE
  8
0
  6
CONTINUOUS
 62
     7
 10
486.0542824722529
 20
1605.091751075449
 30
0.0
 40
0.2000000000002728
 50
89.99999999970689
 51
180.0
  0
ARC
  5
CF
  8
0
  6
CONTINUOUS
 62
     7
 10
505.6542824722524
 20
1600.491751075449
 30
0.0
 40
0.1999999999999886
 50
269.9999999997077
 51
0.0
  0
ARC
  5
D0
  8
0
  6
CONTINUOUS
 62
     7
 10
486.0542824722529
 20
1600.491751075449
 30
0.0
 40
0.1999999999999886
 50
180.0
 51
270.0000000002939
  0
LINE
  5
D1
  8
0
  6
CONTINUOUS
 62
     7
 10
485.8542824722526
 20
1605.091751075449
 30
0.0
 11
485.8542824722526
 21
1600.491751075449
 31
0.0
  0
LINE
  5
D2
  8
0
  6
CONTINUOUS
 62
     7
 10
505.8542824722527
 20
1600.491751075449
 30
0.0
 11
505.8542824722527
 21
1605.091751075449
 31
0.0
  0
LINE
  5
D3
  8
0
  6
CONTINUOUS
 62
     7
 10
487.3542824722526
 20
1600.291751075449
 30
0.0
 11
487.3542824722526
 21
1597.791751075449
 31
0.0
  0
LINE
  5
D4
  8
0
  6
CONTINUOUS
 62
     7
 10
504.3542824722527
 20
1597.791751075449
 30
0.0
 11
504.3542824722527
 21
1600.291751075449
 31
0.0
  0
ARC
  5
D5
  8
0
  6
CONTINUOUS
 62
     7
 10
503.8542824722525
 20
1597.791751075449
 30
0.0
 40
0.5
 50
269.9999999998966
 51
0.0
  0
ARC
  5
D6
  8
0
  6
CONTINUOUS
 62
     7
 10
487.8542824722529
 20
1597.791751075449
 30
0.0
 40
0.5
 50
180.0
 51
270.0000000000985
  0
LINE
  5
D7
  8
0
  6
CONTINUOUS
 62
     7
 10
501.7642080579182
 20
1605.291751075449
 30
0.0
 11
500.8542824722526
 21
1607.791751075449
 31
0.0
  0
LINE
  5
D8
  8
0
  6
CONTINUOUS
 62
     7
 10
490.8542824722526
 20
1607.791751075449
 30
0.0
 11
489.9443568865871
 21
1605.291751075449
 31
0.0
  0
LINE
  5
D9
  8
0
  6
CONTINUOUS
 62
     7
 10
606.1042824722526
 20
1605.091751075449
 30
0.0
 11
606.1042824722526
 21
1600.491751075449
 31
0.0
  0
LINE
  5
DA
  8
0
  6
CONTINUOUS
 62
     7
 10
626.1042824722527
 20
1600.491751075449
 30
0.0
 11
626.1042824722527
 21
1605.091751075449
 31
0.0
  0
ARC
  5
DB
  8
0
  6
CONTINUOUS
 62
     7
 10
625.9042824722524
 20
1605.091751075449
 30
0.0
 40
0.2000000000001592
 50
0.0
 51
90.00000000022797
  0
ARC
  5
DC
  8
0
  6
CONTINUOUS
 62
     7
 10
606.304282472253
 20
1605.091751075449
 30
0.0
 40
0.2000000000001592
 50
89.99999999977203
 51
180.0
  0
ARC
  5
DD
  8
0
  6
CONTINUOUS
 62
     7
 10
625.9042824722524
 20
1600.491751075449
 30
0.0
 40
0.2000000000001592
 50
269.9999999997728
 51
0.0
  0
ARC
  5
DE
  8
0
  6
CONTINUOUS
 62
     7
 10
606.304282472253
 20
1600.491751075449
 30
0.0
 40
0.2000000000001592
 50
180.0
 51
270.0000000002288
  0
LINE
  5
DF
  8
0
  6
CONTINUOUS
 62
     7
 10
607.6042824722527
 20
1600.291751075449
 30
0.0
 11
607.6042824722527
 21
1597.791751075449
 31
0.0
  0
LINE
  5
E0
  8
0
  6
CONTINUOUS
 62
     7
 10
624.6042824722526
 20
1597.791751075449
 30
0.0
 11
624.6042824722526
 21
1600.291751075449
 31
0.0
  0
ARC
  5
E1
  8
0
  6
CONTINUOUS
 62
     7
 10
624.1042824722525
 20
1597.791751075449
 30
0.0
 40
0.5000000000002274
 50
269.9999999999226
 51
0.0
  0
ARC
  5
E2
  8
0
  6
CONTINUOUS
 62
     7
 10
608.1042824722529
 20
1597.791751075449
 30
0.0
 40
0.5000000000002274
 50
180.0
 51
270.000000000079
  0
LINE
  5
E3
  8
0
  6
CONTINUOUS
 62
     7
 10
622.0142080579183
 20
1605.291751075449
 30
0.0
 11
621.1042824722526
 21
1607.791751075449
 31
0.0
  0
LINE
  5
E4
  8
0
  6
CONTINUOUS
 62
     7
 10
611.1042824722526
 20
1607.791751075449
 30
0.0
 11
610.1943568865871
 21
1605.291751075449
 31
0.0
  0
LINE
  5
E5
  8
0
  6
CONTINUOUS
 62
     7
 10
661.1042824722526
 20
1726.291751075449
 30
0.0
 11
661.1042824722526
 21
1698.291751075449
 31
0.0
  0
LINE
  5
E6
  8
0
  6
CONTINUOUS
 62
     7
 10
661.1042824722526
 20
1698.291751075449
 30
0.0
 11
330.6042824722526
 21
1698.291751075449
 31
0.0
  0
LINE
  5
E7
  8
0
  6
CONTINUOUS
 62
     7
 10
330.6042824722526
 20
1726.291751075449
 30
0.0
 11
661.1042824722526
 21
1726.291751075449
 31
0.0
  0
LINE
  5
E8
  8
0
  6
CONTINUOUS
 62
     7
 10
330.6042824722526
 20
1698.291751075449
 30
0.0
 11
330.6042824722526
 21
1726.291751075449
 31
0.0
  0
LINE
  5
E9
  8
0
  6
CONTINUOUS
 62
     7
 10
348.6042824722526
 20
1698.291751075449
 30
0.0
 11
348.6042824722526
 21
1596.791751075449
 31
0.0
  0
LINE
  5
EA
  8
0
  6
CONTINUOUS
 62
     7
 10
330.6042824722526
 20
1698.291751075449
 30
0.0
 11
330.6042824722526
 21
1596.791751075449
 31
0.0
  0
LINE
  5
EB
  8
0
  6
CONTINUOUS
 62
     7
 10
330.6042824722526
 20
1596.791751075449
 30
0.0
 11
348.6042824722526
 21
1596.791751075449
 31
0.0
  0
LINE
  5
EC
  8
0
  6
CONTINUOUS
 62
     7
 10
486.3042824722527
 20
1607.791751075449
 30
0.0
 11
505.4042824722526
 21
1607.791751075449
 31
0.0
  0
LINE
  5
ED
  8
0
  6
CONTINUOUS
 62
     7
 10
625.3351596004395
 20
1607.791751075449
 30
0.0
 11
625.6542824722526
 21
1607.791751075449
 31
0.0
  0
LINE
  5
EE
  8
0
  6
CONTINUOUS
 62
     7
 10
606.5542824722527
 20
1607.791751075449
 30
0.0
 11
625.3351596004395
 21
1607.791751075449
 31
0.0
  0
LINE
  5
EF
  8
0
  6
CONTINUOUS
 62
     7
 10
499.9913593195074
 20
1605.291751075449
 30
0.0
 11
505.6542824722526
 21
1605.291751075449
 31
0.0
  0
LINE
  5
F0
  8
0
  6
CONTINUOUS
 62
     7
 10
486.0542824722527
 20
1605.291751075449
 30
0.0
 11
499.9913593195074
 21
1605.291751075449
 31
0.0
  0
LINE
  5
F1
  8
0
  6
CONTINUOUS
 62
     7
 10
499.9913593195074
 20
1600.291751075449
 30
0.0
 11
486.0542824722527
 21
1600.291751075449
 31
0.0
  0
LINE
  5
F2
  8
0
  6
CONTINUOUS
 62
     7
 10
505.6542824722526
 20
1600.291751075449
 30
0.0
 11
499.9913593195074
 21
1600.291751075449
 31
0.0
  0
LINE
  5
F3
  8
0
  6
CONTINUOUS
 62
     7
 10
499.2314880618484
 20
1597.291751075449
 30
0.0
 11
487.8542824722526
 21
1597.291751075449
 31
0.0
  0
LINE
  5
F4
  8
0
  6
CONTINUOUS
 62
     7
 10
503.8542824722527
 20
1597.291751075449
 30
0.0
 11
499.2314880618484
 21
1597.291751075449
 31
0.0
  0
LINE
  5
F5
  8
0
  6
CONTINUOUS
 62
     7
 10
606.3042824722527
 20
1605.291751075449
 30
0.0
 11
625.9042824722527
 21
1605.291751075449
 31
0.0
  0
LINE
  5
F6
  8
0
  6
CONTINUOUS
 62
     7
 10
625.9042824722527
 20
1600.291751075449
 30
0.0
 11
606.3042824722527
 21
1600.291751075449
 31
0.0
  0
LINE
  5
F7
  8
0
  6
CONTINUOUS
 62
     7
 10
624.1042824722526
 20
1597.291751075449
 30
0.0
 11
608.1042824722526
 21
1597.291751075449
 31
0.0
  0
CIRCLE
  5
F8
  8
0
  6
CONTINUOUS
 62
     7
 10
3142.687963287878
 20
942.2763092285442
 30
0.0
 40
6.749999999999886
  0
CIRCLE
  5
F9
  8
0
  6
CONTINUOUS
 62
     7
 10
1642.687963287889
 20
942.2763092285442
 30
0.0
 40
6.749999999999886
  0
CIRCLE
  5
FA
  8
0
  6
CONTINUOUS
 62
     7
 10
2542.687963287886
 20
822.0263092285443
 30
0.0
 40
6.750000000000114
  0
CIRCLE
  5
FB
  8
0
  6
CONTINUOUS
 62
     7
 10
2442.687963287886
 20
822.0263092285443
 30
0.0
 40
6.750000000000114
  0
CIRCLE
  5
FC
  8
0
  6
CONTINUOUS
 62
     7
 10
2242.687963287887
 20
822.0263092285443
 30
0.0
 40
6.750000000000114
  0
LINE
  5
FD
  8
0
  6
CONTINUOUS
 62
     7
 10
3443.187963287889
 20
987.2763092285443
 30
0.0
 11
1342.187963287889
 21
987.2763092285443
 31
0.0
  0
LINE
  5
FE
  8
0
  6
CONTINUOUS
 62
     7
 10
3443.187963287889
 20
987.2763092285443
 30
0.0
 11
3443.187963287889
 21
656.7763092285443
 31
0.0
  0
LINE
  5
FF
  8
0
  6
CONTINUOUS
 62
     7
 10
3443.187963287889
 20
656.7763092285443
 30
0.0
 11
3442.187963287889
 21
656.7763092285443
 31
0.0
  0
LINE
  5
100
  8
0
  6
CONTINUOUS
 62
     7
 10
1343.18796328789
 20
656.7763092285443
 30
0.0
 11
1342.187963287889
 21
656.7763092285443
 31
0.0
  0
LINE
  5
101
  8
0
  6
CONTINUOUS
 62
     7
 10
1342.187963287889
 20
987.2763092285443
 30
0.0
 11
1342.187963287889
 21
656.7763092285443
 31
0.0
  0
CIRCLE
  5
102
  8
0
  6
CONTINUOUS
 62
     7
 10
2542.687963287886
 20
822.0263092285443
 30
0.0
 40
4.5
  0
CIRCLE
  5
103
  8
0
  6
CONTINUOUS
 62
     7
 10
2442.687963287886
 20
822.0263092285443
 30
0.0
 40
4.5
  0
CIRCLE
  5
104
  8
0
  6
CONTINUOUS
 62
     7
 10
2242.687963287887
 20
822.0263092285443
 30
0.0
 40
4.5
  0
CIRCLE
  5
105
  8
0
  6
CONTINUOUS
 62
     7
 10
1642.687963287889
 20
942.2763092285442
 30
0.0
 40
4.499999999999886
  0
CIRCLE
  5
106
  8
0
  6
CONTINUOUS
 62
     7
 10
3142.687963287878
 20
942.2763092285442
 30
0.0
 40
4.499999999999886
  0
LINE
  5
107
  8
0
  6
CONTINUOUS
 62
     7
 10
1343.187963287889
 20
674.7763092285443
 30
0.0
 11
2392.687963287889
 21
674.7763092285443
 31
0.0
  0
LINE
  5
108
  8
0
  6
CONTINUOUS
 62
     7
 10
2392.687963287889
 20
674.7763092285443
 30
0.0
 11
2392.687963287889
 21
656.7763092285443
 31
0.0
  0
LINE
  5
109
  8
0
  6
CONTINUOUS
 62
     7
 10
2392.687963287889
 20
656.7763092285443
 30
0.0
 11
1343.187963287889
 21
656.7763092285443
 31
0.0
  0
LINE
  5
10A
  8
0
  6
CONTINUOUS
 62
     7
 10
1343.187963287889
 20
656.7763092285443
 30
0.0
 11
1343.187963287889
 21
674.7763092285443
 31
0.0
  0
LINE
  5
10B
  8
0
  6
CONTINUOUS
 62
     7
 10
2392.687963287889
 20
674.7763092285443
 30
0.0
 11
3442.187963287889
 21
674.7763092285443
 31
0.0
  0
LINE
  5
10C
  8
0
  6
CONTINUOUS
 62
     7
 10
3442.187963287889
 20
674.7763092285443
 30
0.0
 11
3442.187963287889
 21
656.7763092285443
 31
0.0
  0
LINE
  5
10D
  8
0
  6
CONTINUOUS
 62
     7
 10
3442.187963287889
 20
656.7763092285443
 30
0.0
 11
2392.687963287889
 21
656.7763092285443
 31
0.0
  0
CIRCLE
  5
10E
  8
0
  6
CONTINUOUS
 62
     7
 10
3428.187963287889
 20
942.2763092285442
 30
0.0
 40
8.499999999999616
  0
CIRCLE
  5
10F
  8
0
  6
CONTINUOUS
 62
     7
 10
3428.187963287889
 20
942.2763092285442
 30
0.0
 40
9.999999999999634
  0
CIRCLE
  5
110
  8
0
  6
CONTINUOUS
 62
     7
 10
2342.687963287887
 20
822.0263092285443
 30
0.0
 40
8.49999999999936
  0
CIRCLE
  5
111
  8
0
  6
CONTINUOUS
 62
     7
 10
2342.687963287887
 20
822.0263092285443
 30
0.0
 40
9.999999999999407
  0
CIRCLE
  5
112
  8
0
  6
CONTINUOUS
 62
     7
 10
1357.187963287889
 20
942.2763092285442
 30
0.0
 40
8.499999999999483
  0
CIRCLE
  5
113
  8
0
  6
CONTINUOUS
 62
     7
 10
1357.187963287889
 20
942.2763092285442
 30
0.0
 40
9.999999999999432
  0
LINE
  5
114
  8
0
  6
CONTINUOUS
 62
     7
 10
4263.761131635812
 20
1607.79175107546
 30
0.0
 11
4263.761131635812
 21
1698.291751075445
 31
0.0
  0
LINE
  5
115
  8
0
  6
CONTINUOUS
 62
     7
 10
4244.661131635812
 20
1698.291751075445
 30
0.0
 11
4244.661131635812
 21
1607.79175107546
 31
0.0
  0
LINE
  5
116
  8
0
  6
CONTINUOUS
 62
     7
 10
4143.511131635812
 20
1607.79175107546
 30
0.0
 11
4143.511131635812
 21
1698.291751075445
 31
0.0
  0
LINE
  5
117
  8
0
  6
CONTINUOUS
 62
     7
 10
4124.411131635812
 20
1698.291751075445
 30
0.0
 11
4124.411131635812
 21
1607.79175107546
 31
0.0
  0
ARC
  5
118
  8
0
  6
CONTINUOUS
 62
     7
 10
4143.761131635812
 20
1605.091751075449
 30
0.0
 40
0.2000000000002728
 50
0.0
 51
90.00000000026056
  0
ARC
  5
119
  8
0
  6
CONTINUOUS
 62
     7
 10
4124.161131635812
 20
1605.091751075449
 30
0.0
 40
0.2000000000002728
 50
89.99999999973944
 51
180.0
  0
LINE
  5
11A
  8
0
  6
CONTINUOUS
 62
     7
 10
4123.961131635812
 20
1605.091751075449
 30
0.0
 11
4123.961131635812
 21
1600.491751075449
 31
0.0
  0
LINE
  5
11B
  8
0
  6
CONTINUOUS
 62
     7
 10
4143.961131635812
 20
1600.491751075449
 30
0.0
 11
4143.961131635812
 21
1605.091751075449
 31
0.0
  0
ARC
  5
11C
  8
0
  6
CONTINUOUS
 62
     7
 10
4143.761131635812
 20
1600.491751075449
 30
0.0
 40
0.1999999999998181
 50
269.9999999997402
 51
0.0
  0
ARC
  5
11D
  8
0
  6
CONTINUOUS
 62
     7
 10
4124.161131635812
 20
1600.491751075449
 30
0.0
 40
0.1999999999998181
 50
180.0
 51
270.0000000002614
  0
LINE
  5
11E
  8
0
  6
CONTINUOUS
 62
     7
 10
4125.461131635812
 20
1600.291751075449
 30
0.0
 11
4125.461131635812
 21
1597.791751075449
 31
0.0
  0
LINE
  5
11F
  8
0
  6
CONTINUOUS
 62
     7
 10
4142.461131635812
 20
1597.791751075449
 30
0.0
 11
4142.461131635812
 21
1600.291751075449
 31
0.0
  0
ARC
  5
120
  8
0
  6
CONTINUOUS
 62
     7
 10
4141.961131635811
 20
1597.791751075449
 30
0.0
 40
0.5000000000002274
 50
269.9999999998966
 51
0.0
  0
ARC
  5
121
  8
0
  6
CONTINUOUS
 62
     7
 10
4125.961131635812
 20
1597.791751075449
 30
0.0
 40
0.5000000000002274
 50
180.0
 51
270.0000000000008
  0
LINE
  5
122
  8
0
  6
CONTINUOUS
 62
     7
 10
4139.871057221478
 20
1605.291751075449
 30
0.0
 11
4138.961131635811
 21
1607.791751075449
 31
0.0
  0
LINE
  5
123
  8
0
  6
CONTINUOUS
 62
     7
 10
4128.961131635812
 20
1607.791751075449
 30
0.0
 11
4128.051206050147
 21
1605.291751075449
 31
0.0
  0
ARC
  5
124
  8
0
  6
CONTINUOUS
 62
     7
 10
4264.011131635812
 20
1605.091751075449
 30
0.0
 40
0.2000000000007276
 50
0.0
 51
90.00000000026056
  0
ARC
  5
125
  8
0
  6
CONTINUOUS
 62
     7
 10
4244.411131635813
 20
1605.091751075449
 30
0.0
 40
0.2000000000007276
 50
89.99999999973944
 51
180.0
  0
ARC
  5
126
  8
0
  6
CONTINUOUS
 62
     7
 10
4264.011131635812
 20
1600.491751075449
 30
0.0
 40
0.2000000000007276
 50
269.9999999997402
 51
0.0
  0
ARC
  5
127
  8
0
  6
CONTINUOUS
 62
     7
 10
4244.411131635813
 20
1600.491751075449
 30
0.0
 40
0.2000000000007276
 50
180.0
 51
270.0000000002614
  0
LINE
  5
128
  8
0
  6
CONTINUOUS
 62
     7
 10
4244.211131635812
 20
1605.091751075449
 30
0.0
 11
4244.211131635812
 21
1600.491751075449
 31
0.0
  0
LINE
  5
129
  8
0
  6
CONTINUOUS
 62
     7
 10
4264.211131635812
 20
1600.491751075449
 30
0.0
 11
4264.211131635812
 21
1605.091751075449
 31
0.0
  0
ARC
  5
12A
  8
0
  6
CONTINUOUS
 62
     7
 10
4262.211131635812
 20
1597.791751075449
 30
0.0
 40
0.5
 50
269.9999999998966
 51
0.0
  0
ARC
  5
12B
  8
0
  6
CONTINUOUS
 62
     7
 10
4246.211131635812
 20
1597.791751075449
 30
0.0
 40
0.5
 50
180.0
 51
270.000000000105
  0
LINE
  5
12C
  8
0
  6
CONTINUOUS
 62
     7
 10
4245.711131635812
 20
1600.291751075449
 30
0.0
 11
4245.711131635812
 21
1597.791751075449
 31
0.0
  0
LINE
  5
12D
  8
0
  6
CONTINUOUS
 62
     7
 10
4262.711131635812
 20
1597.791751075449
 30
0.0
 11
4262.711131635812
 21
1600.291751075449
 31
0.0
  0
LINE
  5
12E
  8
0
  6
CONTINUOUS
 62
     7
 10
4260.121057221478
 20
1605.291751075449
 30
0.0
 11
4259.211131635812
 21
1607.791751075449
 31
0.0
  0
LINE
  5
12F
  8
0
  6
CONTINUOUS
 62
     7
 10
4249.211131635812
 20
1607.791751075449
 30
0.0
 11
4248.301206050146
 21
1605.291751075449
 31
0.0
  0
LINE
  5
130
  8
0
  6
CONTINUOUS
 62
     7
 10
4088.961131635812
 20
1698.291751075449
 30
0.0
 11
4419.461131635812
 21
1698.291751075449
 31
0.0
  0
LINE
  5
131
  8
0
  6
CONTINUOUS
 62
     7
 10
4088.961131635812
 20
1726.291751075449
 30
0.0
 11
4088.961131635812
 21
1698.291751075449
 31
0.0
  0
LINE
  5
132
  8
0
  6
CONTINUOUS
 62
     7
 10
4419.461131635812
 20
1726.291751075449
 30
0.0
 11
4088.961131635812
 21
1726.291751075449
 31
0.0
  0
LINE
  5
133
  8
0
  6
CONTINUOUS
 62
     7
 10
4419.461131635812
 20
1698.291751075449
 30
0.0
 11
4419.461131635812
 21
1726.291751075449
 31
0.0
  0
LINE
  5
134
  8
0
  6
CONTINUOUS
 62
     7
 10
4401.461131635812
 20
1698.291751075449
 30
0.0
 11
4401.461131635812
 21
1596.791751075449
 31
0.0
  0
LINE
  5
135
  8
0
  6
CONTINUOUS
 62
     7
 10
4419.461131635812
 20
1698.291751075449
 30
0.0
 11
4419.461131635812
 21
1596.791751075449
 31
0.0
  0
LINE
  5
136
  8
0
  6
CONTINUOUS
 62
     7
 10
4401.461131635812
 20
1596.791751075449
 30
0.0
 11
4419.461131635812
 21
1596.791751075449
 31
0.0
  0
LINE
  5
137
  8
0
  6
CONTINUOUS
 62
     7
 10
4258.242670808392
 20
1607.791751075449
 30
0.0
 11
4263.761131635812
 21
1607.791751075449
 31
0.0
  0
LINE
  5
138
  8
0
  6
CONTINUOUS
 62
     7
 10
4244.661131635812
 20
1607.791751075449
 30
0.0
 11
4258.242670808392
 21
1607.791751075449
 31
0.0
  0
LINE
  5
139
  8
0
  6
CONTINUOUS
 62
     7
 10
4124.411131635812
 20
1607.791751075449
 30
0.0
 11
4143.511131635812
 21
1607.791751075449
 31
0.0
  0
LINE
  5
13A
  8
0
  6
CONTINUOUS
 62
     7
 10
4143.431064675231
 20
1605.291751075449
 30
0.0
 11
4143.761131635812
 21
1605.291751075449
 31
0.0
  0
LINE
  5
13B
  8
0
  6
CONTINUOUS
 62
     7
 10
4124.161131635812
 20
1605.291751075449
 30
0.0
 11
4143.431064675231
 21
1605.291751075449
 31
0.0
  0
LINE
  5
13C
  8
0
  6
CONTINUOUS
 62
     7
 10
4143.431064675231
 20
1600.291751075449
 30
0.0
 11
4124.161131635812
 21
1600.291751075449
 31
0.0
  0
LINE
  5
13D
  8
0
  6
CONTINUOUS
 62
     7
 10
4143.761131635812
 20
1600.291751075449
 30
0.0
 11
4143.431064675231
 21
1600.291751075449
 31
0.0
  0
LINE
  5
13E
  8
0
  6
CONTINUOUS
 62
     7
 10
4141.691689219011
 20
1597.291751075449
 30
0.0
 11
4125.961131635811
 21
1597.291751075449
 31
0.0
  0
LINE
  5
13F
  8
0
  6
CONTINUOUS
 62
     7
 10
4141.961131635811
 20
1597.291751075449
 30
0.0
 11
4141.691689219011
 21
1597.291751075449
 31
0.0
  0
LINE
  5
140
  8
0
  6
CONTINUOUS
 62
     7
 10
4244.411131635812
 20
1605.291751075449
 30
0.0
 11
4264.011131635812
 21
1605.291751075449
 31
0.0
  0
LINE
  5
141
  8
0
  6
CONTINUOUS
 62
     7
 10
4264.011131635812
 20
1600.291751075449
 30
0.0
 11
4244.411131635812
 21
1600.291751075449
 31
0.0
  0
LINE
  5
142
  8
0
  6
CONTINUOUS
 62
     7
 10
4262.211131635812
 20
1597.291751075449
 30
0.0
 11
4246.211131635812
 21
1597.291751075449
 31
0.0
  0
ENDSEC
  0
EOF
