  0
SECTION
  2
HEADER
  9
$ACADVER
  1
AC1006
  9
$DWGCODEPAGE
  3
ansi_932
  9
$INSBASE
 10
0.0
 20
0.0
 30
0.0
  9
$EXTMIN
 10
-2153.065994741682
 20
-1071.461980124047
  9
$EXTMAX
 10
3504.321014332893
 20
1523.008454462207
  9
$LIMMIN
 10
0.0
 20
0.0
  9
$LIMMAX
 10
12.0
 20
9.0
  9
$ORTHOMODE
 70
     1
  9
$REGENMODE
 70
     1
  9
$FILLMODE
 70
     1
  9
$QTEXTMODE
 70
     0
  9
$MIRRTEXT
 70
     1
  9
$DRAGMODE
 70
     2
  9
$LTSCALE
 40
1.0
  9
$OSMODE
 70
    37
  9
$ATTMODE
 70
     1
  9
$TEXTSIZE
 40
0.2
  9
$TRACEWID
 40
0.05
  9
$TEXTSTYLE
  7
STANDARD
  9
$CLAYER
  8
0
  9
$CELTYPE
  6
BYLAYER
  9
$CECOLOR
 62
   256
  9
$DIMSCALE
 40
1.0
  9
$DIMASZ
 40
0.18
  9
$DIMEXO
 40
0.0625
  9
$DIMDLI
 40
0.38
  9
$DIMRND
 40
0.0
  9
$DIMDLE
 40
0.0
  9
$DIMEXE
 40
0.18
  9
$DIMTP
 40
0.0
  9
$DIMTM
 40
0.0
  9
$DIMTXT
 40
0.18
  9
$DIMCEN
 40
0.09
  9
$DIMTSZ
 40
0.0
  9
$DIMTOL
 70
     0
  9
$DIMLIM
 70
     0
  9
$DIMTIH
 70
     1
  9
$DIMTOH
 70
     1
  9
$DIMSE1
 70
     0
  9
$DIMSE2
 70
     0
  9
$DIMTAD
 70
     0
  9
$DIMZIN
 70
     0
  9
$DIMBLK
  1

  9
$DIMASO
 70
     1
  9
$DIMSHO
 70
     1
  9
$DIMPOST
  1

  9
$DIMAPOST
  1

  9
$DIMALT
 70
     0
  9
$DIMALTD
 70
     2
  9
$DIMALTF
 40
25.4
  9
$DIMLFAC
 40
1.0
  9
$DIMTOFL
 70
     0
  9
$DIMTVP
 40
0.0
  9
$DIMTIX
 70
     0
  9
$DIMSOXD
 70
     0
  9
$DIMSAH
 70
     0
  9
$DIMBLK1
  1

  9
$DIMBLK2
  1

  9
$LUNITS
 70
     2
  9
$LUPREC
 70
     4
  9
$SKETCHINC
 40
0.1
  9
$FILLETRAD
 40
0.5
  9
$AUNITS
 70
     0
  9
$AUPREC
 70
     0
  9
$MENU
  1
.
  9
$ELEVATION
 40
0.0
  9
$THICKNESS
 40
0.0
  9
$LIMCHECK
 70
     0
  9
$CHAMFERA
 40
0.5
  9
$CHAMFERB
 40
0.5
  9
$SKPOLY
 70
     0
  9
$TDCREATE
 40
2459832.459052176
  9
$TDUPDATE
 40
2460139.570088287
  9
$TDINDWG
 40
0.0193326389
  9
$TDUSRTIMER
 40
0.0193326389
  9
$USRTIMER
 70
     1
  9
$ANGBASE
 50
0.0
  9
$ANGDIR
 70
     0
  9
$PDMODE
 70
     0
  9
$PDSIZE
 40
0.0
  9
$PLINEWID
 40
0.0
  9
$COORDS
 70
     1
  9
$SPLFRAME
 70
     0
  9
$SPLINETYPE
 70
     6
  9
$SPLINESEGS
 70
     8
  9
$ATTDIA
 70
     0
  9
$ATTREQ
 70
     1
  9
$HANDLING
 70
     1
  9
$HANDSEED
  5
211
  9
$SURFTAB1
 70
     6
  9
$SURFTAB2
 70
     6
  9
$SURFTYPE
 70
     6
  9
$SURFU
 70
     6
  9
$SURFV
 70
     6
  9
$UCSNAME
  2

  9
$UCSORG
 10
0.0
 20
0.0
 30
0.0
  9
$UCSXDIR
 10
1.0
 20
0.0
 30
0.0
  9
$UCSYDIR
 10
0.0
 20
1.0
 30
0.0
  9
$USERI1
 70
     0
  9
$USERI2
 70
     0
  9
$USERI3
 70
     0
  9
$USERI4
 70
     0
  9
$USERI5
 70
     0
  9
$USERR1
 40
0.0
  9
$USERR2
 40
0.0
  9
$USERR3
 40
0.0
  9
$USERR4
 40
0.0
  9
$USERR5
 40
0.0
  9
$WORLDVIEW
 70
     1
  0
ENDSEC
  0
SECTION
  2
TABLES
  0
TABLE
  2
VPORT
 70
     1
  0
VPORT
  2
*ACTIVE
 70
     0
 10
0.0
 20
0.0
 11
1.0
 21
1.0
 12
552.9661210127383
 22
402.2211351079181
 13
0.0
 23
0.0
 14
0.5
 24
0.5
 15
0.5
 25
0.5
 16
0.0
 26
0.0
 36
1.0
 17
148.4999796178229
 27
105.0008259828644
 37
0.0
 40
3996.496315047277
 41
1.77299880525687
 42
50.0
 43
0.0
 44
0.0
 50
0.0
 51
0.0
 71
     0
 72
   100
 73
     1
 74
     3
 75
     0
 76
     0
 77
     0
 78
     0
  0
ENDTAB
  0
TABLE
  2
LTYPE
 70
     1
  0
LTYPE
  2
CONTINUOUS
 70
     0
  3
Solid line
 72
    65
 73
     0
 40
0.0
  0
ENDTAB
  0
TABLE
  2
LAYER
 70
     4
  0
LAYER
  2
0
 70
     0
 62
     7
  6
CONTINUOUS
  0
LAYER
  2
寸法
 70
     0
 62
     7
  6
CONTINUOUS
  0
LAYER
  2
$TD_AUDIT_GENERATED__F7_
 70
     0
 62
   179
  6
CONTINUOUS
  0
LAYER
  2
DEFPOINTS
 70
     0
 62
     7
  6
CONTINUOUS
  0
ENDTAB
  0
TABLE
  2
STYLE
 70
     2
  0
STYLE
  2
STANDARD
 70
     0
 40
0.0
 41
1.0
 50
0.0
 71
     0
 42
0.2
  3
txt
  4

  0
STYLE
  2
SLDTEXTSTYLE0
 70
     0
 40
0.0
 41
0.75
 50
0.0
 71
     0
 42
3.5
  3
TXT
  4
bigfont
  0
ENDTAB
  0
TABLE
  2
VIEW
 70
     0
  0
ENDTAB
  0
TABLE
  2
UCS
 70
     0
  0
ENDTAB
  0
ENDSEC
  0
SECTION
  2
BLOCKS
  0
BLOCK
  8
0
  2
BLOCK_2
 70
     0
 10
0.0
 20
0.0
 30
0.0
  0
POLYLINE
  5
3F
  8
0
 62
     7
 66
     1
 10
0.0
 20
0.0
 30
0.0
  0
VERTEX
  5
40
  8
0
 62
     7
 10
2347.605541405286
 20
-1249.177498060101
 30
0.0
  0
VERTEX
  5
41
  8
0
 62
     7
 10
820.4956540917511
 20
-1249.177498060101
 30
0.0
  0
SEQEND
  5
42
  8
0
  0
ENDBLK
  8
0
  0
BLOCK
  8
0
  2
BLOCK_3
 70
     0
 10
0.0
 20
0.0
 30
0.0
  0
TEXT
  5
47
  8
0
  6
CONTINUOUS
 62
     7
 10
-1117.052229538445
 20
1499.860215553854
 30
0.0
 40
52.91666816066678
  1
＜上面＞
 41
0.75
  0
ENDBLK
  8
0
  0
BLOCK
  8
0
  2
BLOCK_4
 70
     0
 10
0.0
 20
0.0
 30
0.0
  0
TEXT
  5
4C
  8
0
  6
CONTINUOUS
 62
     7
 10
-2099.742290056662
 20
279.9508706982415
 30
0.0
 40
52.91666816066678
  1
＜左側面＞
 41
0.75
  0
ENDBLK
  8
0
  0
BLOCK
  8
0
  2
BLOCK_5
 70
     0
 10
0.0
 20
0.0
 30
0.0
  0
TEXT
  5
51
  8
0
  6
CONTINUOUS
 62
     7
 10
2041.042341612135
 20
253.8732204226428
 30
0.0
 40
52.91666816066678
  1
＜右側面＞
 41
0.75
  0
ENDBLK
  8
0
  0
BLOCK
  8
0
  2
BLOCK_6
 70
     0
 10
0.0
 20
0.0
 30
0.0
  0
TEXT
  5
56
  8
0
  6
CONTINUOUS
 62
     7
 10
-1117.052229538445
 20
274.8173339156707
 30
0.0
 40
52.91666816066678
  1
＜正面＞
 41
0.75
  0
ENDBLK
  8
0
  0
BLOCK
  8
0
  2
BLOCK_7
 70
     0
 10
0.0
 20
0.0
 30
0.0
  0
TEXT
  5
5B
  8
0
  6
CONTINUOUS
 62
     7
 10
882.4822236292059
 20
-1181.793841935454
 30
0.0
 40
52.91666816066678
  1
品名：
 41
0.75
  0
ENDBLK
  8
0
  0
BLOCK
  8
0
  2
BLOCK_8
 70
     0
 10
0.0
 20
0.0
 30
0.0
  0
TEXT
  5
60
  8
0
  6
CONTINUOUS
 62
     7
 10
1097.100992564267
 20
-1161.417135955938
 30
0.0
 40
66.145832455523
  1
MA-TM250/F1/F2
 41
0.75
  0
ENDBLK
  8
0
  0
BLOCK
  8
0
  2
BLOCK_9
 70
     0
 10
0.0
 20
0.0
 30
0.0
  0
TEXT
  5
65
  8
0
  6
CONTINUOUS
 62
     7
 10
1948.592859755908
 20
-1175.96508488396
 30
0.0
 40
52.91666816066678
  1
Pamouna
 41
0.75
  0
ENDBLK
  8
0
  0
BLOCK
  8
0
  2
BLOCK_10
 70
     0
 10
0.0
 20
0.0
 30
0.0
  0
POLYLINE
  5
6A
  8
0
 62
     7
 66
     1
 10
0.0
 20
0.0
 30
0.0
  0
VERTEX
  5
6B
  8
0
 62
     7
 10
-996.0284367084582
 20
-25.59602592676072
 30
0.0
  0
VERTEX
  5
6C
  8
0
 62
     7
 10
1503.971592505952
 20
-25.59602592676072
 30
0.0
  0
SEQEND
  5
6D
  8
0
  0
ENDBLK
  8
0
  0
BLOCK
  8
0
  2
BLOCK_11
 70
     0
 10
0.0
 20
0.0
 30
0.0
  0
POLYLINE
  5
72
  8
0
 62
     7
 66
     1
 10
0.0
 20
0.0
 30
0.0
  0
VERTEX
  5
73
  8
0
 62
     7
 10
1503.971592505952
 20
-25.59602592676072
 30
0.0
  0
VERTEX
  5
74
  8
0
 62
     7
 10
1503.971592505952
 20
-49.59628362475371
 30
0.0
  0
SEQEND
  5
75
  8
0
  0
ENDBLK
  8
0
  0
BLOCK
  8
0
  2
BLOCK_12
 70
     0
 10
0.0
 20
0.0
 30
0.0
  0
POLYLINE
  5
7A
  8
0
 62
     7
 66
     1
 10
0.0
 20
0.0
 30
0.0
  0
VERTEX
  5
7B
  8
0
 62
     7
 10
-996.0284367084582
 20
-49.59628362475371
 30
0.0
  0
VERTEX
  5
7C
  8
0
 62
     7
 10
1503.971592505952
 20
-49.59628362475371
 30
0.0
  0
SEQEND
  5
7D
  8
0
  0
ENDBLK
  8
0
  0
BLOCK
  8
0
  2
BLOCK_13
 70
     0
 10
0.0
 20
0.0
 30
0.0
  0
POLYLINE
  5
82
  8
0
 62
     7
 66
     1
 10
0.0
 20
0.0
 30
0.0
  0
VERTEX
  5
83
  8
0
 62
     7
 10
-996.0284367084582
 20
-25.59602592676072
 30
0.0
  0
VERTEX
  5
84
  8
0
 62
     7
 10
-996.0284367084582
 20
-49.59628362475371
 30
0.0
  0
SEQEND
  5
85
  8
0
  0
ENDBLK
  8
0
  0
BLOCK
  8
0
  2
BLOCK_14
 70
     0
 10
0.0
 20
0.0
 30
0.0
  0
POLYLINE
  5
8A
  8
0
 62
     7
 66
     1
 10
0.0
 20
0.0
 30
0.0
  0
VERTEX
  5
8B
  8
0
 62
     7
 10
-2153.065994741682
 20
-25.59602592676072
 30
0.0
  0
VERTEX
  5
8C
  8
0
 62
     7
 10
-2153.065994741682
 20
-49.59628362475371
 30
0.0
  0
SEQEND
  5
8D
  8
0
  0
ENDBLK
  8
0
  0
BLOCK
  8
0
  2
BLOCK_15
 70
     0
 10
0.0
 20
0.0
 30
0.0
  0
POLYLINE
  5
92
  8
0
 62
     7
 66
     1
 10
0.0
 20
0.0
 30
0.0
  0
VERTEX
  5
93
  8
0
 62
     7
 10
-2153.065994741682
 20
-25.59602592676072
 30
0.0
  0
VERTEX
  5
94
  8
0
 62
     7
 10
-1708.065939243123
 20
-25.59602592676072
 30
0.0
  0
SEQEND
  5
95
  8
0
  0
ENDBLK
  8
0
  0
BLOCK
  8
0
  2
BLOCK_16
 70
     0
 10
0.0
 20
0.0
 30
0.0
  0
POLYLINE
  5
9A
  8
0
 62
     7
 66
     1
 10
0.0
 20
0.0
 30
0.0
  0
VERTEX
  5
9B
  8
0
 62
     7
 10
-1708.065939243123
 20
-25.59602592676072
 30
0.0
  0
VERTEX
  5
9C
  8
0
 62
     7
 10
-1708.065939243123
 20
-49.59628362475371
 30
0.0
  0
SEQEND
  5
9D
  8
0
  0
ENDBLK
  8
0
  0
BLOCK
  8
0
  2
BLOCK_17
 70
     0
 10
0.0
 20
0.0
 30
0.0
  0
POLYLINE
  5
A2
  8
0
 62
     7
 66
     1
 10
0.0
 20
0.0
 30
0.0
  0
VERTEX
  5
A3
  8
0
 62
     7
 10
-2153.065994741682
 20
-49.59628362475371
 30
0.0
  0
VERTEX
  5
A4
  8
0
 62
     7
 10
-1708.065939243123
 20
-49.59628362475371
 30
0.0
  0
SEQEND
  5
A5
  8
0
  0
ENDBLK
  8
0
  0
BLOCK
  8
0
  2
BLOCK_18
 70
     0
 10
0.0
 20
0.0
 30
0.0
  0
POLYLINE
  5
AA
  8
0
 62
     7
 66
     1
 10
0.0
 20
0.0
 30
0.0
  0
VERTEX
  5
AB
  8
0
 62
     7
 10
1503.971592505952
 20
1301.348818305305
 30
0.0
  0
VERTEX
  5
AC
  8
0
 62
     7
 10
-996.0284367084582
 20
1301.348818305305
 30
0.0
  0
SEQEND
  5
AD
  8
0
  0
ENDBLK
  8
0
  0
BLOCK
  8
0
  2
BLOCK_19
 70
     0
 10
0.0
 20
0.0
 30
0.0
  0
POLYLINE
  5
B2
  8
0
 62
     7
 66
     1
 10
0.0
 20
0.0
 30
0.0
  0
VERTEX
  5
B3
  8
0
 62
     7
 10
1503.971592505952
 20
856.3487628067462
 30
0.0
  0
VERTEX
  5
B4
  8
0
 62
     7
 10
1503.971592505952
 20
1301.348818305305
 30
0.0
  0
SEQEND
  5
B5
  8
0
  0
ENDBLK
  8
0
  0
BLOCK
  8
0
  2
BLOCK_20
 70
     0
 10
0.0
 20
0.0
 30
0.0
  0
POLYLINE
  5
BA
  8
0
 62
     7
 66
     1
 10
0.0
 20
0.0
 30
0.0
  0
VERTEX
  5
BB
  8
0
 62
     7
 10
-996.0284367084582
 20
856.3487628067462
 30
0.0
  0
VERTEX
  5
BC
  8
0
 62
     7
 10
1503.971592505952
 20
856.3487628067462
 30
0.0
  0
SEQEND
  5
BD
  8
0
  0
ENDBLK
  8
0
  0
BLOCK
  8
0
  2
BLOCK_21
 70
     0
 10
0.0
 20
0.0
 30
0.0
  0
POLYLINE
  5
C2
  8
0
 62
     7
 66
     1
 10
0.0
 20
0.0
 30
0.0
  0
VERTEX
  5
C3
  8
0
 62
     7
 10
-996.0284367084582
 20
1301.348818305305
 30
0.0
  0
VERTEX
  5
C4
  8
0
 62
     7
 10
-996.0284367084582
 20
856.3487628067462
 30
0.0
  0
SEQEND
  5
C5
  8
0
  0
ENDBLK
  8
0
  0
BLOCK
  8
0
  2
BLOCK_22
 70
     0
 10
0.0
 20
0.0
 30
0.0
  0
POLYLINE
  5
CA
  8
0
 62
     7
 66
     1
 10
0.0
 20
0.0
 30
0.0
  0
VERTEX
  5
CB
  8
0
 62
     7
 10
2005.457605835441
 20
-25.59602592676072
 30
0.0
  0
VERTEX
  5
CC
  8
0
 62
     7
 10
2005.457605835441
 20
-49.59628362475371
 30
0.0
  0
SEQEND
  5
CD
  8
0
  0
ENDBLK
  8
0
  0
BLOCK
  8
0
  2
BLOCK_23
 70
     0
 10
0.0
 20
0.0
 30
0.0
  0
POLYLINE
  5
D2
  8
0
 62
     7
 66
     1
 10
0.0
 20
0.0
 30
0.0
  0
VERTEX
  5
D3
  8
0
 62
     7
 10
2005.457605835441
 20
-49.59628362475371
 30
0.0
  0
VERTEX
  5
D4
  8
0
 62
     7
 10
2450.457833588775
 20
-49.59628362475371
 30
0.0
  0
SEQEND
  5
D5
  8
0
  0
ENDBLK
  8
0
  0
BLOCK
  8
0
  2
BLOCK_24
 70
     0
 10
0.0
 20
0.0
 30
0.0
  0
POLYLINE
  5
DA
  8
0
 62
     7
 66
     1
 10
0.0
 20
0.0
 30
0.0
  0
VERTEX
  5
DB
  8
0
 62
     7
 10
2005.457605835441
 20
-25.59602592676072
 30
0.0
  0
VERTEX
  5
DC
  8
0
 62
     7
 10
2450.457833588775
 20
-25.59602592676072
 30
0.0
  0
SEQEND
  5
DD
  8
0
  0
ENDBLK
  8
0
  0
BLOCK
  8
0
  2
BLOCK_25
 70
     0
 10
0.0
 20
0.0
 30
0.0
  0
POLYLINE
  5
E2
  8
0
 62
     7
 66
     1
 10
0.0
 20
0.0
 30
0.0
  0
VERTEX
  5
E3
  8
0
 62
     7
 10
2450.457833588775
 20
-25.59602592676072
 30
0.0
  0
VERTEX
  5
E4
  8
0
 62
     7
 10
2450.457833588775
 20
-49.59628362475371
 30
0.0
  0
SEQEND
  5
E5
  8
0
  0
ENDBLK
  8
0
  0
BLOCK
  8
0
  2
BLOCK_26
 70
     0
 10
0.0
 20
0.0
 30
0.0
  0
TEXT
  5
EB
  8
寸法
  6
CONTINUOUS
 62
     7
 10
2189.817756614004
 20
-1324.935147278336
 30
0.0
 40
52.91666816066678
  1
1/1
 41
0.75
  0
ENDBLK
  8
0
  0
BLOCK
  8
0
  2
BLOCK_27
 70
     0
 10
0.0
 20
0.0
 30
0.0
  0
TEXT
  5
F0
  8
寸法
  6
CONTINUOUS
 62
     7
 10
1700.726507821346
 20
-1324.935147278336
 30
0.0
 40
52.91666816066678
  1
2020/05/19
 41
0.75
  0
ENDBLK
  8
0
  0
ENDSEC
  0
SECTION
  2
ENTITIES
  0
INSERT
  5
87
  8
0
  2
BLOCK_14
 10
0.0
 20
0.0
 30
0.0
  0
INSERT
  5
8F
  8
0
  2
BLOCK_15
 10
0.0
 20
0.0
 30
0.0
  0
INSERT
  5
97
  8
0
  2
BLOCK_16
 10
0.0
 20
0.0
 30
0.0
  0
INSERT
  5
9F
  8
0
  2
BLOCK_17
 10
0.0
 20
0.0
 30
0.0
  0
INSERT
  5
C7
  8
0
  2
BLOCK_22
 10
0.0
 20
0.0
 30
0.0
  0
INSERT
  5
CF
  8
0
  2
BLOCK_23
 10
0.0
 20
0.0
 30
0.0
  0
INSERT
  5
D7
  8
0
  2
BLOCK_24
 10
0.0
 20
0.0
 30
0.0
  0
INSERT
  5
DF
  8
0
  2
BLOCK_25
 10
0.0
 20
0.0
 30
0.0
  0
TEXT
  5
109
  8
0
  6
CONTINUOUS
 62
     7
 10
-1251.786370304109
 20
1470.09178779554
 30
0.0
 40
52.91666666666666
  1
＜上面＞
 41
0.75
  7
SLDTEXTSTYLE0
  0
TEXT
  5
10A
  8
0
  6
CONTINUOUS
 62
     7
 10
-2062.979518110984
 20
384.576641931157
 30
0.0
 40
52.91666666666666
  1
＜左側面＞
 41
0.75
  7
SLDTEXTSTYLE0
  0
TEXT
  5
10B
  8
0
  6
CONTINUOUS
 62
     7
 10
-1256.476357091071
 20
381.6852562590087
 30
0.0
 40
52.91666666666666
  1
＜正面＞
 41
0.75
  7
SLDTEXTSTYLE0
  0
TEXT
  5
10C
  8
$TD_AUDIT_GENERATED__F7_
  6
CONTINUOUS
 62
     7
 10
2028.723857002979
 20
393.2257191421425
 30
0.0
 40
52.91666666666666
  1
＜右側面＞
 41
0.75
  7
SLDTEXTSTYLE0
  0
TEXT
  5
10D
  8
$TD_AUDIT_GENERATED__F7_
  6
CONTINUOUS
 62
     7
 10
2276.119431502886
 20
-910.7529079845197
 30
0.0
 40
66.14583333333331
  1
MA-TM280-F1/F2
 41
0.75
  7
SLDTEXTSTYLE0
  0
LINE
  5
10E
  8
0
  6
CONTINUOUS
 62
     7
 10
3504.321014332893
 20
-952.699929743836
 30
0.0
 11
1977.210901943865
 21
-952.6999297438365
 31
0.0
  0
TEXT
  5
10F
  8
0
  6
CONTINUOUS
 62
     7
 10
2042.650545342794
 20
-910.6817775549149
 30
0.0
 40
52.91666666666666
  1
品名：
 41
0.75
  7
SLDTEXTSTYLE0
  0
TEXT
  5
110
  8
0
  6
CONTINUOUS
 62
     7
 10
3111.499739635374
 20
-904.8531130038128
 30
0.0
 40
52.91666666666666
  1
Pamouna
 41
0.75
  7
SLDTEXTSTYLE0
  0
TEXT
  5
111
  8
$TD_AUDIT_GENERATED__F7_
  6
CONTINUOUS
 62
     7
 10
2863.633241365501
 20
-1071.461977330079
 30
0.0
 40
52.91666666666666
  1
2022/09/08
 41
0.75
  7
SLDTEXTSTYLE0
  0
TEXT
  5
112
  8
$TD_AUDIT_GENERATED__F7_
  6
CONTINUOUS
 62
     7
 10
3352.843607039098
 20
-1071.461980124047
 30
0.0
 40
52.91666666666666
  1
1/1
 41
0.75
  7
SLDTEXTSTYLE0
  0
POLYLINE
  5
171
  8
0
 66
     1
 10
0.0
 20
0.0
 30
0.0
 70
     1
  0
VERTEX
  5
207
  8
0
 10
-1255.619603672273
 20
-25.59602592676072
 30
0.0
  0
VERTEX
  5
208
  8
0
 10
1544.380425542137
 20
-25.59602592676072
 30
0.0
  0
VERTEX
  5
209
  8
0
 10
1544.380425542137
 20
-49.59628362475371
 30
0.0
  0
VERTEX
  5
20A
  8
0
 10
-1255.619603672273
 20
-49.59628362475371
 30
0.0
  0
SEQEND
  5
20F
  8
0
  0
POLYLINE
  5
18C
  8
0
 66
     1
 10
0.0
 20
0.0
 30
0.0
 70
     1
  0
VERTEX
  5
20B
  8
0
 10
-1255.619603672273
 20
1301.348818305305
 30
0.0
  0
VERTEX
  5
20C
  8
0
 10
1544.380425542137
 20
1301.348818305305
 30
0.0
  0
VERTEX
  5
20D
  8
0
 10
1544.380425542137
 20
856.3487628067462
 30
0.0
  0
VERTEX
  5
20E
  8
0
 10
-1255.619603672273
 20
856.3487628067462
 30
0.0
  0
SEQEND
  5
210
  8
0
  0
ENDSEC
  0
EOF
