  0
SECTION
  2
HEADER
  9
$ACADVER
  1
AC1006
  9
$DWGCODEPAGE
  3
dos932
  9
$INSBASE
 10
0.0
 20
0.0
 30
0.0
  9
$EXTMIN
 10
0.0
 20
0.0
  9
$EXTMAX
 10
5000.0
 20
3500.0
  9
$LIMMIN
 10
0.0
 20
0.0
  9
$LIMMAX
 10
5000.0
 20
3500.0
  9
$ORTHOMODE
 70
     0
  9
$REGENMODE
 70
     1
  9
$FILLMODE
 70
     1
  9
$QTEXTMODE
 70
     0
  9
$MIRRTEXT
 70
     1
  9
$DRAGMODE
 70
     2
  9
$LTSCALE
 40
1.0
  9
$OSMODE
 70
    37
  9
$ATTMODE
 70
     1
  9
$TEXTSIZE
 40
3.5
  9
$TRACEWID
 40
1.0
  9
$TEXTSTYLE
  7
STANDARD
  9
$CLAYER
  8
0
  9
$CELTYPE
  6
BYLAYER
  9
$CECOLOR
 62
   256
  9
$DIMSCALE
 40
1.0
  9
$DIMASZ
 40
3.302
  9
$DIMEXO
 40
1.0
  9
$DIMDLI
 40
3.75
  9
$DIMRND
 40
0.0
  9
$DIMDLE
 40
0.0
  9
$DIMEXE
 40
1.0
  9
$DIMTP
 40
0.0
  9
$DIMTM
 40
0.0
  9
$DIMTXT
 40
3.5
  9
$DIMCEN
 40
2.5
  9
$DIMTSZ
 40
0.0
  9
$DIMTOL
 70
     0
  9
$DIMLIM
 70
     0
  9
$DIMTIH
 70
     1
  9
$DIMTOH
 70
     1
  9
$DIMSE1
 70
     0
  9
$DIMSE2
 70
     0
  9
$DIMTAD
 70
     1
  9
$DIMZIN
 70
     0
  9
$DIMBLK
  1

  9
$DIMASO
 70
     1
  9
$DIMSHO
 70
     1
  9
$DIMPOST
  1

  9
$DIMAPOST
  1

  9
$DIMALT
 70
     0
  9
$DIMALTD
 70
     3
  9
$DIMALTF
 40
0.0393700787401575
  9
$DIMLFAC
 40
1.0
  9
$DIMTOFL
 70
     1
  9
$DIMTVP
 40
0.0
  9
$DIMTIX
 70
     0
  9
$DIMSOXD
 70
     0
  9
$DIMSAH
 70
     0
  9
$DIMBLK1
  1

  9
$DIMBLK2
  1

  9
$LUNITS
 70
     2
  9
$LUPREC
 70
     2
  9
$SKETCHINC
 40
1.0
  9
$FILLETRAD
 40
10.0
  9
$AUNITS
 70
     0
  9
$AUPREC
 70
     2
  9
$MENU
  1
.
  9
$ELEVATION
 40
0.0
  9
$THICKNESS
 40
0.0
  9
$LIMCHECK
 70
     0
  9
$CHAMFERA
 40
0.0
  9
$CHAMFERB
 40
0.0
  9
$SKPOLY
 70
     0
  9
$TDCREATE
 40
2459796.229023866
  9
$TDUPDATE
 40
2460139.401739583
  9
$TDINDWG
 40
0.0000000116
  9
$TDUSRTIMER
 40
0.0000000116
  9
$USRTIMER
 70
     1
  9
$ANGBASE
 50
0.0
  9
$ANGDIR
 70
     0
  9
$PDMODE
 70
     0
  9
$PDSIZE
 40
-1.0
  9
$PLINEWID
 40
0.0
  9
$COORDS
 70
     1
  9
$SPLFRAME
 70
     0
  9
$SPLINETYPE
 70
     6
  9
$SPLINESEGS
 70
     8
  9
$ATTDIA
 70
     0
  9
$ATTREQ
 70
     1
  9
$HANDLING
 70
     1
  9
$HANDSEED
  5
14E
  9
$SURFTAB1
 70
     6
  9
$SURFTAB2
 70
     6
  9
$SURFTYPE
 70
     6
  9
$SURFU
 70
     6
  9
$SURFV
 70
     6
  9
$UCSNAME
  2

  9
$UCSORG
 10
0.0
 20
0.0
 30
0.0
  9
$UCSXDIR
 10
1.0
 20
0.0
 30
0.0
  9
$UCSYDIR
 10
0.0
 20
1.0
 30
0.0
  9
$USERI1
 70
     0
  9
$USERI2
 70
     0
  9
$USERI3
 70
     0
  9
$USERI4
 70
     0
  9
$USERI5
 70
     0
  9
$USERR1
 40
0.0
  9
$USERR2
 40
0.0
  9
$USERR3
 40
0.0
  9
$USERR4
 40
0.0
  9
$USERR5
 40
0.0
  9
$WORLDVIEW
 70
     1
  0
ENDSEC
  0
SECTION
  2
TABLES
  0
TABLE
  2
VPORT
 70
     1
  0
VPORT
  2
*ACTIVE
 70
     0
 10
0.0
 20
0.0
 11
1.0
 21
1.0
 12
2500.0
 22
1750.0
 13
0.0
 23
0.0
 14
10.0
 24
10.0
 15
10.0
 25
10.0
 16
0.0
 26
0.0
 36
1.0
 17
0.0
 27
0.0
 37
0.0
 40
3500.0
 41
1.428571428571429
 42
50.0
 43
0.0
 44
0.0
 50
0.0
 51
0.0
 71
     0
 72
  2000
 73
     1
 74
     3
 75
     0
 76
     0
 77
     0
 78
     0
  0
ENDTAB
  0
TABLE
  2
LTYPE
 70
     6
  0
LTYPE
  2
CONTINUOUS
 70
     0
  3
Solid line
 72
    65
 73
     0
 40
0.0
  0
LTYPE
  2
HIDDEN
 70
     0
  3
Hidden __ __ __ __ __ __ __ __ __ __ __ __ __ __
 72
    65
 73
     2
 40
1.905
 49
1.27
 49
-0.635
  0
LTYPE
  2
PHANTOM
 70
     0
  3
Phantom ______  __  __  ______  __  __  ______
 72
    65
 73
     6
 40
12.7
 49
6.35
 49
-1.27
 49
1.27
 49
-1.27
 49
1.27
 49
-1.27
  0
LTYPE
  2
CENTER
 70
     0
  3
Center ____ _ ____ _ ____ _ ____ _ ____ _ ____
 72
    65
 73
     4
 40
10.16
 49
6.35
 49
-1.27
 49
1.27
 49
-1.27
  0
LTYPE
  2
CENTERX2
 70
     0
  3
Center (2x) ________  __  ________  __  _____
 72
    65
 73
     4
 40
20.32
 49
12.7
 49
-2.54
 49
2.54
 49
-2.54
  0
LTYPE
  2
DOT2
 70
     0
  3
Dot (.5x) ........................................
 72
    65
 73
     2
 40
0.635
 49
0.0
 49
-0.635
  0
ENDTAB
  0
TABLE
  2
LAYER
 70
     3
  0
LAYER
  2
0
 70
     0
 62
     7
  6
CONTINUOUS
  0
LAYER
  2
SLD-0
 70
     0
 62
   179
  6
CONTINUOUS
  0
LAYER
  2
寸法
 70
     0
 62
   179
  6
CONTINUOUS
  0
ENDTAB
  0
TABLE
  2
STYLE
 70
     2
  0
STYLE
  2
STANDARD
 70
     0
 40
0.0
 41
1.0
 50
0.0
 71
     0
 42
3.5
  3
txt
  4
bigfont
  0
STYLE
  2
SLDTEXTSTYLE0
 70
     0
 40
0.0
 41
0.75
 50
0.0
 71
     0
 42
3.5
  3
TXT
  4
bigfont
  0
ENDTAB
  0
TABLE
  2
VIEW
 70
     0
  0
ENDTAB
  0
TABLE
  2
UCS
 70
     0
  0
ENDTAB
  0
ENDSEC
  0
SECTION
  2
BLOCKS
  0
ENDSEC
  0
SECTION
  2
ENTITIES
  0
LINE
  5
75
  8
0
  6
CONTINUOUS
 62
     7
 10
4839.484712179223
 20
258.5233124172521
 30
0.0
 11
3312.374599790194
 21
258.5233124172519
 31
0.0
  0
TEXT
  5
77
  8
0
  6
CONTINUOUS
 62
     7
 10
1706.521152560513
 20
3134.115941119229
 30
0.0
 40
52.91666666666666
  1
＜上面＞
 41
0.75
  7
SLDTEXTSTYLE0
  0
TEXT
  5
78
  8
0
  6
CONTINUOUS
 62
     7
 10
345.6449379609674
 20
2430.495966552128
 30
0.0
 40
52.91666666666666
  1
＜左側面＞
 41
0.75
  7
SLDTEXTSTYLE0
  0
TEXT
  5
79
  8
0
  6
CONTINUOUS
 62
     7
 10
1719.800656210402
 20
2432.48625351395
 30
0.0
 40
52.91666666666666
  1
＜正面＞
 41
0.75
  7
SLDTEXTSTYLE0
  0
TEXT
  5
7A
  8
0
  6
CONTINUOUS
 62
     7
 10
3377.814243189123
 20
326.489054196763
 30
0.0
 40
52.91666666666666
  1
品名：
 41
0.75
  7
SLDTEXTSTYLE0
  0
TEXT
  5
7B
  8
0
  6
CONTINUOUS
 62
     7
 10
4446.663437481703
 20
332.3177187478654
 30
0.0
 40
52.91666666666666
  1
Pamouna
 41
0.75
  7
SLDTEXTSTYLE0
  0
TEXT
  5
7C
  8
寸法
  6
CONTINUOUS
 62
     7
 10
4688.007304885427
 20
165.7088516276312
 30
0.0
 40
52.91666666666666
  1
1/1
 41
0.75
  7
SLDTEXTSTYLE0
  0
TEXT
  5
7D
  8
寸法
  6
CONTINUOUS
 62
     7
 10
4198.79693921183
 20
165.7088544215994
 30
0.0
 40
52.91666666666666
  1
2022/08/04
 41
0.75
  7
SLDTEXTSTYLE0
  0
TEXT
  5
7E
  8
寸法
  6
CONTINUOUS
 62
     7
 10
4106.327917713526
 20
2433.194946023815
 30
0.0
 40
52.91666666666666
  1
＜背面＞
 41
0.75
  7
SLDTEXTSTYLE0
  0
TEXT
  5
7F
  8
寸法
  6
CONTINUOUS
 62
     7
 10
3611.283129349215
 20
326.4179237671586
 30
0.0
 40
66.14583333333331
  1
MA-ST600E
 41
0.75
  7
SLDTEXTSTYLE0
  0
TEXT
  5
80
  8
寸法
  6
CONTINUOUS
 62
     7
 10
3061.315762054306
 20
2432.48625351395
 30
0.0
 40
52.91666666666666
  1
＜右側面＞
 41
0.75
  7
SLDTEXTSTYLE0
  0
LINE
  5
81
  8
0
  6
CONTINUOUS
 62
     7
 10
2354.249985879493
 20
652.4896653412333
 30
0.0
 11
2058.249985879494
 21
652.4896653412336
 31
0.0
  0
LINE
  5
82
  8
0
  6
CONTINUOUS
 62
     7
 10
2058.249985879494
 20
652.4896653412336
 30
0.0
 11
2058.249985879491
 21
2298.489665341235
 31
0.0
  0
LINE
  5
83
  8
0
  6
CONTINUOUS
 62
     7
 10
2354.24998587949
 20
2298.489665341232
 30
0.0
 11
2354.249985879493
 21
652.4896653412333
 31
0.0
  0
LINE
  5
84
  8
0
  6
CONTINUOUS
 62
     7
 10
2058.249985879491
 20
2298.489665341235
 30
0.0
 11
2354.24998587949
 21
2298.489665341232
 31
0.0
  0
LINE
  5
85
  8
0
  6
CONTINUOUS
 62
     7
 10
1758.749985879492
 20
652.489665341238
 30
0.0
 11
1758.749985879492
 21
2298.489665341238
 31
0.0
  0
LINE
  5
86
  8
0
  6
CONTINUOUS
 62
     7
 10
1758.749985879492
 20
2298.489665341238
 30
0.0
 11
2054.749985879489
 21
2298.489665341238
 31
0.0
  0
LINE
  5
87
  8
0
  6
CONTINUOUS
 62
     7
 10
2054.749985879489
 20
652.4896653412382
 30
0.0
 11
1758.749985879492
 21
652.489665341238
 31
0.0
  0
LINE
  5
88
  8
0
  6
CONTINUOUS
 62
     7
 10
2054.749985879489
 20
2298.489665341238
 30
0.0
 11
2054.749985879489
 21
652.4896653412382
 31
0.0
  0
LINE
  5
89
  8
0
  6
CONTINUOUS
 62
     7
 10
2338.249985879494
 20
650.9896653412377
 30
0.0
 11
1774.749985879494
 21
650.9896653412377
 31
0.0
  0
LINE
  5
8A
  8
0
  6
CONTINUOUS
 62
     7
 10
2054.749985879489
 20
2281.989665341237
 30
0.0
 11
2058.249985879491
 21
2281.989665341237
 31
0.0
  0
LINE
  5
8B
  8
0
  6
CONTINUOUS
 62
     7
 10
2054.749985879489
 20
668.989665341237
 30
0.0
 11
2058.249985879494
 21
668.989665341237
 31
0.0
  0
LINE
  5
8C
  8
0
  6
CONTINUOUS
 62
     7
 10
2054.749985879489
 20
668.489665341238
 30
0.0
 11
2058.249985879494
 21
668.489665341238
 31
0.0
  0
LINE
  5
8D
  8
0
  6
CONTINUOUS
 62
     7
 10
1774.749985879494
 20
651.489665341238
 30
0.0
 11
2338.249985879494
 21
651.489665341238
 31
0.0
  0
LINE
  5
8E
  8
0
  6
CONTINUOUS
 62
     7
 10
2338.249985879494
 20
2299.489665341238
 30
0.0
 11
1774.749985879494
 21
2299.489665341238
 31
0.0
  0
LINE
  5
8F
  8
0
  6
CONTINUOUS
 62
     7
 10
2058.249985879491
 20
2282.489665341238
 30
0.0
 11
2054.749985879489
 21
2282.489665341238
 31
0.0
  0
LINE
  5
90
  8
0
  6
CONTINUOUS
 62
     7
 10
2338.249985879494
 20
650.489665341238
 30
0.0
 11
2338.249985879494
 21
652.4896653412334
 31
0.0
  0
LINE
  5
91
  8
0
  6
CONTINUOUS
 62
     7
 10
2338.249985879494
 20
2298.489665341232
 30
0.0
 11
2338.249985879494
 21
2300.489665341238
 31
0.0
  0
LINE
  5
92
  8
0
  6
CONTINUOUS
 62
     7
 10
2355.749985879494
 20
2300.489665341238
 30
0.0
 11
2338.249985879494
 21
2300.489665341238
 31
0.0
  0
LINE
  5
93
  8
0
  6
CONTINUOUS
 62
     7
 10
2355.749985879494
 20
650.489665341238
 30
0.0
 11
2338.249985879494
 21
650.489665341238
 31
0.0
  0
LINE
  5
94
  8
0
  6
CONTINUOUS
 62
     7
 10
2355.749985879494
 20
650.489665341238
 30
0.0
 11
2355.749985879494
 21
2300.489665341238
 31
0.0
  0
LINE
  5
95
  8
0
  6
CONTINUOUS
 62
     7
 10
1774.749985879494
 20
2300.489665341238
 30
0.0
 11
1774.749985879494
 21
2298.489665341238
 31
0.0
  0
LINE
  5
96
  8
0
  6
CONTINUOUS
 62
     7
 10
1774.749985879494
 20
652.4896653412379
 30
0.0
 11
1774.749985879494
 21
650.489665341238
 31
0.0
  0
LINE
  5
97
  8
0
  6
CONTINUOUS
 62
     7
 10
1757.249985879494
 20
650.489665341238
 30
0.0
 11
1774.749985879494
 21
650.489665341238
 31
0.0
  0
LINE
  5
98
  8
0
  6
CONTINUOUS
 62
     7
 10
1757.249985879494
 20
2300.489665341238
 30
0.0
 11
1774.749985879494
 21
2300.489665341238
 31
0.0
  0
LINE
  5
99
  8
0
  6
CONTINUOUS
 62
     7
 10
1757.249985879494
 20
2300.489665341238
 30
0.0
 11
1757.249985879494
 21
650.489665341238
 31
0.0
  0
LINE
  5
9A
  8
0
  6
CONTINUOUS
 62
     7
 10
725.7546359306814
 20
1680.414665461888
 30
0.0
 11
727.7546359306724
 21
1680.414665465812
 31
0.0
  0
LINE
  5
9B
  8
0
  6
CONTINUOUS
 62
     7
 10
727.7546359306724
 20
1687.564665465812
 30
0.0
 11
725.7546359306814
 21
1687.564665461888
 31
0.0
  0
LINE
  5
9C
  8
0
  6
CONTINUOUS
 62
     7
 10
727.7546359306801
 20
1270.989665341238
 30
0.0
 11
725.7546359306801
 21
1270.989665341238
 31
0.0
  0
LINE
  5
9D
  8
0
  6
CONTINUOUS
 62
     7
 10
725.7546359306801
 20
1235.989665341238
 30
0.0
 11
727.7546359306801
 21
1235.989665341238
 31
0.0
  0
LINE
  5
9E
  8
0
  6
CONTINUOUS
 62
     7
 10
725.7546359306801
 20
680.4896653412383
 30
0.0
 11
727.7546359306801
 21
680.4896653412383
 31
0.0
  0
LINE
  5
9F
  8
0
  6
CONTINUOUS
 62
     7
 10
727.7546359306801
 20
780.4896653412382
 30
0.0
 11
725.7546359306801
 21
780.4896653412382
 31
0.0
  0
LINE
  5
A0
  8
0
  6
CONTINUOUS
 62
     7
 10
727.7546359306801
 20
1752.989665341238
 30
0.0
 11
725.7546359306801
 21
1752.989665341238
 31
0.0
  0
LINE
  5
A1
  8
0
  6
CONTINUOUS
 62
     7
 10
725.7546359306801
 20
1717.989665341238
 30
0.0
 11
727.7546359306801
 21
1717.989665341238
 31
0.0
  0
LINE
  5
A2
  8
0
  6
CONTINUOUS
 62
     7
 10
727.7546359306801
 20
2270.489665341238
 30
0.0
 11
725.7546359306801
 21
2270.489665341238
 31
0.0
  0
LINE
  5
A3
  8
0
  6
CONTINUOUS
 62
     7
 10
725.7546359306801
 20
2208.489665341238
 30
0.0
 11
727.7546359306801
 21
2208.489665341238
 31
0.0
  0
LINE
  5
A4
  8
0
  6
CONTINUOUS
 62
     7
 10
727.7546359306801
 20
700.4896653412382
 30
0.0
 11
725.7546359306801
 21
700.4896653412382
 31
0.0
  0
LINE
  5
A5
  8
0
  6
CONTINUOUS
 62
     7
 10
725.7546359306801
 20
760.4896653412382
 30
0.0
 11
727.7546359306801
 21
760.4896653412382
 31
0.0
  0
LINE
  5
A6
  8
0
  6
CONTINUOUS
 62
     7
 10
727.7546359306801
 20
2228.489665341238
 30
0.0
 11
725.7546359306801
 21
2228.489665341238
 31
0.0
  0
LINE
  5
A7
  8
0
  6
CONTINUOUS
 62
     7
 10
725.7546359306801
 20
2250.489665341238
 30
0.0
 11
727.7546359306801
 21
2250.489665341238
 31
0.0
  0
LINE
  5
A8
  8
0
  6
CONTINUOUS
 62
     7
 10
727.7546359306713
 20
652.489665341238
 30
0.0
 11
727.7546359306713
 21
2298.489665341238
 31
0.0
  0
LINE
  5
A9
  8
0
  6
CONTINUOUS
 62
     7
 10
745.7546359306713
 20
2298.489665341238
 30
0.0
 11
727.7546359306713
 21
2298.489665341238
 31
0.0
  0
LINE
  5
AA
  8
0
  6
CONTINUOUS
 62
     7
 10
745.7546359306713
 20
652.489665341238
 30
0.0
 11
745.7546359306713
 21
2298.489665341238
 31
0.0
  0
LINE
  5
AB
  8
0
  6
CONTINUOUS
 62
     7
 10
727.7546359306713
 20
652.489665341238
 30
0.0
 11
745.7546359306713
 21
652.489665341238
 31
0.0
  0
LINE
  5
AC
  8
0
  6
CONTINUOUS
 62
     7
 10
445.7546359306803
 20
650.489665341238
 30
0.0
 11
445.7546359306803
 21
2300.489665341238
 31
0.0
  0
LINE
  5
AD
  8
0
  6
CONTINUOUS
 62
     7
 10
445.7546359306803
 20
2300.489665341238
 30
0.0
 11
725.7546359306804
 21
2300.489665341238
 31
0.0
  0
LINE
  5
AE
  8
0
  6
CONTINUOUS
 62
     7
 10
725.7546359306804
 20
2300.489665341238
 30
0.0
 11
725.7546359306804
 21
650.489665341238
 31
0.0
  0
LINE
  5
AF
  8
0
  6
CONTINUOUS
 62
     7
 10
725.7546359306804
 20
650.489665341238
 30
0.0
 11
445.7546359306803
 21
650.489665341238
 31
0.0
  0
LINE
  5
B0
  8
0
  6
CONTINUOUS
 62
     7
 10
3134.934766480425
 20
1687.564665461888
 30
0.0
 11
3132.934766480435
 21
1687.564665465812
 31
0.0
  0
LINE
  5
B1
  8
0
  6
CONTINUOUS
 62
     7
 10
3132.934766480435
 20
1680.414665465812
 30
0.0
 11
3134.934766480425
 21
1680.414665461888
 31
0.0
  0
LINE
  5
B2
  8
0
  6
CONTINUOUS
 62
     7
 10
3132.934766480426
 20
1235.989665341232
 30
0.0
 11
3134.934766480426
 21
1235.989665341232
 31
0.0
  0
LINE
  5
B3
  8
0
  6
CONTINUOUS
 62
     7
 10
3134.934766480426
 20
1270.989665341232
 30
0.0
 11
3132.934766480426
 21
1270.989665341232
 31
0.0
  0
LINE
  5
B4
  8
0
  6
CONTINUOUS
 62
     7
 10
3132.934766480426
 20
680.4896653412322
 30
0.0
 11
3134.934766480426
 21
680.4896653412322
 31
0.0
  0
LINE
  5
B5
  8
0
  6
CONTINUOUS
 62
     7
 10
3134.934766480426
 20
780.4896653412322
 30
0.0
 11
3132.934766480426
 21
780.4896653412322
 31
0.0
  0
LINE
  5
B6
  8
0
  6
CONTINUOUS
 62
     7
 10
3132.934766480426
 20
1717.989665341232
 30
0.0
 11
3134.934766480426
 21
1717.989665341232
 31
0.0
  0
LINE
  5
B7
  8
0
  6
CONTINUOUS
 62
     7
 10
3134.934766480426
 20
1752.989665341232
 30
0.0
 11
3132.934766480426
 21
1752.989665341232
 31
0.0
  0
LINE
  5
B8
  8
0
  6
CONTINUOUS
 62
     7
 10
3134.934766480426
 20
2270.489665341232
 30
0.0
 11
3132.934766480426
 21
2270.489665341232
 31
0.0
  0
LINE
  5
B9
  8
0
  6
CONTINUOUS
 62
     7
 10
3132.934766480426
 20
2208.489665341232
 30
0.0
 11
3134.934766480426
 21
2208.489665341232
 31
0.0
  0
LINE
  5
BA
  8
0
  6
CONTINUOUS
 62
     7
 10
3132.934766480426
 20
760.4896653412322
 30
0.0
 11
3134.934766480426
 21
760.4896653412322
 31
0.0
  0
LINE
  5
BB
  8
0
  6
CONTINUOUS
 62
     7
 10
3134.934766480426
 20
700.4896653412322
 30
0.0
 11
3132.934766480426
 21
700.4896653412322
 31
0.0
  0
LINE
  5
BC
  8
0
  6
CONTINUOUS
 62
     7
 10
3132.934766480426
 20
2250.489665341232
 30
0.0
 11
3134.934766480426
 21
2250.489665341232
 31
0.0
  0
LINE
  5
BD
  8
0
  6
CONTINUOUS
 62
     7
 10
3134.934766480426
 20
2228.489665341232
 30
0.0
 11
3132.934766480426
 21
2228.489665341232
 31
0.0
  0
LINE
  5
BE
  8
0
  6
CONTINUOUS
 62
     7
 10
3114.934766480445
 20
652.4896653412333
 30
0.0
 11
3132.934766480441
 21
652.4896653412333
 31
0.0
  0
LINE
  5
BF
  8
0
  6
CONTINUOUS
 62
     7
 10
3114.934766480443
 20
2298.489665341232
 30
0.0
 11
3132.934766480441
 21
2298.489665341232
 31
0.0
  0
LINE
  5
C0
  8
0
  6
CONTINUOUS
 62
     7
 10
3114.934766480443
 20
2298.489665341232
 30
0.0
 11
3114.934766480445
 21
652.4896653412333
 31
0.0
  0
LINE
  5
C1
  8
0
  6
CONTINUOUS
 62
     7
 10
3132.934766480441
 20
2298.489665341232
 30
0.0
 11
3132.934766480441
 21
652.4896653412333
 31
0.0
  0
LINE
  5
C2
  8
0
  6
CONTINUOUS
 62
     7
 10
3414.934766480426
 20
2300.489665341238
 30
0.0
 11
3414.934766480426
 21
650.489665341238
 31
0.0
  0
LINE
  5
C3
  8
0
  6
CONTINUOUS
 62
     7
 10
3414.934766480426
 20
650.489665341238
 30
0.0
 11
3134.934766480426
 21
650.489665341238
 31
0.0
  0
LINE
  5
C4
  8
0
  6
CONTINUOUS
 62
     7
 10
3134.934766480426
 20
650.489665341238
 30
0.0
 11
3134.934766480426
 21
2300.489665341238
 31
0.0
  0
LINE
  5
C5
  8
0
  6
CONTINUOUS
 62
     7
 10
3134.934766480426
 20
2300.489665341238
 30
0.0
 11
3414.934766480426
 21
2300.489665341238
 31
0.0
  0
LINE
  5
C6
  8
0
  6
CONTINUOUS
 62
     7
 10
2069.659393513337
 20
2744.763998257233
 30
0.0
 11
2069.659393513337
 21
2742.263998257251
 31
0.0
  0
LINE
  5
C7
  8
0
  6
CONTINUOUS
 62
     7
 10
2076.809393513337
 20
2742.263998257251
 30
0.0
 11
2076.809393513337
 21
2744.763998257233
 31
0.0
  0
LINE
  5
C8
  8
0
  6
CONTINUOUS
 62
     7
 10
2036.159393513336
 20
2744.763998257233
 30
0.0
 11
2036.159393513336
 21
2742.263998257242
 31
0.0
  0
LINE
  5
C9
  8
0
  6
CONTINUOUS
 62
     7
 10
2043.309393513336
 20
2742.263998257242
 30
0.0
 11
2043.309393513336
 21
2744.763998257233
 31
0.0
  0
LINE
  5
CA
  8
0
  6
CONTINUOUS
 62
     7
 10
2226.249985879482
 20
2742.263998257235
 30
0.0
 11
2226.249985879482
 21
2744.263998257234
 31
0.0
  0
LINE
  5
CB
  8
0
  6
CONTINUOUS
 62
     7
 10
2186.249985879482
 20
2744.263998257234
 30
0.0
 11
2186.249985879482
 21
2742.263998257235
 31
0.0
  0
LINE
  5
CC
  8
0
  6
CONTINUOUS
 62
     7
 10
2186.249985879482
 20
2744.263998257234
 30
0.0
 11
2226.249985879482
 21
2744.263998257234
 31
0.0
  0
LINE
  5
CD
  8
0
  6
CONTINUOUS
 62
     7
 10
1926.749985879482
 20
2742.263998257235
 30
0.0
 11
1926.749985879482
 21
2744.263998257235
 31
0.0
  0
LINE
  5
CE
  8
0
  6
CONTINUOUS
 62
     7
 10
1886.749985879482
 20
2744.263998257235
 30
0.0
 11
1886.749985879482
 21
2742.263998257235
 31
0.0
  0
LINE
  5
CF
  8
0
  6
CONTINUOUS
 62
     7
 10
1886.749985879482
 20
2744.263998257235
 30
0.0
 11
1926.749985879482
 21
2744.263998257235
 31
0.0
  0
LINE
  5
D0
  8
0
  6
CONTINUOUS
 62
     7
 10
2124.851350160572
 20
2743.463998257242
 30
0.0
 11
2124.939187998409
 21
2744.763998257235
 31
0.0
  0
LINE
  5
D1
  8
0
  6
CONTINUOUS
 62
     7
 10
2145.648621598415
 20
2743.463998257241
 30
0.0
 11
2124.851350160572
 21
2743.463998257242
 31
0.0
  0
LINE
  5
D2
  8
0
  6
CONTINUOUS
 62
     7
 10
2145.560783760577
 20
2744.763998257235
 30
0.0
 11
2145.648621598415
 21
2743.463998257241
 31
0.0
  0
LINE
  5
D3
  8
0
  6
CONTINUOUS
 62
     7
 10
2150.249985879493
 20
2743.463998257242
 30
0.0
 11
2150.249985879493
 21
2742.263998257242
 31
0.0
  0
LINE
  5
D4
  8
0
  6
CONTINUOUS
 62
     7
 10
2120.249985879494
 20
2742.263998257241
 30
0.0
 11
2120.249985879494
 21
2743.463998257241
 31
0.0
  0
LINE
  5
D5
  8
0
  6
CONTINUOUS
 62
     7
 10
2120.249985879494
 20
2743.463998257241
 30
0.0
 11
2120.340768002398
 21
2744.763998257235
 31
0.0
  0
LINE
  5
D6
  8
0
  6
CONTINUOUS
 62
     7
 10
2150.159203756589
 20
2744.763998257235
 30
0.0
 11
2150.249985879493
 21
2743.463998257242
 31
0.0
  0
LINE
  5
D7
  8
0
  6
CONTINUOUS
 62
     7
 10
1967.351350160571
 20
2743.463998257239
 30
0.0
 11
1967.439187998409
 21
2744.763998257235
 31
0.0
  0
LINE
  5
D8
  8
0
  6
CONTINUOUS
 62
     7
 10
1988.148621598414
 20
2743.463998257238
 30
0.0
 11
1967.351350160571
 21
2743.463998257239
 31
0.0
  0
LINE
  5
D9
  8
0
  6
CONTINUOUS
 62
     7
 10
1988.060783760576
 20
2744.763998257235
 30
0.0
 11
1988.148621598414
 21
2743.463998257238
 31
0.0
  0
LINE
  5
DA
  8
0
  6
CONTINUOUS
 62
     7
 10
1992.749985879493
 20
2743.463998257239
 30
0.0
 11
1992.749985879493
 21
2742.263998257239
 31
0.0
  0
LINE
  5
DB
  8
0
  6
CONTINUOUS
 62
     7
 10
1962.749985879493
 20
2742.263998257238
 30
0.0
 11
1962.749985879493
 21
2743.463998257238
 31
0.0
  0
LINE
  5
DC
  8
0
  6
CONTINUOUS
 62
     7
 10
1962.749985879493
 20
2743.463998257238
 30
0.0
 11
1962.840768002397
 21
2744.763998257235
 31
0.0
  0
LINE
  5
DD
  8
0
  6
CONTINUOUS
 62
     7
 10
1992.659203756588
 20
2744.763998257235
 30
0.0
 11
1992.749985879493
 21
2743.463998257239
 31
0.0
  0
LINE
  5
DE
  8
0
  6
CONTINUOUS
 62
     7
 10
2354.24998587949
 20
2724.263998257251
 30
0.0
 11
2354.24998587949
 21
2742.26399825725
 31
0.0
  0
LINE
  5
DF
  8
0
  6
CONTINUOUS
 62
     7
 10
2058.249985879491
 20
2724.26399825725
 30
0.0
 11
2354.24998587949
 21
2724.263998257251
 31
0.0
  0
LINE
  5
E0
  8
0
  6
CONTINUOUS
 62
     7
 10
2058.249985879491
 20
2742.263998257254
 30
0.0
 11
2354.24998587949
 21
2742.26399825725
 31
0.0
  0
LINE
  5
E1
  8
0
  6
CONTINUOUS
 62
     7
 10
2058.249985879491
 20
2724.26399825725
 30
0.0
 11
2058.249985879491
 21
2742.263998257254
 31
0.0
  0
LINE
  5
E2
  8
0
  6
CONTINUOUS
 62
     7
 10
1758.749985879492
 20
2724.263998257244
 30
0.0
 11
2054.749985879489
 21
2724.263998257244
 31
0.0
  0
LINE
  5
E3
  8
0
  6
CONTINUOUS
 62
     7
 10
1758.749985879492
 20
2742.263998257244
 30
0.0
 11
2054.749985879489
 21
2742.263998257244
 31
0.0
  0
LINE
  5
E4
  8
0
  6
CONTINUOUS
 62
     7
 10
1758.749985879492
 20
2724.263998257244
 30
0.0
 11
1758.749985879492
 21
2742.263998257244
 31
0.0
  0
LINE
  5
E5
  8
0
  6
CONTINUOUS
 62
     7
 10
2054.749985879489
 20
2724.263998257244
 30
0.0
 11
2054.749985879489
 21
2742.263998257244
 31
0.0
  0
LINE
  5
E6
  8
0
  6
CONTINUOUS
 62
     7
 10
1774.749985879494
 20
3024.263998257235
 30
0.0
 11
2338.249985879494
 21
3024.263998257235
 31
0.0
  0
LINE
  5
E7
  8
0
  6
CONTINUOUS
 62
     7
 10
2338.249985879494
 20
2744.763998257235
 30
0.0
 11
1774.749985879494
 21
2744.763998257235
 31
0.0
  0
LINE
  5
E8
  8
0
  6
CONTINUOUS
 62
     7
 10
2338.249985879494
 20
3024.263998257235
 30
0.0
 11
2355.749985879494
 21
3024.263998257235
 31
0.0
  0
LINE
  5
E9
  8
0
  6
CONTINUOUS
 62
     7
 10
2355.749985879494
 20
2744.263998257235
 30
0.0
 11
2338.249985879494
 21
2744.263998257235
 31
0.0
  0
LINE
  5
EA
  8
0
  6
CONTINUOUS
 62
     7
 10
2338.249985879494
 20
2744.263998257235
 30
0.0
 11
2338.249985879494
 21
3024.263998257235
 31
0.0
  0
LINE
  5
EB
  8
0
  6
CONTINUOUS
 62
     7
 10
2355.749985879494
 20
2744.263998257235
 30
0.0
 11
2355.749985879494
 21
3024.263998257235
 31
0.0
  0
LINE
  5
EC
  8
0
  6
CONTINUOUS
 62
     7
 10
1774.749985879494
 20
3024.263998257235
 30
0.0
 11
1774.749985879494
 21
2744.263998257235
 31
0.0
  0
LINE
  5
ED
  8
0
  6
CONTINUOUS
 62
     7
 10
1757.249985879494
 20
2744.263998257235
 30
0.0
 11
1774.749985879494
 21
2744.263998257235
 31
0.0
  0
LINE
  5
EE
  8
0
  6
CONTINUOUS
 62
     7
 10
1757.249985879494
 20
3024.263998257235
 30
0.0
 11
1774.749985879494
 21
3024.263998257235
 31
0.0
  0
LINE
  5
EF
  8
0
  6
CONTINUOUS
 62
     7
 10
1757.249985879494
 20
3024.263998257235
 30
0.0
 11
1757.249985879494
 21
2744.263998257235
 31
0.0
  0
CIRCLE
  5
F0
  8
0
  6
CONTINUOUS
 62
     7
 10
4152.501635563823
 20
2240.989665341238
 30
0.0
 40
1.500000000012278
  0
ARC
  5
F1
  8
0
  6
CONTINUOUS
 62
     7
 10
4143.001635559477
 20
2218.489665341233
 30
0.0
 40
17.5000000000015
 50
307.2256774326595
 51
62.79710558784035
  0
CIRCLE
  5
F2
  8
0
  6
CONTINUOUS
 62
     7
 10
4688.001635555118
 20
2240.989665341237
 30
0.0
 40
1.499999999997272
  0
ARC
  5
F3
  8
0
  6
CONTINUOUS
 62
     7
 10
4697.50163555947
 20
2218.489665341238
 30
0.0
 40
17.50000000000109
 50
117.2028944122396
 51
232.7743225170092
  0
LINE
  5
F4
  8
0
  6
CONTINUOUS
 62
     7
 10
4138.751635559464
 20
700.9896653412377
 30
0.0
 11
4138.751635559464
 21
650.9896653412377
 31
0.0
  0
LINE
  5
F5
  8
0
  6
CONTINUOUS
 62
     7
 10
4138.751635559464
 20
700.9896653412377
 30
0.0
 11
4701.751635559464
 21
700.9896653412377
 31
0.0
  0
LINE
  5
F6
  8
0
  6
CONTINUOUS
 62
     7
 10
4701.751635559464
 20
650.9896653412377
 30
0.0
 11
4701.751635559464
 21
700.9896653412377
 31
0.0
  0
LINE
  5
F7
  8
0
  6
CONTINUOUS
 62
     7
 10
4138.751635559464
 20
650.9896653412377
 30
0.0
 11
4701.751635559464
 21
650.9896653412377
 31
0.0
  0
LINE
  5
F8
  8
0
  6
CONTINUOUS
 62
     7
 10
4138.751635559464
 20
1700.489665341238
 30
0.0
 11
4138.751635559464
 21
1650.989665341238
 31
0.0
  0
LINE
  5
F9
  8
0
  6
CONTINUOUS
 62
     7
 10
4138.751635559464
 20
1700.489665341238
 30
0.0
 11
4701.751635559464
 21
1700.489665341238
 31
0.0
  0
LINE
  5
FA
  8
0
  6
CONTINUOUS
 62
     7
 10
4701.751635559464
 20
1650.989665341238
 30
0.0
 11
4701.751635559464
 21
1700.489665341238
 31
0.0
  0
LINE
  5
FB
  8
0
  6
CONTINUOUS
 62
     7
 10
4138.751635559464
 20
1650.989665341238
 30
0.0
 11
4701.751635559464
 21
1650.989665341238
 31
0.0
  0
CIRCLE
  5
FC
  8
0
  6
CONTINUOUS
 62
     7
 10
4420.251635559465
 20
1390.489665341238
 30
0.0
 40
5.0
  0
CIRCLE
  5
FD
  8
0
  6
CONTINUOUS
 62
     7
 10
4420.251635559465
 20
1141.989665341238
 30
0.0
 40
5.0
  0
CIRCLE
  5
FE
  8
0
  6
CONTINUOUS
 62
     7
 10
4420.251635559465
 20
893.489665341238
 30
0.0
 40
5.0
  0
CIRCLE
  5
FF
  8
0
  6
CONTINUOUS
 62
     7
 10
4420.251635559465
 20
1638.989665341238
 30
0.0
 40
5.0
  0
LINE
  5
100
  8
0
  6
CONTINUOUS
 62
     7
 10
4138.501635559464
 20
650.9896653412377
 30
0.0
 11
4138.751635559464
 21
650.9896653412377
 31
0.0
  0
LINE
  5
101
  8
0
  6
CONTINUOUS
 62
     7
 10
4701.751635559464
 20
650.9896653412377
 30
0.0
 11
4702.001635559464
 21
650.9896653412377
 31
0.0
  0
LINE
  5
102
  8
0
  6
CONTINUOUS
 62
     7
 10
4138.501635559464
 20
1700.489665341238
 30
0.0
 11
4138.751635559464
 21
1700.489665341238
 31
0.0
  0
LINE
  5
103
  8
0
  6
CONTINUOUS
 62
     7
 10
4701.751635559464
 20
1700.489665341238
 30
0.0
 11
4702.001635559464
 21
1700.489665341238
 31
0.0
  0
CIRCLE
  5
104
  8
0
  6
CONTINUOUS
 62
     7
 10
4420.251635559465
 20
893.489665341238
 30
0.0
 40
1.5
  0
CIRCLE
  5
105
  8
0
  6
CONTINUOUS
 62
     7
 10
4420.251635559465
 20
1638.989665341238
 30
0.0
 40
1.5
  0
CIRCLE
  5
106
  8
0
  6
CONTINUOUS
 62
     7
 10
4420.251635559465
 20
1141.989665341238
 30
0.0
 40
1.5
  0
CIRCLE
  5
107
  8
0
  6
CONTINUOUS
 62
     7
 10
4420.251635559465
 20
1390.489665341238
 30
0.0
 40
1.5
  0
CIRCLE
  5
108
  8
0
  6
CONTINUOUS
 62
     7
 10
4420.251635559465
 20
1994.489665341237
 30
0.0
 40
5.0
  0
CIRCLE
  5
109
  8
0
  6
CONTINUOUS
 62
     7
 10
4420.251635559465
 20
1744.489665341237
 30
0.0
 40
5.0
  0
CIRCLE
  5
10A
  8
0
  6
CONTINUOUS
 62
     7
 10
4420.251635559465
 20
2224.489665341237
 30
0.0
 40
5.0
  0
LINE
  5
10B
  8
0
  6
CONTINUOUS
 62
     7
 10
4138.501635559464
 20
1701.489665341238
 30
0.0
 11
4702.001635559464
 21
1701.489665341238
 31
0.0
  0
LINE
  5
10C
  8
0
  6
CONTINUOUS
 62
     7
 10
4677.501635559465
 20
2209.489665341238
 30
0.0
 11
4677.501635559465
 21
2251.489665341238
 31
0.0
  0
ARC
  5
10D
  8
0
  6
CONTINUOUS
 62
     7
 10
4683.501635559464
 20
2209.489665341238
 30
0.0
 40
6.0
 50
180.0
 51
0.0
  0
LINE
  5
10E
  8
0
  6
CONTINUOUS
 62
     7
 10
4689.501635559464
 20
2251.489665341238
 30
0.0
 11
4689.501635559464
 21
2209.489665341238
 31
0.0
  0
ARC
  5
10F
  8
0
  6
CONTINUOUS
 62
     7
 10
4683.501635559464
 20
2251.489665341238
 30
0.0
 40
6.0
 50
0.0
 51
180.0
  0
ARC
  5
110
  8
0
  6
CONTINUOUS
 62
     7
 10
4157.001635559464
 20
2251.489665341238
 30
0.0
 40
6.000000000000909
 50
0.0000000000002714
 51
180.0
  0
LINE
  5
111
  8
0
  6
CONTINUOUS
 62
     7
 10
4151.001635559464
 20
2251.489665341238
 30
0.0
 11
4151.001635559464
 21
2209.489665341238
 31
0.0
  0
ARC
  5
112
  8
0
  6
CONTINUOUS
 62
     7
 10
4157.001635559464
 20
2209.489665341238
 30
0.0
 40
6.000000000000909
 50
179.9999999999997
 51
0.0
  0
LINE
  5
113
  8
0
  6
CONTINUOUS
 62
     7
 10
4163.001635559465
 20
2209.489665341238
 30
0.0
 11
4163.001635559465
 21
2251.489665341238
 31
0.0
  0
CIRCLE
  5
114
  8
0
  6
CONTINUOUS
 62
     7
 10
4420.251635559465
 20
1744.489665341237
 30
0.0
 40
1.5
  0
CIRCLE
  5
115
  8
0
  6
CONTINUOUS
 62
     7
 10
4420.251635559465
 20
2224.489665341237
 30
0.0
 40
1.5
  0
CIRCLE
  5
116
  8
0
  6
CONTINUOUS
 62
     7
 10
4420.251635559465
 20
1994.489665341237
 30
0.0
 40
1.5
  0
LINE
  5
117
  8
0
  6
CONTINUOUS
 62
     7
 10
4411.501635559465
 20
1701.489665341238
 30
0.0
 11
4411.501635559465
 21
1700.489665341238
 31
0.0
  0
LINE
  5
118
  8
0
  6
CONTINUOUS
 62
     7
 10
4429.001635559465
 20
1700.489665341238
 30
0.0
 11
4429.001635559465
 21
1701.489665341238
 31
0.0
  0
LINE
  5
119
  8
0
  6
CONTINUOUS
 62
     7
 10
4702.001635559464
 20
2282.489665341238
 30
0.0
 11
4702.001635559464
 21
2299.489665341238
 31
0.0
  0
LINE
  5
11A
  8
0
  6
CONTINUOUS
 62
     7
 10
4702.001635559464
 20
2282.489665341238
 30
0.0
 11
4138.501635559464
 21
2282.489665341238
 31
0.0
  0
LINE
  5
11B
  8
0
  6
CONTINUOUS
 62
     7
 10
4138.501635559464
 20
2282.489665341238
 30
0.0
 11
4138.501635559464
 21
2299.489665341238
 31
0.0
  0
LINE
  5
11C
  8
0
  6
CONTINUOUS
 62
     7
 10
4702.001635559464
 20
2299.489665341238
 30
0.0
 11
4138.501635559464
 21
2299.489665341238
 31
0.0
  0
LINE
  5
11D
  8
0
  6
CONTINUOUS
 62
     7
 10
4138.501635559465
 20
650.489665341238
 30
0.0
 11
4138.501635559465
 21
2300.489665341238
 31
0.0
  0
LINE
  5
11E
  8
0
  6
CONTINUOUS
 62
     7
 10
4121.001635559465
 20
2300.489665341238
 30
0.0
 11
4121.001635559465
 21
650.489665341238
 31
0.0
  0
LINE
  5
11F
  8
0
  6
CONTINUOUS
 62
     7
 10
4138.501635559465
 20
2300.489665341238
 30
0.0
 11
4121.001635559465
 21
2300.489665341238
 31
0.0
  0
LINE
  5
120
  8
0
  6
CONTINUOUS
 62
     7
 10
4121.001635559465
 20
650.489665341238
 30
0.0
 11
4138.501635559465
 21
650.489665341238
 31
0.0
  0
LINE
  5
121
  8
0
  6
CONTINUOUS
 62
     7
 10
4719.501635559464
 20
2300.489665341238
 30
0.0
 11
4702.001635559464
 21
2300.489665341238
 31
0.0
  0
LINE
  5
122
  8
0
  6
CONTINUOUS
 62
     7
 10
4702.001635559464
 20
650.489665341238
 30
0.0
 11
4719.501635559464
 21
650.489665341238
 31
0.0
  0
LINE
  5
123
  8
0
  6
CONTINUOUS
 62
     7
 10
4702.001635559464
 20
2300.489665341238
 30
0.0
 11
4702.001635559464
 21
650.489665341238
 31
0.0
  0
LINE
  5
124
  8
0
  6
CONTINUOUS
 62
     7
 10
4719.501635559464
 20
650.489665341238
 30
0.0
 11
4719.501635559464
 21
2300.489665341238
 31
0.0
  0
ENDSEC
  0
EOF
