  0
SECTION
  2
HEADER
  9
$ACADVER
  1
AC1006
  9
$DWGCODEPAGE
  3
dos932
  9
$INSBASE
 10
0.0
 20
0.0
 30
0.0
  9
$EXTMIN
 10
0.0
 20
0.0
  9
$EXTMAX
 10
5000.0
 20
3500.0
  9
$LIMMIN
 10
0.0
 20
0.0
  9
$LIMMAX
 10
5000.0
 20
3500.0
  9
$ORTHOMODE
 70
     0
  9
$REGENMODE
 70
     1
  9
$FILLMODE
 70
     1
  9
$QTEXTMODE
 70
     0
  9
$MIRRTEXT
 70
     1
  9
$DRAGMODE
 70
     2
  9
$LTSCALE
 40
1.0
  9
$OSMODE
 70
    37
  9
$ATTMODE
 70
     1
  9
$TEXTSIZE
 40
3.5
  9
$TRACEWID
 40
1.0
  9
$TEXTSTYLE
  7
STANDARD
  9
$CLAYER
  8
0
  9
$CELTYPE
  6
BYLAYER
  9
$CECOLOR
 62
   256
  9
$DIMSCALE
 40
1.0
  9
$DIMASZ
 40
3.302
  9
$DIMEXO
 40
1.0
  9
$DIMDLI
 40
3.75
  9
$DIMRND
 40
0.0
  9
$DIMDLE
 40
0.0
  9
$DIMEXE
 40
1.0
  9
$DIMTP
 40
0.0
  9
$DIMTM
 40
0.0
  9
$DIMTXT
 40
3.5
  9
$DIMCEN
 40
2.5
  9
$DIMTSZ
 40
0.0
  9
$DIMTOL
 70
     0
  9
$DIMLIM
 70
     0
  9
$DIMTIH
 70
     1
  9
$DIMTOH
 70
     1
  9
$DIMSE1
 70
     0
  9
$DIMSE2
 70
     0
  9
$DIMTAD
 70
     1
  9
$DIMZIN
 70
     0
  9
$DIMBLK
  1

  9
$DIMASO
 70
     1
  9
$DIMSHO
 70
     1
  9
$DIMPOST
  1

  9
$DIMAPOST
  1

  9
$DIMALT
 70
     0
  9
$DIMALTD
 70
     3
  9
$DIMALTF
 40
0.0393700787401575
  9
$DIMLFAC
 40
1.0
  9
$DIMTOFL
 70
     1
  9
$DIMTVP
 40
0.0
  9
$DIMTIX
 70
     0
  9
$DIMSOXD
 70
     0
  9
$DIMSAH
 70
     0
  9
$DIMBLK1
  1

  9
$DIMBLK2
  1

  9
$LUNITS
 70
     2
  9
$LUPREC
 70
     3
  9
$SKETCHINC
 40
1.0
  9
$FILLETRAD
 40
10.0
  9
$AUNITS
 70
     0
  9
$AUPREC
 70
     2
  9
$MENU
  1
.
  9
$ELEVATION
 40
0.0
  9
$THICKNESS
 40
0.0
  9
$LIMCHECK
 70
     0
  9
$CHAMFERA
 40
0.0
  9
$CHAMFERB
 40
0.0
  9
$SKPOLY
 70
     0
  9
$TDCREATE
 40
2459796.369661377
  9
$TDUPDATE
 40
2460139.357191308
  9
$TDINDWG
 40
0.0000000116
  9
$TDUSRTIMER
 40
0.0000000116
  9
$USRTIMER
 70
     1
  9
$ANGBASE
 50
0.0
  9
$ANGDIR
 70
     0
  9
$PDMODE
 70
     0
  9
$PDSIZE
 40
-1.0
  9
$PLINEWID
 40
0.0
  9
$COORDS
 70
     1
  9
$SPLFRAME
 70
     0
  9
$SPLINETYPE
 70
     6
  9
$SPLINESEGS
 70
     8
  9
$ATTDIA
 70
     0
  9
$ATTREQ
 70
     1
  9
$HANDLING
 70
     1
  9
$HANDSEED
  5
391
  9
$SURFTAB1
 70
     6
  9
$SURFTAB2
 70
     6
  9
$SURFTYPE
 70
     6
  9
$SURFU
 70
     6
  9
$SURFV
 70
     6
  9
$UCSNAME
  2

  9
$UCSORG
 10
0.0
 20
0.0
 30
0.0
  9
$UCSXDIR
 10
1.0
 20
0.0
 30
0.0
  9
$UCSYDIR
 10
0.0
 20
1.0
 30
0.0
  9
$USERI1
 70
     0
  9
$USERI2
 70
     0
  9
$USERI3
 70
     0
  9
$USERI4
 70
     0
  9
$USERI5
 70
     0
  9
$USERR1
 40
0.0
  9
$USERR2
 40
0.0
  9
$USERR3
 40
0.0
  9
$USERR4
 40
0.0
  9
$USERR5
 40
0.0
  9
$WORLDVIEW
 70
     1
  0
ENDSEC
  0
SECTION
  2
TABLES
  0
TABLE
  2
VPORT
 70
     1
  0
VPORT
  2
*ACTIVE
 70
     0
 10
0.0
 20
0.0
 11
1.0
 21
1.0
 12
2500.0
 22
1750.0
 13
0.0
 23
0.0
 14
10.0
 24
10.0
 15
10.0
 25
10.0
 16
0.0
 26
0.0
 36
1.0
 17
0.0
 27
0.0
 37
0.0
 40
3500.0
 41
1.428571428571429
 42
50.0
 43
0.0
 44
0.0
 50
0.0
 51
0.0
 71
     0
 72
  2000
 73
     1
 74
     3
 75
     0
 76
     0
 77
     0
 78
     0
  0
ENDTAB
  0
TABLE
  2
LTYPE
 70
     6
  0
LTYPE
  2
CONTINUOUS
 70
     0
  3
Solid line
 72
    65
 73
     0
 40
0.0
  0
LTYPE
  2
HIDDEN
 70
     0
  3
Hidden __ __ __ __ __ __ __ __ __ __ __ __ __ __
 72
    65
 73
     2
 40
1.905
 49
1.27
 49
-0.635
  0
LTYPE
  2
PHANTOM
 70
     0
  3
Phantom ______  __  __  ______  __  __  ______
 72
    65
 73
     6
 40
12.7
 49
6.35
 49
-1.27
 49
1.27
 49
-1.27
 49
1.27
 49
-1.27
  0
LTYPE
  2
CENTER
 70
     0
  3
Center ____ _ ____ _ ____ _ ____ _ ____ _ ____
 72
    65
 73
     4
 40
10.16
 49
6.35
 49
-1.27
 49
1.27
 49
-1.27
  0
LTYPE
  2
CENTERX2
 70
     0
  3
Center (2x) ________  __  ________  __  _____
 72
    65
 73
     4
 40
20.32
 49
12.7
 49
-2.54
 49
2.54
 49
-2.54
  0
LTYPE
  2
DOT2
 70
     0
  3
Dot (.5x) ........................................
 72
    65
 73
     2
 40
0.635
 49
0.0
 49
-0.635
  0
ENDTAB
  0
TABLE
  2
LAYER
 70
     3
  0
LAYER
  2
0
 70
     0
 62
     7
  6
CONTINUOUS
  0
LAYER
  2
SLD-0
 70
     0
 62
   179
  6
CONTINUOUS
  0
LAYER
  2
寸法
 70
     0
 62
   179
  6
CONTINUOUS
  0
ENDTAB
  0
TABLE
  2
STYLE
 70
     2
  0
STYLE
  2
STANDARD
 70
     0
 40
0.0
 41
1.0
 50
0.0
 71
     0
 42
3.5
  3
txt
  4
bigfont
  0
STYLE
  2
SLDTEXTSTYLE0
 70
     0
 40
0.0
 41
0.75
 50
0.0
 71
     0
 42
3.5
  3
TXT
  4
bigfont
  0
ENDTAB
  0
TABLE
  2
VIEW
 70
     0
  0
ENDTAB
  0
TABLE
  2
UCS
 70
     0
  0
ENDTAB
  0
ENDSEC
  0
SECTION
  2
BLOCKS
  0
ENDSEC
  0
SECTION
  2
ENTITIES
  0
LINE
  5
75
  8
0
  6
CONTINUOUS
 62
     7
 10
4839.484712179223
 20
258.5233124172521
 30
0.0
 11
3312.374599790194
 21
258.5233124172519
 31
0.0
  0
TEXT
  5
77
  8
0
  6
CONTINUOUS
 62
     7
 10
1464.551962569007
 20
3112.118742029093
 30
0.0
 40
52.91666666666666
  1
＜上面＞
 41
0.75
  7
SLDTEXTSTYLE0
  0
TEXT
  5
78
  8
0
  6
CONTINUOUS
 62
     7
 10
355.8266146156561
 20
2059.10287084639
 30
0.0
 40
52.91666666666666
  1
＜左側面＞
 41
0.75
  7
SLDTEXTSTYLE0
  0
TEXT
  5
79
  8
0
  6
CONTINUOUS
 62
     7
 10
1464.551962569006
 20
2059.102870846391
 30
0.0
 40
52.91666666666666
  1
＜正面＞
 41
0.75
  7
SLDTEXTSTYLE0
  0
TEXT
  5
7A
  8
0
  6
CONTINUOUS
 62
     7
 10
3377.814243189123
 20
326.489054196763
 30
0.0
 40
52.91666666666666
  1
品名：
 41
0.75
  7
SLDTEXTSTYLE0
  0
TEXT
  5
7B
  8
0
  6
CONTINUOUS
 62
     7
 10
4446.663437481703
 20
332.3177187478654
 30
0.0
 40
52.91666666666666
  1
Pamouna
 41
0.75
  7
SLDTEXTSTYLE0
  0
TEXT
  5
7C
  8
寸法
  6
CONTINUOUS
 62
     7
 10
4688.007304885427
 20
165.7088516276312
 30
0.0
 40
52.91666666666666
  1
1/1
 41
0.75
  7
SLDTEXTSTYLE0
  0
TEXT
  5
7D
  8
寸法
  6
CONTINUOUS
 62
     7
 10
4198.79693921183
 20
165.7088544215994
 30
0.0
 40
52.91666666666666
  1
2022/08/04
 41
0.75
  7
SLDTEXTSTYLE0
  0
TEXT
  5
7E
  8
寸法
  6
CONTINUOUS
 62
     7
 10
1460.016337783187
 20
1137.89215271946
 30
0.0
 40
52.91666666666666
  1
＜背面＞
 41
0.75
  7
SLDTEXTSTYLE0
  0
TEXT
  5
7F
  8
寸法
  6
CONTINUOUS
 62
     7
 10
3611.283129349215
 20
326.4179237671586
 30
0.0
 40
66.14583333333331
  1
MA-S60FG（-T）
 41
0.75
  7
SLDTEXTSTYLE0
  0
TEXT
  5
80
  8
寸法
  6
CONTINUOUS
 62
     7
 10
3746.752415614053
 20
2059.10287084639
 30
0.0
 40
52.91666666666666
  1
＜右側面＞
 41
0.75
  7
SLDTEXTSTYLE0
  0
LINE
  5
81
  8
0
  6
CONTINUOUS
 62
     7
 10
2644.866085706195
 20
1858.433278746405
 30
0.0
 11
2644.066085706195
 21
1858.433278746405
 31
0.0
  0
ARC
  5
82
  8
0
  6
CONTINUOUS
 62
     7
 10
2644.866085706195
 20
1858.233278746405
 30
0.0
 40
0.1999999999998181
 50
0.0
 51
90.0
  0
LINE
  5
83
  8
0
  6
CONTINUOUS
 62
     7
 10
2644.066085706195
 20
1858.433278746405
 30
0.0
 11
2050.0660857062
 21
1858.433278746406
 31
0.0
  0
ARC
  5
84
  8
0
  6
CONTINUOUS
 62
     7
 10
2049.266085706198
 20
1858.233278746406
 30
0.0
 40
0.1999999999998181
 50
90.0
 51
180.0
  0
LINE
  5
85
  8
0
  6
CONTINUOUS
 62
     7
 10
2050.0660857062
 20
1858.433278746406
 30
0.0
 11
2049.2660857062
 21
1858.433278746406
 31
0.0
  0
LINE
  5
86
  8
0
  6
CONTINUOUS
 62
     7
 10
2645.066085706195
 20
1858.222130024658
 30
0.0
 11
2645.066085706195
 21
1858.133278746405
 31
0.0
  0
LINE
  5
87
  8
0
  6
CONTINUOUS
 62
     7
 10
2644.866085706195
 20
1857.933278746405
 30
0.0
 11
2644.866085706195
 21
1858.419342844222
 31
0.0
  0
ARC
  5
88
  8
0
  6
CONTINUOUS
 62
     7
 10
2644.867469585946
 20
1858.220726586736
 30
0.0
 40
0.1986210785917168
 50
0.404849976007333
 51
90.39920793480508
  0
POLYLINE
  5
89
  8
0
  6
CONTINUOUS
 62
     7
 66
     1
 10
0.0
 20
0.0
 30
0.0
  0
VERTEX
  5
205
  8
0
  6
CONTINUOUS
 62
     7
 10
2645.066085706195
 20
1858.133278746405
 30
0.0
  0
VERTEX
  5
206
  8
0
  6
CONTINUOUS
 62
     7
 10
2645.066068269434
 20
1858.130520814228
 30
0.0
  0
VERTEX
  5
207
  8
0
  6
CONTINUOUS
 62
     7
 10
2645.06601247167
 20
1858.12769437448
 30
0.0
  0
VERTEX
  5
208
  8
0
  6
CONTINUOUS
 62
     7
 10
2645.06591387008
 20
1858.124798587317
 30
0.0
  0
VERTEX
  5
209
  8
0
  6
CONTINUOUS
 62
     7
 10
2645.065769433871
 20
1858.121835429933
 30
0.0
  0
VERTEX
  5
20A
  8
0
  6
CONTINUOUS
 62
     7
 10
2645.065576132248
 20
1858.118806879525
 30
0.0
  0
VERTEX
  5
20B
  8
0
  6
CONTINUOUS
 62
     7
 10
2645.065330934418
 20
1858.115714913286
 30
0.0
  0
VERTEX
  5
20C
  8
0
  6
CONTINUOUS
 62
     7
 10
2645.065030809586
 20
1858.112561508411
 30
0.0
  0
VERTEX
  5
20D
  8
0
  6
CONTINUOUS
 62
     7
 10
2645.06467272696
 20
1858.109348642095
 30
0.0
  0
VERTEX
  5
20E
  8
0
  6
CONTINUOUS
 62
     7
 10
2645.064253655746
 20
1858.106078291535
 30
0.0
  0
VERTEX
  5
20F
  8
0
  6
CONTINUOUS
 62
     7
 10
2645.063770565149
 20
1858.102752433924
 30
0.0
  0
VERTEX
  5
210
  8
0
  6
CONTINUOUS
 62
     7
 10
2645.063220424375
 20
1858.099373046457
 30
0.0
  0
VERTEX
  5
211
  8
0
  6
CONTINUOUS
 62
     7
 10
2645.062600202631
 20
1858.095942106329
 30
0.0
  0
VERTEX
  5
212
  8
0
  6
CONTINUOUS
 62
     7
 10
2645.061906869123
 20
1858.092461590735
 30
0.0
  0
VERTEX
  5
213
  8
0
  6
CONTINUOUS
 62
     7
 10
2645.061137393057
 20
1858.088933476871
 30
0.0
  0
VERTEX
  5
214
  8
0
  6
CONTINUOUS
 62
     7
 10
2645.06028874364
 20
1858.08535974193
 30
0.0
  0
VERTEX
  5
215
  8
0
  6
CONTINUOUS
 62
     7
 10
2645.059357890077
 20
1858.081742363109
 30
0.0
  0
VERTEX
  5
216
  8
0
  6
CONTINUOUS
 62
     7
 10
2645.058341801575
 20
1858.078083317601
 30
0.0
  0
VERTEX
  5
217
  8
0
  6
CONTINUOUS
 62
     7
 10
2645.057237447341
 20
1858.074384582603
 30
0.0
  0
VERTEX
  5
218
  8
0
  6
CONTINUOUS
 62
     7
 10
2645.056041796579
 20
1858.070648135308
 30
0.0
  0
VERTEX
  5
219
  8
0
  6
CONTINUOUS
 62
     7
 10
2645.054751818496
 20
1858.066875952911
 30
0.0
  0
VERTEX
  5
21A
  8
0
  6
CONTINUOUS
 62
     7
 10
2645.053364482299
 20
1858.063070012609
 30
0.0
  0
VERTEX
  5
21B
  8
0
  6
CONTINUOUS
 62
     7
 10
2645.051876757194
 20
1858.059232291595
 30
0.0
  0
VERTEX
  5
21C
  8
0
  6
CONTINUOUS
 62
     7
 10
2645.050285612387
 20
1858.055364767065
 30
0.0
  0
VERTEX
  5
21D
  8
0
  6
CONTINUOUS
 62
     7
 10
2645.048588017084
 20
1858.051469416213
 30
0.0
  0
VERTEX
  5
21E
  8
0
  6
CONTINUOUS
 62
     7
 10
2645.046780927934
 20
1858.047548294058
 30
0.0
  0
VERTEX
  5
21F
  8
0
  6
CONTINUOUS
 62
     7
 10
2645.044861079026
 20
1858.043604835019
 30
0.0
  0
VERTEX
  5
220
  8
0
  6
CONTINUOUS
 62
     7
 10
2645.042825013446
 20
1858.039643657312
 30
0.0
  0
VERTEX
  5
221
  8
0
  6
CONTINUOUS
 62
     7
 10
2645.040669268079
 20
1858.035669417567
 30
0.0
  0
VERTEX
  5
222
  8
0
  6
CONTINUOUS
 62
     7
 10
2645.038390379816
 20
1858.031686772413
 30
0.0
  0
VERTEX
  5
223
  8
0
  6
CONTINUOUS
 62
     7
 10
2645.035984885543
 20
1858.027700378483
 30
0.0
  0
VERTEX
  5
224
  8
0
  6
CONTINUOUS
 62
     7
 10
2645.033449322147
 20
1858.023714892404
 30
0.0
  0
VERTEX
  5
225
  8
0
  6
CONTINUOUS
 62
     7
 10
2645.030780226517
 20
1858.019734970808
 30
0.0
  0
VERTEX
  5
226
  8
0
  6
CONTINUOUS
 62
     7
 10
2645.027974135541
 20
1858.015765270326
 30
0.0
  0
VERTEX
  5
227
  8
0
  6
CONTINUOUS
 62
     7
 10
2645.025027586106
 20
1858.011810447587
 30
0.0
  0
VERTEX
  5
228
  8
0
  6
CONTINUOUS
 62
     7
 10
2645.021937115099
 20
1858.007875159221
 30
0.0
  0
VERTEX
  5
229
  8
0
  6
CONTINUOUS
 62
     7
 10
2645.018699259409
 20
1858.003964061859
 30
0.0
  0
VERTEX
  5
22A
  8
0
  6
CONTINUOUS
 62
     7
 10
2645.015310555923
 20
1858.000081812131
 30
0.0
  0
VERTEX
  5
22B
  8
0
  6
CONTINUOUS
 62
     7
 10
2645.011767541529
 20
1857.996233066666
 30
0.0
  0
VERTEX
  5
22C
  8
0
  6
CONTINUOUS
 62
     7
 10
2645.008066754721
 20
1857.992422483409
 30
0.0
  0
VERTEX
  5
22D
  8
0
  6
CONTINUOUS
 62
     7
 10
2645.00420542885
 20
1857.988655287588
 30
0.0
  0
VERTEX
  5
22E
  8
0
  6
CONTINUOUS
 62
     7
 10
2645.000182573991
 20
1857.984938154978
 30
0.0
  0
VERTEX
  5
22F
  8
0
  6
CONTINUOUS
 62
     7
 10
2644.995997480142
 20
1857.981277989888
 30
0.0
  0
VERTEX
  5
230
  8
0
  6
CONTINUOUS
 62
     7
 10
2644.991649437309
 20
1857.977681696626
 30
0.0
  0
VERTEX
  5
231
  8
0
  6
CONTINUOUS
 62
     7
 10
2644.987137735493
 20
1857.974156179503
 30
0.0
  0
VERTEX
  5
232
  8
0
  6
CONTINUOUS
 62
     7
 10
2644.982461664696
 20
1857.97070834283
 30
0.0
  0
VERTEX
  5
233
  8
0
  6
CONTINUOUS
 62
     7
 10
2644.97762051492
 20
1857.967345090913
 30
0.0
  0
VERTEX
  5
234
  8
0
  6
CONTINUOUS
 62
     7
 10
2644.972613576168
 20
1857.964073328065
 30
0.0
  0
VERTEX
  5
235
  8
0
  6
CONTINUOUS
 62
     7
 10
2644.967440138442
 20
1857.960899958594
 30
0.0
  0
VERTEX
  5
236
  8
0
  6
CONTINUOUS
 62
     7
 10
2644.962099491749
 20
1857.95783188682
 30
0.0
  0
VERTEX
  5
237
  8
0
  6
CONTINUOUS
 62
     7
 10
2644.9565921496
 20
1857.954878568661
 30
0.0
  0
VERTEX
  5
238
  8
0
  6
CONTINUOUS
 62
     7
 10
2644.950923291943
 20
1857.952059191803
 30
0.0
  0
VERTEX
  5
239
  8
0
  6
CONTINUOUS
 62
     7
 10
2644.945099211058
 20
1857.949395263684
 30
0.0
  0
VERTEX
  5
23A
  8
0
  6
CONTINUOUS
 62
     7
 10
2644.939126199226
 20
1857.946908291744
 30
0.0
  0
VERTEX
  5
23B
  8
0
  6
CONTINUOUS
 62
     7
 10
2644.933010548726
 20
1857.94461978342
 30
0.0
  0
VERTEX
  5
23C
  8
0
  6
CONTINUOUS
 62
     7
 10
2644.92675855184
 20
1857.942551246152
 30
0.0
  0
VERTEX
  5
23D
  8
0
  6
CONTINUOUS
 62
     7
 10
2644.920376500848
 20
1857.94072418738
 30
0.0
  0
VERTEX
  5
23E
  8
0
  6
CONTINUOUS
 62
     7
 10
2644.913870920116
 20
1857.939158739398
 30
0.0
  0
VERTEX
  5
23F
  8
0
  6
CONTINUOUS
 62
     7
 10
2644.907253147044
 20
1857.93784651657
 30
0.0
  0
VERTEX
  5
240
  8
0
  6
CONTINUOUS
 62
     7
 10
2644.90053905733
 20
1857.936752243203
 30
0.0
  0
VERTEX
  5
241
  8
0
  6
CONTINUOUS
 62
     7
 10
2644.893744703747
 20
1857.935839594384
 30
0.0
  0
VERTEX
  5
242
  8
0
  6
CONTINUOUS
 62
     7
 10
2644.886886139067
 20
1857.935072245205
 30
0.0
  0
VERTEX
  5
243
  8
0
  6
CONTINUOUS
 62
     7
 10
2644.879979416067
 20
1857.934413870755
 30
0.0
  0
VERTEX
  5
244
  8
0
  6
CONTINUOUS
 62
     7
 10
2644.873040587518
 20
1857.933828146125
 30
0.0
  0
VERTEX
  5
245
  8
0
  6
CONTINUOUS
 62
     7
 10
2644.866085706195
 20
1857.933278746405
 30
0.0
  0
SEQEND
  5
38B
  8
0
  6
CONTINUOUS
 62
     7
  0
LINE
  5
8A
  8
0
  6
CONTINUOUS
 62
     7
 10
2644.866085706195
 20
1858.419342844222
 30
0.0
 11
2644.066085706195
 21
1858.419342844222
 31
0.0
  0
LINE
  5
8B
  8
0
  6
CONTINUOUS
 62
     7
 10
2644.066085706195
 20
1858.419342844222
 30
0.0
 11
2644.066085706195
 21
1857.933278746405
 31
0.0
  0
LINE
  5
8C
  8
0
  6
CONTINUOUS
 62
     7
 10
2644.066085706195
 20
1858.433278746405
 30
0.0
 11
2644.066085706195
 21
1858.419342844222
 31
0.0
  0
LINE
  5
8D
  8
0
  6
CONTINUOUS
 62
     7
 10
2645.066085706195
 20
1858.233278746405
 30
0.0
 11
2645.066085706195
 21
1858.222130024658
 31
0.0
  0
LINE
  5
8E
  8
0
  6
CONTINUOUS
 62
     7
 10
2645.066085706195
 20
1858.133278746405
 30
0.0
 11
2645.066085706195
 21
1857.933278746406
 31
0.0
  0
LINE
  5
8F
  8
0
  6
CONTINUOUS
 62
     7
 10
2644.066085706195
 20
1858.419342844222
 30
0.0
 11
2050.066085706198
 21
1858.419342844222
 31
0.0
  0
LINE
  5
90
  8
0
  6
CONTINUOUS
 62
     7
 10
2050.066085706198
 20
1857.933278746406
 30
0.0
 11
2050.066085706198
 21
1858.419342844222
 31
0.0
  0
LINE
  5
91
  8
0
  6
CONTINUOUS
 62
     7
 10
2050.066085706198
 20
1858.419342844222
 30
0.0
 11
2050.066085706198
 21
1858.433278746406
 31
0.0
  0
LINE
  5
92
  8
0
  6
CONTINUOUS
 62
     7
 10
2049.066085706198
 20
1858.133278746406
 30
0.0
 11
2049.066085706198
 21
1858.222130024659
 31
0.0
  0
ARC
  5
93
  8
0
  6
CONTINUOUS
 62
     7
 10
2049.264701826448
 20
1858.220726586736
 30
0.0
 40
0.1986210785926295
 50
89.60079206545821
 51
179.5951500238634
  0
LINE
  5
94
  8
0
  6
CONTINUOUS
 62
     7
 10
2049.266085706198
 20
1858.419342844222
 30
0.0
 11
2049.266085706198
 21
1857.933278746406
 31
0.0
  0
POLYLINE
  5
95
  8
0
  6
CONTINUOUS
 62
     7
 66
     1
 10
0.0
 20
0.0
 30
0.0
  0
VERTEX
  5
246
  8
0
  6
CONTINUOUS
 62
     7
 10
2049.066085706198
 20
1858.133278746406
 30
0.0
  0
VERTEX
  5
247
  8
0
  6
CONTINUOUS
 62
     7
 10
2049.06610314296
 20
1858.130520814229
 30
0.0
  0
VERTEX
  5
248
  8
0
  6
CONTINUOUS
 62
     7
 10
2049.066158940724
 20
1858.127694374481
 30
0.0
  0
VERTEX
  5
249
  8
0
  6
CONTINUOUS
 62
     7
 10
2049.066257542313
 20
1858.124798587318
 30
0.0
  0
VERTEX
  5
24A
  8
0
  6
CONTINUOUS
 62
     7
 10
2049.066401978523
 20
1858.121835429934
 30
0.0
  0
VERTEX
  5
24B
  8
0
  6
CONTINUOUS
 62
     7
 10
2049.066595280146
 20
1858.118806879525
 30
0.0
  0
VERTEX
  5
24C
  8
0
  6
CONTINUOUS
 62
     7
 10
2049.066840477976
 20
1858.115714913286
 30
0.0
  0
VERTEX
  5
24D
  8
0
  6
CONTINUOUS
 62
     7
 10
2049.067140602807
 20
1858.112561508412
 30
0.0
  0
VERTEX
  5
24E
  8
0
  6
CONTINUOUS
 62
     7
 10
2049.067498685434
 20
1858.109348642097
 30
0.0
  0
VERTEX
  5
24F
  8
0
  6
CONTINUOUS
 62
     7
 10
2049.067917756648
 20
1858.106078291536
 30
0.0
  0
VERTEX
  5
250
  8
0
  6
CONTINUOUS
 62
     7
 10
2049.068400847246
 20
1858.102752433924
 30
0.0
  0
VERTEX
  5
251
  8
0
  6
CONTINUOUS
 62
     7
 10
2049.068950988019
 20
1858.099373046457
 30
0.0
  0
VERTEX
  5
252
  8
0
  6
CONTINUOUS
 62
     7
 10
2049.069571209763
 20
1858.095942106329
 30
0.0
  0
VERTEX
  5
253
  8
0
  6
CONTINUOUS
 62
     7
 10
2049.070264543271
 20
1858.092461590736
 30
0.0
  0
VERTEX
  5
254
  8
0
  6
CONTINUOUS
 62
     7
 10
2049.071034019336
 20
1858.088933476871
 30
0.0
  0
VERTEX
  5
255
  8
0
  6
CONTINUOUS
 62
     7
 10
2049.071882668754
 20
1858.085359741931
 30
0.0
  0
VERTEX
  5
256
  8
0
  6
CONTINUOUS
 62
     7
 10
2049.072813522316
 20
1858.081742363109
 30
0.0
  0
VERTEX
  5
257
  8
0
  6
CONTINUOUS
 62
     7
 10
2049.073829610818
 20
1858.078083317602
 30
0.0
  0
VERTEX
  5
258
  8
0
  6
CONTINUOUS
 62
     7
 10
2049.074933965053
 20
1858.074384582603
 30
0.0
  0
VERTEX
  5
259
  8
0
  6
CONTINUOUS
 62
     7
 10
2049.076129615815
 20
1858.070648135308
 30
0.0
  0
VERTEX
  5
25A
  8
0
  6
CONTINUOUS
 62
     7
 10
2049.077419593897
 20
1858.066875952913
 30
0.0
  0
VERTEX
  5
25B
  8
0
  6
CONTINUOUS
 62
     7
 10
2049.078806930094
 20
1858.06307001261
 30
0.0
  0
VERTEX
  5
25C
  8
0
  6
CONTINUOUS
 62
     7
 10
2049.080294655199
 20
1858.059232291596
 30
0.0
  0
VERTEX
  5
25D
  8
0
  6
CONTINUOUS
 62
     7
 10
2049.081885800007
 20
1858.055364767066
 30
0.0
  0
VERTEX
  5
25E
  8
0
  6
CONTINUOUS
 62
     7
 10
2049.083583395309
 20
1858.051469416214
 30
0.0
  0
VERTEX
  5
25F
  8
0
  6
CONTINUOUS
 62
     7
 10
2049.085390484458
 20
1858.047548294059
 30
0.0
  0
VERTEX
  5
260
  8
0
  6
CONTINUOUS
 62
     7
 10
2049.087310333367
 20
1858.04360483502
 30
0.0
  0
VERTEX
  5
261
  8
0
  6
CONTINUOUS
 62
     7
 10
2049.089346398948
 20
1858.039643657313
 30
0.0
  0
VERTEX
  5
262
  8
0
  6
CONTINUOUS
 62
     7
 10
2049.091502144314
 20
1858.035669417567
 30
0.0
  0
VERTEX
  5
263
  8
0
  6
CONTINUOUS
 62
     7
 10
2049.093781032577
 20
1858.031686772414
 30
0.0
  0
VERTEX
  5
264
  8
0
  6
CONTINUOUS
 62
     7
 10
2049.09618652685
 20
1858.027700378483
 30
0.0
  0
VERTEX
  5
265
  8
0
  6
CONTINUOUS
 62
     7
 10
2049.098722090246
 20
1858.023714892405
 30
0.0
  0
VERTEX
  5
266
  8
0
  6
CONTINUOUS
 62
     7
 10
2049.101391185876
 20
1858.019734970809
 30
0.0
  0
VERTEX
  5
267
  8
0
  6
CONTINUOUS
 62
     7
 10
2049.104197276853
 20
1858.015765270327
 30
0.0
  0
VERTEX
  5
268
  8
0
  6
CONTINUOUS
 62
     7
 10
2049.107143826287
 20
1858.011810447588
 30
0.0
  0
VERTEX
  5
269
  8
0
  6
CONTINUOUS
 62
     7
 10
2049.110234297294
 20
1858.007875159222
 30
0.0
  0
VERTEX
  5
26A
  8
0
  6
CONTINUOUS
 62
     7
 10
2049.113472152984
 20
1858.00396406186
 30
0.0
  0
VERTEX
  5
26B
  8
0
  6
CONTINUOUS
 62
     7
 10
2049.11686085647
 20
1858.000081812131
 30
0.0
  0
VERTEX
  5
26C
  8
0
  6
CONTINUOUS
 62
     7
 10
2049.120403870864
 20
1857.996233066667
 30
0.0
  0
VERTEX
  5
26D
  8
0
  6
CONTINUOUS
 62
     7
 10
2049.124104657672
 20
1857.992422483409
 30
0.0
  0
VERTEX
  5
26E
  8
0
  6
CONTINUOUS
 62
     7
 10
2049.127965983542
 20
1857.988655287589
 30
0.0
  0
VERTEX
  5
26F
  8
0
  6
CONTINUOUS
 62
     7
 10
2049.131988838403
 20
1857.984938154979
 30
0.0
  0
VERTEX
  5
270
  8
0
  6
CONTINUOUS
 62
     7
 10
2049.136173932251
 20
1857.981277989888
 30
0.0
  0
VERTEX
  5
271
  8
0
  6
CONTINUOUS
 62
     7
 10
2049.140521975085
 20
1857.977681696627
 30
0.0
  0
VERTEX
  5
272
  8
0
  6
CONTINUOUS
 62
     7
 10
2049.145033676901
 20
1857.974156179504
 30
0.0
  0
VERTEX
  5
273
  8
0
  6
CONTINUOUS
 62
     7
 10
2049.149709747698
 20
1857.97070834283
 30
0.0
  0
VERTEX
  5
274
  8
0
  6
CONTINUOUS
 62
     7
 10
2049.154550897473
 20
1857.967345090914
 30
0.0
  0
VERTEX
  5
275
  8
0
  6
CONTINUOUS
 62
     7
 10
2049.159557836225
 20
1857.964073328066
 30
0.0
  0
VERTEX
  5
276
  8
0
  6
CONTINUOUS
 62
     7
 10
2049.164731273952
 20
1857.960899958595
 30
0.0
  0
VERTEX
  5
277
  8
0
  6
CONTINUOUS
 62
     7
 10
2049.170071920645
 20
1857.957831886821
 30
0.0
  0
VERTEX
  5
278
  8
0
  6
CONTINUOUS
 62
     7
 10
2049.175579262793
 20
1857.954878568662
 30
0.0
  0
VERTEX
  5
279
  8
0
  6
CONTINUOUS
 62
     7
 10
2049.18124812045
 20
1857.952059191804
 30
0.0
  0
VERTEX
  5
27A
  8
0
  6
CONTINUOUS
 62
     7
 10
2049.187072201335
 20
1857.949395263685
 30
0.0
  0
VERTEX
  5
27B
  8
0
  6
CONTINUOUS
 62
     7
 10
2049.193045213167
 20
1857.946908291744
 30
0.0
  0
VERTEX
  5
27C
  8
0
  6
CONTINUOUS
 62
     7
 10
2049.199160863667
 20
1857.944619783422
 30
0.0
  0
VERTEX
  5
27D
  8
0
  6
CONTINUOUS
 62
     7
 10
2049.205412860553
 20
1857.942551246153
 30
0.0
  0
VERTEX
  5
27E
  8
0
  6
CONTINUOUS
 62
     7
 10
2049.211794911545
 20
1857.94072418738
 30
0.0
  0
VERTEX
  5
27F
  8
0
  6
CONTINUOUS
 62
     7
 10
2049.218300492278
 20
1857.939158739399
 30
0.0
  0
VERTEX
  5
280
  8
0
  6
CONTINUOUS
 62
     7
 10
2049.224918265349
 20
1857.937846516572
 30
0.0
  0
VERTEX
  5
281
  8
0
  6
CONTINUOUS
 62
     7
 10
2049.231632355063
 20
1857.936752243204
 30
0.0
  0
VERTEX
  5
282
  8
0
  6
CONTINUOUS
 62
     7
 10
2049.238426708647
 20
1857.935839594385
 30
0.0
  0
VERTEX
  5
283
  8
0
  6
CONTINUOUS
 62
     7
 10
2049.245285273326
 20
1857.935072245206
 30
0.0
  0
VERTEX
  5
284
  8
0
  6
CONTINUOUS
 62
     7
 10
2049.252191996327
 20
1857.934413870756
 30
0.0
  0
VERTEX
  5
285
  8
0
  6
CONTINUOUS
 62
     7
 10
2049.259130824876
 20
1857.933828146126
 30
0.0
  0
VERTEX
  5
286
  8
0
  6
CONTINUOUS
 62
     7
 10
2049.266085706198
 20
1857.933278746406
 30
0.0
  0
SEQEND
  5
38C
  8
0
  6
CONTINUOUS
 62
     7
  0
LINE
  5
96
  8
0
  6
CONTINUOUS
 62
     7
 10
2050.066085706198
 20
1858.419342844222
 30
0.0
 11
2049.266085706198
 21
1858.419342844222
 31
0.0
  0
LINE
  5
97
  8
0
  6
CONTINUOUS
 62
     7
 10
2049.066085706198
 20
1858.222130024659
 30
0.0
 11
2049.066085706198
 21
1858.233278746406
 31
0.0
  0
LINE
  5
98
  8
0
  6
CONTINUOUS
 62
     7
 10
2049.066085706198
 20
1857.933278746406
 30
0.0
 11
2049.066085706198
 21
1858.133278746406
 31
0.0
  0
LINE
  5
99
  8
0
  6
CONTINUOUS
 62
     7
 10
2049.066085706196
 20
1610.933278746406
 30
0.0
 11
2050.066085706196
 21
1610.933278746406
 31
0.0
  0
LINE
  5
9A
  8
0
  6
CONTINUOUS
 62
     7
 10
2049.066085706198
 20
1857.933278746406
 30
0.0
 11
2050.066085706198
 21
1857.933278746406
 31
0.0
  0
LINE
  5
9B
  8
0
  6
CONTINUOUS
 62
     7
 10
2050.066085706196
 20
1610.933278746406
 30
0.0
 11
2050.066085706196
 21
1611.933278746406
 31
0.0
  0
LINE
  5
9C
  8
0
  6
CONTINUOUS
 62
     7
 10
2050.066085706198
 20
1856.933278746406
 30
0.0
 11
2050.066085706198
 21
1857.933278746406
 31
0.0
  0
LINE
  5
9D
  8
0
  6
CONTINUOUS
 62
     7
 10
2049.066085706196
 20
1610.933278746406
 30
0.0
 11
2049.066085706198
 21
1857.933278746406
 31
0.0
  0
LINE
  5
9E
  8
0
  6
CONTINUOUS
 62
     7
 10
2645.066085706195
 20
1610.933278746406
 30
0.0
 11
2644.066085706195
 21
1610.933278746406
 31
0.0
  0
LINE
  5
9F
  8
0
  6
CONTINUOUS
 62
     7
 10
2645.066085706196
 20
1857.933278746406
 30
0.0
 11
2645.066085706195
 21
1610.933278746406
 31
0.0
  0
LINE
  5
A0
  8
0
  6
CONTINUOUS
 62
     7
 10
2645.066085706196
 20
1857.933278746406
 30
0.0
 11
2644.066085706196
 21
1857.933278746406
 31
0.0
  0
LINE
  5
A1
  8
0
  6
CONTINUOUS
 62
     7
 10
2644.066085706196
 20
1857.933278746406
 30
0.0
 11
2644.066085706196
 21
1856.933278746406
 31
0.0
  0
LINE
  5
A2
  8
0
  6
CONTINUOUS
 62
     7
 10
2644.066085706195
 20
1611.933278746406
 30
0.0
 11
2644.066085706195
 21
1610.933278746406
 31
0.0
  0
LINE
  5
A3
  8
0
  6
CONTINUOUS
 62
     7
 10
2644.066085706196
 20
1610.933278746406
 30
0.0
 11
2050.066085706196
 21
1610.933278746406
 31
0.0
  0
LINE
  5
A4
  8
0
  6
CONTINUOUS
 62
     7
 10
2050.066085706198
 20
1857.933278746406
 30
0.0
 11
2644.066085706196
 21
1857.933278746406
 31
0.0
  0
LINE
  5
A5
  8
0
  6
CONTINUOUS
 62
     7
 10
2643.066085706196
 20
1855.933278746406
 30
0.0
 11
2051.066085706198
 21
1855.933278746406
 31
0.0
  0
LINE
  5
A6
  8
0
  6
CONTINUOUS
 62
     7
 10
2051.066085706198
 20
1855.933278746406
 30
0.0
 11
2050.066085706198
 21
1856.933278746406
 31
0.0
  0
LINE
  5
A7
  8
0
  6
CONTINUOUS
 62
     7
 10
2050.066085706198
 20
1856.933278746406
 30
0.0
 11
2644.066085706196
 21
1856.933278746406
 31
0.0
  0
LINE
  5
A8
  8
0
  6
CONTINUOUS
 62
     7
 10
2644.066085706196
 20
1856.933278746406
 30
0.0
 11
2643.066085706196
 21
1855.933278746406
 31
0.0
  0
LINE
  5
A9
  8
0
  6
CONTINUOUS
 62
     7
 10
2051.066085706198
 20
1855.933278746406
 30
0.0
 11
2051.066085706196
 21
1612.933278746406
 31
0.0
  0
LINE
  5
AA
  8
0
  6
CONTINUOUS
 62
     7
 10
2051.066085706196
 20
1612.933278746406
 30
0.0
 11
2050.066085706196
 21
1611.933278746406
 31
0.0
  0
LINE
  5
AB
  8
0
  6
CONTINUOUS
 62
     7
 10
2050.066085706196
 20
1611.933278746406
 30
0.0
 11
2050.066085706198
 21
1856.933278746406
 31
0.0
  0
LINE
  5
AC
  8
0
  6
CONTINUOUS
 62
     7
 10
2643.066085706196
 20
1612.933278746406
 30
0.0
 11
2643.066085706196
 21
1855.933278746406
 31
0.0
  0
LINE
  5
AD
  8
0
  6
CONTINUOUS
 62
     7
 10
2051.066085706196
 20
1612.933278746406
 30
0.0
 11
2643.066085706196
 21
1612.933278746406
 31
0.0
  0
LINE
  5
AE
  8
0
  6
CONTINUOUS
 62
     7
 10
2644.066085706195
 20
1611.933278746406
 30
0.0
 11
2643.066085706196
 21
1612.933278746406
 31
0.0
  0
LINE
  5
AF
  8
0
  6
CONTINUOUS
 62
     7
 10
2644.066085706195
 20
1611.933278746406
 30
0.0
 11
2050.066085706196
 21
1611.933278746406
 31
0.0
  0
LINE
  5
B0
  8
0
  6
CONTINUOUS
 62
     7
 10
2644.066085706196
 20
1856.933278746406
 30
0.0
 11
2644.066085706195
 21
1611.933278746406
 31
0.0
  0
LINE
  5
B1
  8
0
  6
CONTINUOUS
 62
     7
 10
2630.066085706198
 20
1858.933278746406
 30
0.0
 11
2064.066085706198
 21
1858.933278746406
 31
0.0
  0
LINE
  5
B2
  8
0
  6
CONTINUOUS
 62
     7
 10
2064.066085706198
 20
1609.933278746406
 30
0.0
 11
2630.066085706198
 21
1609.933278746406
 31
0.0
  0
LINE
  5
B3
  8
0
  6
CONTINUOUS
 62
     7
 10
2047.066085706198
 20
1609.933278746406
 30
0.0
 11
2064.066085706198
 21
1609.933278746406
 31
0.0
  0
LINE
  5
B4
  8
0
  6
CONTINUOUS
 62
     7
 10
2064.066085706197
 20
1858.933278746407
 30
0.0
 11
2047.066085706197
 21
1858.933278746407
 31
0.0
  0
LINE
  5
B5
  8
0
  6
CONTINUOUS
 62
     7
 10
2064.066085706198
 20
1609.933278746406
 30
0.0
 11
2064.066085706198
 21
1610.933278746406
 31
0.0
  0
LINE
  5
B6
  8
0
  6
CONTINUOUS
 62
     7
 10
2064.066085706197
 20
1858.433278746406
 30
0.0
 11
2064.066085706197
 21
1858.933278746407
 31
0.0
  0
LINE
  5
B7
  8
0
  6
CONTINUOUS
 62
     7
 10
2047.066085706197
 20
1858.933278746407
 30
0.0
 11
2047.066085706198
 21
1609.933278746406
 31
0.0
  0
LINE
  5
B8
  8
0
  6
CONTINUOUS
 62
     7
 10
2630.066085706198
 20
1609.933278746406
 30
0.0
 11
2647.066085706198
 21
1609.933278746406
 31
0.0
  0
LINE
  5
B9
  8
0
  6
CONTINUOUS
 62
     7
 10
2647.066085706198
 20
1609.933278746406
 30
0.0
 11
2647.066085706197
 21
1858.933278746407
 31
0.0
  0
LINE
  5
BA
  8
0
  6
CONTINUOUS
 62
     7
 10
2630.066085706197
 20
1858.933278746407
 30
0.0
 11
2630.066085706197
 21
1858.433278746405
 31
0.0
  0
LINE
  5
BB
  8
0
  6
CONTINUOUS
 62
     7
 10
2630.066085706198
 20
1610.933278746406
 30
0.0
 11
2630.066085706198
 21
1609.933278746406
 31
0.0
  0
LINE
  5
BC
  8
0
  6
CONTINUOUS
 62
     7
 10
2647.066085706197
 20
1858.933278746407
 30
0.0
 11
2630.066085706197
 21
1858.933278746407
 31
0.0
  0
LINE
  5
BD
  8
0
  6
CONTINUOUS
 62
     7
 10
2647.066085706197
 20
1859.433278746407
 30
0.0
 11
2647.066085706197
 21
1858.933278746407
 31
0.0
  0
LINE
  5
BE
  8
0
  6
CONTINUOUS
 62
     7
 10
2630.066085706197
 20
1859.433278746407
 30
0.0
 11
2630.066085706197
 21
1858.933278746407
 31
0.0
  0
LINE
  5
BF
  8
0
  6
CONTINUOUS
 62
     7
 10
2630.066085706197
 20
1859.433278746407
 30
0.0
 11
2647.066085706197
 21
1859.433278746407
 31
0.0
  0
LINE
  5
C0
  8
0
  6
CONTINUOUS
 62
     7
 10
2064.066085706197
 20
1859.433278746408
 30
0.0
 11
2064.066085706197
 21
1858.933278746407
 31
0.0
  0
LINE
  5
C1
  8
0
  6
CONTINUOUS
 62
     7
 10
2047.066085706197
 20
1859.433278746408
 30
0.0
 11
2047.066085706197
 21
1858.933278746407
 31
0.0
  0
LINE
  5
C2
  8
0
  6
CONTINUOUS
 62
     7
 10
2047.066085706197
 20
1859.433278746408
 30
0.0
 11
2064.066085706197
 21
1859.433278746408
 31
0.0
  0
LINE
  5
C3
  8
0
  6
CONTINUOUS
 62
     7
 10
2064.066085706198
 20
1609.433278746406
 30
0.0
 11
2064.066085706198
 21
1609.933278746406
 31
0.0
  0
LINE
  5
C4
  8
0
  6
CONTINUOUS
 62
     7
 10
2047.066085706198
 20
1609.433278746406
 30
0.0
 11
2064.066085706198
 21
1609.433278746406
 31
0.0
  0
LINE
  5
C5
  8
0
  6
CONTINUOUS
 62
     7
 10
2047.066085706198
 20
1609.433278746406
 30
0.0
 11
2047.066085706198
 21
1609.933278746406
 31
0.0
  0
LINE
  5
C6
  8
0
  6
CONTINUOUS
 62
     7
 10
2647.066085706198
 20
1609.433278746406
 30
0.0
 11
2647.066085706198
 21
1609.933278746406
 31
0.0
  0
LINE
  5
C7
  8
0
  6
CONTINUOUS
 62
     7
 10
2630.066085706198
 20
1609.433278746406
 30
0.0
 11
2647.066085706198
 21
1609.433278746406
 31
0.0
  0
LINE
  5
C8
  8
0
  6
CONTINUOUS
 62
     7
 10
2630.066085706198
 20
1609.433278746406
 30
0.0
 11
2630.066085706198
 21
1609.933278746406
 31
0.0
  0
LINE
  5
C9
  8
0
  6
CONTINUOUS
 62
     8
 10
2644.866085706195
 20
1858.419342844222
 30
0.0
 11
2644.866085706195
 21
1858.433278746405
 31
0.0
  0
LINE
  5
CA
  8
0
  6
CONTINUOUS
 62
     8
 10
2049.266085706198
 20
1858.433278746406
 30
0.0
 11
2049.266085706198
 21
1858.419342844222
 31
0.0
  0
LINE
  5
CB
  8
0
  6
CONTINUOUS
 62
     7
 10
683.6443598600343
 20
1825.133278746406
 30
0.0
 11
683.8443598600345
 21
1825.133278746406
 31
0.0
  0
LINE
  5
CC
  8
0
  6
CONTINUOUS
 62
     7
 10
683.8443598600345
 20
1824.933278746406
 30
0.0
 11
683.8443598600345
 21
1825.133278746406
 31
0.0
  0
ARC
  5
CD
  8
0
  6
CONTINUOUS
 62
     7
 10
683.8443598600345
 20
1825.133278746406
 30
0.0
 40
0.2000000000001592
 50
180.0
 51
270.0000000000008
  0
LINE
  5
CE
  8
0
  6
CONTINUOUS
 62
     7
 10
683.6443598600341
 20
1845.933278746406
 30
0.0
 11
683.8443598600342
 21
1845.933278746406
 31
0.0
  0
LINE
  5
CF
  8
0
  6
CONTINUOUS
 62
     7
 10
683.8443598600342
 20
1845.933278746406
 30
0.0
 11
683.8443598600345
 21
1825.133278746406
 31
0.0
  0
LINE
  5
D0
  8
0
  6
CONTINUOUS
 62
     7
 10
685.4443598600344
 20
1824.933278746406
 30
0.0
 11
683.8443598600345
 21
1824.933278746406
 31
0.0
  0
LINE
  5
D1
  8
0
  6
CONTINUOUS
 62
     7
 10
683.8443598600345
 20
1825.133278746406
 30
0.0
 11
685.2443598600344
 21
1825.133278746406
 31
0.0
  0
LINE
  5
D2
  8
0
  6
CONTINUOUS
 62
     7
 10
685.4443598600344
 20
1824.933278746406
 30
0.0
 11
685.2443598600344
 21
1825.133278746406
 31
0.0
  0
LINE
  5
D3
  8
0
  6
CONTINUOUS
 62
     7
 10
685.2443598600344
 20
1825.133278746406
 30
0.0
 11
685.2443598600341
 21
1845.133278746406
 31
0.0
  0
LINE
  5
D4
  8
0
  6
CONTINUOUS
 62
     7
 10
685.4443598600342
 20
1844.933278746406
 30
0.0
 11
685.2443598600341
 21
1845.133278746406
 31
0.0
  0
ARC
  5
D5
  8
0
  6
CONTINUOUS
 62
     7
 10
695.0275460900536
 20
1847.933278746406
 30
0.0
 40
1.199999999999961
 50
270.0000000000008
 51
355.0300534053115
  0
LINE
  5
D6
  8
0
  6
CONTINUOUS
 62
     7
 10
697.0642230409978
 20
1857.502585303131
 30
0.0
 11
696.2230344223633
 21
1847.829318911319
 31
0.0
  0
ARC
  5
D7
  8
0
  6
CONTINUOUS
 62
     7
 10
697.8612152625376
 20
1857.433278746406
 30
0.0
 40
0.7999999999999804
 50
80.42341151893564
 51
175.0300534053053
  0
ARC
  5
D8
  8
0
  6
CONTINUOUS
 62
     7
 10
697.9443981859623
 20
1857.926310795314
 30
0.0
 40
0.2999999999998809
 50
43.62165296722463
 51
80.42341151891597
  0
LINE
  5
D9
  8
0
  6
CONTINUOUS
 62
     7
 10
697.7443598600341
 20
1858.133278746406
 30
0.0
 11
698.1615715434923
 21
1858.133278746406
 31
0.0
  0
LINE
  5
DA
  8
0
  6
CONTINUOUS
 62
     7
 10
697.7443598600341
 20
1845.133278746406
 30
0.0
 11
697.7443598600341
 21
1858.133278746406
 31
0.0
  0
LINE
  5
DB
  8
0
  6
CONTINUOUS
 62
     7
 10
685.2443598600341
 20
1845.133278746406
 30
0.0
 11
697.7443598600341
 21
1845.133278746406
 31
0.0
  0
ARC
  5
DC
  8
0
  6
CONTINUOUS
 62
     7
 10
684.6443598600342
 20
1845.933278746406
 30
0.0
 40
0.8000000000001819
 50
90.0
 51
180.0
  0
LINE
  5
DD
  8
0
  6
CONTINUOUS
 62
     7
 10
695.0275460900536
 20
1846.733278746406
 30
0.0
 11
684.6443598600342
 21
1846.733278746406
 31
0.0
  0
ARC
  5
DE
  8
0
  6
CONTINUOUS
 62
     7
 10
684.6443598600342
 20
1845.933278746406
 30
0.0
 40
1.000000000000227
 50
90.0
 51
180.0
  0
LINE
  5
DF
  8
0
  6
CONTINUOUS
 62
     7
 10
684.6443598600342
 20
1846.733278746406
 30
0.0
 11
684.6443598600342
 21
1846.933278746406
 31
0.0
  0
LINE
  5
E0
  8
0
  6
CONTINUOUS
 62
     7
 10
697.9443598600341
 20
1844.933278746406
 30
0.0
 11
697.7443598600341
 21
1845.133278746406
 31
0.0
  0
LINE
  5
E1
  8
0
  6
CONTINUOUS
 62
     7
 10
684.6443598600342
 20
1846.933278746406
 30
0.0
 11
695.0275460900536
 21
1846.933278746406
 31
0.0
  0
LINE
  5
E2
  8
0
  6
CONTINUOUS
 62
     7
 10
695.0275460900536
 20
1846.733278746406
 30
0.0
 11
695.0275460900536
 21
1846.933278746406
 31
0.0
  0
ARC
  5
E3
  8
0
  6
CONTINUOUS
 62
     7
 10
695.0275460900536
 20
1847.933278746406
 30
0.0
 40
0.9999999999999706
 50
270.0000000000008
 51
355.0300534053093
  0
LINE
  5
E4
  8
0
  6
CONTINUOUS
 62
     7
 10
696.2230344223633
 20
1847.829318911319
 30
0.0
 11
696.0237863669784
 21
1847.8466455505
 31
0.0
  0
LINE
  5
E5
  8
0
  6
CONTINUOUS
 62
     7
 10
696.0237863669784
 20
1847.8466455505
 30
0.0
 11
696.8649749856129
 21
1857.519911942312
 31
0.0
  0
LINE
  5
E6
  8
0
  6
CONTINUOUS
 62
     7
 10
697.0642230409978
 20
1857.502585303131
 30
0.0
 11
696.8649749856129
 21
1857.519911942312
 31
0.0
  0
LINE
  5
E7
  8
0
  6
CONTINUOUS
 62
     7
 10
697.9443598600341
 20
1857.933278746406
 30
0.0
 11
697.7443598600341
 21
1858.133278746406
 31
0.0
  0
ARC
  5
E8
  8
0
  6
CONTINUOUS
 62
     7
 10
697.8612152625376
 20
1857.433278746406
 30
0.0
 40
1.000000000000144
 50
80.42341151894102
 51
175.0300534053085
  0
LINE
  5
E9
  8
0
  6
CONTINUOUS
 62
     7
 10
697.9943079400173
 20
1858.222130024659
 30
0.0
 11
698.0275811093871
 21
1858.419342844222
 31
0.0
  0
POLYLINE
  5
EA
  8
0
  6
CONTINUOUS
 62
     7
 66
     1
 10
0.0
 20
0.0
 30
0.0
  0
VERTEX
  5
287
  8
0
  6
CONTINUOUS
 62
     7
 10
698.1615715434923
 20
1858.133278746406
 30
0.0
  0
VERTEX
  5
288
  8
0
  6
CONTINUOUS
 62
     7
 10
698.1679230034064
 20
1858.130520814228
 30
0.0
  0
VERTEX
  5
289
  8
0
  6
CONTINUOUS
 62
     7
 10
698.1742510647322
 20
1858.127694374481
 30
0.0
  0
VERTEX
  5
28A
  8
0
  6
CONTINUOUS
 62
     7
 10
698.1805537433008
 20
1858.124798587317
 30
0.0
  0
VERTEX
  5
28B
  8
0
  6
CONTINUOUS
 62
     7
 10
698.186829946436
 20
1858.121835429934
 30
0.0
  0
VERTEX
  5
28C
  8
0
  6
CONTINUOUS
 62
     7
 10
698.1930785814608
 20
1858.118806879526
 30
0.0
  0
VERTEX
  5
28D
  8
0
  6
CONTINUOUS
 62
     7
 10
698.1992985556991
 20
1858.115714913286
 30
0.0
  0
VERTEX
  5
28E
  8
0
  6
CONTINUOUS
 62
     7
 10
698.2054887764742
 20
1858.112561508412
 30
0.0
  0
VERTEX
  5
28F
  8
0
  6
CONTINUOUS
 62
     7
 10
698.2116481511099
 20
1858.109348642096
 30
0.0
  0
VERTEX
  5
290
  8
0
  6
CONTINUOUS
 62
     7
 10
698.21777558693
 20
1858.106078291536
 30
0.0
  0
VERTEX
  5
291
  8
0
  6
CONTINUOUS
 62
     7
 10
698.2238699912572
 20
1858.102752433924
 30
0.0
  0
VERTEX
  5
292
  8
0
  6
CONTINUOUS
 62
     7
 10
698.2299302714156
 20
1858.099373046457
 30
0.0
  0
VERTEX
  5
293
  8
0
  6
CONTINUOUS
 62
     7
 10
698.2359553347288
 20
1858.095942106329
 30
0.0
  0
VERTEX
  5
294
  8
0
  6
CONTINUOUS
 62
     7
 10
698.2419440885203
 20
1858.092461590736
 30
0.0
  0
VERTEX
  5
295
  8
0
  6
CONTINUOUS
 62
     7
 10
698.2478954401133
 20
1858.088933476871
 30
0.0
  0
VERTEX
  5
296
  8
0
  6
CONTINUOUS
 62
     7
 10
698.2538082968318
 20
1858.085359741931
 30
0.0
  0
VERTEX
  5
297
  8
0
  6
CONTINUOUS
 62
     7
 10
698.259681565999
 20
1858.081742363109
 30
0.0
  0
VERTEX
  5
298
  8
0
  6
CONTINUOUS
 62
     7
 10
698.2655141549387
 20
1858.078083317602
 30
0.0
  0
VERTEX
  5
299
  8
0
  6
CONTINUOUS
 62
     7
 10
698.2713049709743
 20
1858.074384582603
 30
0.0
  0
VERTEX
  5
29A
  8
0
  6
CONTINUOUS
 62
     7
 10
698.2770529214296
 20
1858.070648135309
 30
0.0
  0
VERTEX
  5
29B
  8
0
  6
CONTINUOUS
 62
     7
 10
698.2827569136275
 20
1858.066875952913
 30
0.0
  0
VERTEX
  5
29C
  8
0
  6
CONTINUOUS
 62
     7
 10
698.2884158548922
 20
1858.06307001261
 30
0.0
  0
VERTEX
  5
29D
  8
0
  6
CONTINUOUS
 62
     7
 10
698.2940286525468
 20
1858.059232291596
 30
0.0
  0
VERTEX
  5
29E
  8
0
  6
CONTINUOUS
 62
     7
 10
698.2995942139152
 20
1858.055364767066
 30
0.0
  0
VERTEX
  5
29F
  8
0
  6
CONTINUOUS
 62
     7
 10
698.3051114463208
 20
1858.051469416214
 30
0.0
  0
VERTEX
  5
2A0
  8
0
  6
CONTINUOUS
 62
     7
 10
698.3105791973398
 20
1858.047548294059
 30
0.0
  0
VERTEX
  5
2A1
  8
0
  6
CONTINUOUS
 62
     7
 10
698.3159952555394
 20
1858.04360483502
 30
0.0
  0
VERTEX
  5
2A2
  8
0
  6
CONTINUOUS
 62
     7
 10
698.3213565006494
 20
1858.039643657312
 30
0.0
  0
VERTEX
  5
2A3
  8
0
  6
CONTINUOUS
 62
     7
 10
698.326659782908
 20
1858.035669417567
 30
0.0
  0
VERTEX
  5
2A4
  8
0
  6
CONTINUOUS
 62
     7
 10
698.3319019525532
 20
1858.031686772414
 30
0.0
  0
VERTEX
  5
2A5
  8
0
  6
CONTINUOUS
 62
     7
 10
698.3370798598229
 20
1858.027700378483
 30
0.0
  0
VERTEX
  5
2A6
  8
0
  6
CONTINUOUS
 62
     7
 10
698.3421903549548
 20
1858.023714892405
 30
0.0
  0
VERTEX
  5
2A7
  8
0
  6
CONTINUOUS
 62
     7
 10
698.3472302881872
 20
1858.019734970809
 30
0.0
  0
VERTEX
  5
2A8
  8
0
  6
CONTINUOUS
 62
     7
 10
698.352196509758
 20
1858.015765270327
 30
0.0
  0
VERTEX
  5
2A9
  8
0
  6
CONTINUOUS
 62
     7
 10
698.3570858699051
 20
1858.011810447588
 30
0.0
  0
VERTEX
  5
2AA
  8
0
  6
CONTINUOUS
 62
     7
 10
698.3618952188664
 20
1858.007875159221
 30
0.0
  0
VERTEX
  5
2AB
  8
0
  6
CONTINUOUS
 62
     7
 10
698.3666214068799
 20
1858.00396406186
 30
0.0
  0
VERTEX
  5
2AC
  8
0
  6
CONTINUOUS
 62
     7
 10
698.3712612841837
 20
1858.000081812131
 30
0.0
  0
VERTEX
  5
2AD
  8
0
  6
CONTINUOUS
 62
     7
 10
698.3758117010157
 20
1857.996233066667
 30
0.0
  0
VERTEX
  5
2AE
  8
0
  6
CONTINUOUS
 62
     7
 10
698.3802695067361
 20
1857.99242248341
 30
0.0
  0
VERTEX
  5
2AF
  8
0
  6
CONTINUOUS
 62
     7
 10
698.3846311713621
 20
1857.98865528759
 30
0.0
  0
VERTEX
  5
2B0
  8
0
  6
CONTINUOUS
 62
     7
 10
698.3888921949375
 20
1857.984938154979
 30
0.0
  0
VERTEX
  5
2B1
  8
0
  6
CONTINUOUS
 62
     7
 10
698.3930479246854
 20
1857.981277989888
 30
0.0
  0
VERTEX
  5
2B2
  8
0
  6
CONTINUOUS
 62
     7
 10
698.3970937078278
 20
1857.977681696627
 30
0.0
  0
VERTEX
  5
2B3
  8
0
  6
CONTINUOUS
 62
     7
 10
698.4010248915873
 20
1857.974156179504
 30
0.0
  0
VERTEX
  5
2B4
  8
0
  6
CONTINUOUS
 62
     7
 10
698.4048368231863
 20
1857.97070834283
 30
0.0
  0
VERTEX
  5
2B5
  8
0
  6
CONTINUOUS
 62
     7
 10
698.4085248498471
 20
1857.967345090914
 30
0.0
  0
VERTEX
  5
2B6
  8
0
  6
CONTINUOUS
 62
     7
 10
698.4120843187927
 20
1857.964073328066
 30
0.0
  0
VERTEX
  5
2B7
  8
0
  6
CONTINUOUS
 62
     7
 10
698.4155105772447
 20
1857.960899958595
 30
0.0
  0
VERTEX
  5
2B8
  8
0
  6
CONTINUOUS
 62
     7
 10
698.4187989724167
 20
1857.957831886821
 30
0.0
  0
VERTEX
  5
2B9
  8
0
  6
CONTINUOUS
 62
     7
 10
698.4219423421374
 20
1857.954878568662
 30
0.0
  0
VERTEX
  5
2BA
  8
0
  6
CONTINUOUS
 62
     7
 10
698.4249239534786
 20
1857.952059191804
 30
0.0
  0
VERTEX
  5
2BB
  8
0
  6
CONTINUOUS
 62
     7
 10
698.4277247921374
 20
1857.949395263685
 30
0.0
  0
VERTEX
  5
2BC
  8
0
  6
CONTINUOUS
 62
     7
 10
698.4303258438119
 20
1857.946908291745
 30
0.0
  0
VERTEX
  5
2BD
  8
0
  6
CONTINUOUS
 62
     7
 10
698.4327080941996
 20
1857.944619783421
 30
0.0
  0
VERTEX
  5
2BE
  8
0
  6
CONTINUOUS
 62
     7
 10
698.4348525289979
 20
1857.942551246153
 30
0.0
  0
VERTEX
  5
2BF
  8
0
  6
CONTINUOUS
 62
     7
 10
698.4367401339047
 20
1857.94072418738
 30
0.0
  0
VERTEX
  5
2C0
  8
0
  6
CONTINUOUS
 62
     7
 10
698.4383532473587
 20
1857.939158739398
 30
0.0
  0
VERTEX
  5
2C1
  8
0
  6
CONTINUOUS
 62
     7
 10
698.4397022611787
 20
1857.937846516571
 30
0.0
  0
VERTEX
  5
2C2
  8
0
  6
CONTINUOUS
 62
     7
 10
698.4408240192072
 20
1857.936752243204
 30
0.0
  0
VERTEX
  5
2C3
  8
0
  6
CONTINUOUS
 62
     7
 10
698.4417563974097
 20
1857.935839594385
 30
0.0
  0
VERTEX
  5
2C4
  8
0
  6
CONTINUOUS
 62
     7
 10
698.4425372717511
 20
1857.935072245206
 30
0.0
  0
VERTEX
  5
2C5
  8
0
  6
CONTINUOUS
 62
     7
 10
698.4432045181969
 20
1857.934413870756
 30
0.0
  0
VERTEX
  5
2C6
  8
0
  6
CONTINUOUS
 62
     7
 10
698.4437960127123
 20
1857.933828146126
 30
0.0
  0
VERTEX
  5
2C7
  8
0
  6
CONTINUOUS
 62
     7
 10
698.4443496312623
 20
1857.933278746406
 30
0.0
  0
SEQEND
  5
38D
  8
0
  6
CONTINUOUS
 62
     7
  0
ARC
  5
EB
  8
0
  6
CONTINUOUS
 62
     7
 10
697.9443981859623
 20
1857.926310795314
 30
0.0
 40
0.5000000000000815
 50
0.7984942260714786
 51
80.4234115189346
  0
LINE
  5
EC
  8
0
  6
CONTINUOUS
 62
     7
 10
685.4443598600355
 20
1844.933278746406
 30
0.0
 11
685.4443598600355
 21
1824.433278746406
 31
0.0
  0
LINE
  5
ED
  8
0
  6
CONTINUOUS
 62
     7
 10
697.9443598600354
 20
1844.933278746406
 30
0.0
 11
685.4443598600355
 21
1844.933278746406
 31
0.0
  0
LINE
  5
EE
  8
0
  6
CONTINUOUS
 62
     7
 10
697.9443598600354
 20
1857.933278746406
 30
0.0
 11
697.9443598600354
 21
1844.933278746406
 31
0.0
  0
LINE
  5
EF
  8
0
  6
CONTINUOUS
 62
     7
 10
701.9443598600354
 20
1857.933278746406
 30
0.0
 11
697.9443598600354
 21
1857.933278746406
 31
0.0
  0
LINE
  5
F0
  8
0
  6
CONTINUOUS
 62
     7
 10
701.9443598600354
 20
1610.933278746406
 30
0.0
 11
701.9443598600354
 21
1857.933278746406
 31
0.0
  0
LINE
  5
F1
  8
0
  6
CONTINUOUS
 62
     7
 10
683.9443598600354
 20
1824.433278746406
 30
0.0
 11
683.9443598600354
 21
1610.933278746406
 31
0.0
  0
LINE
  5
F2
  8
0
  6
CONTINUOUS
 62
     7
 10
685.4443598600355
 20
1824.433278746406
 30
0.0
 11
683.9443598600354
 21
1824.433278746406
 31
0.0
  0
LINE
  5
F3
  8
0
  6
CONTINUOUS
 62
     7
 10
683.9443598600354
 20
1610.933278746406
 30
0.0
 11
701.9443598600354
 21
1610.933278746406
 31
0.0
  0
LINE
  5
F4
  8
0
  6
CONTINUOUS
 62
     7
 10
703.9443598600354
 20
1856.933278746406
 30
0.0
 11
701.9443598600354
 21
1856.933278746406
 31
0.0
  0
LINE
  5
F5
  8
0
  6
CONTINUOUS
 62
     7
 10
703.9443598600354
 20
1611.933278746406
 30
0.0
 11
703.9443598600354
 21
1856.933278746406
 31
0.0
  0
LINE
  5
F6
  8
0
  6
CONTINUOUS
 62
     7
 10
703.9443598600354
 20
1611.933278746406
 30
0.0
 11
701.9443598600354
 21
1611.933278746406
 31
0.0
  0
LINE
  5
F7
  8
0
  6
CONTINUOUS
 62
     7
 10
704.9443598600354
 20
1855.933278746406
 30
0.0
 11
704.9443598600354
 21
1612.933278746406
 31
0.0
  0
LINE
  5
F8
  8
0
  6
CONTINUOUS
 62
     7
 10
704.9443598600354
 20
1612.933278746406
 30
0.0
 11
703.9443598600354
 21
1611.933278746406
 31
0.0
  0
LINE
  5
F9
  8
0
  6
CONTINUOUS
 62
     7
 10
704.9443598600354
 20
1855.933278746406
 30
0.0
 11
703.9443598600354
 21
1856.933278746406
 31
0.0
  0
LINE
  5
FA
  8
0
  6
CONTINUOUS
 62
     7
 10
682.644359860038
 20
1858.933278746407
 30
0.0
 11
682.6443598600374
 21
1609.933278746406
 31
0.0
  0
LINE
  5
FB
  8
0
  6
CONTINUOUS
 62
     7
 10
403.6443598600359
 20
1609.933278746406
 30
0.0
 11
682.6443598600374
 21
1609.933278746406
 31
0.0
  0
LINE
  5
FC
  8
0
  6
CONTINUOUS
 62
     7
 10
403.6443598600359
 20
1858.933278746407
 30
0.0
 11
403.6443598600359
 21
1609.933278746406
 31
0.0
  0
LINE
  5
FD
  8
0
  6
CONTINUOUS
 62
     7
 10
403.6443598600359
 20
1858.933278746407
 30
0.0
 11
682.644359860038
 21
1858.933278746407
 31
0.0
  0
LINE
  5
FE
  8
0
  6
CONTINUOUS
 62
     7
 10
683.6443598600374
 20
1609.933278746406
 30
0.0
 11
682.6443598600374
 21
1609.933278746406
 31
0.0
  0
LINE
  5
FF
  8
0
  6
CONTINUOUS
 62
     7
 10
683.6443598600381
 20
1858.933278746407
 30
0.0
 11
682.644359860038
 21
1858.933278746407
 31
0.0
  0
LINE
  5
100
  8
0
  6
CONTINUOUS
 62
     7
 10
683.6443598600381
 20
1858.933278746407
 30
0.0
 11
683.6443598600374
 21
1609.933278746406
 31
0.0
  0
LINE
  5
101
  8
0
  6
CONTINUOUS
 62
     7
 10
683.6443598600381
 20
1859.433278746407
 30
0.0
 11
683.6443598600381
 21
1858.933278746407
 31
0.0
  0
LINE
  5
102
  8
0
  6
CONTINUOUS
 62
     7
 10
403.6443598600359
 20
1858.933278746407
 30
0.0
 11
683.6443598600381
 21
1858.933278746407
 31
0.0
  0
LINE
  5
103
  8
0
  6
CONTINUOUS
 62
     7
 10
403.6443598600359
 20
1859.433278746406
 30
0.0
 11
403.6443598600359
 21
1858.933278746407
 31
0.0
  0
LINE
  5
104
  8
0
  6
CONTINUOUS
 62
     7
 10
403.6443598600359
 20
1859.433278746406
 30
0.0
 11
683.6443598600381
 21
1859.433278746407
 31
0.0
  0
LINE
  5
105
  8
0
  6
CONTINUOUS
 62
     7
 10
683.6443598600374
 20
1609.433278746406
 30
0.0
 11
683.6443598600374
 21
1609.933278746406
 31
0.0
  0
LINE
  5
106
  8
0
  6
CONTINUOUS
 62
     7
 10
683.6443598600374
 20
1609.933278746406
 30
0.0
 11
403.6443598600359
 21
1609.933278746406
 31
0.0
  0
LINE
  5
107
  8
0
  6
CONTINUOUS
 62
     7
 10
403.6443598600359
 20
1609.433278746406
 30
0.0
 11
403.6443598600359
 21
1609.933278746406
 31
0.0
  0
LINE
  5
108
  8
0
  6
CONTINUOUS
 62
     7
 10
403.6443598600359
 20
1609.433278746406
 30
0.0
 11
683.6443598600374
 21
1609.433278746406
 31
0.0
  0
LINE
  5
109
  8
0
  6
CONTINUOUS
 62
     7
 10
3799.914420196064
 20
1845.133278746405
 30
0.0
 11
3799.914420196064
 21
1825.133278746405
 31
0.0
  0
LINE
  5
10A
  8
0
  6
CONTINUOUS
 62
     7
 10
3799.714420196065
 20
1824.933278746405
 30
0.0
 11
3799.914420196064
 21
1825.133278746405
 31
0.0
  0
LINE
  5
10B
  8
0
  6
CONTINUOUS
 62
     7
 10
3799.914420196064
 20
1845.133278746405
 30
0.0
 11
3799.714420196064
 21
1844.933278746405
 31
0.0
  0
LINE
  5
10C
  8
0
  6
CONTINUOUS
 62
     7
 10
3801.314420196064
 20
1824.933278746405
 30
0.0
 11
3799.714420196065
 21
1824.933278746405
 31
0.0
  0
LINE
  5
10D
  8
0
  6
CONTINUOUS
 62
     7
 10
3799.914420196064
 20
1825.133278746405
 30
0.0
 11
3801.314420196064
 21
1825.133278746405
 31
0.0
  0
LINE
  5
10E
  8
0
  6
CONTINUOUS
 62
     7
 10
3801.314420196064
 20
1824.933278746405
 30
0.0
 11
3801.314420196064
 21
1825.133278746405
 31
0.0
  0
LINE
  5
10F
  8
0
  6
CONTINUOUS
 62
     7
 10
3787.414420196064
 20
1858.133278746405
 30
0.0
 11
3787.414420196064
 21
1845.133278746405
 31
0.0
  0
LINE
  5
110
  8
0
  6
CONTINUOUS
 62
     7
 10
3786.997208512606
 20
1858.133278746405
 30
0.0
 11
3787.414420196064
 21
1858.133278746405
 31
0.0
  0
ARC
  5
111
  8
0
  6
CONTINUOUS
 62
     7
 10
3787.214381870136
 20
1857.926310795313
 30
0.0
 40
0.2999999999998241
 50
99.57658848101983
 51
136.378347032699
  0
ARC
  5
112
  8
0
  6
CONTINUOUS
 62
     7
 10
3787.297564793561
 20
1857.433278746405
 30
0.0
 40
0.7999999999999607
 50
4.969946594678492
 51
99.57658848105103
  0
LINE
  5
113
  8
0
  6
CONTINUOUS
 62
     7
 10
3788.935745633735
 20
1847.829318911318
 30
0.0
 11
3788.094557015101
 21
1857.50258530313
 31
0.0
  0
ARC
  5
114
  8
0
  6
CONTINUOUS
 62
     7
 10
3790.131233966044
 20
1847.933278746405
 30
0.0
 40
1.200000000000273
 50
184.969946594692
 51
270.0000000000008
  0
LINE
  5
115
  8
0
  6
CONTINUOUS
 62
     7
 10
3800.514420196064
 20
1846.733278746405
 30
0.0
 11
3790.131233966044
 21
1846.733278746405
 31
0.0
  0
ARC
  5
116
  8
0
  6
CONTINUOUS
 62
     7
 10
3800.514420196064
 20
1845.933278746405
 30
0.0
 40
0.7999999999997272
 50
0.0
 51
90.0
  0
LINE
  5
117
  8
0
  6
CONTINUOUS
 62
     7
 10
3801.314420196064
 20
1825.133278746405
 30
0.0
 11
3801.314420196064
 21
1845.933278746405
 31
0.0
  0
LINE
  5
118
  8
0
  6
CONTINUOUS
 62
     7
 10
3787.414420196064
 20
1845.133278746405
 30
0.0
 11
3799.914420196064
 21
1845.133278746405
 31
0.0
  0
LINE
  5
119
  8
0
  6
CONTINUOUS
 62
     7
 10
3801.514420196064
 20
1825.133278746405
 30
0.0
 11
3801.314420196064
 21
1825.133278746405
 31
0.0
  0
LINE
  5
11A
  8
0
  6
CONTINUOUS
 62
     7
 10
3801.514420196064
 20
1845.933278746405
 30
0.0
 11
3801.314420196064
 21
1845.933278746405
 31
0.0
  0
ARC
  5
11B
  8
0
  6
CONTINUOUS
 62
     7
 10
3801.314420196064
 20
1825.133278746405
 30
0.0
 40
0.2000000000002728
 50
270.0000000000008
 51
0.0
  0
LINE
  5
11C
  8
0
  6
CONTINUOUS
 62
     7
 10
3790.131233966044
 20
1846.933278746405
 30
0.0
 11
3800.514420196064
 21
1846.933278746405
 31
0.0
  0
LINE
  5
11D
  8
0
  6
CONTINUOUS
 62
     7
 10
3800.514420196064
 20
1846.933278746405
 30
0.0
 11
3800.514420196064
 21
1846.733278746405
 31
0.0
  0
LINE
  5
11E
  8
0
  6
CONTINUOUS
 62
     7
 10
3790.131233966044
 20
1846.933278746405
 30
0.0
 11
3790.131233966044
 21
1846.733278746405
 31
0.0
  0
LINE
  5
11F
  8
0
  6
CONTINUOUS
 62
     7
 10
3787.414420196064
 20
1858.133278746405
 30
0.0
 11
3787.214420196064
 21
1857.933278746405
 31
0.0
  0
POLYLINE
  5
120
  8
0
  6
CONTINUOUS
 62
     7
 66
     1
 10
0.0
 20
0.0
 30
0.0
  0
VERTEX
  5
2C8
  8
0
  6
CONTINUOUS
 62
     7
 10
3786.997208512606
 20
1858.133278746405
 30
0.0
  0
VERTEX
  5
2C9
  8
0
  6
CONTINUOUS
 62
     7
 10
3786.990857052693
 20
1858.130520814228
 30
0.0
  0
VERTEX
  5
2CA
  8
0
  6
CONTINUOUS
 62
     7
 10
3786.984528991366
 20
1858.12769437448
 30
0.0
  0
VERTEX
  5
2CB
  8
0
  6
CONTINUOUS
 62
     7
 10
3786.978226312798
 20
1858.124798587317
 30
0.0
  0
VERTEX
  5
2CC
  8
0
  6
CONTINUOUS
 62
     7
 10
3786.971950109663
 20
1858.121835429933
 30
0.0
  0
VERTEX
  5
2CD
  8
0
  6
CONTINUOUS
 62
     7
 10
3786.965701474638
 20
1858.118806879525
 30
0.0
  0
VERTEX
  5
2CE
  8
0
  6
CONTINUOUS
 62
     7
 10
3786.959481500401
 20
1858.115714913286
 30
0.0
  0
VERTEX
  5
2CF
  8
0
  6
CONTINUOUS
 62
     7
 10
3786.953291279625
 20
1858.112561508411
 30
0.0
  0
VERTEX
  5
2D0
  8
0
  6
CONTINUOUS
 62
     7
 10
3786.947131904989
 20
1858.109348642095
 30
0.0
  0
VERTEX
  5
2D1
  8
0
  6
CONTINUOUS
 62
     7
 10
3786.941004469169
 20
1858.106078291535
 30
0.0
  0
VERTEX
  5
2D2
  8
0
  6
CONTINUOUS
 62
     7
 10
3786.934910064842
 20
1858.102752433924
 30
0.0
  0
VERTEX
  5
2D3
  8
0
  6
CONTINUOUS
 62
     7
 10
3786.928849784684
 20
1858.099373046457
 30
0.0
  0
VERTEX
  5
2D4
  8
0
  6
CONTINUOUS
 62
     7
 10
3786.92282472137
 20
1858.095942106329
 30
0.0
  0
VERTEX
  5
2D5
  8
0
  6
CONTINUOUS
 62
     7
 10
3786.916835967579
 20
1858.092461590735
 30
0.0
  0
VERTEX
  5
2D6
  8
0
  6
CONTINUOUS
 62
     7
 10
3786.910884615987
 20
1858.088933476871
 30
0.0
  0
VERTEX
  5
2D7
  8
0
  6
CONTINUOUS
 62
     7
 10
3786.904971759267
 20
1858.08535974193
 30
0.0
  0
VERTEX
  5
2D8
  8
0
  6
CONTINUOUS
 62
     7
 10
3786.8990984901
 20
1858.081742363109
 30
0.0
  0
VERTEX
  5
2D9
  8
0
  6
CONTINUOUS
 62
     7
 10
3786.893265901159
 20
1858.078083317601
 30
0.0
  0
VERTEX
  5
2DA
  8
0
  6
CONTINUOUS
 62
     7
 10
3786.887475085125
 20
1858.074384582603
 30
0.0
  0
VERTEX
  5
2DB
  8
0
  6
CONTINUOUS
 62
     7
 10
3786.88172713467
 20
1858.070648135308
 30
0.0
  0
VERTEX
  5
2DC
  8
0
  6
CONTINUOUS
 62
     7
 10
3786.876023142471
 20
1858.066875952911
 30
0.0
  0
VERTEX
  5
2DD
  8
0
  6
CONTINUOUS
 62
     7
 10
3786.870364201207
 20
1858.063070012609
 30
0.0
  0
VERTEX
  5
2DE
  8
0
  6
CONTINUOUS
 62
     7
 10
3786.864751403552
 20
1858.059232291595
 30
0.0
  0
VERTEX
  5
2DF
  8
0
  6
CONTINUOUS
 62
     7
 10
3786.859185842184
 20
1858.055364767065
 30
0.0
  0
VERTEX
  5
2E0
  8
0
  6
CONTINUOUS
 62
     7
 10
3786.853668609778
 20
1858.051469416213
 30
0.0
  0
VERTEX
  5
2E1
  8
0
  6
CONTINUOUS
 62
     7
 10
3786.848200858759
 20
1858.047548294058
 30
0.0
  0
VERTEX
  5
2E2
  8
0
  6
CONTINUOUS
 62
     7
 10
3786.842784800559
 20
1858.043604835019
 30
0.0
  0
VERTEX
  5
2E3
  8
0
  6
CONTINUOUS
 62
     7
 10
3786.837423555448
 20
1858.039643657312
 30
0.0
  0
VERTEX
  5
2E4
  8
0
  6
CONTINUOUS
 62
     7
 10
3786.832120273191
 20
1858.035669417567
 30
0.0
  0
VERTEX
  5
2E5
  8
0
  6
CONTINUOUS
 62
     7
 10
3786.826878103545
 20
1858.031686772413
 30
0.0
  0
VERTEX
  5
2E6
  8
0
  6
CONTINUOUS
 62
     7
 10
3786.821700196276
 20
1858.027700378483
 30
0.0
  0
VERTEX
  5
2E7
  8
0
  6
CONTINUOUS
 62
     7
 10
3786.816589701143
 20
1858.023714892404
 30
0.0
  0
VERTEX
  5
2E8
  8
0
  6
CONTINUOUS
 62
     7
 10
3786.811549767911
 20
1858.019734970808
 30
0.0
  0
VERTEX
  5
2E9
  8
0
  6
CONTINUOUS
 62
     7
 10
3786.806583546341
 20
1858.015765270326
 30
0.0
  0
VERTEX
  5
2EA
  8
0
  6
CONTINUOUS
 62
     7
 10
3786.801694186193
 20
1858.011810447587
 30
0.0
  0
VERTEX
  5
2EB
  8
0
  6
CONTINUOUS
 62
     7
 10
3786.796884837232
 20
1858.007875159221
 30
0.0
  0
VERTEX
  5
2EC
  8
0
  6
CONTINUOUS
 62
     7
 10
3786.792158649219
 20
1858.003964061859
 30
0.0
  0
VERTEX
  5
2ED
  8
0
  6
CONTINUOUS
 62
     7
 10
3786.787518771915
 20
1858.000081812131
 30
0.0
  0
VERTEX
  5
2EE
  8
0
  6
CONTINUOUS
 62
     7
 10
3786.782968355083
 20
1857.996233066666
 30
0.0
  0
VERTEX
  5
2EF
  8
0
  6
CONTINUOUS
 62
     7
 10
3786.778510549362
 20
1857.992422483409
 30
0.0
  0
VERTEX
  5
2F0
  8
0
  6
CONTINUOUS
 62
     7
 10
3786.774148884736
 20
1857.988655287588
 30
0.0
  0
VERTEX
  5
2F1
  8
0
  6
CONTINUOUS
 62
     7
 10
3786.769887861162
 20
1857.984938154978
 30
0.0
  0
VERTEX
  5
2F2
  8
0
  6
CONTINUOUS
 62
     7
 10
3786.765732131413
 20
1857.981277989888
 30
0.0
  0
VERTEX
  5
2F3
  8
0
  6
CONTINUOUS
 62
     7
 10
3786.761686348271
 20
1857.977681696626
 30
0.0
  0
VERTEX
  5
2F4
  8
0
  6
CONTINUOUS
 62
     7
 10
3786.757755164512
 20
1857.974156179503
 30
0.0
  0
VERTEX
  5
2F5
  8
0
  6
CONTINUOUS
 62
     7
 10
3786.753943232912
 20
1857.97070834283
 30
0.0
  0
VERTEX
  5
2F6
  8
0
  6
CONTINUOUS
 62
     7
 10
3786.750255206251
 20
1857.967345090913
 30
0.0
  0
VERTEX
  5
2F7
  8
0
  6
CONTINUOUS
 62
     7
 10
3786.746695737306
 20
1857.964073328065
 30
0.0
  0
VERTEX
  5
2F8
  8
0
  6
CONTINUOUS
 62
     7
 10
3786.743269478855
 20
1857.960899958594
 30
0.0
  0
VERTEX
  5
2F9
  8
0
  6
CONTINUOUS
 62
     7
 10
3786.739981083682
 20
1857.95783188682
 30
0.0
  0
VERTEX
  5
2FA
  8
0
  6
CONTINUOUS
 62
     7
 10
3786.736837713961
 20
1857.954878568661
 30
0.0
  0
VERTEX
  5
2FB
  8
0
  6
CONTINUOUS
 62
     7
 10
3786.733856102619
 20
1857.952059191803
 30
0.0
  0
VERTEX
  5
2FC
  8
0
  6
CONTINUOUS
 62
     7
 10
3786.731055263961
 20
1857.949395263684
 30
0.0
  0
VERTEX
  5
2FD
  8
0
  6
CONTINUOUS
 62
     7
 10
3786.728454212287
 20
1857.946908291744
 30
0.0
  0
VERTEX
  5
2FE
  8
0
  6
CONTINUOUS
 62
     7
 10
3786.726071961898
 20
1857.94461978342
 30
0.0
  0
VERTEX
  5
2FF
  8
0
  6
CONTINUOUS
 62
     7
 10
3786.7239275271
 20
1857.942551246152
 30
0.0
  0
VERTEX
  5
300
  8
0
  6
CONTINUOUS
 62
     7
 10
3786.722039922194
 20
1857.94072418738
 30
0.0
  0
VERTEX
  5
301
  8
0
  6
CONTINUOUS
 62
     7
 10
3786.72042680874
 20
1857.939158739398
 30
0.0
  0
VERTEX
  5
302
  8
0
  6
CONTINUOUS
 62
     7
 10
3786.719077794919
 20
1857.93784651657
 30
0.0
  0
VERTEX
  5
303
  8
0
  6
CONTINUOUS
 62
     7
 10
3786.717956036891
 20
1857.936752243203
 30
0.0
  0
VERTEX
  5
304
  8
0
  6
CONTINUOUS
 62
     7
 10
3786.717023658689
 20
1857.935839594384
 30
0.0
  0
VERTEX
  5
305
  8
0
  6
CONTINUOUS
 62
     7
 10
3786.716242784348
 20
1857.935072245205
 30
0.0
  0
VERTEX
  5
306
  8
0
  6
CONTINUOUS
 62
     7
 10
3786.715575537902
 20
1857.934413870755
 30
0.0
  0
VERTEX
  5
307
  8
0
  6
CONTINUOUS
 62
     7
 10
3786.714984043386
 20
1857.933828146125
 30
0.0
  0
VERTEX
  5
308
  8
0
  6
CONTINUOUS
 62
     7
 10
3786.714430424836
 20
1857.933278746405
 30
0.0
  0
SEQEND
  5
38E
  8
0
  6
CONTINUOUS
 62
     7
  0
LINE
  5
121
  8
0
  6
CONTINUOUS
 62
     7
 10
3788.293805070486
 20
1857.519911942311
 30
0.0
 11
3789.13499368912
 21
1847.846645550499
 31
0.0
  0
LINE
  5
122
  8
0
  6
CONTINUOUS
 62
     7
 10
3789.13499368912
 20
1847.846645550499
 30
0.0
 11
3788.935745633735
 21
1847.829318911318
 31
0.0
  0
LINE
  5
123
  8
0
  6
CONTINUOUS
 62
     7
 10
3788.094557015101
 20
1857.50258530313
 30
0.0
 11
3788.293805070486
 21
1857.519911942311
 31
0.0
  0
ARC
  5
124
  8
0
  6
CONTINUOUS
 62
     7
 10
3800.514420196064
 20
1845.933278746405
 30
0.0
 40
1.0
 50
0.0
 51
90.0
  0
ARC
  5
125
  8
0
  6
CONTINUOUS
 62
     7
 10
3787.214381870136
 20
1857.926310795313
 30
0.0
 40
0.5000000000000059
 50
99.57658848101404
 51
179.2015057738761
  0
LINE
  5
126
  8
0
  6
CONTINUOUS
 62
     7
 10
3787.164472116081
 20
1858.222130024658
 30
0.0
 11
3787.131198946712
 21
1858.419342844222
 31
0.0
  0
LINE
  5
127
  8
0
  6
CONTINUOUS
 62
     7
 10
3787.414420196064
 20
1845.133278746405
 30
0.0
 11
3787.214420196064
 21
1844.933278746405
 31
0.0
  0
ARC
  5
128
  8
0
  6
CONTINUOUS
 62
     7
 10
3787.297564793561
 20
1857.433278746405
 30
0.0
 40
0.9999999999999509
 50
4.969946594678492
 51
99.5765884810419
  0
ARC
  5
129
  8
0
  6
CONTINUOUS
 62
     7
 10
3790.131233966044
 20
1847.933278746405
 30
0.0
 40
1.000000000000227
 50
184.9699465946945
 51
270.0000000000008
  0
LINE
  5
12A
  8
0
  6
CONTINUOUS
 62
     7
 10
3783.214420196063
 20
1610.933278746406
 30
0.0
 11
3801.214420196063
 21
1610.933278746406
 31
0.0
  0
LINE
  5
12B
  8
0
  6
CONTINUOUS
 62
     7
 10
3783.214420196063
 20
1857.933278746406
 30
0.0
 11
3783.214420196063
 21
1610.933278746406
 31
0.0
  0
LINE
  5
12C
  8
0
  6
CONTINUOUS
 62
     7
 10
3787.214420196063
 20
1857.933278746406
 30
0.0
 11
3783.214420196063
 21
1857.933278746406
 31
0.0
  0
LINE
  5
12D
  8
0
  6
CONTINUOUS
 62
     7
 10
3787.214420196063
 20
1857.933278746406
 30
0.0
 11
3787.214420196063
 21
1844.933278746406
 31
0.0
  0
LINE
  5
12E
  8
0
  6
CONTINUOUS
 62
     7
 10
3799.714420196063
 20
1824.433278746406
 30
0.0
 11
3801.214420196063
 21
1824.433278746406
 31
0.0
  0
LINE
  5
12F
  8
0
  6
CONTINUOUS
 62
     7
 10
3801.214420196063
 20
1610.933278746406
 30
0.0
 11
3801.214420196063
 21
1824.433278746406
 31
0.0
  0
LINE
  5
130
  8
0
  6
CONTINUOUS
 62
     7
 10
3787.214420196063
 20
1844.933278746406
 30
0.0
 11
3799.714420196063
 21
1844.933278746406
 31
0.0
  0
LINE
  5
131
  8
0
  6
CONTINUOUS
 62
     7
 10
3799.714420196063
 20
1844.933278746406
 30
0.0
 11
3799.714420196063
 21
1824.433278746406
 31
0.0
  0
LINE
  5
132
  8
0
  6
CONTINUOUS
 62
     7
 10
3781.214420196063
 20
1611.933278746406
 30
0.0
 11
3783.214420196063
 21
1611.933278746406
 31
0.0
  0
LINE
  5
133
  8
0
  6
CONTINUOUS
 62
     7
 10
3781.214420196063
 20
1856.933278746406
 30
0.0
 11
3781.214420196063
 21
1611.933278746406
 31
0.0
  0
LINE
  5
134
  8
0
  6
CONTINUOUS
 62
     7
 10
3781.214420196063
 20
1856.933278746406
 30
0.0
 11
3783.214420196063
 21
1856.933278746406
 31
0.0
  0
LINE
  5
135
  8
0
  6
CONTINUOUS
 62
     7
 10
3781.214420196063
 20
1611.933278746406
 30
0.0
 11
3780.214420196063
 21
1612.933278746406
 31
0.0
  0
LINE
  5
136
  8
0
  6
CONTINUOUS
 62
     7
 10
3780.214420196063
 20
1612.933278746406
 30
0.0
 11
3780.214420196063
 21
1855.933278746406
 31
0.0
  0
LINE
  5
137
  8
0
  6
CONTINUOUS
 62
     7
 10
3781.214420196063
 20
1856.933278746406
 30
0.0
 11
3780.214420196063
 21
1855.933278746406
 31
0.0
  0
LINE
  5
138
  8
0
  6
CONTINUOUS
 62
     7
 10
4081.514420196062
 20
1858.933278746407
 30
0.0
 11
4081.514420196062
 21
1609.933278746406
 31
0.0
  0
LINE
  5
139
  8
0
  6
CONTINUOUS
 62
     7
 10
3802.514420196061
 20
1609.933278746406
 30
0.0
 11
4081.514420196062
 21
1609.933278746406
 31
0.0
  0
LINE
  5
13A
  8
0
  6
CONTINUOUS
 62
     7
 10
3802.514420196061
 20
1858.933278746407
 30
0.0
 11
3802.514420196061
 21
1609.933278746406
 31
0.0
  0
LINE
  5
13B
  8
0
  6
CONTINUOUS
 62
     7
 10
3802.514420196061
 20
1858.933278746407
 30
0.0
 11
4081.514420196062
 21
1858.933278746407
 31
0.0
  0
LINE
  5
13C
  8
0
  6
CONTINUOUS
 62
     7
 10
3801.514420196061
 20
1858.933278746407
 30
0.0
 11
3802.514420196061
 21
1858.933278746407
 31
0.0
  0
LINE
  5
13D
  8
0
  6
CONTINUOUS
 62
     7
 10
3801.514420196061
 20
1609.933278746406
 30
0.0
 11
3802.514420196061
 21
1609.933278746406
 31
0.0
  0
LINE
  5
13E
  8
0
  6
CONTINUOUS
 62
     7
 10
3801.514420196061
 20
1609.933278746406
 30
0.0
 11
3801.514420196061
 21
1858.933278746407
 31
0.0
  0
LINE
  5
13F
  8
0
  6
CONTINUOUS
 62
     7
 10
4081.514420196062
 20
1859.433278746406
 30
0.0
 11
4081.514420196062
 21
1858.933278746407
 31
0.0
  0
LINE
  5
140
  8
0
  6
CONTINUOUS
 62
     7
 10
3801.514420196061
 20
1859.433278746407
 30
0.0
 11
3801.514420196061
 21
1858.933278746407
 31
0.0
  0
LINE
  5
141
  8
0
  6
CONTINUOUS
 62
     7
 10
3801.514420196061
 20
1859.433278746407
 30
0.0
 11
4081.514420196062
 21
1859.433278746406
 31
0.0
  0
LINE
  5
142
  8
0
  6
CONTINUOUS
 62
     7
 10
3801.514420196061
 20
1858.933278746407
 30
0.0
 11
4081.514420196062
 21
1858.933278746407
 31
0.0
  0
LINE
  5
143
  8
0
  6
CONTINUOUS
 62
     7
 10
3801.514420196061
 20
1609.433278746406
 30
0.0
 11
3801.514420196061
 21
1609.933278746406
 31
0.0
  0
LINE
  5
144
  8
0
  6
CONTINUOUS
 62
     7
 10
4081.514420196062
 20
1609.433278746406
 30
0.0
 11
4081.514420196062
 21
1609.933278746406
 31
0.0
  0
LINE
  5
145
  8
0
  6
CONTINUOUS
 62
     7
 10
4081.514420196062
 20
1609.933278746406
 30
0.0
 11
3801.514420196061
 21
1609.933278746406
 31
0.0
  0
LINE
  5
146
  8
0
  6
CONTINUOUS
 62
     7
 10
3801.514420196061
 20
1609.433278746406
 30
0.0
 11
4081.514420196062
 21
1609.433278746406
 31
0.0
  0
LINE
  5
147
  8
0
  6
CONTINUOUS
 62
     7
 10
2645.066085706195
 20
2543.04227621387
 30
0.0
 11
2645.066085706195
 21
2542.11219131485
 31
0.0
  0
ARC
  5
148
  8
0
  6
CONTINUOUS
 62
     7
 10
2644.914701826444
 20
2542.404415477272
 30
0.0
 40
0.3291079460475503
 50
261.5051279085488
 51
297.3859751202099
  0
LINE
  5
149
  8
0
  6
CONTINUOUS
 62
     7
 10
2644.866085706195
 20
2542.07891814548
 30
0.0
 11
2644.866085706195
 21
2543.241524269255
 31
0.0
  0
ARC
  5
14A
  8
0
  6
CONTINUOUS
 62
     7
 10
2644.866460971727
 20
2543.041899532119
 30
0.0
 40
0.1996250898575798
 50
0.1081141019828069
 51
90.10770762250633
  0
LINE
  5
14B
  8
0
  6
CONTINUOUS
 62
     7
 10
2644.866085706195
 20
2543.241524269255
 30
0.0
 11
2644.066085706195
 21
2543.241524269255
 31
0.0
  0
LINE
  5
14C
  8
0
  6
CONTINUOUS
 62
     7
 10
2644.866085706195
 20
2542.07891814548
 30
0.0
 11
2644.066085706195
 21
2542.07891814548
 31
0.0
  0
LINE
  5
14D
  8
0
  6
CONTINUOUS
 62
     7
 10
2644.066085706195
 20
2543.241524269255
 30
0.0
 11
2644.066085706195
 21
2542.07891814548
 31
0.0
  0
LINE
  5
14E
  8
0
  6
CONTINUOUS
 62
     7
 10
2645.066085706195
 20
2542.11219131485
 30
0.0
 11
2645.066085706195
 21
2541.944927711375
 31
0.0
  0
POLYLINE
  5
14F
  8
0
  6
CONTINUOUS
 62
     7
 66
     1
 10
0.0
 20
0.0
 30
0.0
  0
VERTEX
  5
309
  8
0
  6
CONTINUOUS
 62
     7
 10
2645.066085706195
 20
2541.944927711375
 30
0.0
  0
VERTEX
  5
30A
  8
0
  6
CONTINUOUS
 62
     7
 10
2645.066068269434
 20
2541.938576251461
 30
0.0
  0
VERTEX
  5
30B
  8
0
  6
CONTINUOUS
 62
     7
 10
2645.06601247167
 20
2541.932248190135
 30
0.0
  0
VERTEX
  5
30C
  8
0
  6
CONTINUOUS
 62
     7
 10
2645.06591387008
 20
2541.925945511567
 30
0.0
  0
VERTEX
  5
30D
  8
0
  6
CONTINUOUS
 62
     7
 10
2645.065769433871
 20
2541.919669308432
 30
0.0
  0
VERTEX
  5
30E
  8
0
  6
CONTINUOUS
 62
     7
 10
2645.065576132248
 20
2541.913420673407
 30
0.0
  0
VERTEX
  5
30F
  8
0
  6
CONTINUOUS
 62
     7
 10
2645.065330934418
 20
2541.907200699169
 30
0.0
  0
VERTEX
  5
310
  8
0
  6
CONTINUOUS
 62
     7
 10
2645.065030809586
 20
2541.901010478393
 30
0.0
  0
VERTEX
  5
311
  8
0
  6
CONTINUOUS
 62
     7
 10
2645.06467272696
 20
2541.894851103758
 30
0.0
  0
VERTEX
  5
312
  8
0
  6
CONTINUOUS
 62
     7
 10
2645.064253655746
 20
2541.888723667938
 30
0.0
  0
VERTEX
  5
313
  8
0
  6
CONTINUOUS
 62
     7
 10
2645.063770565149
 20
2541.882629263611
 30
0.0
  0
VERTEX
  5
314
  8
0
  6
CONTINUOUS
 62
     7
 10
2645.063220424375
 20
2541.876568983452
 30
0.0
  0
VERTEX
  5
315
  8
0
  6
CONTINUOUS
 62
     7
 10
2645.062600202631
 20
2541.870543920139
 30
0.0
  0
VERTEX
  5
316
  8
0
  6
CONTINUOUS
 62
     7
 10
2645.061906869123
 20
2541.864555166348
 30
0.0
  0
VERTEX
  5
317
  8
0
  6
CONTINUOUS
 62
     7
 10
2645.061137393057
 20
2541.858603814755
 30
0.0
  0
VERTEX
  5
318
  8
0
  6
CONTINUOUS
 62
     7
 10
2645.06028874364
 20
2541.852690958036
 30
0.0
  0
VERTEX
  5
319
  8
0
  6
CONTINUOUS
 62
     7
 10
2645.059357890077
 20
2541.846817688869
 30
0.0
  0
VERTEX
  5
31A
  8
0
  6
CONTINUOUS
 62
     7
 10
2645.058341801575
 20
2541.840985099929
 30
0.0
  0
VERTEX
  5
31B
  8
0
  6
CONTINUOUS
 62
     7
 10
2645.057237447341
 20
2541.835194283894
 30
0.0
  0
VERTEX
  5
31C
  8
0
  6
CONTINUOUS
 62
     7
 10
2645.056041796579
 20
2541.829446333438
 30
0.0
  0
VERTEX
  5
31D
  8
0
  6
CONTINUOUS
 62
     7
 10
2645.054751818496
 20
2541.82374234124
 30
0.0
  0
VERTEX
  5
31E
  8
0
  6
CONTINUOUS
 62
     7
 10
2645.053364482299
 20
2541.818083399976
 30
0.0
  0
VERTEX
  5
31F
  8
0
  6
CONTINUOUS
 62
     7
 10
2645.051876757194
 20
2541.812470602321
 30
0.0
  0
VERTEX
  5
320
  8
0
  6
CONTINUOUS
 62
     7
 10
2645.050285612387
 20
2541.806905040953
 30
0.0
  0
VERTEX
  5
321
  8
0
  6
CONTINUOUS
 62
     7
 10
2645.048588017084
 20
2541.801387808547
 30
0.0
  0
VERTEX
  5
322
  8
0
  6
CONTINUOUS
 62
     7
 10
2645.046780927934
 20
2541.795920057528
 30
0.0
  0
VERTEX
  5
323
  8
0
  6
CONTINUOUS
 62
     7
 10
2645.044861079026
 20
2541.790503999328
 30
0.0
  0
VERTEX
  5
324
  8
0
  6
CONTINUOUS
 62
     7
 10
2645.042825013446
 20
2541.785142754218
 30
0.0
  0
VERTEX
  5
325
  8
0
  6
CONTINUOUS
 62
     7
 10
2645.040669268079
 20
2541.779839471959
 30
0.0
  0
VERTEX
  5
326
  8
0
  6
CONTINUOUS
 62
     7
 10
2645.038390379816
 20
2541.774597302315
 30
0.0
  0
VERTEX
  5
327
  8
0
  6
CONTINUOUS
 62
     7
 10
2645.035984885543
 20
2541.769419395045
 30
0.0
  0
VERTEX
  5
328
  8
0
  6
CONTINUOUS
 62
     7
 10
2645.033449322147
 20
2541.764308899913
 30
0.0
  0
VERTEX
  5
329
  8
0
  6
CONTINUOUS
 62
     7
 10
2645.030780226517
 20
2541.75926896668
 30
0.0
  0
VERTEX
  5
32A
  8
0
  6
CONTINUOUS
 62
     7
 10
2645.027974135541
 20
2541.75430274511
 30
0.0
  0
VERTEX
  5
32B
  8
0
  6
CONTINUOUS
 62
     7
 10
2645.025027586106
 20
2541.749413384963
 30
0.0
  0
VERTEX
  5
32C
  8
0
  6
CONTINUOUS
 62
     7
 10
2645.021937115099
 20
2541.744604036001
 30
0.0
  0
VERTEX
  5
32D
  8
0
  6
CONTINUOUS
 62
     7
 10
2645.018699259409
 20
2541.739877847988
 30
0.0
  0
VERTEX
  5
32E
  8
0
  6
CONTINUOUS
 62
     7
 10
2645.015310555923
 20
2541.735237970684
 30
0.0
  0
VERTEX
  5
32F
  8
0
  6
CONTINUOUS
 62
     7
 10
2645.011767541529
 20
2541.730687553852
 30
0.0
  0
VERTEX
  5
330
  8
0
  6
CONTINUOUS
 62
     7
 10
2645.008066754721
 20
2541.726229748132
 30
0.0
  0
VERTEX
  5
331
  8
0
  6
CONTINUOUS
 62
     7
 10
2645.00420542885
 20
2541.721868083505
 30
0.0
  0
VERTEX
  5
332
  8
0
  6
CONTINUOUS
 62
     7
 10
2645.000182573991
 20
2541.71760705993
 30
0.0
  0
VERTEX
  5
333
  8
0
  6
CONTINUOUS
 62
     7
 10
2644.995997480142
 20
2541.713451330182
 30
0.0
  0
VERTEX
  5
334
  8
0
  6
CONTINUOUS
 62
     7
 10
2644.991649437309
 20
2541.70940554704
 30
0.0
  0
VERTEX
  5
335
  8
0
  6
CONTINUOUS
 62
     7
 10
2644.987137735493
 20
2541.70547436328
 30
0.0
  0
VERTEX
  5
336
  8
0
  6
CONTINUOUS
 62
     7
 10
2644.982461664696
 20
2541.701662431682
 30
0.0
  0
VERTEX
  5
337
  8
0
  6
CONTINUOUS
 62
     7
 10
2644.97762051492
 20
2541.69797440502
 30
0.0
  0
VERTEX
  5
338
  8
0
  6
CONTINUOUS
 62
     7
 10
2644.972613576168
 20
2541.694414936075
 30
0.0
  0
VERTEX
  5
339
  8
0
  6
CONTINUOUS
 62
     7
 10
2644.967440138442
 20
2541.690988677623
 30
0.0
  0
VERTEX
  5
33A
  8
0
  6
CONTINUOUS
 62
     7
 10
2644.962099491749
 20
2541.687700282451
 30
0.0
  0
VERTEX
  5
33B
  8
0
  6
CONTINUOUS
 62
     7
 10
2644.9565921496
 20
2541.68455691273
 30
0.0
  0
VERTEX
  5
33C
  8
0
  6
CONTINUOUS
 62
     7
 10
2644.950923291943
 20
2541.681575301389
 30
0.0
  0
VERTEX
  5
33D
  8
0
  6
CONTINUOUS
 62
     7
 10
2644.945099211059
 20
2541.67877446273
 30
0.0
  0
VERTEX
  5
33E
  8
0
  6
CONTINUOUS
 62
     7
 10
2644.939126199226
 20
2541.676173411056
 30
0.0
  0
VERTEX
  5
33F
  8
0
  6
CONTINUOUS
 62
     7
 10
2644.933010548727
 20
2541.673791160668
 30
0.0
  0
VERTEX
  5
340
  8
0
  6
CONTINUOUS
 62
     7
 10
2644.92675855184
 20
2541.671646725869
 30
0.0
  0
VERTEX
  5
341
  8
0
  6
CONTINUOUS
 62
     7
 10
2644.920376500848
 20
2541.669759120963
 30
0.0
  0
VERTEX
  5
342
  8
0
  6
CONTINUOUS
 62
     7
 10
2644.913870920116
 20
2541.668146007509
 30
0.0
  0
VERTEX
  5
343
  8
0
  6
CONTINUOUS
 62
     7
 10
2644.907253147044
 20
2541.666796993688
 30
0.0
  0
VERTEX
  5
344
  8
0
  6
CONTINUOUS
 62
     7
 10
2644.90053905733
 20
2541.66567523566
 30
0.0
  0
VERTEX
  5
345
  8
0
  6
CONTINUOUS
 62
     7
 10
2644.893744703747
 20
2541.664742857458
 30
0.0
  0
VERTEX
  5
346
  8
0
  6
CONTINUOUS
 62
     7
 10
2644.886886139067
 20
2541.663961983116
 30
0.0
  0
VERTEX
  5
347
  8
0
  6
CONTINUOUS
 62
     7
 10
2644.879979416067
 20
2541.663294736671
 30
0.0
  0
VERTEX
  5
348
  8
0
  6
CONTINUOUS
 62
     7
 10
2644.873040587518
 20
2541.662703242155
 30
0.0
  0
VERTEX
  5
349
  8
0
  6
CONTINUOUS
 62
     7
 10
2644.866085706195
 20
2541.662149623605
 30
0.0
  0
SEQEND
  5
38F
  8
0
  6
CONTINUOUS
 62
     7
  0
LINE
  5
150
  8
0
  6
CONTINUOUS
 62
     7
 10
2644.866085706195
 20
2541.662149623605
 30
0.0
 11
2644.866085706195
 21
2542.07891814548
 31
0.0
  0
LINE
  5
151
  8
0
  6
CONTINUOUS
 62
     7
 10
2644.866085706195
 20
2541.662149623605
 30
0.0
 11
2644.066085706195
 21
2541.662149623605
 31
0.0
  0
LINE
  5
152
  8
0
  6
CONTINUOUS
 62
     7
 10
2644.066085706195
 20
2542.07891814548
 30
0.0
 11
2644.066085706195
 21
2541.662149623605
 31
0.0
  0
LINE
  5
153
  8
0
  6
CONTINUOUS
 62
     7
 10
2644.866085706195
 20
2543.241524269255
 30
0.0
 11
2644.866085706195
 21
2544.082712887889
 31
0.0
  0
ARC
  5
154
  8
0
  6
CONTINUOUS
 62
     7
 10
2644.866460971727
 20
2543.883088150753
 30
0.0
 40
0.1996250898575798
 50
0.1081141019828069
 51
90.10770762250633
  0
LINE
  5
155
  8
0
  6
CONTINUOUS
 62
     7
 10
2645.066085706195
 20
2543.883464832504
 30
0.0
 11
2645.066085706195
 21
2543.04227621387
 31
0.0
  0
LINE
  5
156
  8
0
  6
CONTINUOUS
 62
     7
 10
2644.866085706195
 20
2544.082712887889
 30
0.0
 11
2644.066085706195
 21
2544.082712887889
 31
0.0
  0
LINE
  5
157
  8
0
  6
CONTINUOUS
 62
     7
 10
2644.066085706195
 20
2544.082712887889
 30
0.0
 11
2644.066085706195
 21
2543.241524269255
 31
0.0
  0
LINE
  5
158
  8
0
  6
CONTINUOUS
 62
     7
 10
2644.866085706195
 20
2544.082712887889
 30
0.0
 11
2644.866085706195
 21
2545.078953164813
 31
0.0
  0
LINE
  5
159
  8
0
  6
CONTINUOUS
 62
     7
 10
2644.866085706195
 20
2545.078953164813
 30
0.0
 11
2645.066085706195
 21
2545.078953164813
 31
0.0
  0
LINE
  5
15A
  8
0
  6
CONTINUOUS
 62
     7
 10
2645.066085706195
 20
2545.078953164813
 30
0.0
 11
2645.066085706195
 21
2543.883464832504
 31
0.0
  0
LINE
  5
15B
  8
0
  6
CONTINUOUS
 62
     7
 10
2644.066085706195
 20
2545.078953164813
 30
0.0
 11
2644.866085706195
 21
2545.078953164813
 31
0.0
  0
LINE
  5
15C
  8
0
  6
CONTINUOUS
 62
     7
 10
2644.066085706195
 20
2545.078953164813
 30
0.0
 11
2644.066085706195
 21
2544.082712887889
 31
0.0
  0
LINE
  5
15D
  8
0
  6
CONTINUOUS
 62
     7
 10
2644.866085706195
 20
2555.462139394833
 30
0.0
 11
2644.866085706195
 21
2556.462139394833
 31
0.0
  0
ARC
  5
15E
  8
0
  6
CONTINUOUS
 62
     7
 10
2644.866085706195
 20
2556.262139394833
 30
0.0
 40
0.1999999999998181
 50
0.0
 51
90.0
  0
LINE
  5
15F
  8
0
  6
CONTINUOUS
 62
     7
 10
2644.866085706195
 20
2555.462139394833
 30
0.0
 11
2645.066085706195
 21
2555.462139394833
 31
0.0
  0
LINE
  5
160
  8
0
  6
CONTINUOUS
 62
     7
 10
2645.066085706195
 20
2556.262139394833
 30
0.0
 11
2645.066085706195
 21
2555.462139394833
 31
0.0
  0
LINE
  5
161
  8
0
  6
CONTINUOUS
 62
     7
 10
2644.866085706195
 20
2555.462139394833
 30
0.0
 11
2644.066085706195
 21
2555.462139394833
 31
0.0
  0
LINE
  5
162
  8
0
  6
CONTINUOUS
 62
     7
 10
2644.066085706195
 20
2555.462139394833
 30
0.0
 11
2644.066085706195
 21
2556.462139394833
 31
0.0
  0
LINE
  5
163
  8
0
  6
CONTINUOUS
 62
     7
 10
2644.866085706195
 20
2545.078953164813
 30
0.0
 11
2644.866085706195
 21
2555.462139394833
 31
0.0
  0
LINE
  5
164
  8
0
  6
CONTINUOUS
 62
     7
 10
2645.066085706195
 20
2555.462139394833
 30
0.0
 11
2645.066085706195
 21
2545.078953164813
 31
0.0
  0
LINE
  5
165
  8
0
  6
CONTINUOUS
 62
     7
 10
2644.066085706195
 20
2555.462139394833
 30
0.0
 11
2644.066085706195
 21
2545.078953164813
 31
0.0
  0
LINE
  5
166
  8
0
  6
CONTINUOUS
 62
     7
 10
2644.066085706195
 20
2543.241524269255
 30
0.0
 11
2050.066085706198
 21
2543.241524269254
 31
0.0
  0
LINE
  5
167
  8
0
  6
CONTINUOUS
 62
     7
 10
2644.066085706195
 20
2542.07891814548
 30
0.0
 11
2050.066085706198
 21
2542.07891814548
 31
0.0
  0
LINE
  5
168
  8
0
  6
CONTINUOUS
 62
     7
 10
2050.066085706198
 20
2542.07891814548
 30
0.0
 11
2050.066085706198
 21
2543.241524269254
 31
0.0
  0
LINE
  5
169
  8
0
  6
CONTINUOUS
 62
     7
 10
2644.066085706195
 20
2541.662149623605
 30
0.0
 11
2050.066085706198
 21
2541.662149623605
 31
0.0
  0
LINE
  5
16A
  8
0
  6
CONTINUOUS
 62
     7
 10
2050.066085706198
 20
2541.662149623605
 30
0.0
 11
2050.066085706198
 21
2542.07891814548
 31
0.0
  0
LINE
  5
16B
  8
0
  6
CONTINUOUS
 62
     7
 10
2644.066085706195
 20
2544.082712887889
 30
0.0
 11
2050.066085706198
 21
2544.082712887889
 31
0.0
  0
LINE
  5
16C
  8
0
  6
CONTINUOUS
 62
     7
 10
2050.066085706198
 20
2543.241524269254
 30
0.0
 11
2050.066085706198
 21
2544.082712887889
 31
0.0
  0
LINE
  5
16D
  8
0
  6
CONTINUOUS
 62
     7
 10
2050.066085706198
 20
2545.078953164813
 30
0.0
 11
2644.066085706195
 21
2545.078953164813
 31
0.0
  0
LINE
  5
16E
  8
0
  6
CONTINUOUS
 62
     7
 10
2050.066085706198
 20
2544.082712887889
 30
0.0
 11
2050.066085706198
 21
2545.078953164813
 31
0.0
  0
LINE
  5
16F
  8
0
  6
CONTINUOUS
 62
     7
 10
2644.066085706195
 20
2555.462139394833
 30
0.0
 11
2050.066085706198
 21
2555.462139394833
 31
0.0
  0
LINE
  5
170
  8
0
  6
CONTINUOUS
 62
     7
 10
2050.066085706198
 20
2545.078953164813
 30
0.0
 11
2050.066085706198
 21
2555.462139394833
 31
0.0
  0
LINE
  5
171
  8
0
  6
CONTINUOUS
 62
     7
 10
2064.066085706198
 20
2556.462139394833
 30
0.0
 11
2630.066085706198
 21
2556.462139394833
 31
0.0
  0
LINE
  5
172
  8
0
  6
CONTINUOUS
 62
     7
 10
2050.066085706198
 20
2556.462139394833
 30
0.0
 11
2050.066085706198
 21
2555.462139394833
 31
0.0
  0
LINE
  5
173
  8
0
  6
CONTINUOUS
 62
     7
 10
2049.066085706198
 20
2542.11219131485
 30
0.0
 11
2049.066085706198
 21
2543.042276213869
 31
0.0
  0
ARC
  5
174
  8
0
  6
CONTINUOUS
 62
     7
 10
2049.265710440665
 20
2543.041899532119
 30
0.0
 40
0.1996250898569106
 50
89.89229237723238
 51
179.8918858981472
  0
LINE
  5
175
  8
0
  6
CONTINUOUS
 62
     7
 10
2049.266085706198
 20
2543.241524269254
 30
0.0
 11
2049.266085706198
 21
2542.07891814548
 31
0.0
  0
ARC
  5
176
  8
0
  6
CONTINUOUS
 62
     7
 10
2049.217469585948
 20
2542.404415477269
 30
0.0
 40
0.3291079460445147
 50
242.6140248796071
 51
278.4948720916129
  0
LINE
  5
177
  8
0
  6
CONTINUOUS
 62
     7
 10
2050.066085706198
 20
2542.07891814548
 30
0.0
 11
2049.266085706198
 21
2542.07891814548
 31
0.0
  0
LINE
  5
178
  8
0
  6
CONTINUOUS
 62
     7
 10
2050.066085706198
 20
2543.241524269254
 30
0.0
 11
2049.266085706198
 21
2543.241524269254
 31
0.0
  0
LINE
  5
179
  8
0
  6
CONTINUOUS
 62
     7
 10
2049.066085706198
 20
2541.944927711375
 30
0.0
 11
2049.066085706198
 21
2542.11219131485
 31
0.0
  0
LINE
  5
17A
  8
0
  6
CONTINUOUS
 62
     7
 10
2049.266085706198
 20
2542.07891814548
 30
0.0
 11
2049.266085706198
 21
2541.662149623605
 31
0.0
  0
POLYLINE
  5
17B
  8
0
  6
CONTINUOUS
 62
     7
 66
     1
 10
0.0
 20
0.0
 30
0.0
  0
VERTEX
  5
34A
  8
0
  6
CONTINUOUS
 62
     7
 10
2049.066085706198
 20
2541.944927711375
 30
0.0
  0
VERTEX
  5
34B
  8
0
  6
CONTINUOUS
 62
     7
 10
2049.06610314296
 20
2541.93857625146
 30
0.0
  0
VERTEX
  5
34C
  8
0
  6
CONTINUOUS
 62
     7
 10
2049.066158940724
 20
2541.932248190135
 30
0.0
  0
VERTEX
  5
34D
  8
0
  6
CONTINUOUS
 62
     7
 10
2049.066257542313
 20
2541.925945511567
 30
0.0
  0
VERTEX
  5
34E
  8
0
  6
CONTINUOUS
 62
     7
 10
2049.066401978523
 20
2541.919669308432
 30
0.0
  0
VERTEX
  5
34F
  8
0
  6
CONTINUOUS
 62
     7
 10
2049.066595280146
 20
2541.913420673407
 30
0.0
  0
VERTEX
  5
350
  8
0
  6
CONTINUOUS
 62
     7
 10
2049.066840477976
 20
2541.907200699169
 30
0.0
  0
VERTEX
  5
351
  8
0
  6
CONTINUOUS
 62
     7
 10
2049.067140602806
 20
2541.901010478393
 30
0.0
  0
VERTEX
  5
352
  8
0
  6
CONTINUOUS
 62
     7
 10
2049.067498685433
 20
2541.894851103758
 30
0.0
  0
VERTEX
  5
353
  8
0
  6
CONTINUOUS
 62
     7
 10
2049.067917756648
 20
2541.888723667938
 30
0.0
  0
VERTEX
  5
354
  8
0
  6
CONTINUOUS
 62
     7
 10
2049.068400847245
 20
2541.88262926361
 30
0.0
  0
VERTEX
  5
355
  8
0
  6
CONTINUOUS
 62
     7
 10
2049.068950988019
 20
2541.876568983452
 30
0.0
  0
VERTEX
  5
356
  8
0
  6
CONTINUOUS
 62
     7
 10
2049.069571209764
 20
2541.870543920139
 30
0.0
  0
VERTEX
  5
357
  8
0
  6
CONTINUOUS
 62
     7
 10
2049.07026454327
 20
2541.864555166347
 30
0.0
  0
VERTEX
  5
358
  8
0
  6
CONTINUOUS
 62
     7
 10
2049.071034019337
 20
2541.858603814755
 30
0.0
  0
VERTEX
  5
359
  8
0
  6
CONTINUOUS
 62
     7
 10
2049.071882668754
 20
2541.852690958036
 30
0.0
  0
VERTEX
  5
35A
  8
0
  6
CONTINUOUS
 62
     7
 10
2049.072813522316
 20
2541.846817688868
 30
0.0
  0
VERTEX
  5
35B
  8
0
  6
CONTINUOUS
 62
     7
 10
2049.073829610818
 20
2541.840985099929
 30
0.0
  0
VERTEX
  5
35C
  8
0
  6
CONTINUOUS
 62
     7
 10
2049.074933965053
 20
2541.835194283894
 30
0.0
  0
VERTEX
  5
35D
  8
0
  6
CONTINUOUS
 62
     7
 10
2049.076129615815
 20
2541.829446333438
 30
0.0
  0
VERTEX
  5
35E
  8
0
  6
CONTINUOUS
 62
     7
 10
2049.077419593898
 20
2541.82374234124
 30
0.0
  0
VERTEX
  5
35F
  8
0
  6
CONTINUOUS
 62
     7
 10
2049.078806930094
 20
2541.818083399975
 30
0.0
  0
VERTEX
  5
360
  8
0
  6
CONTINUOUS
 62
     7
 10
2049.080294655199
 20
2541.812470602321
 30
0.0
  0
VERTEX
  5
361
  8
0
  6
CONTINUOUS
 62
     7
 10
2049.081885800006
 20
2541.806905040952
 30
0.0
  0
VERTEX
  5
362
  8
0
  6
CONTINUOUS
 62
     7
 10
2049.08358339531
 20
2541.801387808547
 30
0.0
  0
VERTEX
  5
363
  8
0
  6
CONTINUOUS
 62
     7
 10
2049.085390484459
 20
2541.795920057527
 30
0.0
  0
VERTEX
  5
364
  8
0
  6
CONTINUOUS
 62
     7
 10
2049.087310333366
 20
2541.790503999327
 30
0.0
  0
VERTEX
  5
365
  8
0
  6
CONTINUOUS
 62
     7
 10
2049.089346398948
 20
2541.785142754218
 30
0.0
  0
VERTEX
  5
366
  8
0
  6
CONTINUOUS
 62
     7
 10
2049.091502144314
 20
2541.779839471959
 30
0.0
  0
VERTEX
  5
367
  8
0
  6
CONTINUOUS
 62
     7
 10
2049.093781032577
 20
2541.774597302314
 30
0.0
  0
VERTEX
  5
368
  8
0
  6
CONTINUOUS
 62
     7
 10
2049.09618652685
 20
2541.769419395045
 30
0.0
  0
VERTEX
  5
369
  8
0
  6
CONTINUOUS
 62
     7
 10
2049.098722090246
 20
2541.764308899913
 30
0.0
  0
VERTEX
  5
36A
  8
0
  6
CONTINUOUS
 62
     7
 10
2049.101391185876
 20
2541.75926896668
 30
0.0
  0
VERTEX
  5
36B
  8
0
  6
CONTINUOUS
 62
     7
 10
2049.104197276852
 20
2541.75430274511
 30
0.0
  0
VERTEX
  5
36C
  8
0
  6
CONTINUOUS
 62
     7
 10
2049.107143826287
 20
2541.749413384962
 30
0.0
  0
VERTEX
  5
36D
  8
0
  6
CONTINUOUS
 62
     7
 10
2049.110234297294
 20
2541.744604036001
 30
0.0
  0
VERTEX
  5
36E
  8
0
  6
CONTINUOUS
 62
     7
 10
2049.113472152985
 20
2541.739877847988
 30
0.0
  0
VERTEX
  5
36F
  8
0
  6
CONTINUOUS
 62
     7
 10
2049.11686085647
 20
2541.735237970683
 30
0.0
  0
VERTEX
  5
370
  8
0
  6
CONTINUOUS
 62
     7
 10
2049.120403870864
 20
2541.730687553852
 30
0.0
  0
VERTEX
  5
371
  8
0
  6
CONTINUOUS
 62
     7
 10
2049.124104657672
 20
2541.726229748132
 30
0.0
  0
VERTEX
  5
372
  8
0
  6
CONTINUOUS
 62
     7
 10
2049.127965983542
 20
2541.721868083505
 30
0.0
  0
VERTEX
  5
373
  8
0
  6
CONTINUOUS
 62
     7
 10
2049.131988838403
 20
2541.717607059929
 30
0.0
  0
VERTEX
  5
374
  8
0
  6
CONTINUOUS
 62
     7
 10
2049.136173932251
 20
2541.713451330182
 30
0.0
  0
VERTEX
  5
375
  8
0
  6
CONTINUOUS
 62
     7
 10
2049.140521975084
 20
2541.709405547039
 30
0.0
  0
VERTEX
  5
376
  8
0
  6
CONTINUOUS
 62
     7
 10
2049.145033676901
 20
2541.70547436328
 30
0.0
  0
VERTEX
  5
377
  8
0
  6
CONTINUOUS
 62
     7
 10
2049.149709747698
 20
2541.701662431681
 30
0.0
  0
VERTEX
  5
378
  8
0
  6
CONTINUOUS
 62
     7
 10
2049.154550897473
 20
2541.69797440502
 30
0.0
  0
VERTEX
  5
379
  8
0
  6
CONTINUOUS
 62
     7
 10
2049.159557836226
 20
2541.694414936075
 30
0.0
  0
VERTEX
  5
37A
  8
0
  6
CONTINUOUS
 62
     7
 10
2049.164731273952
 20
2541.690988677623
 30
0.0
  0
VERTEX
  5
37B
  8
0
  6
CONTINUOUS
 62
     7
 10
2049.170071920645
 20
2541.68770028245
 30
0.0
  0
VERTEX
  5
37C
  8
0
  6
CONTINUOUS
 62
     7
 10
2049.175579262794
 20
2541.68455691273
 30
0.0
  0
VERTEX
  5
37D
  8
0
  6
CONTINUOUS
 62
     7
 10
2049.18124812045
 20
2541.681575301388
 30
0.0
  0
VERTEX
  5
37E
  8
0
  6
CONTINUOUS
 62
     7
 10
2049.187072201335
 20
2541.67877446273
 30
0.0
  0
VERTEX
  5
37F
  8
0
  6
CONTINUOUS
 62
     7
 10
2049.193045213167
 20
2541.676173411055
 30
0.0
  0
VERTEX
  5
380
  8
0
  6
CONTINUOUS
 62
     7
 10
2049.199160863667
 20
2541.673791160668
 30
0.0
  0
VERTEX
  5
381
  8
0
  6
CONTINUOUS
 62
     7
 10
2049.205412860553
 20
2541.671646725869
 30
0.0
  0
VERTEX
  5
382
  8
0
  6
CONTINUOUS
 62
     7
 10
2049.211794911546
 20
2541.669759120963
 30
0.0
  0
VERTEX
  5
383
  8
0
  6
CONTINUOUS
 62
     7
 10
2049.218300492278
 20
2541.668146007509
 30
0.0
  0
VERTEX
  5
384
  8
0
  6
CONTINUOUS
 62
     7
 10
2049.224918265349
 20
2541.666796993689
 30
0.0
  0
VERTEX
  5
385
  8
0
  6
CONTINUOUS
 62
     7
 10
2049.231632355063
 20
2541.66567523566
 30
0.0
  0
VERTEX
  5
386
  8
0
  6
CONTINUOUS
 62
     7
 10
2049.238426708647
 20
2541.664742857458
 30
0.0
  0
VERTEX
  5
387
  8
0
  6
CONTINUOUS
 62
     7
 10
2049.245285273326
 20
2541.663961983116
 30
0.0
  0
VERTEX
  5
388
  8
0
  6
CONTINUOUS
 62
     7
 10
2049.252191996327
 20
2541.66329473667
 30
0.0
  0
VERTEX
  5
389
  8
0
  6
CONTINUOUS
 62
     7
 10
2049.259130824876
 20
2541.662703242155
 30
0.0
  0
VERTEX
  5
38A
  8
0
  6
CONTINUOUS
 62
     7
 10
2049.266085706198
 20
2541.662149623605
 30
0.0
  0
SEQEND
  5
390
  8
0
  6
CONTINUOUS
 62
     7
  0
LINE
  5
17C
  8
0
  6
CONTINUOUS
 62
     7
 10
2050.066085706198
 20
2541.662149623605
 30
0.0
 11
2049.266085706198
 21
2541.662149623605
 31
0.0
  0
ARC
  5
17D
  8
0
  6
CONTINUOUS
 62
     7
 10
2049.265710440666
 20
2543.883088150753
 30
0.0
 40
0.1996250898573645
 50
89.89229237736315
 51
179.8918858980169
  0
LINE
  5
17E
  8
0
  6
CONTINUOUS
 62
     7
 10
2049.266085706198
 20
2544.082712887889
 30
0.0
 11
2049.266085706198
 21
2543.241524269254
 31
0.0
  0
LINE
  5
17F
  8
0
  6
CONTINUOUS
 62
     7
 10
2049.066085706198
 20
2543.042276213869
 30
0.0
 11
2049.066085706198
 21
2543.883464832504
 31
0.0
  0
LINE
  5
180
  8
0
  6
CONTINUOUS
 62
     7
 10
2050.066085706198
 20
2544.082712887889
 30
0.0
 11
2049.266085706198
 21
2544.082712887889
 31
0.0
  0
LINE
  5
181
  8
0
  6
CONTINUOUS
 62
     7
 10
2049.066085706198
 20
2545.078953164813
 30
0.0
 11
2049.266085706198
 21
2545.078953164813
 31
0.0
  0
LINE
  5
182
  8
0
  6
CONTINUOUS
 62
     7
 10
2049.266085706198
 20
2545.078953164813
 30
0.0
 11
2049.266085706198
 21
2544.082712887889
 31
0.0
  0
LINE
  5
183
  8
0
  6
CONTINUOUS
 62
     7
 10
2049.066085706198
 20
2543.883464832504
 30
0.0
 11
2049.066085706198
 21
2545.078953164813
 31
0.0
  0
LINE
  5
184
  8
0
  6
CONTINUOUS
 62
     7
 10
2049.266085706198
 20
2545.078953164813
 30
0.0
 11
2050.066085706198
 21
2545.078953164813
 31
0.0
  0
LINE
  5
185
  8
0
  6
CONTINUOUS
 62
     7
 10
2049.066085706198
 20
2555.462139394833
 30
0.0
 11
2049.266085706198
 21
2555.462139394833
 31
0.0
  0
LINE
  5
186
  8
0
  6
CONTINUOUS
 62
     7
 10
2049.266085706198
 20
2555.462139394833
 30
0.0
 11
2049.266085706198
 21
2545.078953164813
 31
0.0
  0
LINE
  5
187
  8
0
  6
CONTINUOUS
 62
     7
 10
2049.066085706198
 20
2545.078953164813
 30
0.0
 11
2049.066085706198
 21
2555.462139394833
 31
0.0
  0
LINE
  5
188
  8
0
  6
CONTINUOUS
 62
     7
 10
2050.066085706198
 20
2555.462139394833
 30
0.0
 11
2049.266085706198
 21
2555.462139394833
 31
0.0
  0
ARC
  5
189
  8
0
  6
CONTINUOUS
 62
     7
 10
2049.266085706198
 20
2556.262139394833
 30
0.0
 40
0.2000000000002728
 50
90.0
 51
180.0
  0
LINE
  5
18A
  8
0
  6
CONTINUOUS
 62
     7
 10
2049.266085706198
 20
2556.462139394833
 30
0.0
 11
2049.266085706198
 21
2555.462139394833
 31
0.0
  0
LINE
  5
18B
  8
0
  6
CONTINUOUS
 62
     7
 10
2049.066085706198
 20
2555.462139394833
 30
0.0
 11
2049.066085706198
 21
2556.262139394833
 31
0.0
  0
LINE
  5
18C
  8
0
  6
CONTINUOUS
 62
     7
 10
2049.066085706198
 20
2538.162139394832
 30
0.0
 11
2050.066085706198
 21
2538.162139394832
 31
0.0
  0
LINE
  5
18D
  8
0
  6
CONTINUOUS
 62
     7
 10
2049.066085706198
 20
2538.162139394832
 30
0.0
 11
2049.066085706198
 21
2541.944927711375
 31
0.0
  0
LINE
  5
18E
  8
0
  6
CONTINUOUS
 62
     7
 10
2050.066085706198
 20
2538.162139394832
 30
0.0
 11
2050.066085706198
 21
2541.662149623605
 31
0.0
  0
LINE
  5
18F
  8
0
  6
CONTINUOUS
 62
     7
 10
2645.066085706196
 20
2538.162139394832
 30
0.0
 11
2644.066085706196
 21
2538.162139394832
 31
0.0
  0
LINE
  5
190
  8
0
  6
CONTINUOUS
 62
     7
 10
2644.066085706196
 20
2541.662149623605
 30
0.0
 11
2644.066085706196
 21
2538.162139394832
 31
0.0
  0
LINE
  5
191
  8
0
  6
CONTINUOUS
 62
     7
 10
2645.066085706195
 20
2541.944927711375
 30
0.0
 11
2645.066085706196
 21
2538.162139394832
 31
0.0
  0
LINE
  5
192
  8
0
  6
CONTINUOUS
 62
     7
 10
2050.066085706198
 20
2538.162139394832
 30
0.0
 11
2644.066085706196
 21
2538.162139394832
 31
0.0
  0
LINE
  5
193
  8
0
  6
CONTINUOUS
 62
     7
 10
2644.066085706196
 20
2536.162139394832
 30
0.0
 11
2644.066085706196
 21
2538.162139394832
 31
0.0
  0
LINE
  5
194
  8
0
  6
CONTINUOUS
 62
     7
 10
2050.066085706198
 20
2536.162139394832
 30
0.0
 11
2644.066085706196
 21
2536.162139394832
 31
0.0
  0
LINE
  5
195
  8
0
  6
CONTINUOUS
 62
     7
 10
2050.066085706198
 20
2536.162139394832
 30
0.0
 11
2050.066085706198
 21
2538.162139394832
 31
0.0
  0
LINE
  5
196
  8
0
  6
CONTINUOUS
 62
     7
 10
2643.066085706196
 20
2535.162139394832
 30
0.0
 11
2051.066085706198
 21
2535.162139394832
 31
0.0
  0
LINE
  5
197
  8
0
  6
CONTINUOUS
 62
     7
 10
2051.066085706198
 20
2535.162139394832
 30
0.0
 11
2050.066085706198
 21
2536.162139394832
 31
0.0
  0
LINE
  5
198
  8
0
  6
CONTINUOUS
 62
     7
 10
2644.066085706196
 20
2536.162139394832
 30
0.0
 11
2643.066085706196
 21
2535.162139394832
 31
0.0
  0
LINE
  5
199
  8
0
  6
CONTINUOUS
 62
     7
 10
2630.066085706198
 20
2557.962139394831
 30
0.0
 11
2064.066085706198
 21
2557.962139394831
 31
0.0
  0
LINE
  5
19A
  8
0
  6
CONTINUOUS
 62
     7
 10
2630.066085706198
 20
2836.462139394831
 30
0.0
 11
2064.066085706198
 21
2836.462139394831
 31
0.0
  0
LINE
  5
19B
  8
0
  6
CONTINUOUS
 62
     7
 10
2630.066085706198
 20
2556.962139394831
 30
0.0
 11
2064.066085706198
 21
2556.962139394831
 31
0.0
  0
LINE
  5
19C
  8
0
  6
CONTINUOUS
 62
     7
 10
2647.066085706198
 20
2836.462139394831
 30
0.0
 11
2630.066085706198
 21
2836.462139394831
 31
0.0
  0
LINE
  5
19D
  8
0
  6
CONTINUOUS
 62
     7
 10
2630.066085706197
 20
2556.462139394829
 30
0.0
 11
2647.066085706197
 21
2556.462139394829
 31
0.0
  0
LINE
  5
19E
  8
0
  6
CONTINUOUS
 62
     7
 10
2647.066085706197
 20
2556.462139394829
 30
0.0
 11
2647.066085706198
 21
2836.462139394831
 31
0.0
  0
LINE
  5
19F
  8
0
  6
CONTINUOUS
 62
     7
 10
2630.066085706198
 20
2836.462139394831
 30
0.0
 11
2630.066085706197
 21
2556.462139394829
 31
0.0
  0
LINE
  5
1A0
  8
0
  6
CONTINUOUS
 62
     7
 10
2064.066085706198
 20
2836.462139394831
 30
0.0
 11
2047.066085706198
 21
2836.462139394831
 31
0.0
  0
LINE
  5
1A1
  8
0
  6
CONTINUOUS
 62
     7
 10
2047.066085706197
 20
2556.462139394829
 30
0.0
 11
2064.066085706197
 21
2556.462139394829
 31
0.0
  0
LINE
  5
1A2
  8
0
  6
CONTINUOUS
 62
     7
 10
2064.066085706197
 20
2556.462139394829
 30
0.0
 11
2064.066085706198
 21
2836.462139394831
 31
0.0
  0
LINE
  5
1A3
  8
0
  6
CONTINUOUS
 62
     7
 10
2047.066085706198
 20
2836.462139394831
 30
0.0
 11
2047.066085706197
 21
2556.462139394829
 31
0.0
  0
LINE
  5
1A4
  8
0
  6
CONTINUOUS
 62
     7
 10
2064.066085706196
 20
964.5453151409256
 30
0.0
 11
2630.066085706196
 21
964.5453151409256
 31
0.0
  0
LINE
  5
1A5
  8
0
  6
CONTINUOUS
 62
     7
 10
2064.066085706196
 20
962.0453151409255
 30
0.0
 11
2064.066085706196
 21
964.5453151409256
 31
0.0
  0
LINE
  5
1A6
  8
0
  6
CONTINUOUS
 62
     7
 10
2630.066085706196
 20
962.0453151409255
 30
0.0
 11
2630.066085706196
 21
964.5453151409256
 31
0.0
  0
LINE
  5
1A7
  8
0
  6
CONTINUOUS
 62
     7
 10
2064.066085706196
 20
962.0453151409255
 30
0.0
 11
2630.066085706196
 21
962.0453151409255
 31
0.0
  0
LINE
  5
1A8
  8
0
  6
CONTINUOUS
 62
     7
 10
2064.066085706196
 20
979.0453151409254
 30
0.0
 11
2630.066085706196
 21
979.0453151409254
 31
0.0
  0
LINE
  5
1A9
  8
0
  6
CONTINUOUS
 62
     7
 10
2630.066085706196
 20
976.5453151409255
 30
0.0
 11
2630.066085706196
 21
979.0453151409254
 31
0.0
  0
LINE
  5
1AA
  8
0
  6
CONTINUOUS
 62
     7
 10
2064.066085706196
 20
976.5453151409255
 30
0.0
 11
2630.066085706196
 21
976.5453151409255
 31
0.0
  0
LINE
  5
1AB
  8
0
  6
CONTINUOUS
 62
     7
 10
2064.066085706196
 20
976.5453151409255
 30
0.0
 11
2064.066085706196
 21
979.0453151409254
 31
0.0
  0
LINE
  5
1AC
  8
0
  6
CONTINUOUS
 62
     7
 10
2064.066085706196
 20
976.5453151409255
 30
0.0
 11
2064.066085706196
 21
964.5453151409256
 31
0.0
  0
LINE
  5
1AD
  8
0
  6
CONTINUOUS
 62
     7
 10
2630.066085706196
 20
976.5453151409255
 30
0.0
 11
2630.066085706196
 21
964.5453151409256
 31
0.0
  0
LINE
  5
1AE
  8
0
  6
CONTINUOUS
 62
     7
 10
2064.066085706196
 20
732.5453151409255
 30
0.0
 11
2630.066085706196
 21
732.5453151409255
 31
0.0
  0
LINE
  5
1AF
  8
0
  6
CONTINUOUS
 62
     7
 10
2630.066085706196
 20
730.0453151409255
 30
0.0
 11
2630.066085706196
 21
732.5453151409255
 31
0.0
  0
LINE
  5
1B0
  8
0
  6
CONTINUOUS
 62
     7
 10
2064.066085706196
 20
730.0453151409255
 30
0.0
 11
2064.066085706196
 21
732.5453151409255
 31
0.0
  0
LINE
  5
1B1
  8
0
  6
CONTINUOUS
 62
     7
 10
2064.066085706196
 20
730.0453151409255
 30
0.0
 11
2630.066085706196
 21
730.0453151409255
 31
0.0
  0
LINE
  5
1B2
  8
0
  6
CONTINUOUS
 62
     7
 10
2064.066085706196
 20
747.0453151409255
 30
0.0
 11
2630.066085706196
 21
747.0453151409255
 31
0.0
  0
LINE
  5
1B3
  8
0
  6
CONTINUOUS
 62
     7
 10
2630.066085706196
 20
744.5453151409254
 30
0.0
 11
2630.066085706196
 21
747.0453151409255
 31
0.0
  0
LINE
  5
1B4
  8
0
  6
CONTINUOUS
 62
     7
 10
2064.066085706196
 20
744.5453151409254
 30
0.0
 11
2630.066085706196
 21
744.5453151409254
 31
0.0
  0
LINE
  5
1B5
  8
0
  6
CONTINUOUS
 62
     7
 10
2064.066085706196
 20
744.5453151409254
 30
0.0
 11
2064.066085706196
 21
747.0453151409255
 31
0.0
  0
LINE
  5
1B6
  8
0
  6
CONTINUOUS
 62
     7
 10
2630.066085706196
 20
744.5453151409255
 30
0.0
 11
2630.066085706196
 21
732.5453151409255
 31
0.0
  0
LINE
  5
1B7
  8
0
  6
CONTINUOUS
 62
     7
 10
2064.066085706196
 20
744.5453151409255
 30
0.0
 11
2064.066085706196
 21
732.5453151409255
 31
0.0
  0
LINE
  5
1B8
  8
0
  6
CONTINUOUS
 62
     7
 10
2049.566085706196
 20
979.0453151409268
 30
0.0
 11
2049.566085706196
 21
730.0453151409255
 31
0.0
  0
LINE
  5
1B9
  8
0
  6
CONTINUOUS
 62
     7
 10
2047.066085706196
 20
730.0453151409255
 30
0.0
 11
2049.566085706196
 21
730.0453151409255
 31
0.0
  0
LINE
  5
1BA
  8
0
  6
CONTINUOUS
 62
     7
 10
2047.066085706196
 20
979.0453151409268
 30
0.0
 11
2047.066085706196
 21
730.0453151409255
 31
0.0
  0
LINE
  5
1BB
  8
0
  6
CONTINUOUS
 62
     7
 10
2047.066085706196
 20
979.0453151409268
 30
0.0
 11
2049.566085706196
 21
979.0453151409268
 31
0.0
  0
LINE
  5
1BC
  8
0
  6
CONTINUOUS
 62
     7
 10
2632.566085706196
 20
979.0453151409268
 30
0.0
 11
2632.566085706196
 21
730.0453151409254
 31
0.0
  0
LINE
  5
1BD
  8
0
  6
CONTINUOUS
 62
     7
 10
2630.066085706196
 20
730.0453151409254
 30
0.0
 11
2632.566085706196
 21
730.0453151409254
 31
0.0
  0
LINE
  5
1BE
  8
0
  6
CONTINUOUS
 62
     7
 10
2630.066085706196
 20
979.0453151409268
 30
0.0
 11
2630.066085706196
 21
730.0453151409254
 31
0.0
  0
LINE
  5
1BF
  8
0
  6
CONTINUOUS
 62
     7
 10
2630.066085706196
 20
979.0453151409268
 30
0.0
 11
2632.566085706196
 21
979.0453151409268
 31
0.0
  0
LINE
  5
1C0
  8
0
  6
CONTINUOUS
 62
     7
 10
2647.066085706196
 20
979.0453151409268
 30
0.0
 11
2647.066085706196
 21
730.0453151409254
 31
0.0
  0
LINE
  5
1C1
  8
0
  6
CONTINUOUS
 62
     7
 10
2644.566085706196
 20
730.0453151409254
 30
0.0
 11
2647.066085706196
 21
730.0453151409254
 31
0.0
  0
LINE
  5
1C2
  8
0
  6
CONTINUOUS
 62
     7
 10
2644.566085706196
 20
979.0453151409268
 30
0.0
 11
2644.566085706196
 21
730.0453151409254
 31
0.0
  0
LINE
  5
1C3
  8
0
  6
CONTINUOUS
 62
     7
 10
2644.566085706196
 20
979.0453151409268
 30
0.0
 11
2647.066085706196
 21
979.0453151409268
 31
0.0
  0
LINE
  5
1C4
  8
0
  6
CONTINUOUS
 62
     7
 10
2064.066085706196
 20
979.0453151409268
 30
0.0
 11
2064.066085706196
 21
730.0453151409255
 31
0.0
  0
LINE
  5
1C5
  8
0
  6
CONTINUOUS
 62
     7
 10
2061.566085706196
 20
730.0453151409255
 30
0.0
 11
2064.066085706196
 21
730.0453151409255
 31
0.0
  0
LINE
  5
1C6
  8
0
  6
CONTINUOUS
 62
     7
 10
2061.566085706196
 20
979.0453151409268
 30
0.0
 11
2061.566085706196
 21
730.0453151409255
 31
0.0
  0
LINE
  5
1C7
  8
0
  6
CONTINUOUS
 62
     7
 10
2061.566085706196
 20
979.0453151409268
 30
0.0
 11
2064.066085706196
 21
979.0453151409268
 31
0.0
  0
LINE
  5
1C8
  8
0
  6
CONTINUOUS
 62
     7
 10
2644.566085706196
 20
730.0453151409254
 30
0.0
 11
2632.566085706196
 21
730.0453151409254
 31
0.0
  0
LINE
  5
1C9
  8
0
  6
CONTINUOUS
 62
     7
 10
2644.566085706196
 20
979.0453151409268
 30
0.0
 11
2632.566085706196
 21
979.0453151409268
 31
0.0
  0
LINE
  5
1CA
  8
0
  6
CONTINUOUS
 62
     7
 10
2061.566085706196
 20
730.0453151409255
 30
0.0
 11
2049.566085706196
 21
730.0453151409255
 31
0.0
  0
LINE
  5
1CB
  8
0
  6
CONTINUOUS
 62
     7
 10
2061.566085706196
 20
979.0453151409268
 30
0.0
 11
2049.566085706196
 21
979.0453151409268
 31
0.0
  0
LINE
  5
1CC
  8
0
  6
CONTINUOUS
 62
     7
 10
2064.066085706196
 20
979.5453151409256
 30
0.0
 11
2064.066085706196
 21
979.0453151409268
 31
0.0
  0
LINE
  5
1CD
  8
0
  6
CONTINUOUS
 62
     7
 10
2047.066085706196
 20
979.0453151409268
 30
0.0
 11
2064.066085706196
 21
979.0453151409268
 31
0.0
  0
LINE
  5
1CE
  8
0
  6
CONTINUOUS
 62
     7
 10
2047.066085706196
 20
979.5453151409256
 30
0.0
 11
2047.066085706196
 21
979.0453151409268
 31
0.0
  0
LINE
  5
1CF
  8
0
  6
CONTINUOUS
 62
     7
 10
2047.066085706196
 20
979.5453151409256
 30
0.0
 11
2064.066085706196
 21
979.5453151409256
 31
0.0
  0
LINE
  5
1D0
  8
0
  6
CONTINUOUS
 62
     7
 10
2630.066085706196
 20
979.0453151409268
 30
0.0
 11
2647.066085706196
 21
979.0453151409268
 31
0.0
  0
LINE
  5
1D1
  8
0
  6
CONTINUOUS
 62
     7
 10
2630.066085706196
 20
979.5453151409257
 30
0.0
 11
2630.066085706196
 21
979.0453151409268
 31
0.0
  0
LINE
  5
1D2
  8
0
  6
CONTINUOUS
 62
     7
 10
2630.066085706196
 20
979.5453151409257
 30
0.0
 11
2647.066085706196
 21
979.5453151409257
 31
0.0
  0
LINE
  5
1D3
  8
0
  6
CONTINUOUS
 62
     7
 10
2647.066085706196
 20
979.5453151409257
 30
0.0
 11
2647.066085706196
 21
979.0453151409268
 31
0.0
  0
LINE
  5
1D4
  8
0
  6
CONTINUOUS
 62
     7
 10
2647.066085706196
 20
729.5453151409255
 30
0.0
 11
2647.066085706196
 21
730.0453151409254
 31
0.0
  0
LINE
  5
1D5
  8
0
  6
CONTINUOUS
 62
     7
 10
2630.066085706196
 20
729.5453151409255
 30
0.0
 11
2647.066085706196
 21
729.5453151409255
 31
0.0
  0
LINE
  5
1D6
  8
0
  6
CONTINUOUS
 62
     7
 10
2630.066085706196
 20
729.5453151409255
 30
0.0
 11
2630.066085706196
 21
730.0453151409254
 31
0.0
  0
LINE
  5
1D7
  8
0
  6
CONTINUOUS
 62
     7
 10
2647.066085706196
 20
730.0453151409254
 30
0.0
 11
2630.066085706196
 21
730.0453151409254
 31
0.0
  0
LINE
  5
1D8
  8
0
  6
CONTINUOUS
 62
     7
 10
2064.066085706196
 20
729.5453151409255
 30
0.0
 11
2064.066085706196
 21
730.0453151409255
 31
0.0
  0
LINE
  5
1D9
  8
0
  6
CONTINUOUS
 62
     7
 10
2047.066085706196
 20
729.5453151409255
 30
0.0
 11
2064.066085706196
 21
729.5453151409255
 31
0.0
  0
LINE
  5
1DA
  8
0
  6
CONTINUOUS
 62
     7
 10
2047.066085706196
 20
729.5453151409255
 30
0.0
 11
2047.066085706196
 21
730.0453151409255
 31
0.0
  0
LINE
  5
1DB
  8
0
  6
CONTINUOUS
 62
     7
 10
2064.066085706196
 20
730.0453151409255
 30
0.0
 11
2047.066085706196
 21
730.0453151409255
 31
0.0
  0
ENDSEC
  0
EOF
