  0
SECTION
  2
HEADER
  9
$ACADVER
  1
AC1006
  9
$DWGCODEPAGE
  3
dos932
  9
$INSBASE
 10
0.0
 20
0.0
 30
0.0
  9
$EXTMIN
 10
0.0
 20
0.0
  9
$EXTMAX
 10
5000.0
 20
3500.0
  9
$LIMMIN
 10
0.0
 20
0.0
  9
$LIMMAX
 10
5000.0
 20
3500.0
  9
$ORTHOMODE
 70
     0
  9
$REGENMODE
 70
     1
  9
$FILLMODE
 70
     1
  9
$QTEXTMODE
 70
     0
  9
$MIRRTEXT
 70
     1
  9
$DRAGMODE
 70
     2
  9
$LTSCALE
 40
1.0
  9
$OSMODE
 70
    37
  9
$ATTMODE
 70
     1
  9
$TEXTSIZE
 40
3.5
  9
$TRACEWID
 40
1.0
  9
$TEXTSTYLE
  7
STANDARD
  9
$CLAYER
  8
0
  9
$CELTYPE
  6
BYLAYER
  9
$CECOLOR
 62
   256
  9
$DIMSCALE
 40
1.0
  9
$DIMASZ
 40
3.302
  9
$DIMEXO
 40
1.0
  9
$DIMDLI
 40
3.75
  9
$DIMRND
 40
0.0
  9
$DIMDLE
 40
0.0
  9
$DIMEXE
 40
1.0
  9
$DIMTP
 40
0.0
  9
$DIMTM
 40
0.0
  9
$DIMTXT
 40
3.5
  9
$DIMCEN
 40
2.5
  9
$DIMTSZ
 40
0.0
  9
$DIMTOL
 70
     0
  9
$DIMLIM
 70
     0
  9
$DIMTIH
 70
     1
  9
$DIMTOH
 70
     1
  9
$DIMSE1
 70
     0
  9
$DIMSE2
 70
     0
  9
$DIMTAD
 70
     1
  9
$DIMZIN
 70
     0
  9
$DIMBLK
  1

  9
$DIMASO
 70
     1
  9
$DIMSHO
 70
     1
  9
$DIMPOST
  1

  9
$DIMAPOST
  1

  9
$DIMALT
 70
     0
  9
$DIMALTD
 70
     3
  9
$DIMALTF
 40
0.0393700787401575
  9
$DIMLFAC
 40
1.0
  9
$DIMTOFL
 70
     1
  9
$DIMTVP
 40
0.0
  9
$DIMTIX
 70
     0
  9
$DIMSOXD
 70
     0
  9
$DIMSAH
 70
     0
  9
$DIMBLK1
  1

  9
$DIMBLK2
  1

  9
$LUNITS
 70
     2
  9
$LUPREC
 70
     3
  9
$SKETCHINC
 40
1.0
  9
$FILLETRAD
 40
10.0
  9
$AUNITS
 70
     0
  9
$AUPREC
 70
     2
  9
$MENU
  1
.
  9
$ELEVATION
 40
0.0
  9
$THICKNESS
 40
0.0
  9
$LIMCHECK
 70
     0
  9
$CHAMFERA
 40
0.0
  9
$CHAMFERB
 40
0.0
  9
$SKPOLY
 70
     0
  9
$TDCREATE
 40
2459796.270181505
  9
$TDUPDATE
 40
2460139.400881447
  9
$TDINDWG
 40
0.0000000116
  9
$TDUSRTIMER
 40
0.0000000116
  9
$USRTIMER
 70
     1
  9
$ANGBASE
 50
0.0
  9
$ANGDIR
 70
     0
  9
$PDMODE
 70
     0
  9
$PDSIZE
 40
-1.0
  9
$PLINEWID
 40
0.0
  9
$COORDS
 70
     1
  9
$SPLFRAME
 70
     0
  9
$SPLINETYPE
 70
     6
  9
$SPLINESEGS
 70
     8
  9
$ATTDIA
 70
     0
  9
$ATTREQ
 70
     1
  9
$HANDLING
 70
     1
  9
$HANDSEED
  5
52E
  9
$SURFTAB1
 70
     6
  9
$SURFTAB2
 70
     6
  9
$SURFTYPE
 70
     6
  9
$SURFU
 70
     6
  9
$SURFV
 70
     6
  9
$UCSNAME
  2

  9
$UCSORG
 10
0.0
 20
0.0
 30
0.0
  9
$UCSXDIR
 10
1.0
 20
0.0
 30
0.0
  9
$UCSYDIR
 10
0.0
 20
1.0
 30
0.0
  9
$USERI1
 70
     0
  9
$USERI2
 70
     0
  9
$USERI3
 70
     0
  9
$USERI4
 70
     0
  9
$USERI5
 70
     0
  9
$USERR1
 40
0.0
  9
$USERR2
 40
0.0
  9
$USERR3
 40
0.0
  9
$USERR4
 40
0.0
  9
$USERR5
 40
0.0
  9
$WORLDVIEW
 70
     1
  0
ENDSEC
  0
SECTION
  2
TABLES
  0
TABLE
  2
VPORT
 70
     1
  0
VPORT
  2
*ACTIVE
 70
     0
 10
0.0
 20
0.0
 11
1.0
 21
1.0
 12
2500.0
 22
1750.0
 13
0.0
 23
0.0
 14
10.0
 24
10.0
 15
10.0
 25
10.0
 16
0.0
 26
0.0
 36
1.0
 17
0.0
 27
0.0
 37
0.0
 40
3500.0
 41
1.428571428571429
 42
50.0
 43
0.0
 44
0.0
 50
0.0
 51
0.0
 71
     0
 72
  2000
 73
     1
 74
     3
 75
     0
 76
     0
 77
     0
 78
     0
  0
ENDTAB
  0
TABLE
  2
LTYPE
 70
     6
  0
LTYPE
  2
CONTINUOUS
 70
     0
  3
Solid line
 72
    65
 73
     0
 40
0.0
  0
LTYPE
  2
HIDDEN
 70
     0
  3
Hidden __ __ __ __ __ __ __ __ __ __ __ __ __ __
 72
    65
 73
     2
 40
1.905
 49
1.27
 49
-0.635
  0
LTYPE
  2
PHANTOM
 70
     0
  3
Phantom ______  __  __  ______  __  __  ______
 72
    65
 73
     6
 40
12.7
 49
6.35
 49
-1.27
 49
1.27
 49
-1.27
 49
1.27
 49
-1.27
  0
LTYPE
  2
CENTER
 70
     0
  3
Center ____ _ ____ _ ____ _ ____ _ ____ _ ____
 72
    65
 73
     4
 40
10.16
 49
6.35
 49
-1.27
 49
1.27
 49
-1.27
  0
LTYPE
  2
CENTERX2
 70
     0
  3
Center (2x) ________  __  ________  __  _____
 72
    65
 73
     4
 40
20.32
 49
12.7
 49
-2.54
 49
2.54
 49
-2.54
  0
LTYPE
  2
DOT2
 70
     0
  3
Dot (.5x) ........................................
 72
    65
 73
     2
 40
0.635
 49
0.0
 49
-0.635
  0
ENDTAB
  0
TABLE
  2
LAYER
 70
     3
  0
LAYER
  2
0
 70
     0
 62
     7
  6
CONTINUOUS
  0
LAYER
  2
SLD-0
 70
     0
 62
   179
  6
CONTINUOUS
  0
LAYER
  2
寸法
 70
     0
 62
   179
  6
CONTINUOUS
  0
ENDTAB
  0
TABLE
  2
STYLE
 70
     2
  0
STYLE
  2
STANDARD
 70
     0
 40
0.0
 41
1.0
 50
0.0
 71
     0
 42
3.5
  3
txt
  4
bigfont
  0
STYLE
  2
SLDTEXTSTYLE0
 70
     0
 40
0.0
 41
0.75
 50
0.0
 71
     0
 42
3.5
  3
TXT
  4
bigfont
  0
ENDTAB
  0
TABLE
  2
VIEW
 70
     0
  0
ENDTAB
  0
TABLE
  2
UCS
 70
     0
  0
ENDTAB
  0
ENDSEC
  0
SECTION
  2
BLOCKS
  0
ENDSEC
  0
SECTION
  2
ENTITIES
  0
LINE
  5
75
  8
0
  6
CONTINUOUS
 62
     7
 10
4839.484712179223
 20
258.5233124172521
 30
0.0
 11
3312.374599790194
 21
258.5233124172519
 31
0.0
  0
TEXT
  5
77
  8
0
  6
CONTINUOUS
 62
     7
 10
1706.521152560513
 20
3134.115941119229
 30
0.0
 40
52.91666666666666
  1
＜上面＞
 41
0.75
  7
SLDTEXTSTYLE0
  0
TEXT
  5
78
  8
0
  6
CONTINUOUS
 62
     7
 10
493.3091089290138
 20
2134.090186691168
 30
0.0
 40
52.91666666666666
  1
＜左側面＞
 41
0.75
  7
SLDTEXTSTYLE0
  0
TEXT
  5
79
  8
0
  6
CONTINUOUS
 62
     7
 10
1730.774067737716
 20
2130.593767889337
 30
0.0
 40
52.91666666666666
  1
＜正面＞
 41
0.75
  7
SLDTEXTSTYLE0
  0
TEXT
  5
7A
  8
0
  6
CONTINUOUS
 62
     7
 10
3377.814243189123
 20
326.489054196763
 30
0.0
 40
52.91666666666666
  1
品名：
 41
0.75
  7
SLDTEXTSTYLE0
  0
TEXT
  5
7B
  8
0
  6
CONTINUOUS
 62
     7
 10
4446.663437481703
 20
332.3177187478654
 30
0.0
 40
52.91666666666666
  1
Pamouna
 41
0.75
  7
SLDTEXTSTYLE0
  0
TEXT
  5
7C
  8
寸法
  6
CONTINUOUS
 62
     7
 10
4688.007304885427
 20
165.7088516276312
 30
0.0
 40
52.91666666666666
  1
1/1
 41
0.75
  7
SLDTEXTSTYLE0
  0
TEXT
  5
7D
  8
寸法
  6
CONTINUOUS
 62
     7
 10
4198.79693921183
 20
165.7088544215994
 30
0.0
 40
52.91666666666666
  1
2022/08/04
 41
0.75
  7
SLDTEXTSTYLE0
  0
TEXT
  5
7E
  8
寸法
  6
CONTINUOUS
 62
     7
 10
4017.190732011612
 20
2122.266812003092
 30
0.0
 40
52.91666666666666
  1
＜背面＞
 41
0.75
  7
SLDTEXTSTYLE0
  0
TEXT
  5
7F
  8
寸法
  6
CONTINUOUS
 62
     7
 10
3611.283129349215
 20
326.4179237671586
 30
0.0
 40
66.14583333333331
  1
MA-S602E（-T）
 41
0.75
  7
SLDTEXTSTYLE0
  0
TEXT
  5
80
  8
寸法
  6
CONTINUOUS
 62
     7
 10
2965.851847914189
 20
2131.94141651502
 30
0.0
 40
52.91666666666666
  1
＜右側面＞
 41
0.75
  7
SLDTEXTSTYLE0
  0
ARC
  5
81
  8
0
  6
CONTINUOUS
 62
     7
 10
2048.653897989349
 20
1471.018990347158
 30
0.0
 40
0.2000000000000455
 50
0.0
 51
90.0
  0
LINE
  5
82
  8
0
  6
CONTINUOUS
 62
     7
 10
2048.653897989349
 20
1471.218990347158
 30
0.0
 11
2047.853897989349
 21
1471.218990347158
 31
0.0
  0
LINE
  5
83
  8
0
  6
CONTINUOUS
 62
     7
 10
2347.153897989348
 20
1471.218990347158
 30
0.0
 11
2346.353897989348
 21
1471.218990347158
 31
0.0
  0
ARC
  5
84
  8
0
  6
CONTINUOUS
 62
     7
 10
2347.153897989348
 20
1471.018990347158
 30
0.0
 40
0.2000000000002728
 50
0.0
 51
90.0
  0
LINE
  5
85
  8
0
  6
CONTINUOUS
 62
     7
 10
2346.353897989348
 20
1471.218990347158
 30
0.0
 11
2052.353897989348
 21
1471.218990347158
 31
0.0
  0
LINE
  5
86
  8
0
  6
CONTINUOUS
 62
     7
 10
2047.853897989349
 20
1471.218990347158
 30
0.0
 11
1753.853897989349
 21
1471.218990347158
 31
0.0
  0
LINE
  5
87
  8
0
  6
CONTINUOUS
 62
     7
 10
1753.853897989349
 20
1471.218990347158
 30
0.0
 11
1753.053897989349
 21
1471.218990347158
 31
0.0
  0
ARC
  5
88
  8
0
  6
CONTINUOUS
 62
     7
 10
1753.053897989349
 20
1471.018990347159
 30
0.0
 40
0.2000000000000455
 50
90.0
 51
180.0
  0
LINE
  5
89
  8
0
  6
CONTINUOUS
 62
     7
 10
2052.353897989348
 20
1471.218990347158
 30
0.0
 11
2051.553897989349
 21
1471.218990347158
 31
0.0
  0
ARC
  5
8A
  8
0
  6
CONTINUOUS
 62
     7
 10
2051.553897989349
 20
1471.018990347159
 30
0.0
 40
0.2000000000002728
 50
90.0
 51
180.0
  0
LINE
  5
8B
  8
0
  6
CONTINUOUS
 62
     7
 10
1755.853897989349
 20
1470.718990347159
 30
0.0
 11
1755.853897989349
 21
1470.218990347159
 31
0.0
  0
LINE
  5
8C
  8
0
  6
CONTINUOUS
 62
     7
 10
2045.853897989349
 20
1470.718990347159
 30
0.0
 11
1755.853897989349
 21
1470.718990347159
 31
0.0
  0
LINE
  5
8D
  8
0
  6
CONTINUOUS
 62
     7
 10
2045.853897989349
 20
1470.218990347159
 30
0.0
 11
2045.853897989349
 21
1470.718990347159
 31
0.0
  0
LINE
  5
8E
  8
0
  6
CONTINUOUS
 62
     7
 10
1755.853897989349
 20
1470.218990347159
 30
0.0
 11
2045.853897989349
 21
1470.218990347159
 31
0.0
  0
LINE
  5
8F
  8
0
  6
CONTINUOUS
 62
     7
 10
2048.853897989349
 20
1470.718990347159
 30
0.0
 11
2048.853897989349
 21
1470.218990347159
 31
0.0
  0
LINE
  5
90
  8
0
  6
CONTINUOUS
 62
     7
 10
2045.853897989349
 20
1470.718990347159
 30
0.0
 11
2048.853897989349
 21
1470.718990347159
 31
0.0
  0
LINE
  5
91
  8
0
  6
CONTINUOUS
 62
     7
 10
2048.853897989349
 20
1470.218990347159
 30
0.0
 11
2045.853897989349
 21
1470.218990347159
 31
0.0
  0
LINE
  5
92
  8
0
  6
CONTINUOUS
 62
     7
 10
1752.853897989349
 20
1470.218990347159
 30
0.0
 11
1752.853897989349
 21
1470.718990347159
 31
0.0
  0
LINE
  5
93
  8
0
  6
CONTINUOUS
 62
     7
 10
1752.853897989349
 20
1470.718990347159
 30
0.0
 11
1755.853897989349
 21
1470.718990347159
 31
0.0
  0
LINE
  5
94
  8
0
  6
CONTINUOUS
 62
     7
 10
1755.853897989349
 20
1470.218990347159
 30
0.0
 11
1752.853897989349
 21
1470.218990347159
 31
0.0
  0
LINE
  5
95
  8
0
  6
CONTINUOUS
 62
     7
 10
2347.353897989349
 20
1470.718990347159
 30
0.0
 11
2347.353897989349
 21
1470.218990347159
 31
0.0
  0
LINE
  5
96
  8
0
  6
CONTINUOUS
 62
     7
 10
2347.353897989349
 20
1470.218990347159
 30
0.0
 11
2344.353897989349
 21
1470.218990347159
 31
0.0
  0
LINE
  5
97
  8
0
  6
CONTINUOUS
 62
     7
 10
2344.353897989349
 20
1470.218990347159
 30
0.0
 11
2344.353897989349
 21
1470.718990347159
 31
0.0
  0
LINE
  5
98
  8
0
  6
CONTINUOUS
 62
     7
 10
2344.353897989349
 20
1470.718990347159
 30
0.0
 11
2347.353897989349
 21
1470.718990347159
 31
0.0
  0
LINE
  5
99
  8
0
  6
CONTINUOUS
 62
     7
 10
2054.353897989349
 20
1470.718990347159
 30
0.0
 11
2054.353897989349
 21
1470.218990347159
 31
0.0
  0
LINE
  5
9A
  8
0
  6
CONTINUOUS
 62
     7
 10
2344.353897989349
 20
1470.718990347159
 30
0.0
 11
2054.353897989349
 21
1470.718990347159
 31
0.0
  0
LINE
  5
9B
  8
0
  6
CONTINUOUS
 62
     7
 10
2054.353897989349
 20
1470.218990347159
 30
0.0
 11
2344.353897989349
 21
1470.218990347159
 31
0.0
  0
LINE
  5
9C
  8
0
  6
CONTINUOUS
 62
     7
 10
2054.353897989349
 20
1470.218990347159
 30
0.0
 11
2051.353897989348
 21
1470.218990347159
 31
0.0
  0
LINE
  5
9D
  8
0
  6
CONTINUOUS
 62
     7
 10
2051.353897989348
 20
1470.218990347159
 30
0.0
 11
2051.353897989348
 21
1470.718990347159
 31
0.0
  0
LINE
  5
9E
  8
0
  6
CONTINUOUS
 62
     7
 10
2051.353897989348
 20
1470.718990347159
 30
0.0
 11
2054.353897989349
 21
1470.718990347159
 31
0.0
  0
LINE
  5
9F
  8
0
  6
CONTINUOUS
 62
     7
 10
2045.853897989349
 20
1007.218990347159
 30
0.0
 11
2045.853897989349
 21
1470.218990347159
 31
0.0
  0
LINE
  5
A0
  8
0
  6
CONTINUOUS
 62
     7
 10
2045.853897989349
 20
1007.218990347159
 30
0.0
 11
1755.853897989349
 21
1007.218990347159
 31
0.0
  0
LINE
  5
A1
  8
0
  6
CONTINUOUS
 62
     7
 10
1755.853897989349
 20
1470.218990347159
 30
0.0
 11
1755.853897989349
 21
1007.218990347159
 31
0.0
  0
LINE
  5
A2
  8
0
  6
CONTINUOUS
 62
     7
 10
2048.853897989349
 20
1470.218990347159
 30
0.0
 11
2048.853897989349
 21
1007.218990347159
 31
0.0
  0
LINE
  5
A3
  8
0
  6
CONTINUOUS
 62
     7
 10
2048.853897989349
 20
1007.218990347159
 30
0.0
 11
2045.853897989349
 21
1007.218990347159
 31
0.0
  0
LINE
  5
A4
  8
0
  6
CONTINUOUS
 62
     7
 10
1752.853897989349
 20
1007.218990347159
 30
0.0
 11
1752.853897989349
 21
1470.218990347159
 31
0.0
  0
LINE
  5
A5
  8
0
  6
CONTINUOUS
 62
     7
 10
1755.853897989349
 20
1007.218990347159
 30
0.0
 11
1752.853897989349
 21
1007.218990347159
 31
0.0
  0
LINE
  5
A6
  8
0
  6
CONTINUOUS
 62
     7
 10
2054.353897989349
 20
1470.218990347159
 30
0.0
 11
2054.353897989349
 21
1007.218990347159
 31
0.0
  0
LINE
  5
A7
  8
0
  6
CONTINUOUS
 62
     7
 10
2054.353897989349
 20
1007.218990347159
 30
0.0
 11
2051.353897989348
 21
1007.218990347159
 31
0.0
  0
LINE
  5
A8
  8
0
  6
CONTINUOUS
 62
     7
 10
2051.353897989348
 20
1007.218990347159
 30
0.0
 11
2051.353897989348
 21
1470.218990347159
 31
0.0
  0
LINE
  5
A9
  8
0
  6
CONTINUOUS
 62
     7
 10
2347.353897989349
 20
1470.218990347159
 30
0.0
 11
2347.353897989349
 21
1007.218990347159
 31
0.0
  0
LINE
  5
AA
  8
0
  6
CONTINUOUS
 62
     7
 10
2347.353897989349
 20
1007.218990347159
 30
0.0
 11
2344.353897989349
 21
1007.218990347159
 31
0.0
  0
LINE
  5
AB
  8
0
  6
CONTINUOUS
 62
     7
 10
2344.353897989349
 20
1007.218990347159
 30
0.0
 11
2344.353897989349
 21
1470.218990347159
 31
0.0
  0
LINE
  5
AC
  8
0
  6
CONTINUOUS
 62
     7
 10
2344.353897989349
 20
1007.218990347159
 30
0.0
 11
2054.353897989349
 21
1007.218990347159
 31
0.0
  0
LINE
  5
AD
  8
0
  6
CONTINUOUS
 62
     7
 10
1755.853897989349
 20
1007.218990347159
 30
0.0
 11
1755.853897989349
 21
1006.718990347159
 31
0.0
  0
LINE
  5
AE
  8
0
  6
CONTINUOUS
 62
     7
 10
2045.853897989349
 20
1006.718990347159
 30
0.0
 11
2045.853897989349
 21
1007.218990347159
 31
0.0
  0
LINE
  5
AF
  8
0
  6
CONTINUOUS
 62
     7
 10
2045.853897989349
 20
1006.718990347159
 30
0.0
 11
1755.853897989349
 21
1006.718990347159
 31
0.0
  0
LINE
  5
B0
  8
0
  6
CONTINUOUS
 62
     7
 10
2048.853897989349
 20
1007.218990347159
 30
0.0
 11
2048.853897989349
 21
1006.718990347159
 31
0.0
  0
LINE
  5
B1
  8
0
  6
CONTINUOUS
 62
     7
 10
2048.853897989349
 20
1006.718990347159
 30
0.0
 11
2045.853897989349
 21
1006.718990347159
 31
0.0
  0
LINE
  5
B2
  8
0
  6
CONTINUOUS
 62
     7
 10
1752.853897989349
 20
1006.718990347159
 30
0.0
 11
1752.853897989349
 21
1007.218990347159
 31
0.0
  0
LINE
  5
B3
  8
0
  6
CONTINUOUS
 62
     7
 10
1755.853897989349
 20
1006.718990347159
 30
0.0
 11
1752.853897989349
 21
1006.718990347159
 31
0.0
  0
LINE
  5
B4
  8
0
  6
CONTINUOUS
 62
     7
 10
2054.353897989349
 20
1007.218990347159
 30
0.0
 11
2054.353897989349
 21
1006.718990347159
 31
0.0
  0
LINE
  5
B5
  8
0
  6
CONTINUOUS
 62
     7
 10
2051.353897989348
 20
1006.718990347159
 30
0.0
 11
2051.353897989348
 21
1007.218990347159
 31
0.0
  0
LINE
  5
B6
  8
0
  6
CONTINUOUS
 62
     7
 10
2054.353897989349
 20
1006.718990347159
 30
0.0
 11
2051.353897989348
 21
1006.718990347159
 31
0.0
  0
LINE
  5
B7
  8
0
  6
CONTINUOUS
 62
     7
 10
2344.353897989349
 20
1006.718990347159
 30
0.0
 11
2344.353897989349
 21
1007.218990347159
 31
0.0
  0
LINE
  5
B8
  8
0
  6
CONTINUOUS
 62
     7
 10
2344.353897989349
 20
1006.718990347159
 30
0.0
 11
2054.353897989349
 21
1006.718990347159
 31
0.0
  0
LINE
  5
B9
  8
0
  6
CONTINUOUS
 62
     7
 10
2347.353897989349
 20
1007.218990347159
 30
0.0
 11
2347.353897989349
 21
1006.718990347159
 31
0.0
  0
LINE
  5
BA
  8
0
  6
CONTINUOUS
 62
     7
 10
2347.353897989349
 20
1006.718990347159
 30
0.0
 11
2344.353897989349
 21
1006.718990347159
 31
0.0
  0
LINE
  5
BB
  8
0
  6
CONTINUOUS
 62
     7
 10
2051.353897989348
 20
1219.718990347159
 30
0.0
 11
2048.853897989349
 21
1219.718990347159
 31
0.0
  0
LINE
  5
BC
  8
0
  6
CONTINUOUS
 62
     7
 10
2048.853897989349
 20
1202.718990347159
 30
0.0
 11
2051.353897989348
 21
1202.718990347159
 31
0.0
  0
LINE
  5
BD
  8
0
  6
CONTINUOUS
 62
     7
 10
2048.853897989349
 20
1471.007841625411
 30
0.0
 11
2048.853897989349
 21
1470.918990347158
 31
0.0
  0
LINE
  5
BE
  8
0
  6
CONTINUOUS
 62
     7
 10
2048.653897989349
 20
1470.718990347158
 30
0.0
 11
2048.653897989349
 21
1471.205054444974
 31
0.0
  0
ARC
  5
BF
  8
0
  6
CONTINUOUS
 62
     7
 10
2048.655281869098
 20
1471.006438187487
 30
0.0
 40
0.1986210785926344
 50
0.4048499763334209
 51
90.39920793454088
  0
POLYLINE
  5
C0
  8
0
  6
CONTINUOUS
 62
     7
 66
     1
 10
0.0
 20
0.0
 30
0.0
  0
VERTEX
  5
29A
  8
0
  6
CONTINUOUS
 62
     7
 10
2048.853897989349
 20
1470.918990347158
 30
0.0
  0
VERTEX
  5
29B
  8
0
  6
CONTINUOUS
 62
     7
 10
2048.853880552587
 20
1470.91623241498
 30
0.0
  0
VERTEX
  5
29C
  8
0
  6
CONTINUOUS
 62
     7
 10
2048.853824754824
 20
1470.913405975233
 30
0.0
  0
VERTEX
  5
29D
  8
0
  6
CONTINUOUS
 62
     7
 10
2048.853726153234
 20
1470.91051018807
 30
0.0
  0
VERTEX
  5
29E
  8
0
  6
CONTINUOUS
 62
     7
 10
2048.853581717025
 20
1470.907547030686
 30
0.0
  0
VERTEX
  5
29F
  8
0
  6
CONTINUOUS
 62
     7
 10
2048.853388415402
 20
1470.904518480277
 30
0.0
  0
VERTEX
  5
2A0
  8
0
  6
CONTINUOUS
 62
     7
 10
2048.853143217572
 20
1470.901426514038
 30
0.0
  0
VERTEX
  5
2A1
  8
0
  6
CONTINUOUS
 62
     7
 10
2048.852843092741
 20
1470.898273109164
 30
0.0
  0
VERTEX
  5
2A2
  8
0
  6
CONTINUOUS
 62
     7
 10
2048.852485010115
 20
1470.895060242849
 30
0.0
  0
VERTEX
  5
2A3
  8
0
  6
CONTINUOUS
 62
     7
 10
2048.852065938901
 20
1470.891789892288
 30
0.0
  0
VERTEX
  5
2A4
  8
0
  6
CONTINUOUS
 62
     7
 10
2048.851582848303
 20
1470.888464034677
 30
0.0
  0
VERTEX
  5
2A5
  8
0
  6
CONTINUOUS
 62
     7
 10
2048.851032707529
 20
1470.88508464721
 30
0.0
  0
VERTEX
  5
2A6
  8
0
  6
CONTINUOUS
 62
     7
 10
2048.850412485785
 20
1470.881653707082
 30
0.0
  0
VERTEX
  5
2A7
  8
0
  6
CONTINUOUS
 62
     7
 10
2048.849719152277
 20
1470.878173191488
 30
0.0
  0
VERTEX
  5
2A8
  8
0
  6
CONTINUOUS
 62
     7
 10
2048.848949676211
 20
1470.874645077624
 30
0.0
  0
VERTEX
  5
2A9
  8
0
  6
CONTINUOUS
 62
     7
 10
2048.848101026794
 20
1470.871071342684
 30
0.0
  0
VERTEX
  5
2AA
  8
0
  6
CONTINUOUS
 62
     7
 10
2048.847170173231
 20
1470.867453963862
 30
0.0
  0
VERTEX
  5
2AB
  8
0
  6
CONTINUOUS
 62
     7
 10
2048.846154084729
 20
1470.863794918354
 30
0.0
  0
VERTEX
  5
2AC
  8
0
  6
CONTINUOUS
 62
     7
 10
2048.845049730495
 20
1470.860096183355
 30
0.0
  0
VERTEX
  5
2AD
  8
0
  6
CONTINUOUS
 62
     7
 10
2048.843854079733
 20
1470.85635973606
 30
0.0
  0
VERTEX
  5
2AE
  8
0
  6
CONTINUOUS
 62
     7
 10
2048.84256410165
 20
1470.852587553664
 30
0.0
  0
VERTEX
  5
2AF
  8
0
  6
CONTINUOUS
 62
     7
 10
2048.841176765453
 20
1470.848781613362
 30
0.0
  0
VERTEX
  5
2B0
  8
0
  6
CONTINUOUS
 62
     7
 10
2048.839689040348
 20
1470.844943892348
 30
0.0
  0
VERTEX
  5
2B1
  8
0
  6
CONTINUOUS
 62
     7
 10
2048.838097895541
 20
1470.841076367818
 30
0.0
  0
VERTEX
  5
2B2
  8
0
  6
CONTINUOUS
 62
     7
 10
2048.836400300238
 20
1470.837181016966
 30
0.0
  0
VERTEX
  5
2B3
  8
0
  6
CONTINUOUS
 62
     7
 10
2048.834593211088
 20
1470.833259894811
 30
0.0
  0
VERTEX
  5
2B4
  8
0
  6
CONTINUOUS
 62
     7
 10
2048.83267336218
 20
1470.829316435772
 30
0.0
  0
VERTEX
  5
2B5
  8
0
  6
CONTINUOUS
 62
     7
 10
2048.830637296599
 20
1470.825355258065
 30
0.0
  0
VERTEX
  5
2B6
  8
0
  6
CONTINUOUS
 62
     7
 10
2048.828481551233
 20
1470.821381018319
 30
0.0
  0
VERTEX
  5
2B7
  8
0
  6
CONTINUOUS
 62
     7
 10
2048.826202662969
 20
1470.817398373166
 30
0.0
  0
VERTEX
  5
2B8
  8
0
  6
CONTINUOUS
 62
     7
 10
2048.823797168696
 20
1470.813411979235
 30
0.0
  0
VERTEX
  5
2B9
  8
0
  6
CONTINUOUS
 62
     7
 10
2048.821261605301
 20
1470.809426493156
 30
0.0
  0
VERTEX
  5
2BA
  8
0
  6
CONTINUOUS
 62
     7
 10
2048.818592509671
 20
1470.805446571561
 30
0.0
  0
VERTEX
  5
2BB
  8
0
  6
CONTINUOUS
 62
     7
 10
2048.815786418694
 20
1470.801476871078
 30
0.0
  0
VERTEX
  5
2BC
  8
0
  6
CONTINUOUS
 62
     7
 10
2048.812839869259
 20
1470.797522048339
 30
0.0
  0
VERTEX
  5
2BD
  8
0
  6
CONTINUOUS
 62
     7
 10
2048.809749398253
 20
1470.793586759973
 30
0.0
  0
VERTEX
  5
2BE
  8
0
  6
CONTINUOUS
 62
     7
 10
2048.806511542562
 20
1470.789675662611
 30
0.0
  0
VERTEX
  5
2BF
  8
0
  6
CONTINUOUS
 62
     7
 10
2048.803122839076
 20
1470.785793412883
 30
0.0
  0
VERTEX
  5
2C0
  8
0
  6
CONTINUOUS
 62
     7
 10
2048.799579824682
 20
1470.781944667419
 30
0.0
  0
VERTEX
  5
2C1
  8
0
  6
CONTINUOUS
 62
     7
 10
2048.795879037875
 20
1470.778134084161
 30
0.0
  0
VERTEX
  5
2C2
  8
0
  6
CONTINUOUS
 62
     7
 10
2048.792017712005
 20
1470.774366888341
 30
0.0
  0
VERTEX
  5
2C3
  8
0
  6
CONTINUOUS
 62
     7
 10
2048.787994857144
 20
1470.770649755731
 30
0.0
  0
VERTEX
  5
2C4
  8
0
  6
CONTINUOUS
 62
     7
 10
2048.783809763296
 20
1470.76698959064
 30
0.0
  0
VERTEX
  5
2C5
  8
0
  6
CONTINUOUS
 62
     7
 10
2048.779461720463
 20
1470.763393297379
 30
0.0
  0
VERTEX
  5
2C6
  8
0
  6
CONTINUOUS
 62
     7
 10
2048.774950018646
 20
1470.759867780256
 30
0.0
  0
VERTEX
  5
2C7
  8
0
  6
CONTINUOUS
 62
     7
 10
2048.770273947849
 20
1470.756419943582
 30
0.0
  0
VERTEX
  5
2C8
  8
0
  6
CONTINUOUS
 62
     7
 10
2048.765432798074
 20
1470.753056691666
 30
0.0
  0
VERTEX
  5
2C9
  8
0
  6
CONTINUOUS
 62
     7
 10
2048.760425859322
 20
1470.749784928818
 30
0.0
  0
VERTEX
  5
2CA
  8
0
  6
CONTINUOUS
 62
     7
 10
2048.755252421596
 20
1470.746611559347
 30
0.0
  0
VERTEX
  5
2CB
  8
0
  6
CONTINUOUS
 62
     7
 10
2048.749911774902
 20
1470.743543487573
 30
0.0
  0
VERTEX
  5
2CC
  8
0
  6
CONTINUOUS
 62
     7
 10
2048.744404432754
 20
1470.740590169414
 30
0.0
  0
VERTEX
  5
2CD
  8
0
  6
CONTINUOUS
 62
     7
 10
2048.738735575097
 20
1470.737770792555
 30
0.0
  0
VERTEX
  5
2CE
  8
0
  6
CONTINUOUS
 62
     7
 10
2048.732911494212
 20
1470.735106864437
 30
0.0
  0
VERTEX
  5
2CF
  8
0
  6
CONTINUOUS
 62
     7
 10
2048.72693848238
 20
1470.732619892496
 30
0.0
  0
VERTEX
  5
2D0
  8
0
  6
CONTINUOUS
 62
     7
 10
2048.72082283188
 20
1470.730331384173
 30
0.0
  0
VERTEX
  5
2D1
  8
0
  6
CONTINUOUS
 62
     7
 10
2048.714570834994
 20
1470.728262846905
 30
0.0
  0
VERTEX
  5
2D2
  8
0
  6
CONTINUOUS
 62
     7
 10
2048.708188784002
 20
1470.726435788132
 30
0.0
  0
VERTEX
  5
2D3
  8
0
  6
CONTINUOUS
 62
     7
 10
2048.70168320327
 20
1470.72487034015
 30
0.0
  0
VERTEX
  5
2D4
  8
0
  6
CONTINUOUS
 62
     7
 10
2048.695065430198
 20
1470.723558117323
 30
0.0
  0
VERTEX
  5
2D5
  8
0
  6
CONTINUOUS
 62
     7
 10
2048.688351340484
 20
1470.722463843955
 30
0.0
  0
VERTEX
  5
2D6
  8
0
  6
CONTINUOUS
 62
     7
 10
2048.6815569869
 20
1470.721551195136
 30
0.0
  0
VERTEX
  5
2D7
  8
0
  6
CONTINUOUS
 62
     7
 10
2048.674698422221
 20
1470.720783845958
 30
0.0
  0
VERTEX
  5
2D8
  8
0
  6
CONTINUOUS
 62
     7
 10
2048.66779169922
 20
1470.720125471508
 30
0.0
  0
VERTEX
  5
2D9
  8
0
  6
CONTINUOUS
 62
     7
 10
2048.660852870672
 20
1470.719539746878
 30
0.0
  0
VERTEX
  5
2DA
  8
0
  6
CONTINUOUS
 62
     7
 10
2048.653897989349
 20
1470.718990347158
 30
0.0
  0
SEQEND
  5
524
  8
0
  6
CONTINUOUS
 62
     7
  0
LINE
  5
C1
  8
0
  6
CONTINUOUS
 62
     7
 10
2048.653897989349
 20
1471.205054444974
 30
0.0
 11
2047.853897989349
 21
1471.205054444974
 31
0.0
  0
LINE
  5
C2
  8
0
  6
CONTINUOUS
 62
     7
 10
2047.853897989349
 20
1471.205054444974
 30
0.0
 11
2047.853897989349
 21
1470.718990347158
 31
0.0
  0
LINE
  5
C3
  8
0
  6
CONTINUOUS
 62
     7
 10
2048.853897989349
 20
1471.018990347158
 30
0.0
 11
2048.853897989349
 21
1471.007841625411
 31
0.0
  0
LINE
  5
C4
  8
0
  6
CONTINUOUS
 62
     7
 10
2047.853897989349
 20
1471.218990347158
 30
0.0
 11
2047.853897989349
 21
1471.205054444974
 31
0.0
  0
LINE
  5
C5
  8
0
  6
CONTINUOUS
 62
     7
 10
2048.853897989349
 20
1470.918990347158
 30
0.0
 11
2048.853897989349
 21
1470.718990347159
 31
0.0
  0
LINE
  5
C6
  8
0
  6
CONTINUOUS
 62
     7
 10
2347.353897989349
 20
1471.007841625411
 30
0.0
 11
2347.353897989349
 21
1470.918990347158
 31
0.0
  0
POLYLINE
  5
C7
  8
0
  6
CONTINUOUS
 62
     7
 66
     1
 10
0.0
 20
0.0
 30
0.0
  0
VERTEX
  5
2DB
  8
0
  6
CONTINUOUS
 62
     7
 10
2347.353897989349
 20
1470.918990347158
 30
0.0
  0
VERTEX
  5
2DC
  8
0
  6
CONTINUOUS
 62
     7
 10
2347.353880552587
 20
1470.916232414981
 30
0.0
  0
VERTEX
  5
2DD
  8
0
  6
CONTINUOUS
 62
     7
 10
2347.353824754824
 20
1470.913405975233
 30
0.0
  0
VERTEX
  5
2DE
  8
0
  6
CONTINUOUS
 62
     7
 10
2347.353726153234
 20
1470.91051018807
 30
0.0
  0
VERTEX
  5
2DF
  8
0
  6
CONTINUOUS
 62
     7
 10
2347.353581717025
 20
1470.907547030686
 30
0.0
  0
VERTEX
  5
2E0
  8
0
  6
CONTINUOUS
 62
     7
 10
2347.353388415403
 20
1470.904518480278
 30
0.0
  0
VERTEX
  5
2E1
  8
0
  6
CONTINUOUS
 62
     7
 10
2347.353143217572
 20
1470.901426514038
 30
0.0
  0
VERTEX
  5
2E2
  8
0
  6
CONTINUOUS
 62
     7
 10
2347.352843092741
 20
1470.898273109164
 30
0.0
  0
VERTEX
  5
2E3
  8
0
  6
CONTINUOUS
 62
     7
 10
2347.352485010115
 20
1470.895060242849
 30
0.0
  0
VERTEX
  5
2E4
  8
0
  6
CONTINUOUS
 62
     7
 10
2347.352065938901
 20
1470.891789892288
 30
0.0
  0
VERTEX
  5
2E5
  8
0
  6
CONTINUOUS
 62
     7
 10
2347.351582848303
 20
1470.888464034677
 30
0.0
  0
VERTEX
  5
2E6
  8
0
  6
CONTINUOUS
 62
     7
 10
2347.351032707529
 20
1470.88508464721
 30
0.0
  0
VERTEX
  5
2E7
  8
0
  6
CONTINUOUS
 62
     7
 10
2347.350412485785
 20
1470.881653707082
 30
0.0
  0
VERTEX
  5
2E8
  8
0
  6
CONTINUOUS
 62
     7
 10
2347.349719152277
 20
1470.878173191488
 30
0.0
  0
VERTEX
  5
2E9
  8
0
  6
CONTINUOUS
 62
     7
 10
2347.348949676211
 20
1470.874645077624
 30
0.0
  0
VERTEX
  5
2EA
  8
0
  6
CONTINUOUS
 62
     7
 10
2347.348101026794
 20
1470.871071342683
 30
0.0
  0
VERTEX
  5
2EB
  8
0
  6
CONTINUOUS
 62
     7
 10
2347.347170173231
 20
1470.867453963862
 30
0.0
  0
VERTEX
  5
2EC
  8
0
  6
CONTINUOUS
 62
     7
 10
2347.34615408473
 20
1470.863794918354
 30
0.0
  0
VERTEX
  5
2ED
  8
0
  6
CONTINUOUS
 62
     7
 10
2347.345049730494
 20
1470.860096183355
 30
0.0
  0
VERTEX
  5
2EE
  8
0
  6
CONTINUOUS
 62
     7
 10
2347.343854079732
 20
1470.85635973606
 30
0.0
  0
VERTEX
  5
2EF
  8
0
  6
CONTINUOUS
 62
     7
 10
2347.34256410165
 20
1470.852587553664
 30
0.0
  0
VERTEX
  5
2F0
  8
0
  6
CONTINUOUS
 62
     7
 10
2347.341176765453
 20
1470.848781613362
 30
0.0
  0
VERTEX
  5
2F1
  8
0
  6
CONTINUOUS
 62
     7
 10
2347.339689040348
 20
1470.844943892348
 30
0.0
  0
VERTEX
  5
2F2
  8
0
  6
CONTINUOUS
 62
     7
 10
2347.338097895541
 20
1470.841076367818
 30
0.0
  0
VERTEX
  5
2F3
  8
0
  6
CONTINUOUS
 62
     7
 10
2347.336400300238
 20
1470.837181016966
 30
0.0
  0
VERTEX
  5
2F4
  8
0
  6
CONTINUOUS
 62
     7
 10
2347.334593211088
 20
1470.83325989481
 30
0.0
  0
VERTEX
  5
2F5
  8
0
  6
CONTINUOUS
 62
     7
 10
2347.33267336218
 20
1470.829316435772
 30
0.0
  0
VERTEX
  5
2F6
  8
0
  6
CONTINUOUS
 62
     7
 10
2347.330637296599
 20
1470.825355258065
 30
0.0
  0
VERTEX
  5
2F7
  8
0
  6
CONTINUOUS
 62
     7
 10
2347.328481551233
 20
1470.821381018319
 30
0.0
  0
VERTEX
  5
2F8
  8
0
  6
CONTINUOUS
 62
     7
 10
2347.326202662969
 20
1470.817398373166
 30
0.0
  0
VERTEX
  5
2F9
  8
0
  6
CONTINUOUS
 62
     7
 10
2347.323797168696
 20
1470.813411979235
 30
0.0
  0
VERTEX
  5
2FA
  8
0
  6
CONTINUOUS
 62
     7
 10
2347.321261605301
 20
1470.809426493156
 30
0.0
  0
VERTEX
  5
2FB
  8
0
  6
CONTINUOUS
 62
     7
 10
2347.318592509671
 20
1470.805446571561
 30
0.0
  0
VERTEX
  5
2FC
  8
0
  6
CONTINUOUS
 62
     7
 10
2347.315786418695
 20
1470.801476871078
 30
0.0
  0
VERTEX
  5
2FD
  8
0
  6
CONTINUOUS
 62
     7
 10
2347.312839869259
 20
1470.797522048339
 30
0.0
  0
VERTEX
  5
2FE
  8
0
  6
CONTINUOUS
 62
     7
 10
2347.309749398252
 20
1470.793586759973
 30
0.0
  0
VERTEX
  5
2FF
  8
0
  6
CONTINUOUS
 62
     7
 10
2347.306511542562
 20
1470.789675662611
 30
0.0
  0
VERTEX
  5
300
  8
0
  6
CONTINUOUS
 62
     7
 10
2347.303122839076
 20
1470.785793412883
 30
0.0
  0
VERTEX
  5
301
  8
0
  6
CONTINUOUS
 62
     7
 10
2347.299579824682
 20
1470.781944667419
 30
0.0
  0
VERTEX
  5
302
  8
0
  6
CONTINUOUS
 62
     7
 10
2347.295879037875
 20
1470.778134084161
 30
0.0
  0
VERTEX
  5
303
  8
0
  6
CONTINUOUS
 62
     7
 10
2347.292017712005
 20
1470.774366888341
 30
0.0
  0
VERTEX
  5
304
  8
0
  6
CONTINUOUS
 62
     7
 10
2347.287994857144
 20
1470.770649755731
 30
0.0
  0
VERTEX
  5
305
  8
0
  6
CONTINUOUS
 62
     7
 10
2347.283809763295
 20
1470.76698959064
 30
0.0
  0
VERTEX
  5
306
  8
0
  6
CONTINUOUS
 62
     7
 10
2347.279461720462
 20
1470.763393297379
 30
0.0
  0
VERTEX
  5
307
  8
0
  6
CONTINUOUS
 62
     7
 10
2347.274950018646
 20
1470.759867780256
 30
0.0
  0
VERTEX
  5
308
  8
0
  6
CONTINUOUS
 62
     7
 10
2347.270273947849
 20
1470.756419943582
 30
0.0
  0
VERTEX
  5
309
  8
0
  6
CONTINUOUS
 62
     7
 10
2347.265432798073
 20
1470.753056691666
 30
0.0
  0
VERTEX
  5
30A
  8
0
  6
CONTINUOUS
 62
     7
 10
2347.260425859321
 20
1470.749784928817
 30
0.0
  0
VERTEX
  5
30B
  8
0
  6
CONTINUOUS
 62
     7
 10
2347.255252421595
 20
1470.746611559347
 30
0.0
  0
VERTEX
  5
30C
  8
0
  6
CONTINUOUS
 62
     7
 10
2347.249911774902
 20
1470.743543487572
 30
0.0
  0
VERTEX
  5
30D
  8
0
  6
CONTINUOUS
 62
     7
 10
2347.244404432753
 20
1470.740590169414
 30
0.0
  0
VERTEX
  5
30E
  8
0
  6
CONTINUOUS
 62
     7
 10
2347.238735575097
 20
1470.737770792555
 30
0.0
  0
VERTEX
  5
30F
  8
0
  6
CONTINUOUS
 62
     7
 10
2347.232911494211
 20
1470.735106864437
 30
0.0
  0
VERTEX
  5
310
  8
0
  6
CONTINUOUS
 62
     7
 10
2347.226938482379
 20
1470.732619892496
 30
0.0
  0
VERTEX
  5
311
  8
0
  6
CONTINUOUS
 62
     7
 10
2347.220822831879
 20
1470.730331384173
 30
0.0
  0
VERTEX
  5
312
  8
0
  6
CONTINUOUS
 62
     7
 10
2347.214570834993
 20
1470.728262846905
 30
0.0
  0
VERTEX
  5
313
  8
0
  6
CONTINUOUS
 62
     7
 10
2347.208188784001
 20
1470.726435788132
 30
0.0
  0
VERTEX
  5
314
  8
0
  6
CONTINUOUS
 62
     7
 10
2347.201683203269
 20
1470.72487034015
 30
0.0
  0
VERTEX
  5
315
  8
0
  6
CONTINUOUS
 62
     7
 10
2347.195065430198
 20
1470.723558117323
 30
0.0
  0
VERTEX
  5
316
  8
0
  6
CONTINUOUS
 62
     7
 10
2347.188351340483
 20
1470.722463843955
 30
0.0
  0
VERTEX
  5
317
  8
0
  6
CONTINUOUS
 62
     7
 10
2347.1815569869
 20
1470.721551195137
 30
0.0
  0
VERTEX
  5
318
  8
0
  6
CONTINUOUS
 62
     7
 10
2347.174698422221
 20
1470.720783845957
 30
0.0
  0
VERTEX
  5
319
  8
0
  6
CONTINUOUS
 62
     7
 10
2347.16779169922
 20
1470.720125471508
 30
0.0
  0
VERTEX
  5
31A
  8
0
  6
CONTINUOUS
 62
     7
 10
2347.160852870671
 20
1470.719539746878
 30
0.0
  0
VERTEX
  5
31B
  8
0
  6
CONTINUOUS
 62
     7
 10
2347.153897989348
 20
1470.718990347158
 30
0.0
  0
SEQEND
  5
525
  8
0
  6
CONTINUOUS
 62
     7
  0
LINE
  5
C8
  8
0
  6
CONTINUOUS
 62
     7
 10
2347.153897989348
 20
1470.718990347158
 30
0.0
 11
2347.153897989348
 21
1471.205054444974
 31
0.0
  0
ARC
  5
C9
  8
0
  6
CONTINUOUS
 62
     7
 10
2347.155281869098
 20
1471.006438187487
 30
0.0
 40
0.1986210785926344
 50
0.4048499763334209
 51
90.39920793467208
  0
LINE
  5
CA
  8
0
  6
CONTINUOUS
 62
     7
 10
2346.353897989348
 20
1471.205054444974
 30
0.0
 11
2346.353897989348
 21
1470.718990347158
 31
0.0
  0
LINE
  5
CB
  8
0
  6
CONTINUOUS
 62
     7
 10
2347.153897989348
 20
1471.205054444974
 30
0.0
 11
2346.353897989348
 21
1471.205054444974
 31
0.0
  0
LINE
  5
CC
  8
0
  6
CONTINUOUS
 62
     7
 10
2346.353897989348
 20
1471.218990347158
 30
0.0
 11
2346.353897989348
 21
1471.205054444974
 31
0.0
  0
LINE
  5
CD
  8
0
  6
CONTINUOUS
 62
     7
 10
2347.353897989349
 20
1471.018990347158
 30
0.0
 11
2347.353897989349
 21
1471.007841625411
 31
0.0
  0
LINE
  5
CE
  8
0
  6
CONTINUOUS
 62
     7
 10
2347.353897989349
 20
1470.918990347158
 30
0.0
 11
2347.353897989349
 21
1470.718990347159
 31
0.0
  0
LINE
  5
CF
  8
0
  6
CONTINUOUS
 62
     7
 10
2346.353897989348
 20
1471.205054444974
 30
0.0
 11
2052.353897989348
 21
1471.205054444975
 31
0.0
  0
LINE
  5
D0
  8
0
  6
CONTINUOUS
 62
     7
 10
2052.353897989348
 20
1470.718990347159
 30
0.0
 11
2052.353897989348
 21
1471.205054444975
 31
0.0
  0
LINE
  5
D1
  8
0
  6
CONTINUOUS
 62
     7
 10
2052.353897989348
 20
1471.205054444975
 30
0.0
 11
2052.353897989348
 21
1471.218990347159
 31
0.0
  0
LINE
  5
D2
  8
0
  6
CONTINUOUS
 62
     7
 10
2047.853897989349
 20
1471.205054444974
 30
0.0
 11
1753.853897989349
 21
1471.205054444975
 31
0.0
  0
LINE
  5
D3
  8
0
  6
CONTINUOUS
 62
     7
 10
1753.853897989349
 20
1470.718990347159
 30
0.0
 11
1753.853897989349
 21
1471.205054444975
 31
0.0
  0
LINE
  5
D4
  8
0
  6
CONTINUOUS
 62
     7
 10
1753.853897989349
 20
1471.205054444975
 30
0.0
 11
1753.853897989349
 21
1471.218990347159
 31
0.0
  0
LINE
  5
D5
  8
0
  6
CONTINUOUS
 62
     7
 10
1752.853897989349
 20
1470.918990347159
 30
0.0
 11
1752.853897989349
 21
1471.007841625412
 31
0.0
  0
ARC
  5
D6
  8
0
  6
CONTINUOUS
 62
     7
 10
1753.052514109599
 20
1471.006438187489
 30
0.0
 40
0.1986210785917217
 50
89.60079206526052
 51
179.5951500237959
  0
LINE
  5
D7
  8
0
  6
CONTINUOUS
 62
     7
 10
1753.053897989349
 20
1471.205054444975
 30
0.0
 11
1753.053897989349
 21
1470.718990347159
 31
0.0
  0
POLYLINE
  5
D8
  8
0
  6
CONTINUOUS
 62
     7
 66
     1
 10
0.0
 20
0.0
 30
0.0
  0
VERTEX
  5
31C
  8
0
  6
CONTINUOUS
 62
     7
 10
1752.853897989349
 20
1470.918990347159
 30
0.0
  0
VERTEX
  5
31D
  8
0
  6
CONTINUOUS
 62
     7
 10
1752.853915426111
 20
1470.916232414982
 30
0.0
  0
VERTEX
  5
31E
  8
0
  6
CONTINUOUS
 62
     7
 10
1752.853971223874
 20
1470.913405975233
 30
0.0
  0
VERTEX
  5
31F
  8
0
  6
CONTINUOUS
 62
     7
 10
1752.854069825464
 20
1470.91051018807
 30
0.0
  0
VERTEX
  5
320
  8
0
  6
CONTINUOUS
 62
     7
 10
1752.854214261673
 20
1470.907547030687
 30
0.0
  0
VERTEX
  5
321
  8
0
  6
CONTINUOUS
 62
     7
 10
1752.854407563296
 20
1470.904518480278
 30
0.0
  0
VERTEX
  5
322
  8
0
  6
CONTINUOUS
 62
     7
 10
1752.854652761126
 20
1470.901426514039
 30
0.0
  0
VERTEX
  5
323
  8
0
  6
CONTINUOUS
 62
     7
 10
1752.854952885957
 20
1470.898273109164
 30
0.0
  0
VERTEX
  5
324
  8
0
  6
CONTINUOUS
 62
     7
 10
1752.855310968583
 20
1470.895060242849
 30
0.0
  0
VERTEX
  5
325
  8
0
  6
CONTINUOUS
 62
     7
 10
1752.855730039798
 20
1470.891789892288
 30
0.0
  0
VERTEX
  5
326
  8
0
  6
CONTINUOUS
 62
     7
 10
1752.856213130396
 20
1470.888464034677
 30
0.0
  0
VERTEX
  5
327
  8
0
  6
CONTINUOUS
 62
     7
 10
1752.856763271169
 20
1470.88508464721
 30
0.0
  0
VERTEX
  5
328
  8
0
  6
CONTINUOUS
 62
     7
 10
1752.857383492913
 20
1470.881653707082
 30
0.0
  0
VERTEX
  5
329
  8
0
  6
CONTINUOUS
 62
     7
 10
1752.858076826421
 20
1470.878173191488
 30
0.0
  0
VERTEX
  5
32A
  8
0
  6
CONTINUOUS
 62
     7
 10
1752.858846302487
 20
1470.874645077624
 30
0.0
  0
VERTEX
  5
32B
  8
0
  6
CONTINUOUS
 62
     7
 10
1752.859694951904
 20
1470.871071342684
 30
0.0
  0
VERTEX
  5
32C
  8
0
  6
CONTINUOUS
 62
     7
 10
1752.860625805466
 20
1470.867453963862
 30
0.0
  0
VERTEX
  5
32D
  8
0
  6
CONTINUOUS
 62
     7
 10
1752.861641893968
 20
1470.863794918355
 30
0.0
  0
VERTEX
  5
32E
  8
0
  6
CONTINUOUS
 62
     7
 10
1752.862746248204
 20
1470.860096183356
 30
0.0
  0
VERTEX
  5
32F
  8
0
  6
CONTINUOUS
 62
     7
 10
1752.863941898965
 20
1470.856359736061
 30
0.0
  0
VERTEX
  5
330
  8
0
  6
CONTINUOUS
 62
     7
 10
1752.865231877048
 20
1470.852587553665
 30
0.0
  0
VERTEX
  5
331
  8
0
  6
CONTINUOUS
 62
     7
 10
1752.866619213245
 20
1470.848781613362
 30
0.0
  0
VERTEX
  5
332
  8
0
  6
CONTINUOUS
 62
     7
 10
1752.86810693835
 20
1470.844943892349
 30
0.0
  0
VERTEX
  5
333
  8
0
  6
CONTINUOUS
 62
     7
 10
1752.869698083157
 20
1470.841076367819
 30
0.0
  0
VERTEX
  5
334
  8
0
  6
CONTINUOUS
 62
     7
 10
1752.87139567846
 20
1470.837181016967
 30
0.0
  0
VERTEX
  5
335
  8
0
  6
CONTINUOUS
 62
     7
 10
1752.87320276761
 20
1470.833259894812
 30
0.0
  0
VERTEX
  5
336
  8
0
  6
CONTINUOUS
 62
     7
 10
1752.875122616518
 20
1470.829316435773
 30
0.0
  0
VERTEX
  5
337
  8
0
  6
CONTINUOUS
 62
     7
 10
1752.877158682098
 20
1470.825355258065
 30
0.0
  0
VERTEX
  5
338
  8
0
  6
CONTINUOUS
 62
     7
 10
1752.879314427464
 20
1470.82138101832
 30
0.0
  0
VERTEX
  5
339
  8
0
  6
CONTINUOUS
 62
     7
 10
1752.881593315728
 20
1470.817398373167
 30
0.0
  0
VERTEX
  5
33A
  8
0
  6
CONTINUOUS
 62
     7
 10
1752.883998810001
 20
1470.813411979236
 30
0.0
  0
VERTEX
  5
33B
  8
0
  6
CONTINUOUS
 62
     7
 10
1752.886534373397
 20
1470.809426493158
 30
0.0
  0
VERTEX
  5
33C
  8
0
  6
CONTINUOUS
 62
     7
 10
1752.889203469027
 20
1470.805446571562
 30
0.0
  0
VERTEX
  5
33D
  8
0
  6
CONTINUOUS
 62
     7
 10
1752.892009560003
 20
1470.80147687108
 30
0.0
  0
VERTEX
  5
33E
  8
0
  6
CONTINUOUS
 62
     7
 10
1752.894956109438
 20
1470.79752204834
 30
0.0
  0
VERTEX
  5
33F
  8
0
  6
CONTINUOUS
 62
     7
 10
1752.898046580445
 20
1470.793586759974
 30
0.0
  0
VERTEX
  5
340
  8
0
  6
CONTINUOUS
 62
     7
 10
1752.901284436135
 20
1470.789675662612
 30
0.0
  0
VERTEX
  5
341
  8
0
  6
CONTINUOUS
 62
     7
 10
1752.904673139621
 20
1470.785793412884
 30
0.0
  0
VERTEX
  5
342
  8
0
  6
CONTINUOUS
 62
     7
 10
1752.908216154015
 20
1470.78194466742
 30
0.0
  0
VERTEX
  5
343
  8
0
  6
CONTINUOUS
 62
     7
 10
1752.911916940823
 20
1470.778134084163
 30
0.0
  0
VERTEX
  5
344
  8
0
  6
CONTINUOUS
 62
     7
 10
1752.915778266693
 20
1470.774366888342
 30
0.0
  0
VERTEX
  5
345
  8
0
  6
CONTINUOUS
 62
     7
 10
1752.919801121554
 20
1470.770649755732
 30
0.0
  0
VERTEX
  5
346
  8
0
  6
CONTINUOUS
 62
     7
 10
1752.923986215402
 20
1470.766989590641
 30
0.0
  0
VERTEX
  5
347
  8
0
  6
CONTINUOUS
 62
     7
 10
1752.928334258235
 20
1470.76339329738
 30
0.0
  0
VERTEX
  5
348
  8
0
  6
CONTINUOUS
 62
     7
 10
1752.932845960052
 20
1470.759867780257
 30
0.0
  0
VERTEX
  5
349
  8
0
  6
CONTINUOUS
 62
     7
 10
1752.937522030848
 20
1470.756419943583
 30
0.0
  0
VERTEX
  5
34A
  8
0
  6
CONTINUOUS
 62
     7
 10
1752.942363180624
 20
1470.753056691667
 30
0.0
  0
VERTEX
  5
34B
  8
0
  6
CONTINUOUS
 62
     7
 10
1752.947370119376
 20
1470.749784928819
 30
0.0
  0
VERTEX
  5
34C
  8
0
  6
CONTINUOUS
 62
     7
 10
1752.952543557102
 20
1470.746611559348
 30
0.0
  0
VERTEX
  5
34D
  8
0
  6
CONTINUOUS
 62
     7
 10
1752.957884203795
 20
1470.743543487574
 30
0.0
  0
VERTEX
  5
34E
  8
0
  6
CONTINUOUS
 62
     7
 10
1752.963391545944
 20
1470.740590169415
 30
0.0
  0
VERTEX
  5
34F
  8
0
  6
CONTINUOUS
 62
     7
 10
1752.969060403601
 20
1470.737770792557
 30
0.0
  0
VERTEX
  5
350
  8
0
  6
CONTINUOUS
 62
     7
 10
1752.974884484486
 20
1470.735106864438
 30
0.0
  0
VERTEX
  5
351
  8
0
  6
CONTINUOUS
 62
     7
 10
1752.980857496319
 20
1470.732619892498
 30
0.0
  0
VERTEX
  5
352
  8
0
  6
CONTINUOUS
 62
     7
 10
1752.986973146817
 20
1470.730331384174
 30
0.0
  0
VERTEX
  5
353
  8
0
  6
CONTINUOUS
 62
     7
 10
1752.993225143704
 20
1470.728262846906
 30
0.0
  0
VERTEX
  5
354
  8
0
  6
CONTINUOUS
 62
     7
 10
1752.999607194697
 20
1470.726435788133
 30
0.0
  0
VERTEX
  5
355
  8
0
  6
CONTINUOUS
 62
     7
 10
1753.006112775429
 20
1470.724870340151
 30
0.0
  0
VERTEX
  5
356
  8
0
  6
CONTINUOUS
 62
     7
 10
1753.0127305485
 20
1470.723558117324
 30
0.0
  0
VERTEX
  5
357
  8
0
  6
CONTINUOUS
 62
     7
 10
1753.019444638214
 20
1470.722463843956
 30
0.0
  0
VERTEX
  5
358
  8
0
  6
CONTINUOUS
 62
     7
 10
1753.026238991798
 20
1470.721551195138
 30
0.0
  0
VERTEX
  5
359
  8
0
  6
CONTINUOUS
 62
     7
 10
1753.033097556477
 20
1470.720783845959
 30
0.0
  0
VERTEX
  5
35A
  8
0
  6
CONTINUOUS
 62
     7
 10
1753.040004279478
 20
1470.720125471509
 30
0.0
  0
VERTEX
  5
35B
  8
0
  6
CONTINUOUS
 62
     7
 10
1753.046943108026
 20
1470.719539746879
 30
0.0
  0
VERTEX
  5
35C
  8
0
  6
CONTINUOUS
 62
     7
 10
1753.053897989349
 20
1470.718990347159
 30
0.0
  0
SEQEND
  5
526
  8
0
  6
CONTINUOUS
 62
     7
  0
LINE
  5
D9
  8
0
  6
CONTINUOUS
 62
     7
 10
1753.853897989349
 20
1471.205054444975
 30
0.0
 11
1753.053897989349
 21
1471.205054444975
 31
0.0
  0
LINE
  5
DA
  8
0
  6
CONTINUOUS
 62
     7
 10
1752.853897989349
 20
1471.007841625412
 30
0.0
 11
1752.853897989349
 21
1471.018990347159
 31
0.0
  0
LINE
  5
DB
  8
0
  6
CONTINUOUS
 62
     7
 10
1752.853897989349
 20
1470.718990347159
 30
0.0
 11
1752.853897989349
 21
1470.918990347159
 31
0.0
  0
LINE
  5
DC
  8
0
  6
CONTINUOUS
 62
     7
 10
2051.353897989348
 20
1470.918990347159
 30
0.0
 11
2051.353897989348
 21
1471.007841625412
 31
0.0
  0
ARC
  5
DD
  8
0
  6
CONTINUOUS
 62
     7
 10
2051.552514109599
 20
1471.006438187488
 30
0.0
 40
0.1986210785930923
 50
89.60079206545957
 51
179.5951500235363
  0
LINE
  5
DE
  8
0
  6
CONTINUOUS
 62
     7
 10
2051.553897989349
 20
1471.205054444975
 30
0.0
 11
2051.553897989349
 21
1470.718990347159
 31
0.0
  0
POLYLINE
  5
DF
  8
0
  6
CONTINUOUS
 62
     7
 66
     1
 10
0.0
 20
0.0
 30
0.0
  0
VERTEX
  5
35D
  8
0
  6
CONTINUOUS
 62
     7
 10
2051.353897989348
 20
1470.918990347159
 30
0.0
  0
VERTEX
  5
35E
  8
0
  6
CONTINUOUS
 62
     7
 10
2051.35391542611
 20
1470.916232414982
 30
0.0
  0
VERTEX
  5
35F
  8
0
  6
CONTINUOUS
 62
     7
 10
2051.353971223873
 20
1470.913405975233
 30
0.0
  0
VERTEX
  5
360
  8
0
  6
CONTINUOUS
 62
     7
 10
2051.354069825463
 20
1470.91051018807
 30
0.0
  0
VERTEX
  5
361
  8
0
  6
CONTINUOUS
 62
     7
 10
2051.354214261672
 20
1470.907547030686
 30
0.0
  0
VERTEX
  5
362
  8
0
  6
CONTINUOUS
 62
     7
 10
2051.354407563295
 20
1470.904518480278
 30
0.0
  0
VERTEX
  5
363
  8
0
  6
CONTINUOUS
 62
     7
 10
2051.354652761125
 20
1470.901426514039
 30
0.0
  0
VERTEX
  5
364
  8
0
  6
CONTINUOUS
 62
     7
 10
2051.354952885956
 20
1470.898273109164
 30
0.0
  0
VERTEX
  5
365
  8
0
  6
CONTINUOUS
 62
     7
 10
2051.355310968582
 20
1470.895060242849
 30
0.0
  0
VERTEX
  5
366
  8
0
  6
CONTINUOUS
 62
     7
 10
2051.355730039797
 20
1470.891789892288
 30
0.0
  0
VERTEX
  5
367
  8
0
  6
CONTINUOUS
 62
     7
 10
2051.356213130395
 20
1470.888464034677
 30
0.0
  0
VERTEX
  5
368
  8
0
  6
CONTINUOUS
 62
     7
 10
2051.356763271168
 20
1470.88508464721
 30
0.0
  0
VERTEX
  5
369
  8
0
  6
CONTINUOUS
 62
     7
 10
2051.357383492913
 20
1470.881653707082
 30
0.0
  0
VERTEX
  5
36A
  8
0
  6
CONTINUOUS
 62
     7
 10
2051.35807682642
 20
1470.878173191488
 30
0.0
  0
VERTEX
  5
36B
  8
0
  6
CONTINUOUS
 62
     7
 10
2051.358846302486
 20
1470.874645077624
 30
0.0
  0
VERTEX
  5
36C
  8
0
  6
CONTINUOUS
 62
     7
 10
2051.359694951904
 20
1470.871071342683
 30
0.0
  0
VERTEX
  5
36D
  8
0
  6
CONTINUOUS
 62
     7
 10
2051.360625805466
 20
1470.867453963862
 30
0.0
  0
VERTEX
  5
36E
  8
0
  6
CONTINUOUS
 62
     7
 10
2051.361641893968
 20
1470.863794918354
 30
0.0
  0
VERTEX
  5
36F
  8
0
  6
CONTINUOUS
 62
     7
 10
2051.362746248203
 20
1470.860096183356
 30
0.0
  0
VERTEX
  5
370
  8
0
  6
CONTINUOUS
 62
     7
 10
2051.363941898965
 20
1470.856359736061
 30
0.0
  0
VERTEX
  5
371
  8
0
  6
CONTINUOUS
 62
     7
 10
2051.365231877047
 20
1470.852587553665
 30
0.0
  0
VERTEX
  5
372
  8
0
  6
CONTINUOUS
 62
     7
 10
2051.366619213245
 20
1470.848781613363
 30
0.0
  0
VERTEX
  5
373
  8
0
  6
CONTINUOUS
 62
     7
 10
2051.368106938349
 20
1470.844943892349
 30
0.0
  0
VERTEX
  5
374
  8
0
  6
CONTINUOUS
 62
     7
 10
2051.369698083156
 20
1470.841076367818
 30
0.0
  0
VERTEX
  5
375
  8
0
  6
CONTINUOUS
 62
     7
 10
2051.37139567846
 20
1470.837181016967
 30
0.0
  0
VERTEX
  5
376
  8
0
  6
CONTINUOUS
 62
     7
 10
2051.37320276761
 20
1470.833259894812
 30
0.0
  0
VERTEX
  5
377
  8
0
  6
CONTINUOUS
 62
     7
 10
2051.375122616517
 20
1470.829316435773
 30
0.0
  0
VERTEX
  5
378
  8
0
  6
CONTINUOUS
 62
     7
 10
2051.377158682099
 20
1470.825355258065
 30
0.0
  0
VERTEX
  5
379
  8
0
  6
CONTINUOUS
 62
     7
 10
2051.379314427465
 20
1470.82138101832
 30
0.0
  0
VERTEX
  5
37A
  8
0
  6
CONTINUOUS
 62
     7
 10
2051.381593315728
 20
1470.817398373167
 30
0.0
  0
VERTEX
  5
37B
  8
0
  6
CONTINUOUS
 62
     7
 10
2051.383998810001
 20
1470.813411979236
 30
0.0
  0
VERTEX
  5
37C
  8
0
  6
CONTINUOUS
 62
     7
 10
2051.386534373397
 20
1470.809426493158
 30
0.0
  0
VERTEX
  5
37D
  8
0
  6
CONTINUOUS
 62
     7
 10
2051.389203469027
 20
1470.805446571562
 30
0.0
  0
VERTEX
  5
37E
  8
0
  6
CONTINUOUS
 62
     7
 10
2051.392009560003
 20
1470.80147687108
 30
0.0
  0
VERTEX
  5
37F
  8
0
  6
CONTINUOUS
 62
     7
 10
2051.394956109438
 20
1470.79752204834
 30
0.0
  0
VERTEX
  5
380
  8
0
  6
CONTINUOUS
 62
     7
 10
2051.398046580445
 20
1470.793586759974
 30
0.0
  0
VERTEX
  5
381
  8
0
  6
CONTINUOUS
 62
     7
 10
2051.401284436135
 20
1470.789675662612
 30
0.0
  0
VERTEX
  5
382
  8
0
  6
CONTINUOUS
 62
     7
 10
2051.404673139621
 20
1470.785793412884
 30
0.0
  0
VERTEX
  5
383
  8
0
  6
CONTINUOUS
 62
     7
 10
2051.408216154015
 20
1470.78194466742
 30
0.0
  0
VERTEX
  5
384
  8
0
  6
CONTINUOUS
 62
     7
 10
2051.411916940822
 20
1470.778134084163
 30
0.0
  0
VERTEX
  5
385
  8
0
  6
CONTINUOUS
 62
     7
 10
2051.415778266693
 20
1470.774366888342
 30
0.0
  0
VERTEX
  5
386
  8
0
  6
CONTINUOUS
 62
     7
 10
2051.419801121554
 20
1470.770649755732
 30
0.0
  0
VERTEX
  5
387
  8
0
  6
CONTINUOUS
 62
     7
 10
2051.423986215402
 20
1470.766989590641
 30
0.0
  0
VERTEX
  5
388
  8
0
  6
CONTINUOUS
 62
     7
 10
2051.428334258235
 20
1470.76339329738
 30
0.0
  0
VERTEX
  5
389
  8
0
  6
CONTINUOUS
 62
     7
 10
2051.432845960051
 20
1470.759867780257
 30
0.0
  0
VERTEX
  5
38A
  8
0
  6
CONTINUOUS
 62
     7
 10
2051.437522030848
 20
1470.756419943583
 30
0.0
  0
VERTEX
  5
38B
  8
0
  6
CONTINUOUS
 62
     7
 10
2051.442363180623
 20
1470.753056691667
 30
0.0
  0
VERTEX
  5
38C
  8
0
  6
CONTINUOUS
 62
     7
 10
2051.447370119376
 20
1470.749784928819
 30
0.0
  0
VERTEX
  5
38D
  8
0
  6
CONTINUOUS
 62
     7
 10
2051.452543557102
 20
1470.746611559348
 30
0.0
  0
VERTEX
  5
38E
  8
0
  6
CONTINUOUS
 62
     7
 10
2051.457884203795
 20
1470.743543487574
 30
0.0
  0
VERTEX
  5
38F
  8
0
  6
CONTINUOUS
 62
     7
 10
2051.463391545944
 20
1470.740590169415
 30
0.0
  0
VERTEX
  5
390
  8
0
  6
CONTINUOUS
 62
     7
 10
2051.4690604036
 20
1470.737770792556
 30
0.0
  0
VERTEX
  5
391
  8
0
  6
CONTINUOUS
 62
     7
 10
2051.474884484485
 20
1470.735106864438
 30
0.0
  0
VERTEX
  5
392
  8
0
  6
CONTINUOUS
 62
     7
 10
2051.480857496318
 20
1470.732619892497
 30
0.0
  0
VERTEX
  5
393
  8
0
  6
CONTINUOUS
 62
     7
 10
2051.486973146817
 20
1470.730331384174
 30
0.0
  0
VERTEX
  5
394
  8
0
  6
CONTINUOUS
 62
     7
 10
2051.493225143704
 20
1470.728262846906
 30
0.0
  0
VERTEX
  5
395
  8
0
  6
CONTINUOUS
 62
     7
 10
2051.499607194696
 20
1470.726435788132
 30
0.0
  0
VERTEX
  5
396
  8
0
  6
CONTINUOUS
 62
     7
 10
2051.506112775428
 20
1470.724870340151
 30
0.0
  0
VERTEX
  5
397
  8
0
  6
CONTINUOUS
 62
     7
 10
2051.512730548499
 20
1470.723558117324
 30
0.0
  0
VERTEX
  5
398
  8
0
  6
CONTINUOUS
 62
     7
 10
2051.519444638213
 20
1470.722463843956
 30
0.0
  0
VERTEX
  5
399
  8
0
  6
CONTINUOUS
 62
     7
 10
2051.526238991798
 20
1470.721551195138
 30
0.0
  0
VERTEX
  5
39A
  8
0
  6
CONTINUOUS
 62
     7
 10
2051.533097556477
 20
1470.720783845959
 30
0.0
  0
VERTEX
  5
39B
  8
0
  6
CONTINUOUS
 62
     7
 10
2051.540004279477
 20
1470.720125471509
 30
0.0
  0
VERTEX
  5
39C
  8
0
  6
CONTINUOUS
 62
     7
 10
2051.546943108026
 20
1470.719539746879
 30
0.0
  0
VERTEX
  5
39D
  8
0
  6
CONTINUOUS
 62
     7
 10
2051.553897989349
 20
1470.718990347159
 30
0.0
  0
SEQEND
  5
527
  8
0
  6
CONTINUOUS
 62
     7
  0
LINE
  5
E0
  8
0
  6
CONTINUOUS
 62
     7
 10
2052.353897989348
 20
1471.205054444975
 30
0.0
 11
2051.553897989349
 21
1471.205054444975
 31
0.0
  0
LINE
  5
E1
  8
0
  6
CONTINUOUS
 62
     7
 10
2051.353897989348
 20
1471.007841625412
 30
0.0
 11
2051.353897989348
 21
1471.018990347159
 31
0.0
  0
LINE
  5
E2
  8
0
  6
CONTINUOUS
 62
     7
 10
2051.353897989348
 20
1470.718990347159
 30
0.0
 11
2051.353897989348
 21
1470.918990347159
 31
0.0
  0
LINE
  5
E3
  8
0
  6
CONTINUOUS
 62
     7
 10
1768.353897989349
 20
1886.218990347157
 30
0.0
 11
2331.853897989349
 21
1886.218990347157
 31
0.0
  0
LINE
  5
E4
  8
0
  6
CONTINUOUS
 62
     7
 10
2331.853897989349
 20
1903.218990347157
 30
0.0
 11
1768.353897989349
 21
1903.218990347157
 31
0.0
  0
LINE
  5
E5
  8
0
  6
CONTINUOUS
 62
     7
 10
2051.353897989348
 20
1463.218990347159
 30
0.0
 11
2048.853897989348
 21
1463.218990347159
 31
0.0
  0
LINE
  5
E6
  8
0
  6
CONTINUOUS
 62
     7
 10
2048.853897989347
 20
1446.218990347159
 30
0.0
 11
2051.353897989348
 21
1446.218990347159
 31
0.0
  0
LINE
  5
E7
  8
0
  6
CONTINUOUS
 62
     7
 10
1768.353897989349
 20
1006.718990347159
 30
0.0
 11
1768.353897989349
 21
1005.718990347159
 31
0.0
  0
LINE
  5
E8
  8
0
  6
CONTINUOUS
 62
     7
 10
2051.353897989348
 20
1022.718990347159
 30
0.0
 11
2048.853897989349
 21
1022.718990347159
 31
0.0
  0
LINE
  5
E9
  8
0
  6
CONTINUOUS
 62
     7
 10
2331.853897989349
 20
1005.718990347159
 30
0.0
 11
2331.853897989349
 21
1006.718990347159
 31
0.0
  0
LINE
  5
EA
  8
0
  6
CONTINUOUS
 62
     7
 10
1768.353897989349
 20
1005.718990347159
 30
0.0
 11
2331.853897989349
 21
1005.718990347159
 31
0.0
  0
LINE
  5
EB
  8
0
  6
CONTINUOUS
 62
     7
 10
2349.353897989348
 20
1004.218990347159
 30
0.0
 11
2331.853897989349
 21
1004.218990347159
 31
0.0
  0
LINE
  5
EC
  8
0
  6
CONTINUOUS
 62
     7
 10
2331.853897989348
 20
1903.218990347153
 30
0.0
 11
2349.353897989348
 21
1903.218990347153
 31
0.0
  0
LINE
  5
ED
  8
0
  6
CONTINUOUS
 62
     7
 10
2331.853897989349
 20
1004.218990347159
 30
0.0
 11
2331.853897989349
 21
1006.718990347159
 31
0.0
  0
LINE
  5
EE
  8
0
  6
CONTINUOUS
 62
     7
 10
2331.853897989349
 20
1471.218990347158
 30
0.0
 11
2331.853897989348
 21
1903.218990347153
 31
0.0
  0
LINE
  5
EF
  8
0
  6
CONTINUOUS
 62
     7
 10
2349.353897989348
 20
1903.218990347153
 30
0.0
 11
2349.353897989348
 21
1004.218990347159
 31
0.0
  0
LINE
  5
F0
  8
0
  6
CONTINUOUS
 62
     7
 10
1750.853897989349
 20
1004.718990347165
 30
0.0
 11
1750.853897989349
 21
1903.718990347159
 31
0.0
  0
LINE
  5
F1
  8
0
  6
CONTINUOUS
 62
     7
 10
1768.353897989349
 20
1903.718990347159
 30
0.0
 11
1768.353897989349
 21
1471.218990347158
 31
0.0
  0
LINE
  5
F2
  8
0
  6
CONTINUOUS
 62
     7
 10
1768.353897989349
 20
1006.718990347159
 30
0.0
 11
1768.353897989349
 21
1004.718990347165
 31
0.0
  0
LINE
  5
F3
  8
0
  6
CONTINUOUS
 62
     7
 10
1768.353897989349
 20
1004.718990347165
 30
0.0
 11
1750.853897989349
 21
1004.718990347165
 31
0.0
  0
LINE
  5
F4
  8
0
  6
CONTINUOUS
 62
     7
 10
1750.853897989349
 20
1903.718990347159
 30
0.0
 11
1768.353897989349
 21
1903.718990347159
 31
0.0
  0
LINE
  5
F5
  8
0
  6
CONTINUOUS
 62
     8
 10
2048.653897989349
 20
1471.205054444974
 30
0.0
 11
2048.653897989349
 21
1471.218990347158
 31
0.0
  0
LINE
  5
F6
  8
0
  6
CONTINUOUS
 62
     8
 10
2347.153897989348
 20
1471.205054444974
 30
0.0
 11
2347.153897989348
 21
1471.218990347158
 31
0.0
  0
LINE
  5
F7
  8
0
  6
CONTINUOUS
 62
     8
 10
1753.053897989349
 20
1471.218990347159
 30
0.0
 11
1753.053897989349
 21
1471.205054444975
 31
0.0
  0
LINE
  5
F8
  8
0
  6
CONTINUOUS
 62
     8
 10
2051.553897989349
 20
1471.218990347159
 30
0.0
 11
2051.553897989349
 21
1471.205054444975
 31
0.0
  0
LINE
  5
F9
  8
0
  6
CONTINUOUS
 62
     7
 10
865.4233530360625
 20
1470.218990347159
 30
0.0
 11
865.4233530360625
 21
1470.718990347159
 31
0.0
  0
LINE
  5
FA
  8
0
  6
CONTINUOUS
 62
     7
 10
864.4233530360625
 20
1470.718990347159
 30
0.0
 11
864.4233530360625
 21
1470.218990347159
 31
0.0
  0
LINE
  5
FB
  8
0
  6
CONTINUOUS
 62
     7
 10
864.4233530360625
 20
1470.718990347159
 30
0.0
 11
865.4233530360625
 21
1470.718990347159
 31
0.0
  0
LINE
  5
FC
  8
0
  6
CONTINUOUS
 62
     7
 10
864.4233530360625
 20
1470.218990347159
 30
0.0
 11
865.4233530360625
 21
1470.218990347159
 31
0.0
  0
LINE
  5
FD
  8
0
  6
CONTINUOUS
 62
     7
 10
868.4233530360625
 20
1470.718990347159
 30
0.0
 11
868.4233530360625
 21
1470.218990347159
 31
0.0
  0
LINE
  5
FE
  8
0
  6
CONTINUOUS
 62
     7
 10
865.4233530360625
 20
1470.718990347159
 30
0.0
 11
868.4233530360625
 21
1470.718990347159
 31
0.0
  0
LINE
  5
FF
  8
0
  6
CONTINUOUS
 62
     7
 10
868.4233530360625
 20
1470.218990347159
 30
0.0
 11
865.4233530360625
 21
1470.218990347159
 31
0.0
  0
LINE
  5
100
  8
0
  6
CONTINUOUS
 62
     7
 10
864.4233530360625
 20
1457.718990347159
 30
0.0
 11
851.9233530360626
 21
1457.718990347159
 31
0.0
  0
LINE
  5
101
  8
0
  6
CONTINUOUS
 62
     7
 10
864.4233530360625
 20
1470.218990347159
 30
0.0
 11
864.4233530360625
 21
1457.718990347159
 31
0.0
  0
LINE
  5
102
  8
0
  6
CONTINUOUS
 62
     7
 10
865.4233530360626
 20
1007.218990347159
 30
0.0
 11
865.4233530360625
 21
1470.218990347159
 31
0.0
  0
LINE
  5
103
  8
0
  6
CONTINUOUS
 62
     7
 10
865.4233530360626
 20
1007.218990347159
 30
0.0
 11
850.4233530360626
 21
1007.218990347159
 31
0.0
  0
LINE
  5
104
  8
0
  6
CONTINUOUS
 62
     7
 10
850.4233530360626
 20
1007.218990347159
 30
0.0
 11
850.4233530360625
 21
1437.218990347159
 31
0.0
  0
LINE
  5
105
  8
0
  6
CONTINUOUS
 62
     7
 10
851.9233530360626
 20
1437.218990347159
 30
0.0
 11
850.4233530360625
 21
1437.218990347159
 31
0.0
  0
LINE
  5
106
  8
0
  6
CONTINUOUS
 62
     7
 10
851.9233530360626
 20
1457.718990347159
 30
0.0
 11
851.9233530360626
 21
1437.218990347159
 31
0.0
  0
LINE
  5
107
  8
0
  6
CONTINUOUS
 62
     7
 10
868.4233530360625
 20
1470.218990347159
 30
0.0
 11
868.4233530360626
 21
1007.218990347159
 31
0.0
  0
LINE
  5
108
  8
0
  6
CONTINUOUS
 62
     7
 10
868.4233530360626
 20
1007.218990347159
 30
0.0
 11
865.4233530360626
 21
1007.218990347159
 31
0.0
  0
LINE
  5
109
  8
0
  6
CONTINUOUS
 62
     7
 10
865.4233530360626
 20
1006.718990347159
 30
0.0
 11
865.4233530360626
 21
1007.218990347159
 31
0.0
  0
LINE
  5
10A
  8
0
  6
CONTINUOUS
 62
     7
 10
850.4233530360626
 20
1006.718990347159
 30
0.0
 11
850.4233530360626
 21
1007.218990347159
 31
0.0
  0
LINE
  5
10B
  8
0
  6
CONTINUOUS
 62
     7
 10
865.4233530360626
 20
1006.718990347159
 30
0.0
 11
850.4233530360626
 21
1006.718990347159
 31
0.0
  0
LINE
  5
10C
  8
0
  6
CONTINUOUS
 62
     7
 10
868.4233530360626
 20
1007.218990347159
 30
0.0
 11
868.4233530360626
 21
1006.718990347159
 31
0.0
  0
LINE
  5
10D
  8
0
  6
CONTINUOUS
 62
     7
 10
868.4233530360626
 20
1006.718990347159
 30
0.0
 11
865.4233530360626
 21
1006.718990347159
 31
0.0
  0
LINE
  5
10E
  8
0
  6
CONTINUOUS
 62
     7
 10
850.1233530360626
 20
1458.718990347159
 30
0.0
 11
850.3233530360626
 21
1458.718990347159
 31
0.0
  0
LINE
  5
10F
  8
0
  6
CONTINUOUS
 62
     7
 10
850.3233530360626
 20
1458.718990347159
 30
0.0
 11
850.3233530360626
 21
1437.918990347159
 31
0.0
  0
LINE
  5
110
  8
0
  6
CONTINUOUS
 62
     7
 10
850.1233530360626
 20
1437.918990347159
 30
0.0
 11
850.3233530360626
 21
1437.918990347159
 31
0.0
  0
LINE
  5
111
  8
0
  6
CONTINUOUS
 62
     7
 10
851.9233530360625
 20
1437.718990347159
 30
0.0
 11
851.7233530360625
 21
1437.918990347159
 31
0.0
  0
LINE
  5
112
  8
0
  6
CONTINUOUS
 62
     7
 10
851.7233530360625
 20
1437.918990347159
 30
0.0
 11
851.7233530360625
 21
1457.918990347159
 31
0.0
  0
LINE
  5
113
  8
0
  6
CONTINUOUS
 62
     7
 10
851.9233530360625
 20
1457.718990347159
 30
0.0
 11
851.7233530360625
 21
1457.918990347159
 31
0.0
  0
LINE
  5
114
  8
0
  6
CONTINUOUS
 62
     7
 10
850.3233530360626
 20
1437.718990347159
 30
0.0
 11
850.3233530360626
 21
1437.918990347159
 31
0.0
  0
ARC
  5
115
  8
0
  6
CONTINUOUS
 62
     7
 10
850.3233530360626
 20
1437.918990347159
 30
0.0
 40
0.2000000000000455
 50
180.0
 51
270.0000000000008
  0
LINE
  5
116
  8
0
  6
CONTINUOUS
 62
     7
 10
851.9233530360625
 20
1437.718990347159
 30
0.0
 11
850.3233530360626
 21
1437.718990347159
 31
0.0
  0
LINE
  5
117
  8
0
  6
CONTINUOUS
 62
     7
 10
850.3233530360626
 20
1437.918990347159
 30
0.0
 11
851.7233530360625
 21
1437.918990347159
 31
0.0
  0
ARC
  5
118
  8
0
  6
CONTINUOUS
 62
     7
 10
861.5065392660819
 20
1460.718990347159
 30
0.0
 40
1.200000000000054
 50
270.0000000000008
 51
355.0300534053228
  0
LINE
  5
119
  8
0
  6
CONTINUOUS
 62
     7
 10
863.5432162170262
 20
1470.288296903884
 30
0.0
 11
862.7020275983916
 21
1460.615030512072
 31
0.0
  0
ARC
  5
11A
  8
0
  6
CONTINUOUS
 62
     7
 10
864.3402084385658
 20
1470.218990347159
 30
0.0
 40
0.8000000000001677
 50
80.42341151893835
 51
175.0300534053046
  0
ARC
  5
11B
  8
0
  6
CONTINUOUS
 62
     7
 10
864.4233913619906
 20
1470.712022396067
 30
0.0
 40
0.3000000000003104
 50
43.62165296730249
 51
80.42341151895182
  0
LINE
  5
11C
  8
0
  6
CONTINUOUS
 62
     7
 10
864.2233530360626
 20
1470.918990347159
 30
0.0
 11
864.6405647195205
 21
1470.918990347159
 31
0.0
  0
LINE
  5
11D
  8
0
  6
CONTINUOUS
 62
     7
 10
864.2233530360626
 20
1457.918990347159
 30
0.0
 11
864.2233530360626
 21
1470.918990347159
 31
0.0
  0
LINE
  5
11E
  8
0
  6
CONTINUOUS
 62
     7
 10
851.7233530360625
 20
1457.918990347159
 30
0.0
 11
864.2233530360626
 21
1457.918990347159
 31
0.0
  0
ARC
  5
11F
  8
0
  6
CONTINUOUS
 62
     7
 10
851.1233530360624
 20
1458.718990347159
 30
0.0
 40
0.7999999999998408
 50
90.0
 51
180.0
  0
LINE
  5
120
  8
0
  6
CONTINUOUS
 62
     7
 10
861.5065392660819
 20
1459.518990347159
 30
0.0
 11
851.1233530360624
 21
1459.518990347159
 31
0.0
  0
ARC
  5
121
  8
0
  6
CONTINUOUS
 62
     7
 10
851.1233530360624
 20
1458.718990347159
 30
0.0
 40
0.9999999999998863
 50
90.0
 51
180.0
  0
LINE
  5
122
  8
0
  6
CONTINUOUS
 62
     7
 10
851.1233530360624
 20
1459.518990347159
 30
0.0
 11
851.1233530360624
 21
1459.718990347159
 31
0.0
  0
LINE
  5
123
  8
0
  6
CONTINUOUS
 62
     7
 10
851.1233530360624
 20
1459.718990347159
 30
0.0
 11
861.5065392660819
 21
1459.718990347159
 31
0.0
  0
LINE
  5
124
  8
0
  6
CONTINUOUS
 62
     7
 10
861.5065392660819
 20
1459.518990347159
 30
0.0
 11
861.5065392660819
 21
1459.718990347159
 31
0.0
  0
LINE
  5
125
  8
0
  6
CONTINUOUS
 62
     7
 10
864.4233530360625
 20
1457.718990347159
 30
0.0
 11
864.2233530360626
 21
1457.918990347159
 31
0.0
  0
LINE
  5
126
  8
0
  6
CONTINUOUS
 62
     7
 10
862.7020275983916
 20
1460.615030512072
 30
0.0
 11
862.5027795430067
 21
1460.632357151253
 31
0.0
  0
LINE
  5
127
  8
0
  6
CONTINUOUS
 62
     7
 10
862.5027795430067
 20
1460.632357151253
 30
0.0
 11
863.3439681616412
 21
1470.305623543065
 31
0.0
  0
LINE
  5
128
  8
0
  6
CONTINUOUS
 62
     7
 10
863.5432162170262
 20
1470.288296903884
 30
0.0
 11
863.3439681616412
 21
1470.305623543065
 31
0.0
  0
ARC
  5
129
  8
0
  6
CONTINUOUS
 62
     7
 10
861.5065392660819
 20
1460.718990347159
 30
0.0
 40
1.000000000000064
 50
270.0000000000008
 51
355.0300534053229
  0
ARC
  5
12A
  8
0
  6
CONTINUOUS
 62
     7
 10
864.3402084385658
 20
1470.218990347159
 30
0.0
 40
0.9999999999999388
 50
80.42341151893243
 51
175.030053405308
  0
LINE
  5
12B
  8
0
  6
CONTINUOUS
 62
     7
 10
864.4733011160455
 20
1471.007841625412
 30
0.0
 11
864.5065742854155
 21
1471.205054444975
 31
0.0
  0
LINE
  5
12C
  8
0
  6
CONTINUOUS
 62
     7
 10
864.4233530360625
 20
1470.718990347159
 30
0.0
 11
864.2233530360626
 21
1470.918990347159
 31
0.0
  0
POLYLINE
  5
12D
  8
0
  6
CONTINUOUS
 62
     7
 66
     1
 10
0.0
 20
0.0
 30
0.0
  0
VERTEX
  5
39E
  8
0
  6
CONTINUOUS
 62
     7
 10
864.6405647195205
 20
1470.918990347159
 30
0.0
  0
VERTEX
  5
39F
  8
0
  6
CONTINUOUS
 62
     7
 10
864.6469161794345
 20
1470.916232414982
 30
0.0
  0
VERTEX
  5
3A0
  8
0
  6
CONTINUOUS
 62
     7
 10
864.6532442407606
 20
1470.913405975234
 30
0.0
  0
VERTEX
  5
3A1
  8
0
  6
CONTINUOUS
 62
     7
 10
864.6595469193292
 20
1470.910510188071
 30
0.0
  0
VERTEX
  5
3A2
  8
0
  6
CONTINUOUS
 62
     7
 10
864.6658231224642
 20
1470.907547030688
 30
0.0
  0
VERTEX
  5
3A3
  8
0
  6
CONTINUOUS
 62
     7
 10
864.672071757489
 20
1470.904518480279
 30
0.0
  0
VERTEX
  5
3A4
  8
0
  6
CONTINUOUS
 62
     7
 10
864.6782917317274
 20
1470.90142651404
 30
0.0
  0
VERTEX
  5
3A5
  8
0
  6
CONTINUOUS
 62
     7
 10
864.6844819525027
 20
1470.898273109166
 30
0.0
  0
VERTEX
  5
3A6
  8
0
  6
CONTINUOUS
 62
     7
 10
864.6906413271383
 20
1470.89506024285
 30
0.0
  0
VERTEX
  5
3A7
  8
0
  6
CONTINUOUS
 62
     7
 10
864.696768762958
 20
1470.891789892289
 30
0.0
  0
VERTEX
  5
3A8
  8
0
  6
CONTINUOUS
 62
     7
 10
864.7028631672855
 20
1470.888464034678
 30
0.0
  0
VERTEX
  5
3A9
  8
0
  6
CONTINUOUS
 62
     7
 10
864.708923447444
 20
1470.885084647211
 30
0.0
  0
VERTEX
  5
3AA
  8
0
  6
CONTINUOUS
 62
     7
 10
864.7149485107572
 20
1470.881653707083
 30
0.0
  0
VERTEX
  5
3AB
  8
0
  6
CONTINUOUS
 62
     7
 10
864.7209372645485
 20
1470.87817319149
 30
0.0
  0
VERTEX
  5
3AC
  8
0
  6
CONTINUOUS
 62
     7
 10
864.7268886161415
 20
1470.874645077625
 30
0.0
  0
VERTEX
  5
3AD
  8
0
  6
CONTINUOUS
 62
     7
 10
864.7328014728602
 20
1470.871071342685
 30
0.0
  0
VERTEX
  5
3AE
  8
0
  6
CONTINUOUS
 62
     7
 10
864.7386747420275
 20
1470.867453963863
 30
0.0
  0
VERTEX
  5
3AF
  8
0
  6
CONTINUOUS
 62
     7
 10
864.7445073309673
 20
1470.863794918356
 30
0.0
  0
VERTEX
  5
3B0
  8
0
  6
CONTINUOUS
 62
     7
 10
864.7502981470027
 20
1470.860096183357
 30
0.0
  0
VERTEX
  5
3B1
  8
0
  6
CONTINUOUS
 62
     7
 10
864.7560460974578
 20
1470.856359736062
 30
0.0
  0
VERTEX
  5
3B2
  8
0
  6
CONTINUOUS
 62
     7
 10
864.7617500896558
 20
1470.852587553666
 30
0.0
  0
VERTEX
  5
3B3
  8
0
  6
CONTINUOUS
 62
     7
 10
864.7674090309205
 20
1470.848781613363
 30
0.0
  0
VERTEX
  5
3B4
  8
0
  6
CONTINUOUS
 62
     7
 10
864.7730218285751
 20
1470.844943892349
 30
0.0
  0
VERTEX
  5
3B5
  8
0
  6
CONTINUOUS
 62
     7
 10
864.7785873899435
 20
1470.841076367819
 30
0.0
  0
VERTEX
  5
3B6
  8
0
  6
CONTINUOUS
 62
     7
 10
864.7841046223491
 20
1470.837181016967
 30
0.0
  0
VERTEX
  5
3B7
  8
0
  6
CONTINUOUS
 62
     7
 10
864.7895723733683
 20
1470.833259894812
 30
0.0
  0
VERTEX
  5
3B8
  8
0
  6
CONTINUOUS
 62
     7
 10
864.7949884315677
 20
1470.829316435773
 30
0.0
  0
VERTEX
  5
3B9
  8
0
  6
CONTINUOUS
 62
     7
 10
864.8003496766777
 20
1470.825355258065
 30
0.0
  0
VERTEX
  5
3BA
  8
0
  6
CONTINUOUS
 62
     7
 10
864.8056529589364
 20
1470.82138101832
 30
0.0
  0
VERTEX
  5
3BB
  8
0
  6
CONTINUOUS
 62
     7
 10
864.8108951285815
 20
1470.817398373167
 30
0.0
  0
VERTEX
  5
3BC
  8
0
  6
CONTINUOUS
 62
     7
 10
864.8160730358509
 20
1470.813411979236
 30
0.0
  0
VERTEX
  5
3BD
  8
0
  6
CONTINUOUS
 62
     7
 10
864.8211835309831
 20
1470.809426493158
 30
0.0
  0
VERTEX
  5
3BE
  8
0
  6
CONTINUOUS
 62
     7
 10
864.8262234642156
 20
1470.805446571562
 30
0.0
  0
VERTEX
  5
3BF
  8
0
  6
CONTINUOUS
 62
     7
 10
864.8311896857863
 20
1470.80147687108
 30
0.0
  0
VERTEX
  5
3C0
  8
0
  6
CONTINUOUS
 62
     7
 10
864.8360790459335
 20
1470.797522048341
 30
0.0
  0
VERTEX
  5
3C1
  8
0
  6
CONTINUOUS
 62
     7
 10
864.8408883948947
 20
1470.793586759975
 30
0.0
  0
VERTEX
  5
3C2
  8
0
  6
CONTINUOUS
 62
     7
 10
864.8456145829083
 20
1470.789675662612
 30
0.0
  0
VERTEX
  5
3C3
  8
0
  6
CONTINUOUS
 62
     7
 10
864.8502544602121
 20
1470.785793412884
 30
0.0
  0
VERTEX
  5
3C4
  8
0
  6
CONTINUOUS
 62
     7
 10
864.854804877044
 20
1470.78194466742
 30
0.0
  0
VERTEX
  5
3C5
  8
0
  6
CONTINUOUS
 62
     7
 10
864.8592626827643
 20
1470.778134084163
 30
0.0
  0
VERTEX
  5
3C6
  8
0
  6
CONTINUOUS
 62
     7
 10
864.8636243473902
 20
1470.774366888342
 30
0.0
  0
VERTEX
  5
3C7
  8
0
  6
CONTINUOUS
 62
     7
 10
864.8678853709661
 20
1470.770649755732
 30
0.0
  0
VERTEX
  5
3C8
  8
0
  6
CONTINUOUS
 62
     7
 10
864.8720411007138
 20
1470.766989590641
 30
0.0
  0
VERTEX
  5
3C9
  8
0
  6
CONTINUOUS
 62
     7
 10
864.8760868838561
 20
1470.76339329738
 30
0.0
  0
VERTEX
  5
3CA
  8
0
  6
CONTINUOUS
 62
     7
 10
864.8800180676158
 20
1470.759867780257
 30
0.0
  0
VERTEX
  5
3CB
  8
0
  6
CONTINUOUS
 62
     7
 10
864.8838299992146
 20
1470.756419943583
 30
0.0
  0
VERTEX
  5
3CC
  8
0
  6
CONTINUOUS
 62
     7
 10
864.8875180258754
 20
1470.753056691667
 30
0.0
  0
VERTEX
  5
3CD
  8
0
  6
CONTINUOUS
 62
     7
 10
864.8910774948208
 20
1470.749784928819
 30
0.0
  0
VERTEX
  5
3CE
  8
0
  6
CONTINUOUS
 62
     7
 10
864.8945037532729
 20
1470.746611559348
 30
0.0
  0
VERTEX
  5
3CF
  8
0
  6
CONTINUOUS
 62
     7
 10
864.8977921484449
 20
1470.743543487574
 30
0.0
  0
VERTEX
  5
3D0
  8
0
  6
CONTINUOUS
 62
     7
 10
864.9009355181659
 20
1470.740590169415
 30
0.0
  0
VERTEX
  5
3D1
  8
0
  6
CONTINUOUS
 62
     7
 10
864.9039171295067
 20
1470.737770792557
 30
0.0
  0
VERTEX
  5
3D2
  8
0
  6
CONTINUOUS
 62
     7
 10
864.9067179681656
 20
1470.735106864438
 30
0.0
  0
VERTEX
  5
3D3
  8
0
  6
CONTINUOUS
 62
     7
 10
864.9093190198403
 20
1470.732619892498
 30
0.0
  0
VERTEX
  5
3D4
  8
0
  6
CONTINUOUS
 62
     7
 10
864.9117012702278
 20
1470.730331384174
 30
0.0
  0
VERTEX
  5
3D5
  8
0
  6
CONTINUOUS
 62
     7
 10
864.9138457050263
 20
1470.728262846906
 30
0.0
  0
VERTEX
  5
3D6
  8
0
  6
CONTINUOUS
 62
     7
 10
864.915733309933
 20
1470.726435788133
 30
0.0
  0
VERTEX
  5
3D7
  8
0
  6
CONTINUOUS
 62
     7
 10
864.9173464233872
 20
1470.724870340151
 30
0.0
  0
VERTEX
  5
3D8
  8
0
  6
CONTINUOUS
 62
     7
 10
864.9186954372071
 20
1470.723558117324
 30
0.0
  0
VERTEX
  5
3D9
  8
0
  6
CONTINUOUS
 62
     7
 10
864.9198171952357
 20
1470.722463843956
 30
0.0
  0
VERTEX
  5
3DA
  8
0
  6
CONTINUOUS
 62
     7
 10
864.920749573438
 20
1470.721551195138
 30
0.0
  0
VERTEX
  5
3DB
  8
0
  6
CONTINUOUS
 62
     7
 10
864.9215304477798
 20
1470.720783845959
 30
0.0
  0
VERTEX
  5
3DC
  8
0
  6
CONTINUOUS
 62
     7
 10
864.9221976942254
 20
1470.720125471509
 30
0.0
  0
VERTEX
  5
3DD
  8
0
  6
CONTINUOUS
 62
     7
 10
864.9227891887406
 20
1470.719539746879
 30
0.0
  0
VERTEX
  5
3DE
  8
0
  6
CONTINUOUS
 62
     7
 10
864.9233428072906
 20
1470.718990347159
 30
0.0
  0
SEQEND
  5
528
  8
0
  6
CONTINUOUS
 62
     7
  0
ARC
  5
12E
  8
0
  6
CONTINUOUS
 62
     7
 10
864.4233913619906
 20
1470.712022396067
 30
0.0
 40
0.5000000000000815
 50
0.7984942261496363
 51
80.4234115189346
  0
LINE
  5
12F
  8
0
  6
CONTINUOUS
 62
     7
 10
570.1233530360624
 20
1903.218990347159
 30
0.0
 11
849.1233530360624
 21
1903.218990347159
 31
0.0
  0
LINE
  5
130
  8
0
  6
CONTINUOUS
 62
     7
 10
849.1233530360628
 20
1005.218990347165
 30
0.0
 11
849.1233530360624
 21
1903.218990347159
 31
0.0
  0
LINE
  5
131
  8
0
  6
CONTINUOUS
 62
     7
 10
570.1233530360628
 20
1005.218990347166
 30
0.0
 11
570.1233530360624
 21
1903.218990347159
 31
0.0
  0
LINE
  5
132
  8
0
  6
CONTINUOUS
 62
     7
 10
570.1233530360628
 20
1005.218990347166
 30
0.0
 11
849.1233530360628
 21
1005.218990347165
 31
0.0
  0
LINE
  5
133
  8
0
  6
CONTINUOUS
 62
     7
 10
849.1233530360628
 20
1004.718990347165
 30
0.0
 11
849.1233530360628
 21
1005.218990347165
 31
0.0
  0
LINE
  5
134
  8
0
  6
CONTINUOUS
 62
     7
 10
849.1233530360628
 20
1004.718990347165
 30
0.0
 11
570.1233530360628
 21
1004.718990347165
 31
0.0
  0
LINE
  5
135
  8
0
  6
CONTINUOUS
 62
     7
 10
570.1233530360628
 20
1004.718990347165
 30
0.0
 11
570.1233530360628
 21
1005.218990347165
 31
0.0
  0
LINE
  5
136
  8
0
  6
CONTINUOUS
 62
     7
 10
849.1233530360624
 20
1004.718990347159
 30
0.0
 11
849.1233530360624
 21
1004.218990347159
 31
0.0
  0
LINE
  5
137
  8
0
  6
CONTINUOUS
 62
     7
 10
850.1233530360624
 20
1004.218990347159
 30
0.0
 11
850.1233530360624
 21
1004.718990347165
 31
0.0
  0
LINE
  5
138
  8
0
  6
CONTINUOUS
 62
     7
 10
850.1233530360624
 20
1004.218990347159
 30
0.0
 11
849.1233530360624
 21
1004.218990347159
 31
0.0
  0
LINE
  5
139
  8
0
  6
CONTINUOUS
 62
     7
 10
850.1233530360628
 20
1004.718990347165
 30
0.0
 11
850.1233530360624
 21
1903.718990347159
 31
0.0
  0
LINE
  5
13A
  8
0
  6
CONTINUOUS
 62
     7
 10
850.1233530360628
 20
1004.718990347165
 30
0.0
 11
849.1233530360628
 21
1004.718990347165
 31
0.0
  0
LINE
  5
13B
  8
0
  6
CONTINUOUS
 62
     7
 10
850.1233530360624
 20
1903.718990347159
 30
0.0
 11
849.1233530360624
 21
1903.718990347159
 31
0.0
  0
LINE
  5
13C
  8
0
  6
CONTINUOUS
 62
     7
 10
849.1233530360624
 20
1903.718990347159
 30
0.0
 11
849.1233530360628
 21
1004.718990347165
 31
0.0
  0
LINE
  5
13D
  8
0
  6
CONTINUOUS
 62
     7
 10
570.1233530360624
 20
1903.718990347159
 30
0.0
 11
570.1233530360624
 21
1903.218990347159
 31
0.0
  0
LINE
  5
13E
  8
0
  6
CONTINUOUS
 62
     7
 10
849.1233530360624
 20
1903.718990347159
 30
0.0
 11
570.1233530360624
 21
1903.718990347159
 31
0.0
  0
LINE
  5
13F
  8
0
  6
CONTINUOUS
 62
     7
 10
849.1233530360624
 20
1903.718990347159
 30
0.0
 11
849.1233530360624
 21
1903.218990347159
 31
0.0
  0
LINE
  5
140
  8
0
  6
CONTINUOUS
 62
     7
 10
570.1233530360624
 20
1004.218990347159
 30
0.0
 11
570.1233530360624
 21
1004.718990347159
 31
0.0
  0
LINE
  5
141
  8
0
  6
CONTINUOUS
 62
     7
 10
570.1233530360624
 20
1004.218990347159
 30
0.0
 11
849.1233530360624
 21
1004.218990347159
 31
0.0
  0
LINE
  5
142
  8
0
  6
CONTINUOUS
 62
     7
 10
3036.809651131405
 20
1470.718990347159
 30
0.0
 11
3036.809651131405
 21
1470.218990347159
 31
0.0
  0
LINE
  5
143
  8
0
  6
CONTINUOUS
 62
     7
 10
3036.809651131405
 20
1470.218990347159
 30
0.0
 11
3033.809651131405
 21
1470.218990347159
 31
0.0
  0
LINE
  5
144
  8
0
  6
CONTINUOUS
 62
     7
 10
3033.809651131405
 20
1470.218990347159
 30
0.0
 11
3033.809651131405
 21
1470.718990347159
 31
0.0
  0
LINE
  5
145
  8
0
  6
CONTINUOUS
 62
     7
 10
3033.809651131405
 20
1470.718990347159
 30
0.0
 11
3036.809651131405
 21
1470.718990347159
 31
0.0
  0
LINE
  5
146
  8
0
  6
CONTINUOUS
 62
     7
 10
3036.809651131405
 20
1470.218990347159
 30
0.0
 11
3037.809651131405
 21
1470.218990347159
 31
0.0
  0
LINE
  5
147
  8
0
  6
CONTINUOUS
 62
     7
 10
3037.809651131405
 20
1470.718990347159
 30
0.0
 11
3036.809651131405
 21
1470.718990347159
 31
0.0
  0
LINE
  5
148
  8
0
  6
CONTINUOUS
 62
     7
 10
3037.809651131405
 20
1470.718990347159
 30
0.0
 11
3037.809651131405
 21
1470.218990347159
 31
0.0
  0
LINE
  5
149
  8
0
  6
CONTINUOUS
 62
     7
 10
3036.809651131405
 20
1470.218990347159
 30
0.0
 11
3036.809651131405
 21
1007.218990347158
 31
0.0
  0
LINE
  5
14A
  8
0
  6
CONTINUOUS
 62
     7
 10
3036.809651131405
 20
1007.218990347158
 30
0.0
 11
3033.809651131405
 21
1007.218990347158
 31
0.0
  0
LINE
  5
14B
  8
0
  6
CONTINUOUS
 62
     7
 10
3033.809651131405
 20
1007.218990347158
 30
0.0
 11
3033.809651131405
 21
1470.218990347159
 31
0.0
  0
LINE
  5
14C
  8
0
  6
CONTINUOUS
 62
     7
 10
3037.809651131405
 20
1470.218990347159
 30
0.0
 11
3037.809651131405
 21
1457.718990347159
 31
0.0
  0
LINE
  5
14D
  8
0
  6
CONTINUOUS
 62
     7
 10
3037.809651131405
 20
1457.718990347159
 30
0.0
 11
3050.309651131405
 21
1457.718990347159
 31
0.0
  0
LINE
  5
14E
  8
0
  6
CONTINUOUS
 62
     7
 10
3050.309651131405
 20
1457.718990347159
 30
0.0
 11
3050.309651131405
 21
1437.218990347159
 31
0.0
  0
LINE
  5
14F
  8
0
  6
CONTINUOUS
 62
     7
 10
3050.309651131405
 20
1437.218990347159
 30
0.0
 11
3051.809651131405
 21
1437.218990347159
 31
0.0
  0
LINE
  5
150
  8
0
  6
CONTINUOUS
 62
     7
 10
3051.809651131405
 20
1007.218990347158
 30
0.0
 11
3051.809651131405
 21
1437.218990347159
 31
0.0
  0
LINE
  5
151
  8
0
  6
CONTINUOUS
 62
     7
 10
3051.809651131405
 20
1007.218990347158
 30
0.0
 11
3036.809651131405
 21
1007.218990347158
 31
0.0
  0
LINE
  5
152
  8
0
  6
CONTINUOUS
 62
     7
 10
3036.809651131405
 20
1007.218990347158
 30
0.0
 11
3036.809651131405
 21
1006.718990347159
 31
0.0
  0
LINE
  5
153
  8
0
  6
CONTINUOUS
 62
     7
 10
3036.809651131405
 20
1006.718990347159
 30
0.0
 11
3033.809651131405
 21
1006.718990347159
 31
0.0
  0
LINE
  5
154
  8
0
  6
CONTINUOUS
 62
     7
 10
3033.809651131405
 20
1006.718990347159
 30
0.0
 11
3033.809651131405
 21
1007.218990347158
 31
0.0
  0
LINE
  5
155
  8
0
  6
CONTINUOUS
 62
     7
 10
3051.809651131405
 20
1006.718990347159
 30
0.0
 11
3051.809651131405
 21
1007.218990347158
 31
0.0
  0
LINE
  5
156
  8
0
  6
CONTINUOUS
 62
     7
 10
3036.809651131405
 20
1006.718990347159
 30
0.0
 11
3051.809651131405
 21
1006.718990347159
 31
0.0
  0
LINE
  5
157
  8
0
  6
CONTINUOUS
 62
     7
 10
3037.592439447947
 20
1470.918990347158
 30
0.0
 11
3038.009651131405
 21
1470.918990347158
 31
0.0
  0
LINE
  5
158
  8
0
  6
CONTINUOUS
 62
     7
 10
3038.009651131405
 20
1470.918990347158
 30
0.0
 11
3037.809651131405
 21
1470.718990347158
 31
0.0
  0
POLYLINE
  5
159
  8
0
  6
CONTINUOUS
 62
     7
 66
     1
 10
0.0
 20
0.0
 30
0.0
  0
VERTEX
  5
3DF
  8
0
  6
CONTINUOUS
 62
     7
 10
3037.592439447947
 20
1470.918990347158
 30
0.0
  0
VERTEX
  5
3E0
  8
0
  6
CONTINUOUS
 62
     7
 10
3037.586087988032
 20
1470.91623241498
 30
0.0
  0
VERTEX
  5
3E1
  8
0
  6
CONTINUOUS
 62
     7
 10
3037.579759926707
 20
1470.913405975232
 30
0.0
  0
VERTEX
  5
3E2
  8
0
  6
CONTINUOUS
 62
     7
 10
3037.573457248138
 20
1470.910510188069
 30
0.0
  0
VERTEX
  5
3E3
  8
0
  6
CONTINUOUS
 62
     7
 10
3037.567181045004
 20
1470.907547030686
 30
0.0
  0
VERTEX
  5
3E4
  8
0
  6
CONTINUOUS
 62
     7
 10
3037.560932409978
 20
1470.904518480277
 30
0.0
  0
VERTEX
  5
3E5
  8
0
  6
CONTINUOUS
 62
     7
 10
3037.554712435739
 20
1470.901426514038
 30
0.0
  0
VERTEX
  5
3E6
  8
0
  6
CONTINUOUS
 62
     7
 10
3037.548522214965
 20
1470.898273109163
 30
0.0
  0
VERTEX
  5
3E7
  8
0
  6
CONTINUOUS
 62
     7
 10
3037.542362840329
 20
1470.895060242848
 30
0.0
  0
VERTEX
  5
3E8
  8
0
  6
CONTINUOUS
 62
     7
 10
3037.53623540451
 20
1470.891789892288
 30
0.0
  0
VERTEX
  5
3E9
  8
0
  6
CONTINUOUS
 62
     7
 10
3037.530141000182
 20
1470.888464034676
 30
0.0
  0
VERTEX
  5
3EA
  8
0
  6
CONTINUOUS
 62
     7
 10
3037.524080720023
 20
1470.885084647209
 30
0.0
  0
VERTEX
  5
3EB
  8
0
  6
CONTINUOUS
 62
     7
 10
3037.51805565671
 20
1470.881653707081
 30
0.0
  0
VERTEX
  5
3EC
  8
0
  6
CONTINUOUS
 62
     7
 10
3037.512066902919
 20
1470.878173191488
 30
0.0
  0
VERTEX
  5
3ED
  8
0
  6
CONTINUOUS
 62
     7
 10
3037.506115551325
 20
1470.874645077623
 30
0.0
  0
VERTEX
  5
3EE
  8
0
  6
CONTINUOUS
 62
     7
 10
3037.500202694607
 20
1470.871071342683
 30
0.0
  0
VERTEX
  5
3EF
  8
0
  6
CONTINUOUS
 62
     7
 10
3037.49432942544
 20
1470.867453963861
 30
0.0
  0
VERTEX
  5
3F0
  8
0
  6
CONTINUOUS
 62
     7
 10
3037.488496836501
 20
1470.863794918354
 30
0.0
  0
VERTEX
  5
3F1
  8
0
  6
CONTINUOUS
 62
     7
 10
3037.482706020464
 20
1470.860096183355
 30
0.0
  0
VERTEX
  5
3F2
  8
0
  6
CONTINUOUS
 62
     7
 10
3037.476958070009
 20
1470.85635973606
 30
0.0
  0
VERTEX
  5
3F3
  8
0
  6
CONTINUOUS
 62
     7
 10
3037.471254077811
 20
1470.852587553664
 30
0.0
  0
VERTEX
  5
3F4
  8
0
  6
CONTINUOUS
 62
     7
 10
3037.465595136547
 20
1470.848781613362
 30
0.0
  0
VERTEX
  5
3F5
  8
0
  6
CONTINUOUS
 62
     7
 10
3037.459982338893
 20
1470.844943892348
 30
0.0
  0
VERTEX
  5
3F6
  8
0
  6
CONTINUOUS
 62
     7
 10
3037.454416777524
 20
1470.841076367818
 30
0.0
  0
VERTEX
  5
3F7
  8
0
  6
CONTINUOUS
 62
     7
 10
3037.448899545118
 20
1470.837181016966
 30
0.0
  0
VERTEX
  5
3F8
  8
0
  6
CONTINUOUS
 62
     7
 10
3037.4434317941
 20
1470.833259894811
 30
0.0
  0
VERTEX
  5
3F9
  8
0
  6
CONTINUOUS
 62
     7
 10
3037.4380157359
 20
1470.829316435772
 30
0.0
  0
VERTEX
  5
3FA
  8
0
  6
CONTINUOUS
 62
     7
 10
3037.432654490789
 20
1470.825355258065
 30
0.0
  0
VERTEX
  5
3FB
  8
0
  6
CONTINUOUS
 62
     7
 10
3037.427351208531
 20
1470.821381018319
 30
0.0
  0
VERTEX
  5
3FC
  8
0
  6
CONTINUOUS
 62
     7
 10
3037.422109038886
 20
1470.817398373166
 30
0.0
  0
VERTEX
  5
3FD
  8
0
  6
CONTINUOUS
 62
     7
 10
3037.416931131616
 20
1470.813411979235
 30
0.0
  0
VERTEX
  5
3FE
  8
0
  6
CONTINUOUS
 62
     7
 10
3037.411820636484
 20
1470.809426493156
 30
0.0
  0
VERTEX
  5
3FF
  8
0
  6
CONTINUOUS
 62
     7
 10
3037.406780703252
 20
1470.805446571561
 30
0.0
  0
VERTEX
  5
400
  8
0
  6
CONTINUOUS
 62
     7
 10
3037.401814481681
 20
1470.801476871078
 30
0.0
  0
VERTEX
  5
401
  8
0
  6
CONTINUOUS
 62
     7
 10
3037.396925121534
 20
1470.797522048339
 30
0.0
  0
VERTEX
  5
402
  8
0
  6
CONTINUOUS
 62
     7
 10
3037.392115772573
 20
1470.793586759973
 30
0.0
  0
VERTEX
  5
403
  8
0
  6
CONTINUOUS
 62
     7
 10
3037.387389584559
 20
1470.789675662611
 30
0.0
  0
VERTEX
  5
404
  8
0
  6
CONTINUOUS
 62
     7
 10
3037.382749707255
 20
1470.785793412883
 30
0.0
  0
VERTEX
  5
405
  8
0
  6
CONTINUOUS
 62
     7
 10
3037.378199290423
 20
1470.781944667419
 30
0.0
  0
VERTEX
  5
406
  8
0
  6
CONTINUOUS
 62
     7
 10
3037.373741484703
 20
1470.778134084161
 30
0.0
  0
VERTEX
  5
407
  8
0
  6
CONTINUOUS
 62
     7
 10
3037.369379820077
 20
1470.774366888341
 30
0.0
  0
VERTEX
  5
408
  8
0
  6
CONTINUOUS
 62
     7
 10
3037.365118796501
 20
1470.770649755731
 30
0.0
  0
VERTEX
  5
409
  8
0
  6
CONTINUOUS
 62
     7
 10
3037.360963066753
 20
1470.76698959064
 30
0.0
  0
VERTEX
  5
40A
  8
0
  6
CONTINUOUS
 62
     7
 10
3037.356917283611
 20
1470.763393297379
 30
0.0
  0
VERTEX
  5
40B
  8
0
  6
CONTINUOUS
 62
     7
 10
3037.352986099851
 20
1470.759867780256
 30
0.0
  0
VERTEX
  5
40C
  8
0
  6
CONTINUOUS
 62
     7
 10
3037.349174168253
 20
1470.756419943582
 30
0.0
  0
VERTEX
  5
40D
  8
0
  6
CONTINUOUS
 62
     7
 10
3037.345486141591
 20
1470.753056691666
 30
0.0
  0
VERTEX
  5
40E
  8
0
  6
CONTINUOUS
 62
     7
 10
3037.341926672646
 20
1470.749784928817
 30
0.0
  0
VERTEX
  5
40F
  8
0
  6
CONTINUOUS
 62
     7
 10
3037.338500414193
 20
1470.746611559347
 30
0.0
  0
VERTEX
  5
410
  8
0
  6
CONTINUOUS
 62
     7
 10
3037.335212019022
 20
1470.743543487572
 30
0.0
  0
VERTEX
  5
411
  8
0
  6
CONTINUOUS
 62
     7
 10
3037.332068649301
 20
1470.740590169414
 30
0.0
  0
VERTEX
  5
412
  8
0
  6
CONTINUOUS
 62
     7
 10
3037.32908703796
 20
1470.737770792555
 30
0.0
  0
VERTEX
  5
413
  8
0
  6
CONTINUOUS
 62
     7
 10
3037.326286199301
 20
1470.735106864437
 30
0.0
  0
VERTEX
  5
414
  8
0
  6
CONTINUOUS
 62
     7
 10
3037.323685147626
 20
1470.732619892496
 30
0.0
  0
VERTEX
  5
415
  8
0
  6
CONTINUOUS
 62
     7
 10
3037.321302897239
 20
1470.730331384173
 30
0.0
  0
VERTEX
  5
416
  8
0
  6
CONTINUOUS
 62
     7
 10
3037.319158462441
 20
1470.728262846905
 30
0.0
  0
VERTEX
  5
417
  8
0
  6
CONTINUOUS
 62
     7
 10
3037.317270857534
 20
1470.726435788132
 30
0.0
  0
VERTEX
  5
418
  8
0
  6
CONTINUOUS
 62
     7
 10
3037.31565774408
 20
1470.72487034015
 30
0.0
  0
VERTEX
  5
419
  8
0
  6
CONTINUOUS
 62
     7
 10
3037.31430873026
 20
1470.723558117323
 30
0.0
  0
VERTEX
  5
41A
  8
0
  6
CONTINUOUS
 62
     7
 10
3037.313186972232
 20
1470.722463843955
 30
0.0
  0
VERTEX
  5
41B
  8
0
  6
CONTINUOUS
 62
     7
 10
3037.312254594029
 20
1470.721551195136
 30
0.0
  0
VERTEX
  5
41C
  8
0
  6
CONTINUOUS
 62
     7
 10
3037.311473719688
 20
1470.720783845957
 30
0.0
  0
VERTEX
  5
41D
  8
0
  6
CONTINUOUS
 62
     7
 10
3037.310806473242
 20
1470.720125471508
 30
0.0
  0
VERTEX
  5
41E
  8
0
  6
CONTINUOUS
 62
     7
 10
3037.310214978726
 20
1470.719539746878
 30
0.0
  0
VERTEX
  5
41F
  8
0
  6
CONTINUOUS
 62
     7
 10
3037.309661360177
 20
1470.718990347158
 30
0.0
  0
SEQEND
  5
529
  8
0
  6
CONTINUOUS
 62
     7
  0
ARC
  5
15A
  8
0
  6
CONTINUOUS
 62
     7
 10
3037.809612805476
 20
1470.712022396066
 30
0.0
 40
0.300000000000124
 50
99.57658848109824
 51
136.3783470326676
  0
ARC
  5
15B
  8
0
  6
CONTINUOUS
 62
     7
 10
3037.809612805476
 20
1470.712022396066
 30
0.0
 40
0.4999999999998573
 50
99.57658848106976
 51
179.2015057738761
  0
LINE
  5
15C
  8
0
  6
CONTINUOUS
 62
     7
 10
3037.759703051421
 20
1471.007841625411
 30
0.0
 11
3037.726429882051
 21
1471.205054444974
 31
0.0
  0
LINE
  5
15D
  8
0
  6
CONTINUOUS
 62
     7
 10
3038.009651131405
 20
1470.918990347158
 30
0.0
 11
3038.009651131405
 21
1457.918990347158
 31
0.0
  0
LINE
  5
15E
  8
0
  6
CONTINUOUS
 62
     7
 10
3038.009651131405
 20
1457.918990347158
 30
0.0
 11
3037.809651131405
 21
1457.718990347158
 31
0.0
  0
ARC
  5
15F
  8
0
  6
CONTINUOUS
 62
     7
 10
3040.726464901385
 20
1460.718990347158
 30
0.0
 40
1.0
 50
184.9699465946793
 51
270.0000000000008
  0
LINE
  5
160
  8
0
  6
CONTINUOUS
 62
     7
 10
3040.726464901385
 20
1459.718990347158
 30
0.0
 11
3040.726464901385
 21
1459.518990347158
 31
0.0
  0
ARC
  5
161
  8
0
  6
CONTINUOUS
 62
     7
 10
3040.726464901385
 20
1460.718990347158
 30
0.0
 40
1.199999999999941
 50
184.9699465946793
 51
270.0000000000008
  0
LINE
  5
162
  8
0
  6
CONTINUOUS
 62
     7
 10
3039.73022462446
 20
1460.632357151252
 30
0.0
 11
3039.530976569075
 21
1460.61503051207
 31
0.0
  0
LINE
  5
163
  8
0
  6
CONTINUOUS
 62
     7
 10
3052.109651131404
 20
1437.918990347158
 30
0.0
 11
3051.909651131405
 21
1437.918990347158
 31
0.0
  0
LINE
  5
164
  8
0
  6
CONTINUOUS
 62
     7
 10
3051.909651131405
 20
1437.918990347158
 30
0.0
 11
3051.909651131405
 21
1458.718990347158
 31
0.0
  0
LINE
  5
165
  8
0
  6
CONTINUOUS
 62
     7
 10
3052.109651131404
 20
1458.718990347158
 30
0.0
 11
3051.909651131405
 21
1458.718990347158
 31
0.0
  0
ARC
  5
166
  8
0
  6
CONTINUOUS
 62
     7
 10
3037.892795728901
 20
1470.218990347158
 30
0.0
 40
0.8000000000002055
 50
4.969946594694715
 51
99.5765884810777
  0
ARC
  5
167
  8
0
  6
CONTINUOUS
 62
     7
 10
3037.892795728901
 20
1470.218990347158
 30
0.0
 40
1.000000000000424
 50
4.969946594689214
 51
99.57658848106757
  0
LINE
  5
168
  8
0
  6
CONTINUOUS
 62
     7
 10
3038.689787950441
 20
1470.288296903883
 30
0.0
 11
3038.889036005826
 21
1470.305623543064
 31
0.0
  0
LINE
  5
169
  8
0
  6
CONTINUOUS
 62
     7
 10
3040.726464901385
 20
1459.718990347158
 30
0.0
 11
3051.109651131404
 21
1459.718990347158
 31
0.0
  0
LINE
  5
16A
  8
0
  6
CONTINUOUS
 62
     7
 10
3051.109651131404
 20
1459.718990347158
 30
0.0
 11
3051.109651131404
 21
1459.518990347158
 31
0.0
  0
LINE
  5
16B
  8
0
  6
CONTINUOUS
 62
     7
 10
3051.109651131404
 20
1459.518990347158
 30
0.0
 11
3040.726464901385
 21
1459.518990347158
 31
0.0
  0
ARC
  5
16C
  8
0
  6
CONTINUOUS
 62
     7
 10
3051.109651131404
 20
1458.718990347158
 30
0.0
 40
1.0
 50
0.0
 51
90.0
  0
ARC
  5
16D
  8
0
  6
CONTINUOUS
 62
     7
 10
3051.109651131404
 20
1458.718990347158
 30
0.0
 40
0.8000000000001819
 50
0.0
 51
90.0
  0
LINE
  5
16E
  8
0
  6
CONTINUOUS
 62
     7
 10
3039.530976569075
 20
1460.61503051207
 30
0.0
 11
3038.689787950441
 21
1470.288296903883
 31
0.0
  0
LINE
  5
16F
  8
0
  6
CONTINUOUS
 62
     7
 10
3050.509651131405
 20
1437.918990347158
 30
0.0
 11
3051.909651131405
 21
1437.918990347158
 31
0.0
  0
LINE
  5
170
  8
0
  6
CONTINUOUS
 62
     7
 10
3050.509651131405
 20
1457.918990347158
 30
0.0
 11
3050.509651131405
 21
1437.918990347158
 31
0.0
  0
LINE
  5
171
  8
0
  6
CONTINUOUS
 62
     7
 10
3038.009651131405
 20
1457.918990347158
 30
0.0
 11
3050.509651131405
 21
1457.918990347158
 31
0.0
  0
LINE
  5
172
  8
0
  6
CONTINUOUS
 62
     7
 10
3038.889036005826
 20
1470.305623543064
 30
0.0
 11
3039.73022462446
 21
1460.632357151252
 31
0.0
  0
LINE
  5
173
  8
0
  6
CONTINUOUS
 62
     7
 10
3050.309651131404
 20
1437.718990347158
 30
0.0
 11
3050.509651131405
 21
1437.918990347158
 31
0.0
  0
LINE
  5
174
  8
0
  6
CONTINUOUS
 62
     7
 10
3050.509651131405
 20
1457.918990347158
 30
0.0
 11
3050.309651131404
 21
1457.718990347158
 31
0.0
  0
LINE
  5
175
  8
0
  6
CONTINUOUS
 62
     7
 10
3051.909651131405
 20
1437.718990347158
 30
0.0
 11
3051.909651131405
 21
1437.918990347158
 31
0.0
  0
ARC
  5
176
  8
0
  6
CONTINUOUS
 62
     7
 10
3051.909651131405
 20
1437.918990347158
 30
0.0
 40
0.2000000000000455
 50
270.0000000000008
 51
0.0
  0
LINE
  5
177
  8
0
  6
CONTINUOUS
 62
     7
 10
3051.909651131405
 20
1437.718990347158
 30
0.0
 11
3050.309651131404
 21
1437.718990347158
 31
0.0
  0
LINE
  5
178
  8
0
  6
CONTINUOUS
 62
     7
 10
3332.109651131405
 20
1004.718990347159
 30
0.0
 11
3053.109651131405
 21
1004.718990347159
 31
0.0
  0
LINE
  5
179
  8
0
  6
CONTINUOUS
 62
     7
 10
3053.109651131404
 20
1902.718990347153
 30
0.0
 11
3053.109651131405
 21
1004.718990347159
 31
0.0
  0
LINE
  5
17A
  8
0
  6
CONTINUOUS
 62
     7
 10
3332.109651131404
 20
1902.718990347153
 30
0.0
 11
3053.109651131404
 21
1902.718990347153
 31
0.0
  0
LINE
  5
17B
  8
0
  6
CONTINUOUS
 62
     7
 10
3332.109651131404
 20
1902.718990347153
 30
0.0
 11
3332.109651131405
 21
1004.718990347159
 31
0.0
  0
LINE
  5
17C
  8
0
  6
CONTINUOUS
 62
     7
 10
3053.109651131404
 20
1903.218990347153
 30
0.0
 11
3053.109651131404
 21
1902.718990347153
 31
0.0
  0
LINE
  5
17D
  8
0
  6
CONTINUOUS
 62
     7
 10
3053.109651131404
 20
1903.218990347153
 30
0.0
 11
3332.109651131404
 21
1903.218990347153
 31
0.0
  0
LINE
  5
17E
  8
0
  6
CONTINUOUS
 62
     7
 10
3332.109651131404
 20
1903.218990347153
 30
0.0
 11
3332.109651131404
 21
1902.718990347153
 31
0.0
  0
LINE
  5
17F
  8
0
  6
CONTINUOUS
 62
     7
 10
3052.109651131404
 20
1903.218990347153
 30
0.0
 11
3052.109651131405
 21
1004.218990347159
 31
0.0
  0
LINE
  5
180
  8
0
  6
CONTINUOUS
 62
     7
 10
3052.109651131404
 20
1903.218990347153
 30
0.0
 11
3053.109651131404
 21
1903.218990347153
 31
0.0
  0
LINE
  5
181
  8
0
  6
CONTINUOUS
 62
     7
 10
3052.109651131405
 20
1004.218990347159
 30
0.0
 11
3053.109651131405
 21
1004.218990347159
 31
0.0
  0
LINE
  5
182
  8
0
  6
CONTINUOUS
 62
     7
 10
3053.109651131405
 20
1004.218990347159
 30
0.0
 11
3053.109651131404
 21
1903.218990347153
 31
0.0
  0
LINE
  5
183
  8
0
  6
CONTINUOUS
 62
     7
 10
3052.109651131405
 20
1903.718990347159
 30
0.0
 11
3052.109651131405
 21
1903.218990347153
 31
0.0
  0
LINE
  5
184
  8
0
  6
CONTINUOUS
 62
     7
 10
3053.109651131405
 20
1903.218990347153
 30
0.0
 11
3053.109651131405
 21
1903.718990347159
 31
0.0
  0
LINE
  5
185
  8
0
  6
CONTINUOUS
 62
     7
 10
3052.109651131405
 20
1903.718990347159
 30
0.0
 11
3053.109651131405
 21
1903.718990347159
 31
0.0
  0
LINE
  5
186
  8
0
  6
CONTINUOUS
 62
     7
 10
3332.109651131405
 20
1903.718990347159
 30
0.0
 11
3053.109651131405
 21
1903.718990347159
 31
0.0
  0
LINE
  5
187
  8
0
  6
CONTINUOUS
 62
     7
 10
3332.109651131405
 20
1903.718990347159
 30
0.0
 11
3332.109651131405
 21
1903.218990347159
 31
0.0
  0
LINE
  5
188
  8
0
  6
CONTINUOUS
 62
     7
 10
3053.109651131405
 20
1004.218990347159
 30
0.0
 11
3053.109651131405
 21
1004.718990347159
 31
0.0
  0
LINE
  5
189
  8
0
  6
CONTINUOUS
 62
     7
 10
3332.109651131405
 20
1004.218990347159
 30
0.0
 11
3332.109651131405
 21
1004.718990347159
 31
0.0
  0
LINE
  5
18A
  8
0
  6
CONTINUOUS
 62
     7
 10
3053.109651131405
 20
1004.218990347159
 30
0.0
 11
3332.109651131405
 21
1004.218990347159
 31
0.0
  0
ARC
  5
18B
  8
0
  6
CONTINUOUS
 62
     7
 10
2045.853897989349
 20
2671.645333935655
 30
0.0
 40
3.0
 50
270.0000000000008
 51
0.0
  0
LINE
  5
18C
  8
0
  6
CONTINUOUS
 62
     7
 10
1752.853897989349
 20
2672.428122252197
 30
0.0
 11
1752.853897989349
 21
2671.645333935655
 31
0.0
  0
LINE
  5
18D
  8
0
  6
CONTINUOUS
 62
     7
 10
2048.853897989349
 20
2672.428122252197
 30
0.0
 11
2048.853897989349
 21
2671.645333935655
 31
0.0
  0
LINE
  5
18E
  8
0
  6
CONTINUOUS
 62
     7
 10
2045.853897989349
 20
2668.645333935655
 30
0.0
 11
1755.853897989349
 21
2668.645333935655
 31
0.0
  0
ARC
  5
18F
  8
0
  6
CONTINUOUS
 62
     7
 10
1755.853897989349
 20
2671.645333935655
 30
0.0
 40
3.0
 50
180.0
 51
270.0000000000008
  0
ARC
  5
190
  8
0
  6
CONTINUOUS
 62
     7
 10
2344.353897989349
 20
2671.645333935655
 30
0.0
 40
3.0
 50
270.0000000000008
 51
0.0
  0
LINE
  5
191
  8
0
  6
CONTINUOUS
 62
     7
 10
2347.353897989349
 20
2672.428122252197
 30
0.0
 11
2347.353897989349
 21
2671.645333935655
 31
0.0
  0
LINE
  5
192
  8
0
  6
CONTINUOUS
 62
     7
 10
2051.353897989348
 20
2672.428122252197
 30
0.0
 11
2051.353897989348
 21
2671.645333935655
 31
0.0
  0
LINE
  5
193
  8
0
  6
CONTINUOUS
 62
     7
 10
2344.353897989349
 20
2668.645333935655
 30
0.0
 11
2054.353897989349
 21
2668.645333935655
 31
0.0
  0
ARC
  5
194
  8
0
  6
CONTINUOUS
 62
     7
 10
2054.353897989349
 20
2671.645333935655
 30
0.0
 40
3.000000000000455
 50
180.0
 51
270.0000000000008
  0
LINE
  5
195
  8
0
  6
CONTINUOUS
 62
     7
 10
2048.853897989349
 20
2673.525470754691
 30
0.0
 11
2048.853897989349
 21
2672.595385855672
 31
0.0
  0
ARC
  5
196
  8
0
  6
CONTINUOUS
 62
     7
 10
2048.702514109599
 20
2672.887610018086
 30
0.0
 40
0.3291079460408023
 50
261.5051279082169
 51
297.3859751206519
  0
LINE
  5
197
  8
0
  6
CONTINUOUS
 62
     7
 10
2048.653897989349
 20
2672.562112686302
 30
0.0
 11
2048.653897989349
 21
2673.724718810076
 31
0.0
  0
ARC
  5
198
  8
0
  6
CONTINUOUS
 62
     7
 10
2048.65427325488
 20
2673.52509407294
 30
0.0
 40
0.1996250898584911
 50
0.1081141022433542
 51
90.1077076222448
  0
LINE
  5
199
  8
0
  6
CONTINUOUS
 62
     7
 10
2048.653897989349
 20
2673.724718810076
 30
0.0
 11
2047.853897989349
 21
2673.724718810076
 31
0.0
  0
LINE
  5
19A
  8
0
  6
CONTINUOUS
 62
     7
 10
2048.653897989349
 20
2672.562112686302
 30
0.0
 11
2047.853897989349
 21
2672.562112686302
 31
0.0
  0
LINE
  5
19B
  8
0
  6
CONTINUOUS
 62
     7
 10
2047.853897989349
 20
2673.724718810076
 30
0.0
 11
2047.853897989349
 21
2672.562112686302
 31
0.0
  0
LINE
  5
19C
  8
0
  6
CONTINUOUS
 62
     7
 10
2048.653897989349
 20
2672.145344164427
 30
0.0
 11
2048.653897989349
 21
2672.562112686302
 31
0.0
  0
LINE
  5
19D
  8
0
  6
CONTINUOUS
 62
     7
 10
2048.653897989349
 20
2672.145344164427
 30
0.0
 11
2047.853897989349
 21
2672.145344164427
 31
0.0
  0
LINE
  5
19E
  8
0
  6
CONTINUOUS
 62
     7
 10
2047.853897989349
 20
2672.562112686302
 30
0.0
 11
2047.853897989349
 21
2672.145344164427
 31
0.0
  0
LINE
  5
19F
  8
0
  6
CONTINUOUS
 62
     7
 10
2048.853897989349
 20
2672.595385855672
 30
0.0
 11
2048.853897989349
 21
2672.428122252197
 31
0.0
  0
POLYLINE
  5
1A0
  8
0
  6
CONTINUOUS
 62
     7
 66
     1
 10
0.0
 20
0.0
 30
0.0
  0
VERTEX
  5
420
  8
0
  6
CONTINUOUS
 62
     7
 10
2048.853897989349
 20
2672.428122252197
 30
0.0
  0
VERTEX
  5
421
  8
0
  6
CONTINUOUS
 62
     7
 10
2048.853880552587
 20
2672.421770792282
 30
0.0
  0
VERTEX
  5
422
  8
0
  6
CONTINUOUS
 62
     7
 10
2048.853824754823
 20
2672.415442730957
 30
0.0
  0
VERTEX
  5
423
  8
0
  6
CONTINUOUS
 62
     7
 10
2048.853726153234
 20
2672.409140052388
 30
0.0
  0
VERTEX
  5
424
  8
0
  6
CONTINUOUS
 62
     7
 10
2048.853581717025
 20
2672.402863849254
 30
0.0
  0
VERTEX
  5
425
  8
0
  6
CONTINUOUS
 62
     7
 10
2048.853388415402
 20
2672.396615214229
 30
0.0
  0
VERTEX
  5
426
  8
0
  6
CONTINUOUS
 62
     7
 10
2048.853143217571
 20
2672.39039523999
 30
0.0
  0
VERTEX
  5
427
  8
0
  6
CONTINUOUS
 62
     7
 10
2048.852843092741
 20
2672.384205019215
 30
0.0
  0
VERTEX
  5
428
  8
0
  6
CONTINUOUS
 62
     7
 10
2048.852485010114
 20
2672.37804564458
 30
0.0
  0
VERTEX
  5
429
  8
0
  6
CONTINUOUS
 62
     7
 10
2048.8520659389
 20
2672.37191820876
 30
0.0
  0
VERTEX
  5
42A
  8
0
  6
CONTINUOUS
 62
     7
 10
2048.851582848302
 20
2672.365823804433
 30
0.0
  0
VERTEX
  5
42B
  8
0
  6
CONTINUOUS
 62
     7
 10
2048.851032707528
 20
2672.359763524274
 30
0.0
  0
VERTEX
  5
42C
  8
0
  6
CONTINUOUS
 62
     7
 10
2048.850412485784
 20
2672.353738460961
 30
0.0
  0
VERTEX
  5
42D
  8
0
  6
CONTINUOUS
 62
     7
 10
2048.849719152277
 20
2672.347749707169
 30
0.0
  0
VERTEX
  5
42E
  8
0
  6
CONTINUOUS
 62
     7
 10
2048.848949676211
 20
2672.341798355576
 30
0.0
  0
VERTEX
  5
42F
  8
0
  6
CONTINUOUS
 62
     7
 10
2048.848101026793
 20
2672.335885498857
 30
0.0
  0
VERTEX
  5
430
  8
0
  6
CONTINUOUS
 62
     7
 10
2048.847170173231
 20
2672.330012229691
 30
0.0
  0
VERTEX
  5
431
  8
0
  6
CONTINUOUS
 62
     7
 10
2048.846154084729
 20
2672.324179640751
 30
0.0
  0
VERTEX
  5
432
  8
0
  6
CONTINUOUS
 62
     7
 10
2048.845049730494
 20
2672.318388824715
 30
0.0
  0
VERTEX
  5
433
  8
0
  6
CONTINUOUS
 62
     7
 10
2048.843854079732
 20
2672.31264087426
 30
0.0
  0
VERTEX
  5
434
  8
0
  6
CONTINUOUS
 62
     7
 10
2048.84256410165
 20
2672.306936882061
 30
0.0
  0
VERTEX
  5
435
  8
0
  6
CONTINUOUS
 62
     7
 10
2048.841176765453
 20
2672.301277940797
 30
0.0
  0
VERTEX
  5
436
  8
0
  6
CONTINUOUS
 62
     7
 10
2048.839689040348
 20
2672.295665143143
 30
0.0
  0
VERTEX
  5
437
  8
0
  6
CONTINUOUS
 62
     7
 10
2048.83809789554
 20
2672.290099581774
 30
0.0
  0
VERTEX
  5
438
  8
0
  6
CONTINUOUS
 62
     7
 10
2048.836400300238
 20
2672.284582349368
 30
0.0
  0
VERTEX
  5
439
  8
0
  6
CONTINUOUS
 62
     7
 10
2048.834593211088
 20
2672.27911459835
 30
0.0
  0
VERTEX
  5
43A
  8
0
  6
CONTINUOUS
 62
     7
 10
2048.83267336218
 20
2672.27369854015
 30
0.0
  0
VERTEX
  5
43B
  8
0
  6
CONTINUOUS
 62
     7
 10
2048.830637296599
 20
2672.26833729504
 30
0.0
  0
VERTEX
  5
43C
  8
0
  6
CONTINUOUS
 62
     7
 10
2048.828481551233
 20
2672.263034012781
 30
0.0
  0
VERTEX
  5
43D
  8
0
  6
CONTINUOUS
 62
     7
 10
2048.826202662969
 20
2672.257791843136
 30
0.0
  0
VERTEX
  5
43E
  8
0
  6
CONTINUOUS
 62
     7
 10
2048.823797168696
 20
2672.252613935866
 30
0.0
  0
VERTEX
  5
43F
  8
0
  6
CONTINUOUS
 62
     7
 10
2048.821261605301
 20
2672.247503440734
 30
0.0
  0
VERTEX
  5
440
  8
0
  6
CONTINUOUS
 62
     7
 10
2048.818592509671
 20
2672.242463507503
 30
0.0
  0
VERTEX
  5
441
  8
0
  6
CONTINUOUS
 62
     7
 10
2048.815786418694
 20
2672.237497285932
 30
0.0
  0
VERTEX
  5
442
  8
0
  6
CONTINUOUS
 62
     7
 10
2048.812839869259
 20
2672.232607925784
 30
0.0
  0
VERTEX
  5
443
  8
0
  6
CONTINUOUS
 62
     7
 10
2048.809749398252
 20
2672.227798576823
 30
0.0
  0
VERTEX
  5
444
  8
0
  6
CONTINUOUS
 62
     7
 10
2048.806511542562
 20
2672.223072388809
 30
0.0
  0
VERTEX
  5
445
  8
0
  6
CONTINUOUS
 62
     7
 10
2048.803122839076
 20
2672.218432511505
 30
0.0
  0
VERTEX
  5
446
  8
0
  6
CONTINUOUS
 62
     7
 10
2048.799579824682
 20
2672.213882094674
 30
0.0
  0
VERTEX
  5
447
  8
0
  6
CONTINUOUS
 62
     7
 10
2048.795879037875
 20
2672.209424288953
 30
0.0
  0
VERTEX
  5
448
  8
0
  6
CONTINUOUS
 62
     7
 10
2048.792017712005
 20
2672.205062624327
 30
0.0
  0
VERTEX
  5
449
  8
0
  6
CONTINUOUS
 62
     7
 10
2048.787994857144
 20
2672.200801600752
 30
0.0
  0
VERTEX
  5
44A
  8
0
  6
CONTINUOUS
 62
     7
 10
2048.783809763296
 20
2672.196645871004
 30
0.0
  0
VERTEX
  5
44B
  8
0
  6
CONTINUOUS
 62
     7
 10
2048.779461720463
 20
2672.192600087861
 30
0.0
  0
VERTEX
  5
44C
  8
0
  6
CONTINUOUS
 62
     7
 10
2048.774950018646
 20
2672.188668904102
 30
0.0
  0
VERTEX
  5
44D
  8
0
  6
CONTINUOUS
 62
     7
 10
2048.77027394785
 20
2672.184856972503
 30
0.0
  0
VERTEX
  5
44E
  8
0
  6
CONTINUOUS
 62
     7
 10
2048.765432798074
 20
2672.181168945842
 30
0.0
  0
VERTEX
  5
44F
  8
0
  6
CONTINUOUS
 62
     7
 10
2048.760425859321
 20
2672.177609476896
 30
0.0
  0
VERTEX
  5
450
  8
0
  6
CONTINUOUS
 62
     7
 10
2048.755252421595
 20
2672.174183218444
 30
0.0
  0
VERTEX
  5
451
  8
0
  6
CONTINUOUS
 62
     7
 10
2048.749911774902
 20
2672.170894823272
 30
0.0
  0
VERTEX
  5
452
  8
0
  6
CONTINUOUS
 62
     7
 10
2048.744404432754
 20
2672.167751453552
 30
0.0
  0
VERTEX
  5
453
  8
0
  6
CONTINUOUS
 62
     7
 10
2048.738735575097
 20
2672.164769842211
 30
0.0
  0
VERTEX
  5
454
  8
0
  6
CONTINUOUS
 62
     7
 10
2048.732911494212
 20
2672.161969003551
 30
0.0
  0
VERTEX
  5
455
  8
0
  6
CONTINUOUS
 62
     7
 10
2048.726938482379
 20
2672.159367951877
 30
0.0
  0
VERTEX
  5
456
  8
0
  6
CONTINUOUS
 62
     7
 10
2048.72082283188
 20
2672.156985701489
 30
0.0
  0
VERTEX
  5
457
  8
0
  6
CONTINUOUS
 62
     7
 10
2048.714570834994
 20
2672.154841266691
 30
0.0
  0
VERTEX
  5
458
  8
0
  6
CONTINUOUS
 62
     7
 10
2048.708188784002
 20
2672.152953661784
 30
0.0
  0
VERTEX
  5
459
  8
0
  6
CONTINUOUS
 62
     7
 10
2048.70168320327
 20
2672.151340548331
 30
0.0
  0
VERTEX
  5
45A
  8
0
  6
CONTINUOUS
 62
     7
 10
2048.695065430198
 20
2672.14999153451
 30
0.0
  0
VERTEX
  5
45B
  8
0
  6
CONTINUOUS
 62
     7
 10
2048.688351340484
 20
2672.148869776482
 30
0.0
  0
VERTEX
  5
45C
  8
0
  6
CONTINUOUS
 62
     7
 10
2048.6815569869
 20
2672.147937398279
 30
0.0
  0
VERTEX
  5
45D
  8
0
  6
CONTINUOUS
 62
     7
 10
2048.674698422221
 20
2672.147156523939
 30
0.0
  0
VERTEX
  5
45E
  8
0
  6
CONTINUOUS
 62
     7
 10
2048.66779169922
 20
2672.146489277492
 30
0.0
  0
VERTEX
  5
45F
  8
0
  6
CONTINUOUS
 62
     7
 10
2048.660852870671
 20
2672.145897782977
 30
0.0
  0
VERTEX
  5
460
  8
0
  6
CONTINUOUS
 62
     7
 10
2048.653897989349
 20
2672.145344164427
 30
0.0
  0
SEQEND
  5
52A
  8
0
  6
CONTINUOUS
 62
     7
  0
LINE
  5
1A1
  8
0
  6
CONTINUOUS
 62
     7
 10
2048.653897989349
 20
2673.724718810076
 30
0.0
 11
2048.653897989349
 21
2674.56590742871
 31
0.0
  0
ARC
  5
1A2
  8
0
  6
CONTINUOUS
 62
     7
 10
2048.654273254881
 20
2674.366282691576
 30
0.0
 40
0.1996250898569106
 50
0.1081141018527795
 51
90.10770762276762
  0
LINE
  5
1A3
  8
0
  6
CONTINUOUS
 62
     7
 10
2048.853897989349
 20
2674.366659373326
 30
0.0
 11
2048.853897989349
 21
2673.525470754691
 31
0.0
  0
LINE
  5
1A4
  8
0
  6
CONTINUOUS
 62
     7
 10
2048.653897989349
 20
2674.56590742871
 30
0.0
 11
2047.853897989349
 21
2674.56590742871
 31
0.0
  0
LINE
  5
1A5
  8
0
  6
CONTINUOUS
 62
     7
 10
2047.853897989349
 20
2674.56590742871
 30
0.0
 11
2047.853897989349
 21
2673.724718810076
 31
0.0
  0
LINE
  5
1A6
  8
0
  6
CONTINUOUS
 62
     7
 10
2048.653897989349
 20
2674.56590742871
 30
0.0
 11
2048.653897989349
 21
2675.562147705636
 31
0.0
  0
LINE
  5
1A7
  8
0
  6
CONTINUOUS
 62
     7
 10
2048.653897989349
 20
2675.562147705636
 30
0.0
 11
2048.853897989349
 21
2675.562147705636
 31
0.0
  0
LINE
  5
1A8
  8
0
  6
CONTINUOUS
 62
     7
 10
2048.853897989349
 20
2675.562147705636
 30
0.0
 11
2048.853897989349
 21
2674.366659373326
 31
0.0
  0
LINE
  5
1A9
  8
0
  6
CONTINUOUS
 62
     7
 10
2047.853897989349
 20
2675.562147705636
 30
0.0
 11
2048.653897989349
 21
2675.562147705636
 31
0.0
  0
LINE
  5
1AA
  8
0
  6
CONTINUOUS
 62
     7
 10
2047.853897989349
 20
2675.562147705636
 30
0.0
 11
2047.853897989349
 21
2674.56590742871
 31
0.0
  0
LINE
  5
1AB
  8
0
  6
CONTINUOUS
 62
     7
 10
2048.653897989349
 20
2685.945333935655
 30
0.0
 11
2048.653897989349
 21
2686.945333935655
 31
0.0
  0
ARC
  5
1AC
  8
0
  6
CONTINUOUS
 62
     7
 10
2048.653897989349
 20
2686.745333935655
 30
0.0
 40
0.1999999999998181
 50
0.0
 51
90.0
  0
LINE
  5
1AD
  8
0
  6
CONTINUOUS
 62
     7
 10
2048.653897989349
 20
2685.945333935655
 30
0.0
 11
2048.853897989349
 21
2685.945333935655
 31
0.0
  0
LINE
  5
1AE
  8
0
  6
CONTINUOUS
 62
     7
 10
2048.853897989349
 20
2686.745333935655
 30
0.0
 11
2048.853897989349
 21
2685.945333935655
 31
0.0
  0
LINE
  5
1AF
  8
0
  6
CONTINUOUS
 62
     7
 10
2048.653897989349
 20
2685.945333935655
 30
0.0
 11
2047.853897989349
 21
2685.945333935655
 31
0.0
  0
LINE
  5
1B0
  8
0
  6
CONTINUOUS
 62
     7
 10
2047.853897989349
 20
2685.945333935655
 30
0.0
 11
2047.853897989349
 21
2686.945333935655
 31
0.0
  0
LINE
  5
1B1
  8
0
  6
CONTINUOUS
 62
     7
 10
2048.653897989349
 20
2675.562147705636
 30
0.0
 11
2048.653897989349
 21
2685.945333935655
 31
0.0
  0
LINE
  5
1B2
  8
0
  6
CONTINUOUS
 62
     7
 10
2048.853897989349
 20
2685.945333935655
 30
0.0
 11
2048.853897989349
 21
2675.562147705636
 31
0.0
  0
LINE
  5
1B3
  8
0
  6
CONTINUOUS
 62
     7
 10
2047.853897989349
 20
2685.945333935655
 30
0.0
 11
2047.853897989349
 21
2675.562147705636
 31
0.0
  0
LINE
  5
1B4
  8
0
  6
CONTINUOUS
 62
     7
 10
2346.353897989348
 20
2673.724718810076
 30
0.0
 11
2346.353897989348
 21
2672.562112686302
 31
0.0
  0
LINE
  5
1B5
  8
0
  6
CONTINUOUS
 62
     7
 10
2347.153897989348
 20
2673.724718810076
 30
0.0
 11
2346.353897989348
 21
2673.724718810076
 31
0.0
  0
LINE
  5
1B6
  8
0
  6
CONTINUOUS
 62
     7
 10
2347.153897989348
 20
2672.562112686302
 30
0.0
 11
2347.153897989348
 21
2673.724718810076
 31
0.0
  0
LINE
  5
1B7
  8
0
  6
CONTINUOUS
 62
     7
 10
2347.153897989348
 20
2672.562112686302
 30
0.0
 11
2346.353897989348
 21
2672.562112686302
 31
0.0
  0
LINE
  5
1B8
  8
0
  6
CONTINUOUS
 62
     7
 10
2347.353897989349
 20
2673.525470754691
 30
0.0
 11
2347.353897989349
 21
2672.595385855672
 31
0.0
  0
ARC
  5
1B9
  8
0
  6
CONTINUOUS
 62
     7
 10
2347.202514109598
 20
2672.887610018089
 30
0.0
 40
0.3291079460435125
 50
261.5051279083654
 51
297.3859751205741
  0
ARC
  5
1BA
  8
0
  6
CONTINUOUS
 62
     7
 10
2347.154273254879
 20
2673.52509407294
 30
0.0
 40
0.1996250898589466
 50
0.1081141023736279
 51
90.10770762224456
  0
LINE
  5
1BB
  8
0
  6
CONTINUOUS
 62
     7
 10
2347.153897989348
 20
2672.145344164427
 30
0.0
 11
2347.153897989348
 21
2672.562112686302
 31
0.0
  0
LINE
  5
1BC
  8
0
  6
CONTINUOUS
 62
     7
 10
2347.153897989348
 20
2672.145344164427
 30
0.0
 11
2346.353897989348
 21
2672.145344164427
 31
0.0
  0
LINE
  5
1BD
  8
0
  6
CONTINUOUS
 62
     7
 10
2346.353897989348
 20
2672.562112686302
 30
0.0
 11
2346.353897989348
 21
2672.145344164427
 31
0.0
  0
LINE
  5
1BE
  8
0
  6
CONTINUOUS
 62
     7
 10
2347.353897989349
 20
2672.595385855672
 30
0.0
 11
2347.353897989349
 21
2672.428122252197
 31
0.0
  0
POLYLINE
  5
1BF
  8
0
  6
CONTINUOUS
 62
     7
 66
     1
 10
0.0
 20
0.0
 30
0.0
  0
VERTEX
  5
461
  8
0
  6
CONTINUOUS
 62
     7
 10
2347.353897989349
 20
2672.428122252197
 30
0.0
  0
VERTEX
  5
462
  8
0
  6
CONTINUOUS
 62
     7
 10
2347.353880552586
 20
2672.421770792282
 30
0.0
  0
VERTEX
  5
463
  8
0
  6
CONTINUOUS
 62
     7
 10
2347.353824754823
 20
2672.415442730957
 30
0.0
  0
VERTEX
  5
464
  8
0
  6
CONTINUOUS
 62
     7
 10
2347.353726153233
 20
2672.409140052388
 30
0.0
  0
VERTEX
  5
465
  8
0
  6
CONTINUOUS
 62
     7
 10
2347.353581717025
 20
2672.402863849254
 30
0.0
  0
VERTEX
  5
466
  8
0
  6
CONTINUOUS
 62
     7
 10
2347.353388415402
 20
2672.396615214229
 30
0.0
  0
VERTEX
  5
467
  8
0
  6
CONTINUOUS
 62
     7
 10
2347.353143217571
 20
2672.390395239991
 30
0.0
  0
VERTEX
  5
468
  8
0
  6
CONTINUOUS
 62
     7
 10
2347.35284309274
 20
2672.384205019215
 30
0.0
  0
VERTEX
  5
469
  8
0
  6
CONTINUOUS
 62
     7
 10
2347.352485010114
 20
2672.37804564458
 30
0.0
  0
VERTEX
  5
46A
  8
0
  6
CONTINUOUS
 62
     7
 10
2347.3520659389
 20
2672.37191820876
 30
0.0
  0
VERTEX
  5
46B
  8
0
  6
CONTINUOUS
 62
     7
 10
2347.351582848302
 20
2672.365823804433
 30
0.0
  0
VERTEX
  5
46C
  8
0
  6
CONTINUOUS
 62
     7
 10
2347.351032707528
 20
2672.359763524274
 30
0.0
  0
VERTEX
  5
46D
  8
0
  6
CONTINUOUS
 62
     7
 10
2347.350412485785
 20
2672.353738460961
 30
0.0
  0
VERTEX
  5
46E
  8
0
  6
CONTINUOUS
 62
     7
 10
2347.349719152276
 20
2672.347749707169
 30
0.0
  0
VERTEX
  5
46F
  8
0
  6
CONTINUOUS
 62
     7
 10
2347.34894967621
 20
2672.341798355576
 30
0.0
  0
VERTEX
  5
470
  8
0
  6
CONTINUOUS
 62
     7
 10
2347.348101026793
 20
2672.335885498857
 30
0.0
  0
VERTEX
  5
471
  8
0
  6
CONTINUOUS
 62
     7
 10
2347.347170173231
 20
2672.330012229691
 30
0.0
  0
VERTEX
  5
472
  8
0
  6
CONTINUOUS
 62
     7
 10
2347.346154084729
 20
2672.324179640751
 30
0.0
  0
VERTEX
  5
473
  8
0
  6
CONTINUOUS
 62
     7
 10
2347.345049730494
 20
2672.318388824715
 30
0.0
  0
VERTEX
  5
474
  8
0
  6
CONTINUOUS
 62
     7
 10
2347.343854079732
 20
2672.31264087426
 30
0.0
  0
VERTEX
  5
475
  8
0
  6
CONTINUOUS
 62
     7
 10
2347.34256410165
 20
2672.306936882062
 30
0.0
  0
VERTEX
  5
476
  8
0
  6
CONTINUOUS
 62
     7
 10
2347.341176765453
 20
2672.301277940797
 30
0.0
  0
VERTEX
  5
477
  8
0
  6
CONTINUOUS
 62
     7
 10
2347.339689040348
 20
2672.295665143143
 30
0.0
  0
VERTEX
  5
478
  8
0
  6
CONTINUOUS
 62
     7
 10
2347.33809789554
 20
2672.290099581774
 30
0.0
  0
VERTEX
  5
479
  8
0
  6
CONTINUOUS
 62
     7
 10
2347.336400300238
 20
2672.284582349369
 30
0.0
  0
VERTEX
  5
47A
  8
0
  6
CONTINUOUS
 62
     7
 10
2347.334593211089
 20
2672.27911459835
 30
0.0
  0
VERTEX
  5
47B
  8
0
  6
CONTINUOUS
 62
     7
 10
2347.33267336218
 20
2672.27369854015
 30
0.0
  0
VERTEX
  5
47C
  8
0
  6
CONTINUOUS
 62
     7
 10
2347.330637296599
 20
2672.26833729504
 30
0.0
  0
VERTEX
  5
47D
  8
0
  6
CONTINUOUS
 62
     7
 10
2347.328481551233
 20
2672.263034012782
 30
0.0
  0
VERTEX
  5
47E
  8
0
  6
CONTINUOUS
 62
     7
 10
2347.32620266297
 20
2672.257791843136
 30
0.0
  0
VERTEX
  5
47F
  8
0
  6
CONTINUOUS
 62
     7
 10
2347.323797168696
 20
2672.252613935866
 30
0.0
  0
VERTEX
  5
480
  8
0
  6
CONTINUOUS
 62
     7
 10
2347.321261605301
 20
2672.247503440735
 30
0.0
  0
VERTEX
  5
481
  8
0
  6
CONTINUOUS
 62
     7
 10
2347.318592509671
 20
2672.242463507503
 30
0.0
  0
VERTEX
  5
482
  8
0
  6
CONTINUOUS
 62
     7
 10
2347.315786418695
 20
2672.237497285932
 30
0.0
  0
VERTEX
  5
483
  8
0
  6
CONTINUOUS
 62
     7
 10
2347.31283986926
 20
2672.232607925784
 30
0.0
  0
VERTEX
  5
484
  8
0
  6
CONTINUOUS
 62
     7
 10
2347.309749398253
 20
2672.227798576823
 30
0.0
  0
VERTEX
  5
485
  8
0
  6
CONTINUOUS
 62
     7
 10
2347.306511542562
 20
2672.22307238881
 30
0.0
  0
VERTEX
  5
486
  8
0
  6
CONTINUOUS
 62
     7
 10
2347.303122839076
 20
2672.218432511505
 30
0.0
  0
VERTEX
  5
487
  8
0
  6
CONTINUOUS
 62
     7
 10
2347.299579824682
 20
2672.213882094674
 30
0.0
  0
VERTEX
  5
488
  8
0
  6
CONTINUOUS
 62
     7
 10
2347.295879037875
 20
2672.209424288953
 30
0.0
  0
VERTEX
  5
489
  8
0
  6
CONTINUOUS
 62
     7
 10
2347.292017712005
 20
2672.205062624327
 30
0.0
  0
VERTEX
  5
48A
  8
0
  6
CONTINUOUS
 62
     7
 10
2347.287994857144
 20
2672.200801600752
 30
0.0
  0
VERTEX
  5
48B
  8
0
  6
CONTINUOUS
 62
     7
 10
2347.283809763296
 20
2672.196645871004
 30
0.0
  0
VERTEX
  5
48C
  8
0
  6
CONTINUOUS
 62
     7
 10
2347.279461720463
 20
2672.192600087862
 30
0.0
  0
VERTEX
  5
48D
  8
0
  6
CONTINUOUS
 62
     7
 10
2347.274950018646
 20
2672.188668904102
 30
0.0
  0
VERTEX
  5
48E
  8
0
  6
CONTINUOUS
 62
     7
 10
2347.27027394785
 20
2672.184856972503
 30
0.0
  0
VERTEX
  5
48F
  8
0
  6
CONTINUOUS
 62
     7
 10
2347.265432798073
 20
2672.181168945842
 30
0.0
  0
VERTEX
  5
490
  8
0
  6
CONTINUOUS
 62
     7
 10
2347.260425859321
 20
2672.177609476897
 30
0.0
  0
VERTEX
  5
491
  8
0
  6
CONTINUOUS
 62
     7
 10
2347.255252421595
 20
2672.174183218444
 30
0.0
  0
VERTEX
  5
492
  8
0
  6
CONTINUOUS
 62
     7
 10
2347.249911774902
 20
2672.170894823272
 30
0.0
  0
VERTEX
  5
493
  8
0
  6
CONTINUOUS
 62
     7
 10
2347.244404432754
 20
2672.167751453552
 30
0.0
  0
VERTEX
  5
494
  8
0
  6
CONTINUOUS
 62
     7
 10
2347.238735575097
 20
2672.164769842211
 30
0.0
  0
VERTEX
  5
495
  8
0
  6
CONTINUOUS
 62
     7
 10
2347.232911494212
 20
2672.161969003552
 30
0.0
  0
VERTEX
  5
496
  8
0
  6
CONTINUOUS
 62
     7
 10
2347.226938482379
 20
2672.159367951877
 30
0.0
  0
VERTEX
  5
497
  8
0
  6
CONTINUOUS
 62
     7
 10
2347.22082283188
 20
2672.15698570149
 30
0.0
  0
VERTEX
  5
498
  8
0
  6
CONTINUOUS
 62
     7
 10
2347.214570834994
 20
2672.154841266691
 30
0.0
  0
VERTEX
  5
499
  8
0
  6
CONTINUOUS
 62
     7
 10
2347.208188784001
 20
2672.152953661784
 30
0.0
  0
VERTEX
  5
49A
  8
0
  6
CONTINUOUS
 62
     7
 10
2347.201683203269
 20
2672.151340548331
 30
0.0
  0
VERTEX
  5
49B
  8
0
  6
CONTINUOUS
 62
     7
 10
2347.195065430198
 20
2672.14999153451
 30
0.0
  0
VERTEX
  5
49C
  8
0
  6
CONTINUOUS
 62
     7
 10
2347.188351340483
 20
2672.148869776482
 30
0.0
  0
VERTEX
  5
49D
  8
0
  6
CONTINUOUS
 62
     7
 10
2347.1815569869
 20
2672.147937398279
 30
0.0
  0
VERTEX
  5
49E
  8
0
  6
CONTINUOUS
 62
     7
 10
2347.174698422221
 20
2672.147156523939
 30
0.0
  0
VERTEX
  5
49F
  8
0
  6
CONTINUOUS
 62
     7
 10
2347.16779169922
 20
2672.146489277492
 30
0.0
  0
VERTEX
  5
4A0
  8
0
  6
CONTINUOUS
 62
     7
 10
2347.160852870671
 20
2672.145897782977
 30
0.0
  0
VERTEX
  5
4A1
  8
0
  6
CONTINUOUS
 62
     7
 10
2347.153897989348
 20
2672.145344164427
 30
0.0
  0
SEQEND
  5
52B
  8
0
  6
CONTINUOUS
 62
     7
  0
LINE
  5
1C0
  8
0
  6
CONTINUOUS
 62
     7
 10
2347.153897989348
 20
2673.724718810076
 30
0.0
 11
2347.153897989348
 21
2674.56590742871
 31
0.0
  0
ARC
  5
1C1
  8
0
  6
CONTINUOUS
 62
     7
 10
2347.154273254881
 20
2674.366282691575
 30
0.0
 40
0.1996250898575798
 50
0.1081141019828069
 51
90.10770762263685
  0
LINE
  5
1C2
  8
0
  6
CONTINUOUS
 62
     7
 10
2347.353897989349
 20
2674.366659373326
 30
0.0
 11
2347.353897989349
 21
2673.525470754691
 31
0.0
  0
LINE
  5
1C3
  8
0
  6
CONTINUOUS
 62
     7
 10
2347.153897989348
 20
2674.56590742871
 30
0.0
 11
2346.353897989348
 21
2674.56590742871
 31
0.0
  0
LINE
  5
1C4
  8
0
  6
CONTINUOUS
 62
     7
 10
2346.353897989348
 20
2674.56590742871
 30
0.0
 11
2346.353897989348
 21
2673.724718810076
 31
0.0
  0
LINE
  5
1C5
  8
0
  6
CONTINUOUS
 62
     7
 10
2347.153897989348
 20
2674.56590742871
 30
0.0
 11
2347.153897989348
 21
2675.562147705636
 31
0.0
  0
LINE
  5
1C6
  8
0
  6
CONTINUOUS
 62
     7
 10
2347.153897989348
 20
2675.562147705636
 30
0.0
 11
2347.353897989349
 21
2675.562147705636
 31
0.0
  0
LINE
  5
1C7
  8
0
  6
CONTINUOUS
 62
     7
 10
2347.353897989349
 20
2675.562147705636
 30
0.0
 11
2347.353897989349
 21
2674.366659373326
 31
0.0
  0
LINE
  5
1C8
  8
0
  6
CONTINUOUS
 62
     7
 10
2346.353897989348
 20
2675.562147705636
 30
0.0
 11
2347.153897989348
 21
2675.562147705636
 31
0.0
  0
LINE
  5
1C9
  8
0
  6
CONTINUOUS
 62
     7
 10
2346.353897989348
 20
2675.562147705636
 30
0.0
 11
2346.353897989348
 21
2674.56590742871
 31
0.0
  0
LINE
  5
1CA
  8
0
  6
CONTINUOUS
 62
     7
 10
2347.153897989348
 20
2675.562147705636
 30
0.0
 11
2347.153897989348
 21
2685.945333935655
 31
0.0
  0
LINE
  5
1CB
  8
0
  6
CONTINUOUS
 62
     7
 10
2347.153897989348
 20
2685.945333935655
 30
0.0
 11
2347.353897989349
 21
2685.945333935655
 31
0.0
  0
LINE
  5
1CC
  8
0
  6
CONTINUOUS
 62
     7
 10
2347.353897989349
 20
2685.945333935655
 30
0.0
 11
2347.353897989349
 21
2675.562147705636
 31
0.0
  0
LINE
  5
1CD
  8
0
  6
CONTINUOUS
 62
     7
 10
2347.153897989348
 20
2685.945333935655
 30
0.0
 11
2347.153897989348
 21
2686.945333935655
 31
0.0
  0
LINE
  5
1CE
  8
0
  6
CONTINUOUS
 62
     7
 10
2347.153897989348
 20
2685.945333935655
 30
0.0
 11
2346.353897989348
 21
2685.945333935655
 31
0.0
  0
LINE
  5
1CF
  8
0
  6
CONTINUOUS
 62
     7
 10
2346.353897989348
 20
2685.945333935655
 30
0.0
 11
2346.353897989348
 21
2686.945333935655
 31
0.0
  0
LINE
  5
1D0
  8
0
  6
CONTINUOUS
 62
     7
 10
2346.353897989348
 20
2685.945333935655
 30
0.0
 11
2346.353897989348
 21
2675.562147705636
 31
0.0
  0
ARC
  5
1D1
  8
0
  6
CONTINUOUS
 62
     7
 10
2347.153897989348
 20
2686.745333935655
 30
0.0
 40
0.2000000000002728
 50
0.0
 51
90.0
  0
LINE
  5
1D2
  8
0
  6
CONTINUOUS
 62
     7
 10
2347.353897989349
 20
2686.745333935655
 30
0.0
 11
2347.353897989349
 21
2685.945333935655
 31
0.0
  0
LINE
  5
1D3
  8
0
  6
CONTINUOUS
 62
     7
 10
2346.353897989348
 20
2673.724718810076
 30
0.0
 11
2052.353897989348
 21
2673.724718810077
 31
0.0
  0
LINE
  5
1D4
  8
0
  6
CONTINUOUS
 62
     7
 10
2346.353897989348
 20
2672.562112686302
 30
0.0
 11
2052.353897989348
 21
2672.562112686302
 31
0.0
  0
LINE
  5
1D5
  8
0
  6
CONTINUOUS
 62
     7
 10
2052.353897989348
 20
2672.562112686302
 30
0.0
 11
2052.353897989348
 21
2673.724718810077
 31
0.0
  0
LINE
  5
1D6
  8
0
  6
CONTINUOUS
 62
     7
 10
2346.353897989348
 20
2672.145344164427
 30
0.0
 11
2052.353897989348
 21
2672.145344164427
 31
0.0
  0
LINE
  5
1D7
  8
0
  6
CONTINUOUS
 62
     7
 10
2052.353897989348
 20
2672.145344164427
 30
0.0
 11
2052.353897989348
 21
2672.562112686302
 31
0.0
  0
LINE
  5
1D8
  8
0
  6
CONTINUOUS
 62
     7
 10
2346.353897989348
 20
2674.56590742871
 30
0.0
 11
2052.353897989348
 21
2674.565907428711
 31
0.0
  0
LINE
  5
1D9
  8
0
  6
CONTINUOUS
 62
     7
 10
2052.353897989348
 20
2673.724718810077
 30
0.0
 11
2052.353897989348
 21
2674.565907428711
 31
0.0
  0
LINE
  5
1DA
  8
0
  6
CONTINUOUS
 62
     7
 10
2052.353897989348
 20
2675.562147705636
 30
0.0
 11
2346.353897989348
 21
2675.562147705636
 31
0.0
  0
LINE
  5
1DB
  8
0
  6
CONTINUOUS
 62
     7
 10
2052.353897989348
 20
2674.565907428711
 30
0.0
 11
2052.353897989348
 21
2675.562147705636
 31
0.0
  0
LINE
  5
1DC
  8
0
  6
CONTINUOUS
 62
     7
 10
2346.353897989348
 20
2685.945333935655
 30
0.0
 11
2052.353897989348
 21
2685.945333935656
 31
0.0
  0
LINE
  5
1DD
  8
0
  6
CONTINUOUS
 62
     7
 10
2052.353897989348
 20
2686.945333935655
 30
0.0
 11
2052.353897989348
 21
2685.945333935656
 31
0.0
  0
LINE
  5
1DE
  8
0
  6
CONTINUOUS
 62
     7
 10
2052.353897989348
 20
2675.562147705636
 30
0.0
 11
2052.353897989348
 21
2685.945333935656
 31
0.0
  0
LINE
  5
1DF
  8
0
  6
CONTINUOUS
 62
     7
 10
2047.853897989349
 20
2673.724718810076
 30
0.0
 11
1753.853897989349
 21
2673.724718810076
 31
0.0
  0
LINE
  5
1E0
  8
0
  6
CONTINUOUS
 62
     7
 10
2047.853897989349
 20
2672.562112686302
 30
0.0
 11
1753.853897989349
 21
2672.562112686302
 31
0.0
  0
LINE
  5
1E1
  8
0
  6
CONTINUOUS
 62
     7
 10
1753.853897989349
 20
2672.562112686302
 30
0.0
 11
1753.853897989349
 21
2673.724718810076
 31
0.0
  0
LINE
  5
1E2
  8
0
  6
CONTINUOUS
 62
     7
 10
2047.853897989349
 20
2672.145344164427
 30
0.0
 11
1753.853897989349
 21
2672.145344164427
 31
0.0
  0
LINE
  5
1E3
  8
0
  6
CONTINUOUS
 62
     7
 10
1753.853897989349
 20
2672.145344164427
 30
0.0
 11
1753.853897989349
 21
2672.562112686302
 31
0.0
  0
LINE
  5
1E4
  8
0
  6
CONTINUOUS
 62
     7
 10
2047.853897989349
 20
2674.56590742871
 30
0.0
 11
1753.853897989349
 21
2674.565907428711
 31
0.0
  0
LINE
  5
1E5
  8
0
  6
CONTINUOUS
 62
     7
 10
1753.853897989349
 20
2673.724718810076
 30
0.0
 11
1753.853897989349
 21
2674.565907428711
 31
0.0
  0
LINE
  5
1E6
  8
0
  6
CONTINUOUS
 62
     7
 10
1753.853897989349
 20
2675.562147705636
 30
0.0
 11
2047.853897989349
 21
2675.562147705636
 31
0.0
  0
LINE
  5
1E7
  8
0
  6
CONTINUOUS
 62
     7
 10
1753.853897989349
 20
2674.565907428711
 30
0.0
 11
1753.853897989349
 21
2675.562147705636
 31
0.0
  0
LINE
  5
1E8
  8
0
  6
CONTINUOUS
 62
     7
 10
2047.853897989349
 20
2685.945333935655
 30
0.0
 11
1753.853897989349
 21
2685.945333935656
 31
0.0
  0
LINE
  5
1E9
  8
0
  6
CONTINUOUS
 62
     7
 10
1753.853897989349
 20
2675.562147705636
 30
0.0
 11
1753.853897989349
 21
2685.945333935656
 31
0.0
  0
LINE
  5
1EA
  8
0
  6
CONTINUOUS
 62
     7
 10
1753.853897989349
 20
2686.945333935655
 30
0.0
 11
1753.853897989349
 21
2685.945333935656
 31
0.0
  0
LINE
  5
1EB
  8
0
  6
CONTINUOUS
 62
     7
 10
1753.853897989349
 20
2672.562112686302
 30
0.0
 11
1753.053897989349
 21
2672.562112686302
 31
0.0
  0
LINE
  5
1EC
  8
0
  6
CONTINUOUS
 62
     7
 10
1753.053897989349
 20
2673.724718810076
 30
0.0
 11
1753.053897989349
 21
2672.562112686302
 31
0.0
  0
LINE
  5
1ED
  8
0
  6
CONTINUOUS
 62
     7
 10
1753.853897989349
 20
2673.724718810076
 30
0.0
 11
1753.053897989349
 21
2673.724718810076
 31
0.0
  0
LINE
  5
1EE
  8
0
  6
CONTINUOUS
 62
     7
 10
1752.853897989349
 20
2672.595385855672
 30
0.0
 11
1752.853897989349
 21
2673.525470754691
 31
0.0
  0
ARC
  5
1EF
  8
0
  6
CONTINUOUS
 62
     7
 10
1753.053522723817
 20
2673.525094072942
 30
0.0
 40
0.1996250898573516
 50
89.89229237749342
 51
179.8918858981476
  0
ARC
  5
1F0
  8
0
  6
CONTINUOUS
 62
     7
 10
1753.005281869099
 20
2672.887610018087
 30
0.0
 40
0.3291079460411849
 50
242.6140248793509
 51
278.4948720916947
  0
LINE
  5
1F1
  8
0
  6
CONTINUOUS
 62
     7
 10
1752.853897989349
 20
2672.428122252197
 30
0.0
 11
1752.853897989349
 21
2672.595385855672
 31
0.0
  0
LINE
  5
1F2
  8
0
  6
CONTINUOUS
 62
     7
 10
1753.053897989349
 20
2672.562112686302
 30
0.0
 11
1753.053897989349
 21
2672.145344164427
 31
0.0
  0
POLYLINE
  5
1F3
  8
0
  6
CONTINUOUS
 62
     7
 66
     1
 10
0.0
 20
0.0
 30
0.0
  0
VERTEX
  5
4A2
  8
0
  6
CONTINUOUS
 62
     7
 10
1752.853897989349
 20
2672.428122252197
 30
0.0
  0
VERTEX
  5
4A3
  8
0
  6
CONTINUOUS
 62
     7
 10
1752.853915426111
 20
2672.421770792283
 30
0.0
  0
VERTEX
  5
4A4
  8
0
  6
CONTINUOUS
 62
     7
 10
1752.853971223874
 20
2672.415442730958
 30
0.0
  0
VERTEX
  5
4A5
  8
0
  6
CONTINUOUS
 62
     7
 10
1752.854069825464
 20
2672.409140052389
 30
0.0
  0
VERTEX
  5
4A6
  8
0
  6
CONTINUOUS
 62
     7
 10
1752.854214261673
 20
2672.402863849255
 30
0.0
  0
VERTEX
  5
4A7
  8
0
  6
CONTINUOUS
 62
     7
 10
1752.854407563296
 20
2672.396615214229
 30
0.0
  0
VERTEX
  5
4A8
  8
0
  6
CONTINUOUS
 62
     7
 10
1752.854652761126
 20
2672.390395239991
 30
0.0
  0
VERTEX
  5
4A9
  8
0
  6
CONTINUOUS
 62
     7
 10
1752.854952885957
 20
2672.384205019216
 30
0.0
  0
VERTEX
  5
4AA
  8
0
  6
CONTINUOUS
 62
     7
 10
1752.855310968583
 20
2672.37804564458
 30
0.0
  0
VERTEX
  5
4AB
  8
0
  6
CONTINUOUS
 62
     7
 10
1752.855730039798
 20
2672.37191820876
 30
0.0
  0
VERTEX
  5
4AC
  8
0
  6
CONTINUOUS
 62
     7
 10
1752.856213130396
 20
2672.365823804433
 30
0.0
  0
VERTEX
  5
4AD
  8
0
  6
CONTINUOUS
 62
     7
 10
1752.856763271169
 20
2672.359763524275
 30
0.0
  0
VERTEX
  5
4AE
  8
0
  6
CONTINUOUS
 62
     7
 10
1752.857383492913
 20
2672.353738460961
 30
0.0
  0
VERTEX
  5
4AF
  8
0
  6
CONTINUOUS
 62
     7
 10
1752.858076826421
 20
2672.347749707169
 30
0.0
  0
VERTEX
  5
4B0
  8
0
  6
CONTINUOUS
 62
     7
 10
1752.858846302487
 20
2672.341798355576
 30
0.0
  0
VERTEX
  5
4B1
  8
0
  6
CONTINUOUS
 62
     7
 10
1752.859694951904
 20
2672.335885498858
 30
0.0
  0
VERTEX
  5
4B2
  8
0
  6
CONTINUOUS
 62
     7
 10
1752.860625805466
 20
2672.330012229691
 30
0.0
  0
VERTEX
  5
4B3
  8
0
  6
CONTINUOUS
 62
     7
 10
1752.861641893968
 20
2672.324179640751
 30
0.0
  0
VERTEX
  5
4B4
  8
0
  6
CONTINUOUS
 62
     7
 10
1752.862746248204
 20
2672.318388824715
 30
0.0
  0
VERTEX
  5
4B5
  8
0
  6
CONTINUOUS
 62
     7
 10
1752.863941898965
 20
2672.31264087426
 30
0.0
  0
VERTEX
  5
4B6
  8
0
  6
CONTINUOUS
 62
     7
 10
1752.865231877048
 20
2672.306936882062
 30
0.0
  0
VERTEX
  5
4B7
  8
0
  6
CONTINUOUS
 62
     7
 10
1752.866619213245
 20
2672.301277940797
 30
0.0
  0
VERTEX
  5
4B8
  8
0
  6
CONTINUOUS
 62
     7
 10
1752.86810693835
 20
2672.295665143142
 30
0.0
  0
VERTEX
  5
4B9
  8
0
  6
CONTINUOUS
 62
     7
 10
1752.869698083157
 20
2672.290099581774
 30
0.0
  0
VERTEX
  5
4BA
  8
0
  6
CONTINUOUS
 62
     7
 10
1752.87139567846
 20
2672.284582349369
 30
0.0
  0
VERTEX
  5
4BB
  8
0
  6
CONTINUOUS
 62
     7
 10
1752.87320276761
 20
2672.27911459835
 30
0.0
  0
VERTEX
  5
4BC
  8
0
  6
CONTINUOUS
 62
     7
 10
1752.875122616518
 20
2672.27369854015
 30
0.0
  0
VERTEX
  5
4BD
  8
0
  6
CONTINUOUS
 62
     7
 10
1752.877158682098
 20
2672.26833729504
 30
0.0
  0
VERTEX
  5
4BE
  8
0
  6
CONTINUOUS
 62
     7
 10
1752.879314427464
 20
2672.263034012781
 30
0.0
  0
VERTEX
  5
4BF
  8
0
  6
CONTINUOUS
 62
     7
 10
1752.881593315728
 20
2672.257791843137
 30
0.0
  0
VERTEX
  5
4C0
  8
0
  6
CONTINUOUS
 62
     7
 10
1752.883998810001
 20
2672.252613935867
 30
0.0
  0
VERTEX
  5
4C1
  8
0
  6
CONTINUOUS
 62
     7
 10
1752.886534373397
 20
2672.247503440735
 30
0.0
  0
VERTEX
  5
4C2
  8
0
  6
CONTINUOUS
 62
     7
 10
1752.889203469027
 20
2672.242463507502
 30
0.0
  0
VERTEX
  5
4C3
  8
0
  6
CONTINUOUS
 62
     7
 10
1752.892009560003
 20
2672.237497285932
 30
0.0
  0
VERTEX
  5
4C4
  8
0
  6
CONTINUOUS
 62
     7
 10
1752.894956109438
 20
2672.232607925784
 30
0.0
  0
VERTEX
  5
4C5
  8
0
  6
CONTINUOUS
 62
     7
 10
1752.898046580445
 20
2672.227798576823
 30
0.0
  0
VERTEX
  5
4C6
  8
0
  6
CONTINUOUS
 62
     7
 10
1752.901284436135
 20
2672.22307238881
 30
0.0
  0
VERTEX
  5
4C7
  8
0
  6
CONTINUOUS
 62
     7
 10
1752.904673139621
 20
2672.218432511506
 30
0.0
  0
VERTEX
  5
4C8
  8
0
  6
CONTINUOUS
 62
     7
 10
1752.908216154015
 20
2672.213882094673
 30
0.0
  0
VERTEX
  5
4C9
  8
0
  6
CONTINUOUS
 62
     7
 10
1752.911916940823
 20
2672.209424288954
 30
0.0
  0
VERTEX
  5
4CA
  8
0
  6
CONTINUOUS
 62
     7
 10
1752.915778266693
 20
2672.205062624328
 30
0.0
  0
VERTEX
  5
4CB
  8
0
  6
CONTINUOUS
 62
     7
 10
1752.919801121554
 20
2672.200801600752
 30
0.0
  0
VERTEX
  5
4CC
  8
0
  6
CONTINUOUS
 62
     7
 10
1752.923986215402
 20
2672.196645871004
 30
0.0
  0
VERTEX
  5
4CD
  8
0
  6
CONTINUOUS
 62
     7
 10
1752.928334258235
 20
2672.192600087862
 30
0.0
  0
VERTEX
  5
4CE
  8
0
  6
CONTINUOUS
 62
     7
 10
1752.932845960052
 20
2672.188668904103
 30
0.0
  0
VERTEX
  5
4CF
  8
0
  6
CONTINUOUS
 62
     7
 10
1752.937522030848
 20
2672.184856972503
 30
0.0
  0
VERTEX
  5
4D0
  8
0
  6
CONTINUOUS
 62
     7
 10
1752.942363180624
 20
2672.181168945842
 30
0.0
  0
VERTEX
  5
4D1
  8
0
  6
CONTINUOUS
 62
     7
 10
1752.947370119376
 20
2672.177609476897
 30
0.0
  0
VERTEX
  5
4D2
  8
0
  6
CONTINUOUS
 62
     7
 10
1752.952543557102
 20
2672.174183218445
 30
0.0
  0
VERTEX
  5
4D3
  8
0
  6
CONTINUOUS
 62
     7
 10
1752.957884203795
 20
2672.170894823273
 30
0.0
  0
VERTEX
  5
4D4
  8
0
  6
CONTINUOUS
 62
     7
 10
1752.963391545944
 20
2672.167751453552
 30
0.0
  0
VERTEX
  5
4D5
  8
0
  6
CONTINUOUS
 62
     7
 10
1752.969060403601
 20
2672.164769842211
 30
0.0
  0
VERTEX
  5
4D6
  8
0
  6
CONTINUOUS
 62
     7
 10
1752.974884484486
 20
2672.161969003552
 30
0.0
  0
VERTEX
  5
4D7
  8
0
  6
CONTINUOUS
 62
     7
 10
1752.980857496319
 20
2672.159367951878
 30
0.0
  0
VERTEX
  5
4D8
  8
0
  6
CONTINUOUS
 62
     7
 10
1752.986973146817
 20
2672.15698570149
 30
0.0
  0
VERTEX
  5
4D9
  8
0
  6
CONTINUOUS
 62
     7
 10
1752.993225143704
 20
2672.154841266691
 30
0.0
  0
VERTEX
  5
4DA
  8
0
  6
CONTINUOUS
 62
     7
 10
1752.999607194697
 20
2672.152953661785
 30
0.0
  0
VERTEX
  5
4DB
  8
0
  6
CONTINUOUS
 62
     7
 10
1753.006112775429
 20
2672.151340548331
 30
0.0
  0
VERTEX
  5
4DC
  8
0
  6
CONTINUOUS
 62
     7
 10
1753.0127305485
 20
2672.149991534511
 30
0.0
  0
VERTEX
  5
4DD
  8
0
  6
CONTINUOUS
 62
     7
 10
1753.019444638214
 20
2672.148869776482
 30
0.0
  0
VERTEX
  5
4DE
  8
0
  6
CONTINUOUS
 62
     7
 10
1753.026238991798
 20
2672.14793739828
 30
0.0
  0
VERTEX
  5
4DF
  8
0
  6
CONTINUOUS
 62
     7
 10
1753.033097556477
 20
2672.147156523939
 30
0.0
  0
VERTEX
  5
4E0
  8
0
  6
CONTINUOUS
 62
     7
 10
1753.040004279478
 20
2672.146489277492
 30
0.0
  0
VERTEX
  5
4E1
  8
0
  6
CONTINUOUS
 62
     7
 10
1753.046943108026
 20
2672.145897782977
 30
0.0
  0
VERTEX
  5
4E2
  8
0
  6
CONTINUOUS
 62
     7
 10
1753.053897989349
 20
2672.145344164427
 30
0.0
  0
SEQEND
  5
52C
  8
0
  6
CONTINUOUS
 62
     7
  0
LINE
  5
1F4
  8
0
  6
CONTINUOUS
 62
     7
 10
1753.853897989349
 20
2672.145344164427
 30
0.0
 11
1753.053897989349
 21
2672.145344164427
 31
0.0
  0
ARC
  5
1F5
  8
0
  6
CONTINUOUS
 62
     7
 10
1753.053522723817
 20
2674.366282691576
 30
0.0
 40
0.1996250898573637
 50
89.89229237749367
 51
179.8918858980171
  0
LINE
  5
1F6
  8
0
  6
CONTINUOUS
 62
     7
 10
1753.053897989349
 20
2674.565907428711
 30
0.0
 11
1753.053897989349
 21
2673.724718810076
 31
0.0
  0
LINE
  5
1F7
  8
0
  6
CONTINUOUS
 62
     7
 10
1752.853897989349
 20
2673.525470754691
 30
0.0
 11
1752.853897989349
 21
2674.366659373326
 31
0.0
  0
LINE
  5
1F8
  8
0
  6
CONTINUOUS
 62
     7
 10
1753.853897989349
 20
2674.565907428711
 30
0.0
 11
1753.053897989349
 21
2674.565907428711
 31
0.0
  0
LINE
  5
1F9
  8
0
  6
CONTINUOUS
 62
     7
 10
1752.853897989349
 20
2675.562147705636
 30
0.0
 11
1753.053897989349
 21
2675.562147705636
 31
0.0
  0
LINE
  5
1FA
  8
0
  6
CONTINUOUS
 62
     7
 10
1753.053897989349
 20
2675.562147705636
 30
0.0
 11
1753.053897989349
 21
2674.565907428711
 31
0.0
  0
LINE
  5
1FB
  8
0
  6
CONTINUOUS
 62
     7
 10
1752.853897989349
 20
2674.366659373326
 30
0.0
 11
1752.853897989349
 21
2675.562147705636
 31
0.0
  0
LINE
  5
1FC
  8
0
  6
CONTINUOUS
 62
     7
 10
1753.053897989349
 20
2675.562147705636
 30
0.0
 11
1753.853897989349
 21
2675.562147705636
 31
0.0
  0
LINE
  5
1FD
  8
0
  6
CONTINUOUS
 62
     7
 10
1753.853897989349
 20
2685.945333935656
 30
0.0
 11
1753.053897989349
 21
2685.945333935656
 31
0.0
  0
LINE
  5
1FE
  8
0
  6
CONTINUOUS
 62
     7
 10
1753.053897989349
 20
2686.945333935655
 30
0.0
 11
1753.053897989349
 21
2685.945333935656
 31
0.0
  0
LINE
  5
1FF
  8
0
  6
CONTINUOUS
 62
     7
 10
1753.053897989349
 20
2685.945333935656
 30
0.0
 11
1753.053897989349
 21
2675.562147705636
 31
0.0
  0
ARC
  5
200
  8
0
  6
CONTINUOUS
 62
     7
 10
1753.053897989349
 20
2686.745333935655
 30
0.0
 40
0.1999999999998181
 50
90.0
 51
180.0
  0
LINE
  5
201
  8
0
  6
CONTINUOUS
 62
     7
 10
1752.853897989349
 20
2685.945333935656
 30
0.0
 11
1753.053897989349
 21
2685.945333935656
 31
0.0
  0
LINE
  5
202
  8
0
  6
CONTINUOUS
 62
     7
 10
1752.853897989349
 20
2685.945333935656
 30
0.0
 11
1752.853897989349
 21
2686.745333935655
 31
0.0
  0
LINE
  5
203
  8
0
  6
CONTINUOUS
 62
     7
 10
1752.853897989349
 20
2675.562147705636
 30
0.0
 11
1752.853897989349
 21
2685.945333935656
 31
0.0
  0
LINE
  5
204
  8
0
  6
CONTINUOUS
 62
     7
 10
2051.353897989348
 20
2672.595385855672
 30
0.0
 11
2051.353897989348
 21
2673.525470754692
 31
0.0
  0
ARC
  5
205
  8
0
  6
CONTINUOUS
 62
     7
 10
2051.553522723818
 20
2673.52509407294
 30
0.0
 40
0.199625089859181
 50
89.8922923777557
 51
179.8918858974959
  0
LINE
  5
206
  8
0
  6
CONTINUOUS
 62
     7
 10
2051.553897989349
 20
2673.724718810077
 30
0.0
 11
2051.553897989349
 21
2672.562112686302
 31
0.0
  0
ARC
  5
207
  8
0
  6
CONTINUOUS
 62
     7
 10
2051.505281869099
 20
2672.887610018091
 30
0.0
 40
0.3291079460443332
 50
242.6140248795004
 51
278.4948720916129
  0
LINE
  5
208
  8
0
  6
CONTINUOUS
 62
     7
 10
2052.353897989348
 20
2672.562112686302
 30
0.0
 11
2051.553897989349
 21
2672.562112686302
 31
0.0
  0
LINE
  5
209
  8
0
  6
CONTINUOUS
 62
     7
 10
2052.353897989348
 20
2673.724718810077
 30
0.0
 11
2051.553897989349
 21
2673.724718810077
 31
0.0
  0
LINE
  5
20A
  8
0
  6
CONTINUOUS
 62
     7
 10
2051.353897989348
 20
2672.428122252197
 30
0.0
 11
2051.353897989348
 21
2672.595385855672
 31
0.0
  0
LINE
  5
20B
  8
0
  6
CONTINUOUS
 62
     7
 10
2051.553897989349
 20
2672.562112686302
 30
0.0
 11
2051.553897989349
 21
2672.145344164427
 31
0.0
  0
POLYLINE
  5
20C
  8
0
  6
CONTINUOUS
 62
     7
 66
     1
 10
0.0
 20
0.0
 30
0.0
  0
VERTEX
  5
4E3
  8
0
  6
CONTINUOUS
 62
     7
 10
2051.353897989348
 20
2672.428122252197
 30
0.0
  0
VERTEX
  5
4E4
  8
0
  6
CONTINUOUS
 62
     7
 10
2051.35391542611
 20
2672.421770792283
 30
0.0
  0
VERTEX
  5
4E5
  8
0
  6
CONTINUOUS
 62
     7
 10
2051.353971223873
 20
2672.415442730958
 30
0.0
  0
VERTEX
  5
4E6
  8
0
  6
CONTINUOUS
 62
     7
 10
2051.354069825463
 20
2672.409140052389
 30
0.0
  0
VERTEX
  5
4E7
  8
0
  6
CONTINUOUS
 62
     7
 10
2051.354214261672
 20
2672.402863849254
 30
0.0
  0
VERTEX
  5
4E8
  8
0
  6
CONTINUOUS
 62
     7
 10
2051.354407563295
 20
2672.396615214229
 30
0.0
  0
VERTEX
  5
4E9
  8
0
  6
CONTINUOUS
 62
     7
 10
2051.354652761125
 20
2672.390395239991
 30
0.0
  0
VERTEX
  5
4EA
  8
0
  6
CONTINUOUS
 62
     7
 10
2051.354952885956
 20
2672.384205019216
 30
0.0
  0
VERTEX
  5
4EB
  8
0
  6
CONTINUOUS
 62
     7
 10
2051.355310968582
 20
2672.37804564458
 30
0.0
  0
VERTEX
  5
4EC
  8
0
  6
CONTINUOUS
 62
     7
 10
2051.355730039797
 20
2672.371918208761
 30
0.0
  0
VERTEX
  5
4ED
  8
0
  6
CONTINUOUS
 62
     7
 10
2051.356213130395
 20
2672.365823804433
 30
0.0
  0
VERTEX
  5
4EE
  8
0
  6
CONTINUOUS
 62
     7
 10
2051.356763271168
 20
2672.359763524275
 30
0.0
  0
VERTEX
  5
4EF
  8
0
  6
CONTINUOUS
 62
     7
 10
2051.357383492913
 20
2672.353738460962
 30
0.0
  0
VERTEX
  5
4F0
  8
0
  6
CONTINUOUS
 62
     7
 10
2051.35807682642
 20
2672.347749707169
 30
0.0
  0
VERTEX
  5
4F1
  8
0
  6
CONTINUOUS
 62
     7
 10
2051.358846302486
 20
2672.341798355577
 30
0.0
  0
VERTEX
  5
4F2
  8
0
  6
CONTINUOUS
 62
     7
 10
2051.359694951904
 20
2672.335885498858
 30
0.0
  0
VERTEX
  5
4F3
  8
0
  6
CONTINUOUS
 62
     7
 10
2051.360625805466
 20
2672.330012229691
 30
0.0
  0
VERTEX
  5
4F4
  8
0
  6
CONTINUOUS
 62
     7
 10
2051.361641893968
 20
2672.324179640752
 30
0.0
  0
VERTEX
  5
4F5
  8
0
  6
CONTINUOUS
 62
     7
 10
2051.362746248203
 20
2672.318388824715
 30
0.0
  0
VERTEX
  5
4F6
  8
0
  6
CONTINUOUS
 62
     7
 10
2051.363941898965
 20
2672.312640874261
 30
0.0
  0
VERTEX
  5
4F7
  8
0
  6
CONTINUOUS
 62
     7
 10
2051.365231877047
 20
2672.306936882062
 30
0.0
  0
VERTEX
  5
4F8
  8
0
  6
CONTINUOUS
 62
     7
 10
2051.366619213245
 20
2672.301277940798
 30
0.0
  0
VERTEX
  5
4F9
  8
0
  6
CONTINUOUS
 62
     7
 10
2051.368106938349
 20
2672.295665143143
 30
0.0
  0
VERTEX
  5
4FA
  8
0
  6
CONTINUOUS
 62
     7
 10
2051.369698083156
 20
2672.290099581774
 30
0.0
  0
VERTEX
  5
4FB
  8
0
  6
CONTINUOUS
 62
     7
 10
2051.37139567846
 20
2672.284582349369
 30
0.0
  0
VERTEX
  5
4FC
  8
0
  6
CONTINUOUS
 62
     7
 10
2051.37320276761
 20
2672.27911459835
 30
0.0
  0
VERTEX
  5
4FD
  8
0
  6
CONTINUOUS
 62
     7
 10
2051.375122616517
 20
2672.27369854015
 30
0.0
  0
VERTEX
  5
4FE
  8
0
  6
CONTINUOUS
 62
     7
 10
2051.377158682099
 20
2672.268337295041
 30
0.0
  0
VERTEX
  5
4FF
  8
0
  6
CONTINUOUS
 62
     7
 10
2051.379314427465
 20
2672.263034012781
 30
0.0
  0
VERTEX
  5
500
  8
0
  6
CONTINUOUS
 62
     7
 10
2051.381593315728
 20
2672.257791843137
 30
0.0
  0
VERTEX
  5
501
  8
0
  6
CONTINUOUS
 62
     7
 10
2051.383998810001
 20
2672.252613935867
 30
0.0
  0
VERTEX
  5
502
  8
0
  6
CONTINUOUS
 62
     7
 10
2051.386534373397
 20
2672.247503440735
 30
0.0
  0
VERTEX
  5
503
  8
0
  6
CONTINUOUS
 62
     7
 10
2051.389203469027
 20
2672.242463507502
 30
0.0
  0
VERTEX
  5
504
  8
0
  6
CONTINUOUS
 62
     7
 10
2051.392009560003
 20
2672.237497285931
 30
0.0
  0
VERTEX
  5
505
  8
0
  6
CONTINUOUS
 62
     7
 10
2051.394956109438
 20
2672.232607925785
 30
0.0
  0
VERTEX
  5
506
  8
0
  6
CONTINUOUS
 62
     7
 10
2051.398046580445
 20
2672.227798576823
 30
0.0
  0
VERTEX
  5
507
  8
0
  6
CONTINUOUS
 62
     7
 10
2051.401284436135
 20
2672.22307238881
 30
0.0
  0
VERTEX
  5
508
  8
0
  6
CONTINUOUS
 62
     7
 10
2051.404673139621
 20
2672.218432511506
 30
0.0
  0
VERTEX
  5
509
  8
0
  6
CONTINUOUS
 62
     7
 10
2051.408216154015
 20
2672.213882094674
 30
0.0
  0
VERTEX
  5
50A
  8
0
  6
CONTINUOUS
 62
     7
 10
2051.411916940822
 20
2672.209424288954
 30
0.0
  0
VERTEX
  5
50B
  8
0
  6
CONTINUOUS
 62
     7
 10
2051.415778266693
 20
2672.205062624328
 30
0.0
  0
VERTEX
  5
50C
  8
0
  6
CONTINUOUS
 62
     7
 10
2051.419801121554
 20
2672.200801600752
 30
0.0
  0
VERTEX
  5
50D
  8
0
  6
CONTINUOUS
 62
     7
 10
2051.423986215402
 20
2672.196645871004
 30
0.0
  0
VERTEX
  5
50E
  8
0
  6
CONTINUOUS
 62
     7
 10
2051.428334258235
 20
2672.192600087862
 30
0.0
  0
VERTEX
  5
50F
  8
0
  6
CONTINUOUS
 62
     7
 10
2051.432845960051
 20
2672.188668904102
 30
0.0
  0
VERTEX
  5
510
  8
0
  6
CONTINUOUS
 62
     7
 10
2051.437522030848
 20
2672.184856972503
 30
0.0
  0
VERTEX
  5
511
  8
0
  6
CONTINUOUS
 62
     7
 10
2051.442363180623
 20
2672.181168945843
 30
0.0
  0
VERTEX
  5
512
  8
0
  6
CONTINUOUS
 62
     7
 10
2051.447370119376
 20
2672.177609476897
 30
0.0
  0
VERTEX
  5
513
  8
0
  6
CONTINUOUS
 62
     7
 10
2051.452543557102
 20
2672.174183218445
 30
0.0
  0
VERTEX
  5
514
  8
0
  6
CONTINUOUS
 62
     7
 10
2051.457884203795
 20
2672.170894823273
 30
0.0
  0
VERTEX
  5
515
  8
0
  6
CONTINUOUS
 62
     7
 10
2051.463391545944
 20
2672.167751453552
 30
0.0
  0
VERTEX
  5
516
  8
0
  6
CONTINUOUS
 62
     7
 10
2051.4690604036
 20
2672.164769842211
 30
0.0
  0
VERTEX
  5
517
  8
0
  6
CONTINUOUS
 62
     7
 10
2051.474884484485
 20
2672.161969003552
 30
0.0
  0
VERTEX
  5
518
  8
0
  6
CONTINUOUS
 62
     7
 10
2051.480857496318
 20
2672.159367951878
 30
0.0
  0
VERTEX
  5
519
  8
0
  6
CONTINUOUS
 62
     7
 10
2051.486973146817
 20
2672.15698570149
 30
0.0
  0
VERTEX
  5
51A
  8
0
  6
CONTINUOUS
 62
     7
 10
2051.493225143704
 20
2672.154841266692
 30
0.0
  0
VERTEX
  5
51B
  8
0
  6
CONTINUOUS
 62
     7
 10
2051.499607194696
 20
2672.152953661785
 30
0.0
  0
VERTEX
  5
51C
  8
0
  6
CONTINUOUS
 62
     7
 10
2051.506112775428
 20
2672.15134054833
 30
0.0
  0
VERTEX
  5
51D
  8
0
  6
CONTINUOUS
 62
     7
 10
2051.512730548499
 20
2672.149991534511
 30
0.0
  0
VERTEX
  5
51E
  8
0
  6
CONTINUOUS
 62
     7
 10
2051.519444638213
 20
2672.148869776482
 30
0.0
  0
VERTEX
  5
51F
  8
0
  6
CONTINUOUS
 62
     7
 10
2051.526238991798
 20
2672.14793739828
 30
0.0
  0
VERTEX
  5
520
  8
0
  6
CONTINUOUS
 62
     7
 10
2051.533097556477
 20
2672.147156523939
 30
0.0
  0
VERTEX
  5
521
  8
0
  6
CONTINUOUS
 62
     7
 10
2051.540004279477
 20
2672.146489277492
 30
0.0
  0
VERTEX
  5
522
  8
0
  6
CONTINUOUS
 62
     7
 10
2051.546943108026
 20
2672.145897782977
 30
0.0
  0
VERTEX
  5
523
  8
0
  6
CONTINUOUS
 62
     7
 10
2051.553897989349
 20
2672.145344164427
 30
0.0
  0
SEQEND
  5
52D
  8
0
  6
CONTINUOUS
 62
     7
  0
LINE
  5
20D
  8
0
  6
CONTINUOUS
 62
     7
 10
2052.353897989348
 20
2672.145344164427
 30
0.0
 11
2051.553897989349
 21
2672.145344164427
 31
0.0
  0
ARC
  5
20E
  8
0
  6
CONTINUOUS
 62
     7
 10
2051.553522723817
 20
2674.366282691575
 30
0.0
 40
0.199625089858274
 50
89.89229237736365
 51
179.8918858977562
  0
LINE
  5
20F
  8
0
  6
CONTINUOUS
 62
     7
 10
2051.553897989349
 20
2674.565907428711
 30
0.0
 11
2051.553897989349
 21
2673.724718810077
 31
0.0
  0
LINE
  5
210
  8
0
  6
CONTINUOUS
 62
     7
 10
2051.353897989348
 20
2673.525470754692
 30
0.0
 11
2051.353897989348
 21
2674.366659373326
 31
0.0
  0
LINE
  5
211
  8
0
  6
CONTINUOUS
 62
     7
 10
2052.353897989348
 20
2674.565907428711
 30
0.0
 11
2051.553897989349
 21
2674.565907428711
 31
0.0
  0
LINE
  5
212
  8
0
  6
CONTINUOUS
 62
     7
 10
2051.353897989348
 20
2675.562147705636
 30
0.0
 11
2051.553897989349
 21
2675.562147705636
 31
0.0
  0
LINE
  5
213
  8
0
  6
CONTINUOUS
 62
     7
 10
2051.553897989349
 20
2675.562147705636
 30
0.0
 11
2051.553897989349
 21
2674.565907428711
 31
0.0
  0
LINE
  5
214
  8
0
  6
CONTINUOUS
 62
     7
 10
2051.353897989348
 20
2674.366659373326
 30
0.0
 11
2051.353897989348
 21
2675.562147705636
 31
0.0
  0
LINE
  5
215
  8
0
  6
CONTINUOUS
 62
     7
 10
2051.553897989349
 20
2675.562147705636
 30
0.0
 11
2052.353897989348
 21
2675.562147705636
 31
0.0
  0
ARC
  5
216
  8
0
  6
CONTINUOUS
 62
     7
 10
2051.553897989349
 20
2686.745333935655
 30
0.0
 40
0.2000000000002728
 50
90.0
 51
180.0
  0
LINE
  5
217
  8
0
  6
CONTINUOUS
 62
     7
 10
2051.553897989349
 20
2686.945333935655
 30
0.0
 11
2051.553897989349
 21
2685.945333935656
 31
0.0
  0
LINE
  5
218
  8
0
  6
CONTINUOUS
 62
     7
 10
2051.353897989348
 20
2685.945333935656
 30
0.0
 11
2051.553897989349
 21
2685.945333935656
 31
0.0
  0
LINE
  5
219
  8
0
  6
CONTINUOUS
 62
     7
 10
2051.353897989348
 20
2685.945333935656
 30
0.0
 11
2051.353897989348
 21
2686.745333935655
 31
0.0
  0
LINE
  5
21A
  8
0
  6
CONTINUOUS
 62
     7
 10
2052.353897989348
 20
2685.945333935656
 30
0.0
 11
2051.553897989349
 21
2685.945333935656
 31
0.0
  0
LINE
  5
21B
  8
0
  6
CONTINUOUS
 62
     7
 10
2051.553897989349
 20
2685.945333935656
 30
0.0
 11
2051.553897989349
 21
2675.562147705636
 31
0.0
  0
LINE
  5
21C
  8
0
  6
CONTINUOUS
 62
     7
 10
2051.353897989348
 20
2675.562147705636
 30
0.0
 11
2051.353897989348
 21
2685.945333935656
 31
0.0
  0
LINE
  5
21D
  8
0
  6
CONTINUOUS
 62
     7
 10
2331.853897989349
 20
2688.445333935656
 30
0.0
 11
1768.353897989349
 21
2688.445333935656
 31
0.0
  0
LINE
  5
21E
  8
0
  6
CONTINUOUS
 62
     7
 10
2331.853897989349
 20
2966.945333935655
 30
0.0
 11
2331.853897989349
 21
2688.445333935656
 31
0.0
  0
LINE
  5
21F
  8
0
  6
CONTINUOUS
 62
     7
 10
2331.853897989349
 20
2966.945333935655
 30
0.0
 11
1768.353897989349
 21
2966.945333935655
 31
0.0
  0
LINE
  5
220
  8
0
  6
CONTINUOUS
 62
     7
 10
2331.853897989349
 20
2687.445333935655
 30
0.0
 11
2331.853897989349
 21
2688.445333935656
 31
0.0
  0
LINE
  5
221
  8
0
  6
CONTINUOUS
 62
     7
 10
2331.853897989349
 20
2687.445333935655
 30
0.0
 11
1768.353897989349
 21
2687.445333935655
 31
0.0
  0
LINE
  5
222
  8
0
  6
CONTINUOUS
 62
     7
 10
2331.853897989349
 20
2686.945333935655
 30
0.0
 11
1768.353897989349
 21
2686.945333935655
 31
0.0
  0
LINE
  5
223
  8
0
  6
CONTINUOUS
 62
     7
 10
2331.853897989349
 20
2687.945333935654
 30
0.0
 11
2349.353897989348
 21
2687.945333935654
 31
0.0
  0
LINE
  5
224
  8
0
  6
CONTINUOUS
 62
     7
 10
2331.853897989349
 20
2966.945333935654
 30
0.0
 11
2331.853897989349
 21
2687.945333935654
 31
0.0
  0
LINE
  5
225
  8
0
  6
CONTINUOUS
 62
     7
 10
2349.353897989348
 20
2966.945333935654
 30
0.0
 11
2331.853897989349
 21
2966.945333935654
 31
0.0
  0
LINE
  5
226
  8
0
  6
CONTINUOUS
 62
     7
 10
2349.353897989348
 20
2687.945333935654
 30
0.0
 11
2349.353897989348
 21
2966.945333935654
 31
0.0
  0
LINE
  5
227
  8
0
  6
CONTINUOUS
 62
     7
 10
2349.353897989348
 20
2686.945333935654
 30
0.0
 11
2349.353897989348
 21
2687.945333935654
 31
0.0
  0
LINE
  5
228
  8
0
  6
CONTINUOUS
 62
     7
 10
2331.853897989348
 20
2686.945333935654
 30
0.0
 11
2349.353897989348
 21
2686.945333935654
 31
0.0
  0
LINE
  5
229
  8
0
  6
CONTINUOUS
 62
     7
 10
2331.853897989348
 20
2686.945333935654
 30
0.0
 11
2331.853897989348
 21
2687.945333935654
 31
0.0
  0
LINE
  5
22A
  8
0
  6
CONTINUOUS
 62
     7
 10
1768.353897989349
 20
2686.945333935655
 30
0.0
 11
1768.353897989349
 21
2687.945333935655
 31
0.0
  0
LINE
  5
22B
  8
0
  6
CONTINUOUS
 62
     7
 10
1768.353897989349
 20
2687.945333935655
 30
0.0
 11
1750.853897989349
 21
2687.945333935655
 31
0.0
  0
LINE
  5
22C
  8
0
  6
CONTINUOUS
 62
     7
 10
1750.853897989349
 20
2686.945333935655
 30
0.0
 11
1768.353897989349
 21
2686.945333935655
 31
0.0
  0
LINE
  5
22D
  8
0
  6
CONTINUOUS
 62
     7
 10
1750.853897989349
 20
2686.945333935655
 30
0.0
 11
1750.853897989349
 21
2687.945333935655
 31
0.0
  0
LINE
  5
22E
  8
0
  6
CONTINUOUS
 62
     7
 10
1750.853897989349
 20
2687.945333935655
 30
0.0
 11
1750.853897989349
 21
2966.945333935655
 31
0.0
  0
LINE
  5
22F
  8
0
  6
CONTINUOUS
 62
     7
 10
1750.853897989349
 20
2966.945333935655
 30
0.0
 11
1768.353897989349
 21
2966.945333935655
 31
0.0
  0
LINE
  5
230
  8
0
  6
CONTINUOUS
 62
     7
 10
1768.353897989349
 20
2966.945333935655
 30
0.0
 11
1768.353897989349
 21
2687.945333935655
 31
0.0
  0
LINE
  5
231
  8
0
  6
CONTINUOUS
 62
     7
 10
4034.065404273457
 20
1055.718990347159
 30
0.0
 11
4597.565404273457
 21
1055.718990347159
 31
0.0
  0
LINE
  5
232
  8
0
  6
CONTINUOUS
 62
     7
 10
4034.065404273457
 20
1005.718990347159
 30
0.0
 11
4597.565404273457
 21
1005.718990347159
 31
0.0
  0
LINE
  5
233
  8
0
  6
CONTINUOUS
 62
     7
 10
4034.065404273457
 20
1888.718990347157
 30
0.0
 11
4597.565404273457
 21
1888.718990347157
 31
0.0
  0
LINE
  5
234
  8
0
  6
CONTINUOUS
 62
     7
 10
4597.565404273457
 20
1886.218990347157
 30
0.0
 11
4597.565404273457
 21
1888.718990347157
 31
0.0
  0
LINE
  5
235
  8
0
  6
CONTINUOUS
 62
     7
 10
4034.065404273457
 20
1886.218990347157
 30
0.0
 11
4597.565404273457
 21
1886.218990347157
 31
0.0
  0
LINE
  5
236
  8
0
  6
CONTINUOUS
 62
     7
 10
4034.065404273457
 20
1886.218990347157
 30
0.0
 11
4034.065404273457
 21
1888.718990347157
 31
0.0
  0
LINE
  5
237
  8
0
  6
CONTINUOUS
 62
     7
 10
4034.065404273457
 20
1903.218990347157
 30
0.0
 11
4597.565404273457
 21
1903.218990347157
 31
0.0
  0
LINE
  5
238
  8
0
  6
CONTINUOUS
 62
     7
 10
4034.065404273457
 20
1900.718990347157
 30
0.0
 11
4034.065404273457
 21
1903.218990347157
 31
0.0
  0
LINE
  5
239
  8
0
  6
CONTINUOUS
 62
     7
 10
4597.565404273457
 20
1900.718990347157
 30
0.0
 11
4597.565404273457
 21
1903.218990347157
 31
0.0
  0
LINE
  5
23A
  8
0
  6
CONTINUOUS
 62
     7
 10
4034.065404273457
 20
1900.718990347157
 30
0.0
 11
4597.565404273457
 21
1900.718990347157
 31
0.0
  0
LINE
  5
23B
  8
0
  6
CONTINUOUS
 62
     7
 10
4034.065404273457
 20
1900.718990347157
 30
0.0
 11
4034.065404273457
 21
1888.718990347157
 31
0.0
  0
LINE
  5
23C
  8
0
  6
CONTINUOUS
 62
     7
 10
4597.565404273457
 20
1900.718990347157
 30
0.0
 11
4597.565404273457
 21
1888.718990347157
 31
0.0
  0
LINE
  5
23D
  8
0
  6
CONTINUOUS
 62
     7
 10
4612.565404273457
 20
1005.218990347166
 30
0.0
 11
4615.065404273457
 21
1005.218990347166
 31
0.0
  0
LINE
  5
23E
  8
0
  6
CONTINUOUS
 62
     7
 10
4612.565404273457
 20
1903.21899034716
 30
0.0
 11
4612.565404273457
 21
1005.218990347166
 31
0.0
  0
LINE
  5
23F
  8
0
  6
CONTINUOUS
 62
     7
 10
4615.065404273457
 20
1903.21899034716
 30
0.0
 11
4612.565404273457
 21
1903.21899034716
 31
0.0
  0
LINE
  5
240
  8
0
  6
CONTINUOUS
 62
     7
 10
4615.065404273457
 20
1005.218990347166
 30
0.0
 11
4615.065404273457
 21
1903.21899034716
 31
0.0
  0
LINE
  5
241
  8
0
  6
CONTINUOUS
 62
     7
 10
4019.065404273457
 20
1902.718990347152
 30
0.0
 11
4016.565404273457
 21
1902.718990347152
 31
0.0
  0
LINE
  5
242
  8
0
  6
CONTINUOUS
 62
     7
 10
4019.065404273457
 20
1004.718990347158
 30
0.0
 11
4019.065404273457
 21
1902.718990347152
 31
0.0
  0
LINE
  5
243
  8
0
  6
CONTINUOUS
 62
     7
 10
4016.565404273457
 20
1004.718990347158
 30
0.0
 11
4019.065404273457
 21
1004.718990347158
 31
0.0
  0
LINE
  5
244
  8
0
  6
CONTINUOUS
 62
     7
 10
4016.565404273457
 20
1902.718990347152
 30
0.0
 11
4016.565404273457
 21
1004.718990347158
 31
0.0
  0
LINE
  5
245
  8
0
  6
CONTINUOUS
 62
     7
 10
4034.065404273457
 20
1902.718990347152
 30
0.0
 11
4031.565404273457
 21
1902.718990347152
 31
0.0
  0
LINE
  5
246
  8
0
  6
CONTINUOUS
 62
     7
 10
4034.065404273457
 20
1004.718990347159
 30
0.0
 11
4034.065404273457
 21
1902.718990347152
 31
0.0
  0
LINE
  5
247
  8
0
  6
CONTINUOUS
 62
     7
 10
4031.565404273457
 20
1004.718990347159
 30
0.0
 11
4034.065404273457
 21
1004.718990347159
 31
0.0
  0
LINE
  5
248
  8
0
  6
CONTINUOUS
 62
     7
 10
4031.565404273457
 20
1902.718990347152
 30
0.0
 11
4031.565404273457
 21
1004.718990347159
 31
0.0
  0
LINE
  5
249
  8
0
  6
CONTINUOUS
 62
     7
 10
4597.565404273457
 20
1005.218990347166
 30
0.0
 11
4600.065404273457
 21
1005.218990347166
 31
0.0
  0
LINE
  5
24A
  8
0
  6
CONTINUOUS
 62
     7
 10
4597.565404273457
 20
1903.21899034716
 30
0.0
 11
4597.565404273457
 21
1005.218990347166
 31
0.0
  0
LINE
  5
24B
  8
0
  6
CONTINUOUS
 62
     7
 10
4600.065404273457
 20
1005.218990347166
 30
0.0
 11
4600.065404273457
 21
1903.21899034716
 31
0.0
  0
LINE
  5
24C
  8
0
  6
CONTINUOUS
 62
     7
 10
4600.065404273457
 20
1903.21899034716
 30
0.0
 11
4597.565404273457
 21
1903.21899034716
 31
0.0
  0
LINE
  5
24D
  8
0
  6
CONTINUOUS
 62
     7
 10
4600.065404273457
 20
1072.218990347166
 30
0.0
 11
4612.565404273457
 21
1072.218990347166
 31
0.0
  0
LINE
  5
24E
  8
0
  6
CONTINUOUS
 62
     7
 10
4612.565404273457
 20
1005.218990347166
 30
0.0
 11
4612.565404273457
 21
1072.218990347166
 31
0.0
  0
LINE
  5
24F
  8
0
  6
CONTINUOUS
 62
     7
 10
4600.065404273457
 20
1005.218990347166
 30
0.0
 11
4612.565404273457
 21
1005.218990347166
 31
0.0
  0
LINE
  5
250
  8
0
  6
CONTINUOUS
 62
     7
 10
4600.065404273457
 20
1005.218990347166
 30
0.0
 11
4600.065404273457
 21
1072.218990347166
 31
0.0
  0
LINE
  5
251
  8
0
  6
CONTINUOUS
 62
     7
 10
4019.065404273457
 20
1902.718990347152
 30
0.0
 11
4019.065404273457
 21
1835.718990347152
 31
0.0
  0
LINE
  5
252
  8
0
  6
CONTINUOUS
 62
     7
 10
4031.565404273457
 20
1902.718990347152
 30
0.0
 11
4019.065404273457
 21
1902.718990347152
 31
0.0
  0
LINE
  5
253
  8
0
  6
CONTINUOUS
 62
     7
 10
4031.565404273457
 20
1902.718990347152
 30
0.0
 11
4031.565404273457
 21
1835.718990347152
 31
0.0
  0
LINE
  5
254
  8
0
  6
CONTINUOUS
 62
     7
 10
4031.565404273457
 20
1835.718990347152
 30
0.0
 11
4019.065404273457
 21
1835.718990347152
 31
0.0
  0
LINE
  5
255
  8
0
  6
CONTINUOUS
 62
     7
 10
4019.065404273457
 20
1071.718990347159
 30
0.0
 11
4019.065404273457
 21
1835.718990347152
 31
0.0
  0
LINE
  5
256
  8
0
  6
CONTINUOUS
 62
     7
 10
4031.565404273457
 20
1071.718990347159
 30
0.0
 11
4031.565404273457
 21
1835.718990347152
 31
0.0
  0
LINE
  5
257
  8
0
  6
CONTINUOUS
 62
     7
 10
4031.565404273457
 20
1071.718990347159
 30
0.0
 11
4019.065404273457
 21
1071.718990347159
 31
0.0
  0
LINE
  5
258
  8
0
  6
CONTINUOUS
 62
     7
 10
4600.065404273457
 20
1836.21899034716
 30
0.0
 11
4600.065404273457
 21
1072.218990347166
 31
0.0
  0
LINE
  5
259
  8
0
  6
CONTINUOUS
 62
     7
 10
4600.065404273457
 20
1836.21899034716
 30
0.0
 11
4612.565404273457
 21
1836.21899034716
 31
0.0
  0
LINE
  5
25A
  8
0
  6
CONTINUOUS
 62
     7
 10
4612.565404273457
 20
1836.21899034716
 30
0.0
 11
4612.565404273457
 21
1072.218990347166
 31
0.0
  0
LINE
  5
25B
  8
0
  6
CONTINUOUS
 62
     7
 10
4600.065404273457
 20
1903.21899034716
 30
0.0
 11
4612.565404273457
 21
1903.21899034716
 31
0.0
  0
LINE
  5
25C
  8
0
  6
CONTINUOUS
 62
     7
 10
4612.565404273457
 20
1836.21899034716
 30
0.0
 11
4612.565404273457
 21
1903.21899034716
 31
0.0
  0
LINE
  5
25D
  8
0
  6
CONTINUOUS
 62
     7
 10
4600.065404273457
 20
1836.21899034716
 30
0.0
 11
4600.065404273457
 21
1903.21899034716
 31
0.0
  0
LINE
  5
25E
  8
0
  6
CONTINUOUS
 62
     7
 10
4031.565404273457
 20
1004.718990347158
 30
0.0
 11
4019.065404273457
 21
1004.718990347158
 31
0.0
  0
LINE
  5
25F
  8
0
  6
CONTINUOUS
 62
     7
 10
4019.065404273457
 20
1071.718990347159
 30
0.0
 11
4019.065404273457
 21
1004.718990347158
 31
0.0
  0
LINE
  5
260
  8
0
  6
CONTINUOUS
 62
     7
 10
4031.565404273457
 20
1071.718990347159
 30
0.0
 11
4031.565404273457
 21
1004.718990347158
 31
0.0
  0
LINE
  5
261
  8
0
  6
CONTINUOUS
 62
     7
 10
4597.565404273457
 20
1004.718990347166
 30
0.0
 11
4597.565404273457
 21
1005.218990347166
 31
0.0
  0
LINE
  5
262
  8
0
  6
CONTINUOUS
 62
     7
 10
4615.065404273457
 20
1005.218990347166
 30
0.0
 11
4597.565404273457
 21
1005.218990347166
 31
0.0
  0
LINE
  5
263
  8
0
  6
CONTINUOUS
 62
     7
 10
4615.065404273457
 20
1004.718990347166
 30
0.0
 11
4597.565404273457
 21
1004.718990347166
 31
0.0
  0
LINE
  5
264
  8
0
  6
CONTINUOUS
 62
     7
 10
4615.065404273457
 20
1004.718990347166
 30
0.0
 11
4615.065404273457
 21
1005.218990347166
 31
0.0
  0
LINE
  5
265
  8
0
  6
CONTINUOUS
 62
     7
 10
4016.565404273457
 20
1903.218990347152
 30
0.0
 11
4016.565404273457
 21
1902.718990347152
 31
0.0
  0
LINE
  5
266
  8
0
  6
CONTINUOUS
 62
     7
 10
4016.565404273457
 20
1903.218990347152
 30
0.0
 11
4034.065404273457
 21
1903.218990347152
 31
0.0
  0
LINE
  5
267
  8
0
  6
CONTINUOUS
 62
     7
 10
4034.065404273457
 20
1903.218990347152
 30
0.0
 11
4034.065404273457
 21
1902.718990347152
 31
0.0
  0
LINE
  5
268
  8
0
  6
CONTINUOUS
 62
     7
 10
4016.565404273457
 20
1902.718990347152
 30
0.0
 11
4034.065404273457
 21
1902.718990347152
 31
0.0
  0
LINE
  5
269
  8
0
  6
CONTINUOUS
 62
     7
 10
4597.565404273457
 20
1903.21899034716
 30
0.0
 11
4615.065404273457
 21
1903.21899034716
 31
0.0
  0
LINE
  5
26A
  8
0
  6
CONTINUOUS
 62
     7
 10
4597.565404273457
 20
1903.71899034716
 30
0.0
 11
4597.565404273457
 21
1903.21899034716
 31
0.0
  0
LINE
  5
26B
  8
0
  6
CONTINUOUS
 62
     7
 10
4615.065404273457
 20
1903.71899034716
 30
0.0
 11
4597.565404273457
 21
1903.71899034716
 31
0.0
  0
LINE
  5
26C
  8
0
  6
CONTINUOUS
 62
     7
 10
4615.065404273457
 20
1903.71899034716
 30
0.0
 11
4615.065404273457
 21
1903.21899034716
 31
0.0
  0
LINE
  5
26D
  8
0
  6
CONTINUOUS
 62
     7
 10
4034.065404273457
 20
1004.718990347159
 30
0.0
 11
4016.565404273457
 21
1004.718990347158
 31
0.0
  0
LINE
  5
26E
  8
0
  6
CONTINUOUS
 62
     7
 10
4034.065404273457
 20
1004.218990347158
 30
0.0
 11
4034.065404273457
 21
1004.718990347159
 31
0.0
  0
LINE
  5
26F
  8
0
  6
CONTINUOUS
 62
     7
 10
4016.565404273457
 20
1004.218990347158
 30
0.0
 11
4034.065404273457
 21
1004.218990347158
 31
0.0
  0
LINE
  5
270
  8
0
  6
CONTINUOUS
 62
     7
 10
4016.565404273457
 20
1004.218990347158
 30
0.0
 11
4016.565404273457
 21
1004.718990347158
 31
0.0
  0
ENDSEC
  0
EOF
