  0
SECTION
  2
HEADER
  9
$ACADVER
  1
AC1006
  9
$DWGCODEPAGE
  3
dos932
  9
$INSBASE
 10
0.0
 20
0.0
 30
0.0
  9
$EXTMIN
 10
0.0
 20
0.0
  9
$EXTMAX
 10
5000.0
 20
3500.0
  9
$LIMMIN
 10
0.0
 20
0.0
  9
$LIMMAX
 10
5000.0
 20
3500.0
  9
$ORTHOMODE
 70
     0
  9
$REGENMODE
 70
     1
  9
$FILLMODE
 70
     1
  9
$QTEXTMODE
 70
     0
  9
$MIRRTEXT
 70
     1
  9
$DRAGMODE
 70
     2
  9
$LTSCALE
 40
1.0
  9
$OSMODE
 70
    37
  9
$ATTMODE
 70
     1
  9
$TEXTSIZE
 40
3.5
  9
$TRACEWID
 40
1.0
  9
$TEXTSTYLE
  7
STANDARD
  9
$CLAYER
  8
0
  9
$CELTYPE
  6
BYLAYER
  9
$CECOLOR
 62
   256
  9
$DIMSCALE
 40
1.0
  9
$DIMASZ
 40
3.302
  9
$DIMEXO
 40
1.0
  9
$DIMDLI
 40
3.75
  9
$DIMRND
 40
0.0
  9
$DIMDLE
 40
0.0
  9
$DIMEXE
 40
1.0
  9
$DIMTP
 40
0.0
  9
$DIMTM
 40
0.0
  9
$DIMTXT
 40
3.5
  9
$DIMCEN
 40
2.5
  9
$DIMTSZ
 40
0.0
  9
$DIMTOL
 70
     0
  9
$DIMLIM
 70
     0
  9
$DIMTIH
 70
     1
  9
$DIMTOH
 70
     1
  9
$DIMSE1
 70
     0
  9
$DIMSE2
 70
     0
  9
$DIMTAD
 70
     1
  9
$DIMZIN
 70
     0
  9
$DIMBLK
  1

  9
$DIMASO
 70
     1
  9
$DIMSHO
 70
     1
  9
$DIMPOST
  1

  9
$DIMAPOST
  1

  9
$DIMALT
 70
     0
  9
$DIMALTD
 70
     3
  9
$DIMALTF
 40
0.0393700787401575
  9
$DIMLFAC
 40
1.0
  9
$DIMTOFL
 70
     1
  9
$DIMTVP
 40
0.0
  9
$DIMTIX
 70
     0
  9
$DIMSOXD
 70
     0
  9
$DIMSAH
 70
     0
  9
$DIMBLK1
  1

  9
$DIMBLK2
  1

  9
$LUNITS
 70
     2
  9
$LUPREC
 70
     3
  9
$SKETCHINC
 40
1.0
  9
$FILLETRAD
 40
10.0
  9
$AUNITS
 70
     0
  9
$AUPREC
 70
     2
  9
$MENU
  1
.
  9
$ELEVATION
 40
0.0
  9
$THICKNESS
 40
0.0
  9
$LIMCHECK
 70
     0
  9
$CHAMFERA
 40
0.0
  9
$CHAMFERB
 40
0.0
  9
$SKPOLY
 70
     0
  9
$TDCREATE
 40
2459796.262455058
  9
$TDUPDATE
 40
2460139.363273785
  9
$TDINDWG
 40
0.0000000116
  9
$TDUSRTIMER
 40
0.0000000116
  9
$USRTIMER
 70
     1
  9
$ANGBASE
 50
0.0
  9
$ANGDIR
 70
     0
  9
$PDMODE
 70
     0
  9
$PDSIZE
 40
-1.0
  9
$PLINEWID
 40
0.0
  9
$COORDS
 70
     1
  9
$SPLFRAME
 70
     0
  9
$SPLINETYPE
 70
     6
  9
$SPLINESEGS
 70
     8
  9
$ATTDIA
 70
     0
  9
$ATTREQ
 70
     1
  9
$HANDLING
 70
     1
  9
$HANDSEED
  5
3C8
  9
$SURFTAB1
 70
     6
  9
$SURFTAB2
 70
     6
  9
$SURFTYPE
 70
     6
  9
$SURFU
 70
     6
  9
$SURFV
 70
     6
  9
$UCSNAME
  2

  9
$UCSORG
 10
0.0
 20
0.0
 30
0.0
  9
$UCSXDIR
 10
1.0
 20
0.0
 30
0.0
  9
$UCSYDIR
 10
0.0
 20
1.0
 30
0.0
  9
$USERI1
 70
     0
  9
$USERI2
 70
     0
  9
$USERI3
 70
     0
  9
$USERI4
 70
     0
  9
$USERI5
 70
     0
  9
$USERR1
 40
0.0
  9
$USERR2
 40
0.0
  9
$USERR3
 40
0.0
  9
$USERR4
 40
0.0
  9
$USERR5
 40
0.0
  9
$WORLDVIEW
 70
     1
  0
ENDSEC
  0
SECTION
  2
TABLES
  0
TABLE
  2
VPORT
 70
     1
  0
VPORT
  2
*ACTIVE
 70
     0
 10
0.0
 20
0.0
 11
1.0
 21
1.0
 12
2500.0
 22
1750.0
 13
0.0
 23
0.0
 14
10.0
 24
10.0
 15
10.0
 25
10.0
 16
0.0
 26
0.0
 36
1.0
 17
0.0
 27
0.0
 37
0.0
 40
3500.0
 41
1.428571428571429
 42
50.0
 43
0.0
 44
0.0
 50
0.0
 51
0.0
 71
     0
 72
  2000
 73
     1
 74
     3
 75
     0
 76
     0
 77
     0
 78
     0
  0
ENDTAB
  0
TABLE
  2
LTYPE
 70
     6
  0
LTYPE
  2
CONTINUOUS
 70
     0
  3
Solid line
 72
    65
 73
     0
 40
0.0
  0
LTYPE
  2
HIDDEN
 70
     0
  3
Hidden __ __ __ __ __ __ __ __ __ __ __ __ __ __
 72
    65
 73
     2
 40
1.905
 49
1.27
 49
-0.635
  0
LTYPE
  2
PHANTOM
 70
     0
  3
Phantom ______  __  __  ______  __  __  ______
 72
    65
 73
     6
 40
12.7
 49
6.35
 49
-1.27
 49
1.27
 49
-1.27
 49
1.27
 49
-1.27
  0
LTYPE
  2
CENTER
 70
     0
  3
Center ____ _ ____ _ ____ _ ____ _ ____ _ ____
 72
    65
 73
     4
 40
10.16
 49
6.35
 49
-1.27
 49
1.27
 49
-1.27
  0
LTYPE
  2
CENTERX2
 70
     0
  3
Center (2x) ________  __  ________  __  _____
 72
    65
 73
     4
 40
20.32
 49
12.7
 49
-2.54
 49
2.54
 49
-2.54
  0
LTYPE
  2
DOT2
 70
     0
  3
Dot (.5x) ........................................
 72
    65
 73
     2
 40
0.635
 49
0.0
 49
-0.635
  0
ENDTAB
  0
TABLE
  2
LAYER
 70
     3
  0
LAYER
  2
0
 70
     0
 62
     7
  6
CONTINUOUS
  0
LAYER
  2
SLD-0
 70
     0
 62
   179
  6
CONTINUOUS
  0
LAYER
  2
寸法
 70
     0
 62
   179
  6
CONTINUOUS
  0
ENDTAB
  0
TABLE
  2
STYLE
 70
     2
  0
STYLE
  2
STANDARD
 70
     0
 40
0.0
 41
1.0
 50
0.0
 71
     0
 42
3.5
  3
txt
  4
bigfont
  0
STYLE
  2
SLDTEXTSTYLE0
 70
     0
 40
0.0
 41
0.75
 50
0.0
 71
     0
 42
3.5
  3
TXT
  4
bigfont
  0
ENDTAB
  0
TABLE
  2
VIEW
 70
     0
  0
ENDTAB
  0
TABLE
  2
UCS
 70
     0
  0
ENDTAB
  0
ENDSEC
  0
SECTION
  2
BLOCKS
  0
ENDSEC
  0
SECTION
  2
ENTITIES
  0
LINE
  5
75
  8
0
  6
CONTINUOUS
 62
     7
 10
4839.484712179223
 20
258.5233124172521
 30
0.0
 11
3312.374599790194
 21
258.5233124172519
 31
0.0
  0
TEXT
  5
77
  8
0
  6
CONTINUOUS
 62
     7
 10
1706.521152560513
 20
3134.115941119229
 30
0.0
 40
52.91666666666666
  1
＜上面＞
 41
0.75
  7
SLDTEXTSTYLE0
  0
TEXT
  5
78
  8
0
  6
CONTINUOUS
 62
     7
 10
493.3091089290138
 20
2134.090186691168
 30
0.0
 40
52.91666666666666
  1
＜左側面＞
 41
0.75
  7
SLDTEXTSTYLE0
  0
TEXT
  5
79
  8
0
  6
CONTINUOUS
 62
     7
 10
1730.774067737716
 20
2130.593767889337
 30
0.0
 40
52.91666666666666
  1
＜正面＞
 41
0.75
  7
SLDTEXTSTYLE0
  0
TEXT
  5
7A
  8
0
  6
CONTINUOUS
 62
     7
 10
3377.814243189123
 20
326.489054196763
 30
0.0
 40
52.91666666666666
  1
品名：
 41
0.75
  7
SLDTEXTSTYLE0
  0
TEXT
  5
7B
  8
0
  6
CONTINUOUS
 62
     7
 10
4446.663437481703
 20
332.3177187478654
 30
0.0
 40
52.91666666666666
  1
Pamouna
 41
0.75
  7
SLDTEXTSTYLE0
  0
TEXT
  5
7C
  8
寸法
  6
CONTINUOUS
 62
     7
 10
4688.007304885427
 20
165.7088516276312
 30
0.0
 40
52.91666666666666
  1
1/1
 41
0.75
  7
SLDTEXTSTYLE0
  0
TEXT
  5
7D
  8
寸法
  6
CONTINUOUS
 62
     7
 10
4198.79693921183
 20
165.7088544215994
 30
0.0
 40
52.91666666666666
  1
2022/08/04
 41
0.75
  7
SLDTEXTSTYLE0
  0
TEXT
  5
7E
  8
寸法
  6
CONTINUOUS
 62
     7
 10
4017.190732011612
 20
2122.266812003092
 30
0.0
 40
52.91666666666666
  1
＜背面＞
 41
0.75
  7
SLDTEXTSTYLE0
  0
TEXT
  5
7F
  8
寸法
  6
CONTINUOUS
 62
     7
 10
3611.283129349215
 20
326.4179237671586
 30
0.0
 40
66.14583333333331
  1
MA-S600E（-T）
 41
0.75
  7
SLDTEXTSTYLE0
  0
TEXT
  5
80
  8
寸法
  6
CONTINUOUS
 62
     7
 10
2965.851847914189
 20
2131.94141651502
 30
0.0
 40
52.91666666666666
  1
＜右側面＞
 41
0.75
  7
SLDTEXTSTYLE0
  0
ARC
  5
81
  8
0
  6
CONTINUOUS
 62
     7
 10
1996.049636425967
 20
968.3728616641095
 30
0.0
 40
0.2000000000000455
 50
180.0
 51
270.0000000000008
  0
LINE
  5
82
  8
0
  6
CONTINUOUS
 62
     7
 10
1996.049636425967
 20
968.1728616641094
 30
0.0
 11
1996.849636425967
 21
968.1728616641094
 31
0.0
  0
ARC
  5
83
  8
0
  6
CONTINUOUS
 62
     7
 10
1697.549636425967
 20
968.3728616641095
 30
0.0
 40
0.2000000000000455
 50
180.0
 51
270.0000000000008
  0
LINE
  5
84
  8
0
  6
CONTINUOUS
 62
     7
 10
1697.549636425967
 20
968.1728616641094
 30
0.0
 11
1698.349636425967
 21
968.1728616641094
 31
0.0
  0
LINE
  5
85
  8
0
  6
CONTINUOUS
 62
     7
 10
1996.849636425967
 20
968.1728616641094
 30
0.0
 11
2290.849636425967
 21
968.1728616641096
 31
0.0
  0
LINE
  5
86
  8
0
  6
CONTINUOUS
 62
     7
 10
1698.349636425967
 20
968.1728616641094
 30
0.0
 11
1992.349636425967
 21
968.1728616641096
 31
0.0
  0
LINE
  5
87
  8
0
  6
CONTINUOUS
 62
     7
 10
2290.849636425967
 20
968.1728616641096
 30
0.0
 11
2291.649636425966
 21
968.1728616641096
 31
0.0
  0
ARC
  5
88
  8
0
  6
CONTINUOUS
 62
     7
 10
2291.649636425966
 20
968.3728616641097
 30
0.0
 40
0.2000000000002728
 50
270.0000000000008
 51
0.0
  0
LINE
  5
89
  8
0
  6
CONTINUOUS
 62
     7
 10
1992.349636425967
 20
968.1728616641096
 30
0.0
 11
1993.149636425967
 21
968.1728616641096
 31
0.0
  0
ARC
  5
8A
  8
0
  6
CONTINUOUS
 62
     7
 10
1993.149636425967
 20
968.3728616641097
 30
0.0
 40
0.2000000000000455
 50
270.0000000000008
 51
0.0
  0
LINE
  5
8B
  8
0
  6
CONTINUOUS
 62
     7
 10
1995.849636425967
 20
1247.672861664109
 30
0.0
 11
1993.349636425967
 21
1247.672861664109
 31
0.0
  0
LINE
  5
8C
  8
0
  6
CONTINUOUS
 62
     7
 10
1993.349636425967
 20
1230.67286166411
 30
0.0
 11
1995.849636425967
 21
1230.67286166411
 31
0.0
  0
LINE
  5
8D
  8
0
  6
CONTINUOUS
 62
     7
 10
1993.349636425967
 20
1630.672861664109
 30
0.0
 11
1995.849636425967
 21
1630.672861664109
 31
0.0
  0
LINE
  5
8E
  8
0
  6
CONTINUOUS
 62
     7
 10
1995.849636425967
 20
1647.672861664109
 30
0.0
 11
1993.349636425967
 21
1647.672861664109
 31
0.0
  0
LINE
  5
8F
  8
0
  6
CONTINUOUS
 62
     7
 10
1995.849636425967
 20
968.3840103858565
 30
0.0
 11
1995.849636425967
 21
968.4728616641094
 31
0.0
  0
LINE
  5
90
  8
0
  6
CONTINUOUS
 62
     7
 10
1996.049636425967
 20
968.6728616641095
 30
0.0
 11
1996.049636425967
 21
968.1867975662932
 31
0.0
  0
ARC
  5
91
  8
0
  6
CONTINUOUS
 62
     7
 10
1996.048252546217
 20
968.3854138237799
 30
0.0
 40
0.1986210785924046
 50
180.4048499762363
 51
270.3992079346733
  0
POLYLINE
  5
92
  8
0
  6
CONTINUOUS
 62
     7
 66
     1
 10
0.0
 20
0.0
 30
0.0
  0
VERTEX
  5
23C
  8
0
  6
CONTINUOUS
 62
     7
 10
1995.849636425967
 20
968.4728616641094
 30
0.0
  0
VERTEX
  5
23D
  8
0
  6
CONTINUOUS
 62
     7
 10
1995.849653862728
 20
968.4756195962871
 30
0.0
  0
VERTEX
  5
23E
  8
0
  6
CONTINUOUS
 62
     7
 10
1995.849709660491
 20
968.4784460360349
 30
0.0
  0
VERTEX
  5
23F
  8
0
  6
CONTINUOUS
 62
     7
 10
1995.849808262081
 20
968.4813418231981
 30
0.0
  0
VERTEX
  5
240
  8
0
  6
CONTINUOUS
 62
     7
 10
1995.849952698291
 20
968.484304980582
 30
0.0
  0
VERTEX
  5
241
  8
0
  6
CONTINUOUS
 62
     7
 10
1995.850145999914
 20
968.4873335309907
 30
0.0
  0
VERTEX
  5
242
  8
0
  6
CONTINUOUS
 62
     7
 10
1995.850391197744
 20
968.4904254972298
 30
0.0
  0
VERTEX
  5
243
  8
0
  6
CONTINUOUS
 62
     7
 10
1995.850691322574
 20
968.4935789021043
 30
0.0
  0
VERTEX
  5
244
  8
0
  6
CONTINUOUS
 62
     7
 10
1995.851049405201
 20
968.4967917684195
 30
0.0
  0
VERTEX
  5
245
  8
0
  6
CONTINUOUS
 62
     7
 10
1995.851468476415
 20
968.5000621189803
 30
0.0
  0
VERTEX
  5
246
  8
0
  6
CONTINUOUS
 62
     7
 10
1995.851951567013
 20
968.5033879765914
 30
0.0
  0
VERTEX
  5
247
  8
0
  6
CONTINUOUS
 62
     7
 10
1995.852501707787
 20
968.5067673640584
 30
0.0
  0
VERTEX
  5
248
  8
0
  6
CONTINUOUS
 62
     7
 10
1995.853121929531
 20
968.5101983041866
 30
0.0
  0
VERTEX
  5
249
  8
0
  6
CONTINUOUS
 62
     7
 10
1995.853815263038
 20
968.5136788197799
 30
0.0
  0
VERTEX
  5
24A
  8
0
  6
CONTINUOUS
 62
     7
 10
1995.854584739104
 20
968.5172069336444
 30
0.0
  0
VERTEX
  5
24B
  8
0
  6
CONTINUOUS
 62
     7
 10
1995.855433388522
 20
968.520780668585
 30
0.0
  0
VERTEX
  5
24C
  8
0
  6
CONTINUOUS
 62
     7
 10
1995.856364242084
 20
968.5243980474064
 30
0.0
  0
VERTEX
  5
24D
  8
0
  6
CONTINUOUS
 62
     7
 10
1995.857380330586
 20
968.5280570929139
 30
0.0
  0
VERTEX
  5
24E
  8
0
  6
CONTINUOUS
 62
     7
 10
1995.858484684821
 20
968.5317558279124
 30
0.0
  0
VERTEX
  5
24F
  8
0
  6
CONTINUOUS
 62
     7
 10
1995.859680335583
 20
968.5354922752073
 30
0.0
  0
VERTEX
  5
250
  8
0
  6
CONTINUOUS
 62
     7
 10
1995.860970313665
 20
968.5392644576034
 30
0.0
  0
VERTEX
  5
251
  8
0
  6
CONTINUOUS
 62
     7
 10
1995.862357649863
 20
968.5430703979059
 30
0.0
  0
VERTEX
  5
252
  8
0
  6
CONTINUOUS
 62
     7
 10
1995.863845374968
 20
968.5469081189195
 30
0.0
  0
VERTEX
  5
253
  8
0
  6
CONTINUOUS
 62
     7
 10
1995.865436519775
 20
968.5507756434498
 30
0.0
  0
VERTEX
  5
254
  8
0
  6
CONTINUOUS
 62
     7
 10
1995.867134115078
 20
968.5546709943014
 30
0.0
  0
VERTEX
  5
255
  8
0
  6
CONTINUOUS
 62
     7
 10
1995.868941204227
 20
968.5585921164569
 30
0.0
  0
VERTEX
  5
256
  8
0
  6
CONTINUOUS
 62
     7
 10
1995.870861053136
 20
968.5625355754958
 30
0.0
  0
VERTEX
  5
257
  8
0
  6
CONTINUOUS
 62
     7
 10
1995.872897118717
 20
968.566496753203
 30
0.0
  0
VERTEX
  5
258
  8
0
  6
CONTINUOUS
 62
     7
 10
1995.875052864083
 20
968.5704709929485
 30
0.0
  0
VERTEX
  5
259
  8
0
  6
CONTINUOUS
 62
     7
 10
1995.877331752346
 20
968.5744536381017
 30
0.0
  0
VERTEX
  5
25A
  8
0
  6
CONTINUOUS
 62
     7
 10
1995.87973724662
 20
968.5784400320325
 30
0.0
  0
VERTEX
  5
25B
  8
0
  6
CONTINUOUS
 62
     7
 10
1995.882272810015
 20
968.5824255181108
 30
0.0
  0
VERTEX
  5
25C
  8
0
  6
CONTINUOUS
 62
     7
 10
1995.884941905645
 20
968.5864054397061
 30
0.0
  0
VERTEX
  5
25D
  8
0
  6
CONTINUOUS
 62
     7
 10
1995.887747996621
 20
968.5903751401888
 30
0.0
  0
VERTEX
  5
25E
  8
0
  6
CONTINUOUS
 62
     7
 10
1995.890694546056
 20
968.5943299629282
 30
0.0
  0
VERTEX
  5
25F
  8
0
  6
CONTINUOUS
 62
     7
 10
1995.893785017063
 20
968.5982652512938
 30
0.0
  0
VERTEX
  5
260
  8
0
  6
CONTINUOUS
 62
     7
 10
1995.897022872753
 20
968.6021763486563
 30
0.0
  0
VERTEX
  5
261
  8
0
  6
CONTINUOUS
 62
     7
 10
1995.900411576239
 20
968.6060585983845
 30
0.0
  0
VERTEX
  5
262
  8
0
  6
CONTINUOUS
 62
     7
 10
1995.903954590633
 20
968.6099073438486
 30
0.0
  0
VERTEX
  5
263
  8
0
  6
CONTINUOUS
 62
     7
 10
1995.90765537744
 20
968.6137179271061
 30
0.0
  0
VERTEX
  5
264
  8
0
  6
CONTINUOUS
 62
     7
 10
1995.911516703311
 20
968.6174851229265
 30
0.0
  0
VERTEX
  5
265
  8
0
  6
CONTINUOUS
 62
     7
 10
1995.915539558172
 20
968.6212022555366
 30
0.0
  0
VERTEX
  5
266
  8
0
  6
CONTINUOUS
 62
     7
 10
1995.91972465202
 20
968.6248624206273
 30
0.0
  0
VERTEX
  5
267
  8
0
  6
CONTINUOUS
 62
     7
 10
1995.924072694853
 20
968.6284587138889
 30
0.0
  0
VERTEX
  5
268
  8
0
  6
CONTINUOUS
 62
     7
 10
1995.928584396669
 20
968.6319842310113
 30
0.0
  0
VERTEX
  5
269
  8
0
  6
CONTINUOUS
 62
     7
 10
1995.933260467466
 20
968.6354320676854
 30
0.0
  0
VERTEX
  5
26A
  8
0
  6
CONTINUOUS
 62
     7
 10
1995.938101617242
 20
968.6387953196015
 30
0.0
  0
VERTEX
  5
26B
  8
0
  6
CONTINUOUS
 62
     7
 10
1995.943108555994
 20
968.6420670824499
 30
0.0
  0
VERTEX
  5
26C
  8
0
  6
CONTINUOUS
 62
     7
 10
1995.94828199372
 20
968.6452404519205
 30
0.0
  0
VERTEX
  5
26D
  8
0
  6
CONTINUOUS
 62
     7
 10
1995.953622640413
 20
968.6483085236946
 30
0.0
  0
VERTEX
  5
26E
  8
0
  6
CONTINUOUS
 62
     7
 10
1995.959129982562
 20
968.6512618418537
 30
0.0
  0
VERTEX
  5
26F
  8
0
  6
CONTINUOUS
 62
     7
 10
1995.964798840218
 20
968.6540812187118
 30
0.0
  0
VERTEX
  5
270
  8
0
  6
CONTINUOUS
 62
     7
 10
1995.970622921103
 20
968.6567451468306
 30
0.0
  0
VERTEX
  5
271
  8
0
  6
CONTINUOUS
 62
     7
 10
1995.976595932936
 20
968.6592321187711
 30
0.0
  0
VERTEX
  5
272
  8
0
  6
CONTINUOUS
 62
     7
 10
1995.982711583436
 20
968.6615206270944
 30
0.0
  0
VERTEX
  5
273
  8
0
  6
CONTINUOUS
 62
     7
 10
1995.988963580322
 20
968.6635891643621
 30
0.0
  0
VERTEX
  5
274
  8
0
  6
CONTINUOUS
 62
     7
 10
1995.995345631314
 20
968.6654162231356
 30
0.0
  0
VERTEX
  5
275
  8
0
  6
CONTINUOUS
 62
     7
 10
1996.001851212047
 20
968.6669816711174
 30
0.0
  0
VERTEX
  5
276
  8
0
  6
CONTINUOUS
 62
     7
 10
1996.008468985118
 20
968.6682938939442
 30
0.0
  0
VERTEX
  5
277
  8
0
  6
CONTINUOUS
 62
     7
 10
1996.015183074832
 20
968.669388167312
 30
0.0
  0
VERTEX
  5
278
  8
0
  6
CONTINUOUS
 62
     7
 10
1996.021977428416
 20
968.6703008161309
 30
0.0
  0
VERTEX
  5
279
  8
0
  6
CONTINUOUS
 62
     7
 10
1996.028835993095
 20
968.6710681653101
 30
0.0
  0
VERTEX
  5
27A
  8
0
  6
CONTINUOUS
 62
     7
 10
1996.035742716095
 20
968.6717265397594
 30
0.0
  0
VERTEX
  5
27B
  8
0
  6
CONTINUOUS
 62
     7
 10
1996.042681544644
 20
968.6723122643893
 30
0.0
  0
VERTEX
  5
27C
  8
0
  6
CONTINUOUS
 62
     7
 10
1996.049636425967
 20
968.6728616641095
 30
0.0
  0
SEQEND
  5
3C2
  8
0
  6
CONTINUOUS
 62
     7
  0
LINE
  5
93
  8
0
  6
CONTINUOUS
 62
     7
 10
1996.049636425967
 20
968.1867975662932
 30
0.0
 11
1996.849636425967
 21
968.1867975662932
 31
0.0
  0
LINE
  5
94
  8
0
  6
CONTINUOUS
 62
     7
 10
1996.849636425967
 20
968.1867975662932
 30
0.0
 11
1996.849636425967
 21
968.6728616641095
 31
0.0
  0
LINE
  5
95
  8
0
  6
CONTINUOUS
 62
     7
 10
1995.849636425967
 20
968.3728616641095
 30
0.0
 11
1995.849636425967
 21
968.3840103858565
 31
0.0
  0
LINE
  5
96
  8
0
  6
CONTINUOUS
 62
     7
 10
1996.849636425967
 20
968.1728616641094
 30
0.0
 11
1996.849636425967
 21
968.1867975662932
 31
0.0
  0
LINE
  5
97
  8
0
  6
CONTINUOUS
 62
     7
 10
1995.849636425967
 20
968.4728616641094
 30
0.0
 11
1995.849636425967
 21
968.6728616641096
 31
0.0
  0
LINE
  5
98
  8
0
  6
CONTINUOUS
 62
     7
 10
1697.349636425967
 20
968.3840103858565
 30
0.0
 11
1697.349636425967
 21
968.4728616641094
 31
0.0
  0
LINE
  5
99
  8
0
  6
CONTINUOUS
 62
     7
 10
1697.549636425967
 20
968.6728616641094
 30
0.0
 11
1697.549636425967
 21
968.1867975662932
 31
0.0
  0
ARC
  5
9A
  8
0
  6
CONTINUOUS
 62
     7
 10
1697.548252546217
 20
968.3854138237803
 30
0.0
 40
0.1986210785928617
 50
180.4048499763338
 51
270.3992079345414
  0
POLYLINE
  5
9B
  8
0
  6
CONTINUOUS
 62
     7
 66
     1
 10
0.0
 20
0.0
 30
0.0
  0
VERTEX
  5
27D
  8
0
  6
CONTINUOUS
 62
     7
 10
1697.349636425967
 20
968.4728616641094
 30
0.0
  0
VERTEX
  5
27E
  8
0
  6
CONTINUOUS
 62
     7
 10
1697.349653862728
 20
968.4756195962871
 30
0.0
  0
VERTEX
  5
27F
  8
0
  6
CONTINUOUS
 62
     7
 10
1697.349709660492
 20
968.4784460360349
 30
0.0
  0
VERTEX
  5
280
  8
0
  6
CONTINUOUS
 62
     7
 10
1697.349808262082
 20
968.4813418231981
 30
0.0
  0
VERTEX
  5
281
  8
0
  6
CONTINUOUS
 62
     7
 10
1697.349952698291
 20
968.4843049805819
 30
0.0
  0
VERTEX
  5
282
  8
0
  6
CONTINUOUS
 62
     7
 10
1697.350145999915
 20
968.4873335309907
 30
0.0
  0
VERTEX
  5
283
  8
0
  6
CONTINUOUS
 62
     7
 10
1697.350391197745
 20
968.4904254972298
 30
0.0
  0
VERTEX
  5
284
  8
0
  6
CONTINUOUS
 62
     7
 10
1697.350691322575
 20
968.4935789021043
 30
0.0
  0
VERTEX
  5
285
  8
0
  6
CONTINUOUS
 62
     7
 10
1697.351049405202
 20
968.4967917684194
 30
0.0
  0
VERTEX
  5
286
  8
0
  6
CONTINUOUS
 62
     7
 10
1697.351468476416
 20
968.50006211898
 30
0.0
  0
VERTEX
  5
287
  8
0
  6
CONTINUOUS
 62
     7
 10
1697.351951567014
 20
968.5033879765914
 30
0.0
  0
VERTEX
  5
288
  8
0
  6
CONTINUOUS
 62
     7
 10
1697.352501707787
 20
968.5067673640584
 30
0.0
  0
VERTEX
  5
289
  8
0
  6
CONTINUOUS
 62
     7
 10
1697.353121929532
 20
968.5101983041866
 30
0.0
  0
VERTEX
  5
28A
  8
0
  6
CONTINUOUS
 62
     7
 10
1697.353815263039
 20
968.5136788197799
 30
0.0
  0
VERTEX
  5
28B
  8
0
  6
CONTINUOUS
 62
     7
 10
1697.354584739104
 20
968.5172069336443
 30
0.0
  0
VERTEX
  5
28C
  8
0
  6
CONTINUOUS
 62
     7
 10
1697.355433388522
 20
968.5207806685848
 30
0.0
  0
VERTEX
  5
28D
  8
0
  6
CONTINUOUS
 62
     7
 10
1697.356364242085
 20
968.5243980474064
 30
0.0
  0
VERTEX
  5
28E
  8
0
  6
CONTINUOUS
 62
     7
 10
1697.357380330587
 20
968.5280570929139
 30
0.0
  0
VERTEX
  5
28F
  8
0
  6
CONTINUOUS
 62
     7
 10
1697.358484684822
 20
968.5317558279124
 30
0.0
  0
VERTEX
  5
290
  8
0
  6
CONTINUOUS
 62
     7
 10
1697.359680335583
 20
968.5354922752073
 30
0.0
  0
VERTEX
  5
291
  8
0
  6
CONTINUOUS
 62
     7
 10
1697.360970313666
 20
968.5392644576033
 30
0.0
  0
VERTEX
  5
292
  8
0
  6
CONTINUOUS
 62
     7
 10
1697.362357649863
 20
968.5430703979059
 30
0.0
  0
VERTEX
  5
293
  8
0
  6
CONTINUOUS
 62
     7
 10
1697.363845374968
 20
968.5469081189195
 30
0.0
  0
VERTEX
  5
294
  8
0
  6
CONTINUOUS
 62
     7
 10
1697.365436519775
 20
968.5507756434498
 30
0.0
  0
VERTEX
  5
295
  8
0
  6
CONTINUOUS
 62
     7
 10
1697.367134115078
 20
968.5546709943014
 30
0.0
  0
VERTEX
  5
296
  8
0
  6
CONTINUOUS
 62
     7
 10
1697.368941204228
 20
968.5585921164568
 30
0.0
  0
VERTEX
  5
297
  8
0
  6
CONTINUOUS
 62
     7
 10
1697.370861053136
 20
968.5625355754956
 30
0.0
  0
VERTEX
  5
298
  8
0
  6
CONTINUOUS
 62
     7
 10
1697.372897118717
 20
968.5664967532028
 30
0.0
  0
VERTEX
  5
299
  8
0
  6
CONTINUOUS
 62
     7
 10
1697.375052864083
 20
968.5704709929483
 30
0.0
  0
VERTEX
  5
29A
  8
0
  6
CONTINUOUS
 62
     7
 10
1697.377331752346
 20
968.5744536381015
 30
0.0
  0
VERTEX
  5
29B
  8
0
  6
CONTINUOUS
 62
     7
 10
1697.379737246619
 20
968.5784400320324
 30
0.0
  0
VERTEX
  5
29C
  8
0
  6
CONTINUOUS
 62
     7
 10
1697.382272810015
 20
968.5824255181107
 30
0.0
  0
VERTEX
  5
29D
  8
0
  6
CONTINUOUS
 62
     7
 10
1697.384941905644
 20
968.586405439706
 30
0.0
  0
VERTEX
  5
29E
  8
0
  6
CONTINUOUS
 62
     7
 10
1697.387747996621
 20
968.5903751401888
 30
0.0
  0
VERTEX
  5
29F
  8
0
  6
CONTINUOUS
 62
     7
 10
1697.390694546057
 20
968.5943299629282
 30
0.0
  0
VERTEX
  5
2A0
  8
0
  6
CONTINUOUS
 62
     7
 10
1697.393785017063
 20
968.5982652512938
 30
0.0
  0
VERTEX
  5
2A1
  8
0
  6
CONTINUOUS
 62
     7
 10
1697.397022872753
 20
968.602176348656
 30
0.0
  0
VERTEX
  5
2A2
  8
0
  6
CONTINUOUS
 62
     7
 10
1697.400411576239
 20
968.6060585983844
 30
0.0
  0
VERTEX
  5
2A3
  8
0
  6
CONTINUOUS
 62
     7
 10
1697.403954590633
 20
968.6099073438486
 30
0.0
  0
VERTEX
  5
2A4
  8
0
  6
CONTINUOUS
 62
     7
 10
1697.407655377441
 20
968.613717927106
 30
0.0
  0
VERTEX
  5
2A5
  8
0
  6
CONTINUOUS
 62
     7
 10
1697.411516703311
 20
968.6174851229263
 30
0.0
  0
VERTEX
  5
2A6
  8
0
  6
CONTINUOUS
 62
     7
 10
1697.415539558172
 20
968.6212022555366
 30
0.0
  0
VERTEX
  5
2A7
  8
0
  6
CONTINUOUS
 62
     7
 10
1697.41972465202
 20
968.6248624206273
 30
0.0
  0
VERTEX
  5
2A8
  8
0
  6
CONTINUOUS
 62
     7
 10
1697.424072694854
 20
968.6284587138888
 30
0.0
  0
VERTEX
  5
2A9
  8
0
  6
CONTINUOUS
 62
     7
 10
1697.42858439667
 20
968.6319842310113
 30
0.0
  0
VERTEX
  5
2AA
  8
0
  6
CONTINUOUS
 62
     7
 10
1697.433260467466
 20
968.6354320676854
 30
0.0
  0
VERTEX
  5
2AB
  8
0
  6
CONTINUOUS
 62
     7
 10
1697.438101617242
 20
968.6387953196014
 30
0.0
  0
VERTEX
  5
2AC
  8
0
  6
CONTINUOUS
 62
     7
 10
1697.443108555994
 20
968.6420670824498
 30
0.0
  0
VERTEX
  5
2AD
  8
0
  6
CONTINUOUS
 62
     7
 10
1697.44828199372
 20
968.6452404519205
 30
0.0
  0
VERTEX
  5
2AE
  8
0
  6
CONTINUOUS
 62
     7
 10
1697.453622640414
 20
968.6483085236946
 30
0.0
  0
VERTEX
  5
2AF
  8
0
  6
CONTINUOUS
 62
     7
 10
1697.459129982562
 20
968.6512618418537
 30
0.0
  0
VERTEX
  5
2B0
  8
0
  6
CONTINUOUS
 62
     7
 10
1697.464798840219
 20
968.6540812187118
 30
0.0
  0
VERTEX
  5
2B1
  8
0
  6
CONTINUOUS
 62
     7
 10
1697.470622921104
 20
968.6567451468306
 30
0.0
  0
VERTEX
  5
2B2
  8
0
  6
CONTINUOUS
 62
     7
 10
1697.476595932937
 20
968.6592321187711
 30
0.0
  0
VERTEX
  5
2B3
  8
0
  6
CONTINUOUS
 62
     7
 10
1697.482711583436
 20
968.6615206270944
 30
0.0
  0
VERTEX
  5
2B4
  8
0
  6
CONTINUOUS
 62
     7
 10
1697.488963580322
 20
968.6635891643621
 30
0.0
  0
VERTEX
  5
2B5
  8
0
  6
CONTINUOUS
 62
     7
 10
1697.495345631315
 20
968.6654162231356
 30
0.0
  0
VERTEX
  5
2B6
  8
0
  6
CONTINUOUS
 62
     7
 10
1697.501851212047
 20
968.6669816711174
 30
0.0
  0
VERTEX
  5
2B7
  8
0
  6
CONTINUOUS
 62
     7
 10
1697.508468985118
 20
968.6682938939442
 30
0.0
  0
VERTEX
  5
2B8
  8
0
  6
CONTINUOUS
 62
     7
 10
1697.515183074832
 20
968.669388167312
 30
0.0
  0
VERTEX
  5
2B9
  8
0
  6
CONTINUOUS
 62
     7
 10
1697.521977428416
 20
968.6703008161309
 30
0.0
  0
VERTEX
  5
2BA
  8
0
  6
CONTINUOUS
 62
     7
 10
1697.528835993095
 20
968.6710681653099
 30
0.0
  0
VERTEX
  5
2BB
  8
0
  6
CONTINUOUS
 62
     7
 10
1697.535742716095
 20
968.6717265397594
 30
0.0
  0
VERTEX
  5
2BC
  8
0
  6
CONTINUOUS
 62
     7
 10
1697.542681544644
 20
968.6723122643893
 30
0.0
  0
VERTEX
  5
2BD
  8
0
  6
CONTINUOUS
 62
     7
 10
1697.549636425967
 20
968.6728616641094
 30
0.0
  0
SEQEND
  5
3C3
  8
0
  6
CONTINUOUS
 62
     7
  0
LINE
  5
9C
  8
0
  6
CONTINUOUS
 62
     7
 10
1698.349636425967
 20
968.1867975662932
 30
0.0
 11
1698.349636425967
 21
968.6728616641094
 31
0.0
  0
LINE
  5
9D
  8
0
  6
CONTINUOUS
 62
     7
 10
1697.549636425967
 20
968.1867975662932
 30
0.0
 11
1698.349636425967
 21
968.1867975662932
 31
0.0
  0
LINE
  5
9E
  8
0
  6
CONTINUOUS
 62
     7
 10
1697.349636425967
 20
968.3728616641095
 30
0.0
 11
1697.349636425967
 21
968.3840103858565
 31
0.0
  0
LINE
  5
9F
  8
0
  6
CONTINUOUS
 62
     7
 10
1698.349636425967
 20
968.1728616641094
 30
0.0
 11
1698.349636425967
 21
968.1867975662932
 31
0.0
  0
LINE
  5
A0
  8
0
  6
CONTINUOUS
 62
     7
 10
1697.349636425967
 20
968.4728616641094
 30
0.0
 11
1697.349636425967
 21
968.6728616641095
 31
0.0
  0
LINE
  5
A1
  8
0
  6
CONTINUOUS
 62
     7
 10
1996.849636425967
 20
968.1867975662932
 30
0.0
 11
2290.849636425967
 21
968.1867975662934
 31
0.0
  0
LINE
  5
A2
  8
0
  6
CONTINUOUS
 62
     7
 10
2290.849636425967
 20
968.6728616641096
 30
0.0
 11
2290.849636425967
 21
968.1867975662934
 31
0.0
  0
LINE
  5
A3
  8
0
  6
CONTINUOUS
 62
     7
 10
2290.849636425967
 20
968.1867975662934
 30
0.0
 11
2290.849636425967
 21
968.1728616641096
 31
0.0
  0
LINE
  5
A4
  8
0
  6
CONTINUOUS
 62
     7
 10
1698.349636425967
 20
968.1867975662932
 30
0.0
 11
1992.349636425967
 21
968.1867975662934
 31
0.0
  0
LINE
  5
A5
  8
0
  6
CONTINUOUS
 62
     7
 10
1992.349636425967
 20
968.6728616641096
 30
0.0
 11
1992.349636425967
 21
968.1867975662934
 31
0.0
  0
LINE
  5
A6
  8
0
  6
CONTINUOUS
 62
     7
 10
1992.349636425967
 20
968.1867975662934
 30
0.0
 11
1992.349636425967
 21
968.1728616641096
 31
0.0
  0
LINE
  5
A7
  8
0
  6
CONTINUOUS
 62
     7
 10
2291.849636425967
 20
968.4728616641096
 30
0.0
 11
2291.849636425967
 21
968.3840103858568
 31
0.0
  0
ARC
  5
A8
  8
0
  6
CONTINUOUS
 62
     7
 10
2291.651020305716
 20
968.3854138237808
 30
0.0
 40
0.1986210785930438
 50
269.6007920653296
 51
359.595150023569
  0
LINE
  5
A9
  8
0
  6
CONTINUOUS
 62
     7
 10
2291.649636425966
 20
968.1867975662934
 30
0.0
 11
2291.649636425966
 21
968.6728616641096
 31
0.0
  0
POLYLINE
  5
AA
  8
0
  6
CONTINUOUS
 62
     7
 66
     1
 10
0.0
 20
0.0
 30
0.0
  0
VERTEX
  5
2BE
  8
0
  6
CONTINUOUS
 62
     7
 10
2291.849636425967
 20
968.4728616641097
 30
0.0
  0
VERTEX
  5
2BF
  8
0
  6
CONTINUOUS
 62
     7
 10
2291.849618989204
 20
968.4756195962871
 30
0.0
  0
VERTEX
  5
2C0
  8
0
  6
CONTINUOUS
 62
     7
 10
2291.849563191441
 20
968.478446036035
 30
0.0
  0
VERTEX
  5
2C1
  8
0
  6
CONTINUOUS
 62
     7
 10
2291.849464589852
 20
968.4813418231984
 30
0.0
  0
VERTEX
  5
2C2
  8
0
  6
CONTINUOUS
 62
     7
 10
2291.849320153643
 20
968.484304980582
 30
0.0
  0
VERTEX
  5
2C3
  8
0
  6
CONTINUOUS
 62
     7
 10
2291.849126852019
 20
968.4873335309904
 30
0.0
  0
VERTEX
  5
2C4
  8
0
  6
CONTINUOUS
 62
     7
 10
2291.848881654189
 20
968.4904254972295
 30
0.0
  0
VERTEX
  5
2C5
  8
0
  6
CONTINUOUS
 62
     7
 10
2291.848581529358
 20
968.4935789021043
 30
0.0
  0
VERTEX
  5
2C6
  8
0
  6
CONTINUOUS
 62
     7
 10
2291.848223446732
 20
968.4967917684193
 30
0.0
  0
VERTEX
  5
2C7
  8
0
  6
CONTINUOUS
 62
     7
 10
2291.847804375517
 20
968.50006211898
 30
0.0
  0
VERTEX
  5
2C8
  8
0
  6
CONTINUOUS
 62
     7
 10
2291.847321284919
 20
968.5033879765914
 30
0.0
  0
VERTEX
  5
2C9
  8
0
  6
CONTINUOUS
 62
     7
 10
2291.846771144146
 20
968.5067673640586
 30
0.0
  0
VERTEX
  5
2CA
  8
0
  6
CONTINUOUS
 62
     7
 10
2291.846150922403
 20
968.5101983041864
 30
0.0
  0
VERTEX
  5
2CB
  8
0
  6
CONTINUOUS
 62
     7
 10
2291.845457588894
 20
968.51367881978
 30
0.0
  0
VERTEX
  5
2CC
  8
0
  6
CONTINUOUS
 62
     7
 10
2291.844688112829
 20
968.5172069336445
 30
0.0
  0
VERTEX
  5
2CD
  8
0
  6
CONTINUOUS
 62
     7
 10
2291.843839463412
 20
968.520780668585
 30
0.0
  0
VERTEX
  5
2CE
  8
0
  6
CONTINUOUS
 62
     7
 10
2291.842908609849
 20
968.5243980474064
 30
0.0
  0
VERTEX
  5
2CF
  8
0
  6
CONTINUOUS
 62
     7
 10
2291.841892521347
 20
968.5280570929139
 30
0.0
  0
VERTEX
  5
2D0
  8
0
  6
CONTINUOUS
 62
     7
 10
2291.840788167112
 20
968.5317558279127
 30
0.0
  0
VERTEX
  5
2D1
  8
0
  6
CONTINUOUS
 62
     7
 10
2291.839592516351
 20
968.5354922752076
 30
0.0
  0
VERTEX
  5
2D2
  8
0
  6
CONTINUOUS
 62
     7
 10
2291.838302538268
 20
968.5392644576036
 30
0.0
  0
VERTEX
  5
2D3
  8
0
  6
CONTINUOUS
 62
     7
 10
2291.836915202071
 20
968.543070397906
 30
0.0
  0
VERTEX
  5
2D4
  8
0
  6
CONTINUOUS
 62
     7
 10
2291.835427476966
 20
968.5469081189198
 30
0.0
  0
VERTEX
  5
2D5
  8
0
  6
CONTINUOUS
 62
     7
 10
2291.833836332159
 20
968.55077564345
 30
0.0
  0
VERTEX
  5
2D6
  8
0
  6
CONTINUOUS
 62
     7
 10
2291.832138736856
 20
968.5546709943017
 30
0.0
  0
VERTEX
  5
2D7
  8
0
  6
CONTINUOUS
 62
     7
 10
2291.830331647706
 20
968.5585921164569
 30
0.0
  0
VERTEX
  5
2D8
  8
0
  6
CONTINUOUS
 62
     7
 10
2291.828411798798
 20
968.5625355754958
 30
0.0
  0
VERTEX
  5
2D9
  8
0
  6
CONTINUOUS
 62
     7
 10
2291.826375733217
 20
968.5664967532032
 30
0.0
  0
VERTEX
  5
2DA
  8
0
  6
CONTINUOUS
 62
     7
 10
2291.824219987851
 20
968.5704709929486
 30
0.0
  0
VERTEX
  5
2DB
  8
0
  6
CONTINUOUS
 62
     7
 10
2291.821941099588
 20
968.5744536381019
 30
0.0
  0
VERTEX
  5
2DC
  8
0
  6
CONTINUOUS
 62
     7
 10
2291.819535605314
 20
968.5784400320327
 30
0.0
  0
VERTEX
  5
2DD
  8
0
  6
CONTINUOUS
 62
     7
 10
2291.817000041919
 20
968.5824255181109
 30
0.0
  0
VERTEX
  5
2DE
  8
0
  6
CONTINUOUS
 62
     7
 10
2291.814330946289
 20
968.5864054397065
 30
0.0
  0
VERTEX
  5
2DF
  8
0
  6
CONTINUOUS
 62
     7
 10
2291.811524855312
 20
968.590375140189
 30
0.0
  0
VERTEX
  5
2E0
  8
0
  6
CONTINUOUS
 62
     7
 10
2291.808578305877
 20
968.5943299629282
 30
0.0
  0
VERTEX
  5
2E1
  8
0
  6
CONTINUOUS
 62
     7
 10
2291.805487834871
 20
968.5982652512943
 30
0.0
  0
VERTEX
  5
2E2
  8
0
  6
CONTINUOUS
 62
     7
 10
2291.80224997918
 20
968.6021763486564
 30
0.0
  0
VERTEX
  5
2E3
  8
0
  6
CONTINUOUS
 62
     7
 10
2291.798861275694
 20
968.6060585983847
 30
0.0
  0
VERTEX
  5
2E4
  8
0
  6
CONTINUOUS
 62
     7
 10
2291.7953182613
 20
968.6099073438488
 30
0.0
  0
VERTEX
  5
2E5
  8
0
  6
CONTINUOUS
 62
     7
 10
2291.791617474494
 20
968.6137179271062
 30
0.0
  0
VERTEX
  5
2E6
  8
0
  6
CONTINUOUS
 62
     7
 10
2291.787756148623
 20
968.6174851229266
 30
0.0
  0
VERTEX
  5
2E7
  8
0
  6
CONTINUOUS
 62
     7
 10
2291.783733293762
 20
968.6212022555367
 30
0.0
  0
VERTEX
  5
2E8
  8
0
  6
CONTINUOUS
 62
     7
 10
2291.779548199913
 20
968.6248624206276
 30
0.0
  0
VERTEX
  5
2E9
  8
0
  6
CONTINUOUS
 62
     7
 10
2291.77520015708
 20
968.6284587138889
 30
0.0
  0
VERTEX
  5
2EA
  8
0
  6
CONTINUOUS
 62
     7
 10
2291.770688455264
 20
968.6319842310116
 30
0.0
  0
VERTEX
  5
2EB
  8
0
  6
CONTINUOUS
 62
     7
 10
2291.766012384467
 20
968.6354320676858
 30
0.0
  0
VERTEX
  5
2EC
  8
0
  6
CONTINUOUS
 62
     7
 10
2291.761171234692
 20
968.6387953196019
 30
0.0
  0
VERTEX
  5
2ED
  8
0
  6
CONTINUOUS
 62
     7
 10
2291.756164295939
 20
968.6420670824498
 30
0.0
  0
VERTEX
  5
2EE
  8
0
  6
CONTINUOUS
 62
     7
 10
2291.750990858213
 20
968.6452404519207
 30
0.0
  0
VERTEX
  5
2EF
  8
0
  6
CONTINUOUS
 62
     7
 10
2291.74565021152
 20
968.6483085236949
 30
0.0
  0
VERTEX
  5
2F0
  8
0
  6
CONTINUOUS
 62
     7
 10
2291.740142869372
 20
968.6512618418537
 30
0.0
  0
VERTEX
  5
2F1
  8
0
  6
CONTINUOUS
 62
     7
 10
2291.734474011715
 20
968.654081218712
 30
0.0
  0
VERTEX
  5
2F2
  8
0
  6
CONTINUOUS
 62
     7
 10
2291.72864993083
 20
968.6567451468306
 30
0.0
  0
VERTEX
  5
2F3
  8
0
  6
CONTINUOUS
 62
     7
 10
2291.722676918997
 20
968.6592321187711
 30
0.0
  0
VERTEX
  5
2F4
  8
0
  6
CONTINUOUS
 62
     7
 10
2291.716561268498
 20
968.6615206270947
 30
0.0
  0
VERTEX
  5
2F5
  8
0
  6
CONTINUOUS
 62
     7
 10
2291.710309271612
 20
968.6635891643623
 30
0.0
  0
VERTEX
  5
2F6
  8
0
  6
CONTINUOUS
 62
     7
 10
2291.703927220619
 20
968.6654162231355
 30
0.0
  0
VERTEX
  5
2F7
  8
0
  6
CONTINUOUS
 62
     7
 10
2291.697421639887
 20
968.6669816711174
 30
0.0
  0
VERTEX
  5
2F8
  8
0
  6
CONTINUOUS
 62
     7
 10
2291.690803866817
 20
968.6682938939445
 30
0.0
  0
VERTEX
  5
2F9
  8
0
  6
CONTINUOUS
 62
     7
 10
2291.684089777102
 20
968.6693881673124
 30
0.0
  0
VERTEX
  5
2FA
  8
0
  6
CONTINUOUS
 62
     7
 10
2291.677295423518
 20
968.6703008161309
 30
0.0
  0
VERTEX
  5
2FB
  8
0
  6
CONTINUOUS
 62
     7
 10
2291.670436858838
 20
968.67106816531
 30
0.0
  0
VERTEX
  5
2FC
  8
0
  6
CONTINUOUS
 62
     7
 10
2291.663530135838
 20
968.6717265397599
 30
0.0
  0
VERTEX
  5
2FD
  8
0
  6
CONTINUOUS
 62
     7
 10
2291.65659130729
 20
968.6723122643896
 30
0.0
  0
VERTEX
  5
2FE
  8
0
  6
CONTINUOUS
 62
     7
 10
2291.649636425966
 20
968.6728616641097
 30
0.0
  0
SEQEND
  5
3C4
  8
0
  6
CONTINUOUS
 62
     7
  0
LINE
  5
AB
  8
0
  6
CONTINUOUS
 62
     7
 10
2290.849636425967
 20
968.1867975662934
 30
0.0
 11
2291.649636425966
 21
968.1867975662934
 31
0.0
  0
LINE
  5
AC
  8
0
  6
CONTINUOUS
 62
     7
 10
2291.849636425967
 20
968.3840103858568
 30
0.0
 11
2291.849636425967
 21
968.3728616641097
 31
0.0
  0
LINE
  5
AD
  8
0
  6
CONTINUOUS
 62
     7
 10
2291.849636425967
 20
968.6728616641096
 30
0.0
 11
2291.849636425967
 21
968.4728616641096
 31
0.0
  0
LINE
  5
AE
  8
0
  6
CONTINUOUS
 62
     7
 10
1993.349636425967
 20
968.4728616641096
 30
0.0
 11
1993.349636425967
 21
968.3840103858566
 31
0.0
  0
ARC
  5
AF
  8
0
  6
CONTINUOUS
 62
     7
 10
1993.151020305717
 20
968.3854138237803
 30
0.0
 40
0.1986210785924754
 50
269.6007920653285
 51
359.5951500236987
  0
LINE
  5
B0
  8
0
  6
CONTINUOUS
 62
     7
 10
1993.149636425967
 20
968.1867975662934
 30
0.0
 11
1993.149636425967
 21
968.6728616641096
 31
0.0
  0
POLYLINE
  5
B1
  8
0
  6
CONTINUOUS
 62
     7
 66
     1
 10
0.0
 20
0.0
 30
0.0
  0
VERTEX
  5
2FF
  8
0
  6
CONTINUOUS
 62
     7
 10
1993.349636425967
 20
968.4728616641096
 30
0.0
  0
VERTEX
  5
300
  8
0
  6
CONTINUOUS
 62
     7
 10
1993.349618989205
 20
968.4756195962872
 30
0.0
  0
VERTEX
  5
301
  8
0
  6
CONTINUOUS
 62
     7
 10
1993.349563191442
 20
968.4784460360352
 30
0.0
  0
VERTEX
  5
302
  8
0
  6
CONTINUOUS
 62
     7
 10
1993.349464589852
 20
968.4813418231981
 30
0.0
  0
VERTEX
  5
303
  8
0
  6
CONTINUOUS
 62
     7
 10
1993.349320153643
 20
968.4843049805817
 30
0.0
  0
VERTEX
  5
304
  8
0
  6
CONTINUOUS
 62
     7
 10
1993.34912685202
 20
968.4873335309906
 30
0.0
  0
VERTEX
  5
305
  8
0
  6
CONTINUOUS
 62
     7
 10
1993.34888165419
 20
968.4904254972297
 30
0.0
  0
VERTEX
  5
306
  8
0
  6
CONTINUOUS
 62
     7
 10
1993.348581529359
 20
968.4935789021043
 30
0.0
  0
VERTEX
  5
307
  8
0
  6
CONTINUOUS
 62
     7
 10
1993.348223446732
 20
968.4967917684194
 30
0.0
  0
VERTEX
  5
308
  8
0
  6
CONTINUOUS
 62
     7
 10
1993.347804375518
 20
968.5000621189803
 30
0.0
  0
VERTEX
  5
309
  8
0
  6
CONTINUOUS
 62
     7
 10
1993.34732128492
 20
968.5033879765915
 30
0.0
  0
VERTEX
  5
30A
  8
0
  6
CONTINUOUS
 62
     7
 10
1993.346771144147
 20
968.5067673640585
 30
0.0
  0
VERTEX
  5
30B
  8
0
  6
CONTINUOUS
 62
     7
 10
1993.346150922403
 20
968.5101983041862
 30
0.0
  0
VERTEX
  5
30C
  8
0
  6
CONTINUOUS
 62
     7
 10
1993.345457588895
 20
968.5136788197799
 30
0.0
  0
VERTEX
  5
30D
  8
0
  6
CONTINUOUS
 62
     7
 10
1993.344688112829
 20
968.5172069336445
 30
0.0
  0
VERTEX
  5
30E
  8
0
  6
CONTINUOUS
 62
     7
 10
1993.343839463412
 20
968.5207806685848
 30
0.0
  0
VERTEX
  5
30F
  8
0
  6
CONTINUOUS
 62
     7
 10
1993.342908609849
 20
968.5243980474064
 30
0.0
  0
VERTEX
  5
310
  8
0
  6
CONTINUOUS
 62
     7
 10
1993.341892521347
 20
968.5280570929139
 30
0.0
  0
VERTEX
  5
311
  8
0
  6
CONTINUOUS
 62
     7
 10
1993.340788167112
 20
968.5317558279125
 30
0.0
  0
VERTEX
  5
312
  8
0
  6
CONTINUOUS
 62
     7
 10
1993.33959251635
 20
968.5354922752074
 30
0.0
  0
VERTEX
  5
313
  8
0
  6
CONTINUOUS
 62
     7
 10
1993.338302538268
 20
968.5392644576036
 30
0.0
  0
VERTEX
  5
314
  8
0
  6
CONTINUOUS
 62
     7
 10
1993.336915202071
 20
968.5430703979059
 30
0.0
  0
VERTEX
  5
315
  8
0
  6
CONTINUOUS
 62
     7
 10
1993.335427476966
 20
968.5469081189198
 30
0.0
  0
VERTEX
  5
316
  8
0
  6
CONTINUOUS
 62
     7
 10
1993.333836332159
 20
968.5507756434499
 30
0.0
  0
VERTEX
  5
317
  8
0
  6
CONTINUOUS
 62
     7
 10
1993.332138736856
 20
968.5546709943017
 30
0.0
  0
VERTEX
  5
318
  8
0
  6
CONTINUOUS
 62
     7
 10
1993.330331647706
 20
968.5585921164569
 30
0.0
  0
VERTEX
  5
319
  8
0
  6
CONTINUOUS
 62
     7
 10
1993.328411798798
 20
968.5625355754958
 30
0.0
  0
VERTEX
  5
31A
  8
0
  6
CONTINUOUS
 62
     7
 10
1993.326375733217
 20
968.5664967532033
 30
0.0
  0
VERTEX
  5
31B
  8
0
  6
CONTINUOUS
 62
     7
 10
1993.324219987851
 20
968.5704709929485
 30
0.0
  0
VERTEX
  5
31C
  8
0
  6
CONTINUOUS
 62
     7
 10
1993.321941099587
 20
968.5744536381017
 30
0.0
  0
VERTEX
  5
31D
  8
0
  6
CONTINUOUS
 62
     7
 10
1993.319535605314
 20
968.5784400320325
 30
0.0
  0
VERTEX
  5
31E
  8
0
  6
CONTINUOUS
 62
     7
 10
1993.317000041919
 20
968.5824255181111
 30
0.0
  0
VERTEX
  5
31F
  8
0
  6
CONTINUOUS
 62
     7
 10
1993.314330946288
 20
968.5864054397064
 30
0.0
  0
VERTEX
  5
320
  8
0
  6
CONTINUOUS
 62
     7
 10
1993.311524855313
 20
968.590375140189
 30
0.0
  0
VERTEX
  5
321
  8
0
  6
CONTINUOUS
 62
     7
 10
1993.308578305878
 20
968.5943299629284
 30
0.0
  0
VERTEX
  5
322
  8
0
  6
CONTINUOUS
 62
     7
 10
1993.305487834871
 20
968.5982652512942
 30
0.0
  0
VERTEX
  5
323
  8
0
  6
CONTINUOUS
 62
     7
 10
1993.30224997918
 20
968.6021763486564
 30
0.0
  0
VERTEX
  5
324
  8
0
  6
CONTINUOUS
 62
     7
 10
1993.298861275694
 20
968.6060585983845
 30
0.0
  0
VERTEX
  5
325
  8
0
  6
CONTINUOUS
 62
     7
 10
1993.295318261301
 20
968.6099073438489
 30
0.0
  0
VERTEX
  5
326
  8
0
  6
CONTINUOUS
 62
     7
 10
1993.291617474493
 20
968.6137179271062
 30
0.0
  0
VERTEX
  5
327
  8
0
  6
CONTINUOUS
 62
     7
 10
1993.287756148623
 20
968.6174851229266
 30
0.0
  0
VERTEX
  5
328
  8
0
  6
CONTINUOUS
 62
     7
 10
1993.283733293762
 20
968.6212022555368
 30
0.0
  0
VERTEX
  5
329
  8
0
  6
CONTINUOUS
 62
     7
 10
1993.279548199914
 20
968.6248624206274
 30
0.0
  0
VERTEX
  5
32A
  8
0
  6
CONTINUOUS
 62
     7
 10
1993.27520015708
 20
968.6284587138889
 30
0.0
  0
VERTEX
  5
32B
  8
0
  6
CONTINUOUS
 62
     7
 10
1993.270688455264
 20
968.6319842310114
 30
0.0
  0
VERTEX
  5
32C
  8
0
  6
CONTINUOUS
 62
     7
 10
1993.266012384467
 20
968.6354320676854
 30
0.0
  0
VERTEX
  5
32D
  8
0
  6
CONTINUOUS
 62
     7
 10
1993.261171234692
 20
968.6387953196017
 30
0.0
  0
VERTEX
  5
32E
  8
0
  6
CONTINUOUS
 62
     7
 10
1993.25616429594
 20
968.6420670824499
 30
0.0
  0
VERTEX
  5
32F
  8
0
  6
CONTINUOUS
 62
     7
 10
1993.250990858214
 20
968.6452404519207
 30
0.0
  0
VERTEX
  5
330
  8
0
  6
CONTINUOUS
 62
     7
 10
1993.245650211521
 20
968.6483085236948
 30
0.0
  0
VERTEX
  5
331
  8
0
  6
CONTINUOUS
 62
     7
 10
1993.240142869372
 20
968.651261841854
 30
0.0
  0
VERTEX
  5
332
  8
0
  6
CONTINUOUS
 62
     7
 10
1993.234474011715
 20
968.6540812187119
 30
0.0
  0
VERTEX
  5
333
  8
0
  6
CONTINUOUS
 62
     7
 10
1993.228649930831
 20
968.6567451468309
 30
0.0
  0
VERTEX
  5
334
  8
0
  6
CONTINUOUS
 62
     7
 10
1993.222676918998
 20
968.6592321187712
 30
0.0
  0
VERTEX
  5
335
  8
0
  6
CONTINUOUS
 62
     7
 10
1993.216561268498
 20
968.6615206270945
 30
0.0
  0
VERTEX
  5
336
  8
0
  6
CONTINUOUS
 62
     7
 10
1993.210309271612
 20
968.6635891643624
 30
0.0
  0
VERTEX
  5
337
  8
0
  6
CONTINUOUS
 62
     7
 10
1993.203927220619
 20
968.6654162231355
 30
0.0
  0
VERTEX
  5
338
  8
0
  6
CONTINUOUS
 62
     7
 10
1993.197421639887
 20
968.6669816711175
 30
0.0
  0
VERTEX
  5
339
  8
0
  6
CONTINUOUS
 62
     7
 10
1993.190803866816
 20
968.6682938939445
 30
0.0
  0
VERTEX
  5
33A
  8
0
  6
CONTINUOUS
 62
     7
 10
1993.184089777102
 20
968.6693881673124
 30
0.0
  0
VERTEX
  5
33B
  8
0
  6
CONTINUOUS
 62
     7
 10
1993.177295423518
 20
968.6703008161307
 30
0.0
  0
VERTEX
  5
33C
  8
0
  6
CONTINUOUS
 62
     7
 10
1993.170436858839
 20
968.6710681653101
 30
0.0
  0
VERTEX
  5
33D
  8
0
  6
CONTINUOUS
 62
     7
 10
1993.163530135838
 20
968.6717265397597
 30
0.0
  0
VERTEX
  5
33E
  8
0
  6
CONTINUOUS
 62
     7
 10
1993.156591307289
 20
968.6723122643896
 30
0.0
  0
VERTEX
  5
33F
  8
0
  6
CONTINUOUS
 62
     7
 10
1993.149636425967
 20
968.6728616641096
 30
0.0
  0
SEQEND
  5
3C5
  8
0
  6
CONTINUOUS
 62
     7
  0
LINE
  5
B2
  8
0
  6
CONTINUOUS
 62
     7
 10
1992.349636425967
 20
968.1867975662934
 30
0.0
 11
1993.149636425967
 21
968.1867975662934
 31
0.0
  0
LINE
  5
B3
  8
0
  6
CONTINUOUS
 62
     7
 10
1993.349636425967
 20
968.3840103858566
 30
0.0
 11
1993.349636425967
 21
968.3728616641097
 31
0.0
  0
LINE
  5
B4
  8
0
  6
CONTINUOUS
 62
     7
 10
1993.349636425967
 20
968.6728616641094
 30
0.0
 11
1993.349636425967
 21
968.4728616641096
 31
0.0
  0
LINE
  5
B5
  8
0
  6
CONTINUOUS
 62
     7
 10
2288.849636425966
 20
968.6728616641096
 30
0.0
 11
2288.849636425966
 21
969.1728616641096
 31
0.0
  0
LINE
  5
B6
  8
0
  6
CONTINUOUS
 62
     7
 10
1998.849636425967
 20
968.6728616641096
 30
0.0
 11
2288.849636425966
 21
968.6728616641096
 31
0.0
  0
LINE
  5
B7
  8
0
  6
CONTINUOUS
 62
     7
 10
1998.849636425967
 20
969.1728616641096
 30
0.0
 11
1998.849636425967
 21
968.6728616641096
 31
0.0
  0
LINE
  5
B8
  8
0
  6
CONTINUOUS
 62
     7
 10
2288.849636425966
 20
969.1728616641096
 30
0.0
 11
1998.849636425967
 21
969.1728616641096
 31
0.0
  0
LINE
  5
B9
  8
0
  6
CONTINUOUS
 62
     7
 10
2288.849636425966
 20
969.1728616641096
 30
0.0
 11
2291.849636425967
 21
969.1728616641096
 31
0.0
  0
LINE
  5
BA
  8
0
  6
CONTINUOUS
 62
     7
 10
2291.849636425967
 20
969.1728616641096
 30
0.0
 11
2291.849636425967
 21
968.6728616641096
 31
0.0
  0
LINE
  5
BB
  8
0
  6
CONTINUOUS
 62
     7
 10
2291.849636425967
 20
968.6728616641096
 30
0.0
 11
2288.849636425966
 21
968.6728616641096
 31
0.0
  0
LINE
  5
BC
  8
0
  6
CONTINUOUS
 62
     7
 10
1995.849636425967
 20
968.6728616641096
 30
0.0
 11
1995.849636425967
 21
969.1728616641096
 31
0.0
  0
LINE
  5
BD
  8
0
  6
CONTINUOUS
 62
     7
 10
1998.849636425967
 20
968.6728616641096
 30
0.0
 11
1995.849636425967
 21
968.6728616641096
 31
0.0
  0
LINE
  5
BE
  8
0
  6
CONTINUOUS
 62
     7
 10
1995.849636425967
 20
969.1728616641096
 30
0.0
 11
1998.849636425967
 21
969.1728616641096
 31
0.0
  0
LINE
  5
BF
  8
0
  6
CONTINUOUS
 62
     7
 10
1697.349636425967
 20
968.6728616641095
 30
0.0
 11
1697.349636425967
 21
969.1728616641095
 31
0.0
  0
LINE
  5
C0
  8
0
  6
CONTINUOUS
 62
     7
 10
1700.349636425967
 20
969.1728616641095
 30
0.0
 11
1700.349636425967
 21
968.6728616641095
 31
0.0
  0
LINE
  5
C1
  8
0
  6
CONTINUOUS
 62
     7
 10
1700.349636425967
 20
968.6728616641095
 30
0.0
 11
1697.349636425967
 21
968.6728616641095
 31
0.0
  0
LINE
  5
C2
  8
0
  6
CONTINUOUS
 62
     7
 10
1697.349636425967
 20
969.1728616641095
 30
0.0
 11
1700.349636425967
 21
969.1728616641095
 31
0.0
  0
LINE
  5
C3
  8
0
  6
CONTINUOUS
 62
     7
 10
1990.349636425967
 20
968.6728616641094
 30
0.0
 11
1990.349636425967
 21
969.1728616641094
 31
0.0
  0
LINE
  5
C4
  8
0
  6
CONTINUOUS
 62
     7
 10
1993.349636425967
 20
969.1728616641094
 30
0.0
 11
1993.349636425967
 21
968.6728616641094
 31
0.0
  0
LINE
  5
C5
  8
0
  6
CONTINUOUS
 62
     7
 10
1993.349636425967
 20
968.6728616641094
 30
0.0
 11
1990.349636425967
 21
968.6728616641094
 31
0.0
  0
LINE
  5
C6
  8
0
  6
CONTINUOUS
 62
     7
 10
1990.349636425967
 20
969.1728616641094
 30
0.0
 11
1993.349636425967
 21
969.1728616641094
 31
0.0
  0
LINE
  5
C7
  8
0
  6
CONTINUOUS
 62
     7
 10
1700.349636425967
 20
968.6728616641095
 30
0.0
 11
1990.349636425967
 21
968.6728616641094
 31
0.0
  0
LINE
  5
C8
  8
0
  6
CONTINUOUS
 62
     7
 10
1990.349636425967
 20
969.1728616641094
 30
0.0
 11
1700.349636425967
 21
969.1728616641095
 31
0.0
  0
LINE
  5
C9
  8
0
  6
CONTINUOUS
 62
     7
 10
1990.349636425967
 20
969.1728616641094
 30
0.0
 11
1990.349636425967
 21
1863.17286166411
 31
0.0
  0
LINE
  5
CA
  8
0
  6
CONTINUOUS
 62
     7
 10
1990.349636425967
 20
1863.17286166411
 30
0.0
 11
1993.349636425967
 21
1863.17286166411
 31
0.0
  0
LINE
  5
CB
  8
0
  6
CONTINUOUS
 62
     7
 10
1993.349636425967
 20
1863.17286166411
 30
0.0
 11
1993.349636425967
 21
969.1728616641094
 31
0.0
  0
LINE
  5
CC
  8
0
  6
CONTINUOUS
 62
     7
 10
1697.349636425967
 20
969.1728616641095
 30
0.0
 11
1697.349636425967
 21
1863.17286166411
 31
0.0
  0
LINE
  5
CD
  8
0
  6
CONTINUOUS
 62
     7
 10
1697.349636425967
 20
1863.17286166411
 30
0.0
 11
1700.349636425967
 21
1863.17286166411
 31
0.0
  0
LINE
  5
CE
  8
0
  6
CONTINUOUS
 62
     7
 10
1700.349636425967
 20
1863.17286166411
 30
0.0
 11
1700.349636425967
 21
969.1728616641095
 31
0.0
  0
LINE
  5
CF
  8
0
  6
CONTINUOUS
 62
     7
 10
1700.349636425967
 20
1863.17286166411
 30
0.0
 11
1990.349636425967
 21
1863.17286166411
 31
0.0
  0
LINE
  5
D0
  8
0
  6
CONTINUOUS
 62
     7
 10
1998.849636425967
 20
1863.17286166411
 30
0.0
 11
1998.849636425967
 21
969.1728616641096
 31
0.0
  0
LINE
  5
D1
  8
0
  6
CONTINUOUS
 62
     7
 10
2288.849636425966
 20
969.1728616641096
 30
0.0
 11
2288.849636425966
 21
1863.17286166411
 31
0.0
  0
LINE
  5
D2
  8
0
  6
CONTINUOUS
 62
     7
 10
1998.849636425967
 20
1863.17286166411
 30
0.0
 11
2288.849636425966
 21
1863.17286166411
 31
0.0
  0
LINE
  5
D3
  8
0
  6
CONTINUOUS
 62
     7
 10
2291.849636425967
 20
1863.17286166411
 30
0.0
 11
2291.849636425967
 21
969.1728616641096
 31
0.0
  0
LINE
  5
D4
  8
0
  6
CONTINUOUS
 62
     7
 10
2288.849636425966
 20
1863.17286166411
 30
0.0
 11
2291.849636425967
 21
1863.17286166411
 31
0.0
  0
LINE
  5
D5
  8
0
  6
CONTINUOUS
 62
     7
 10
1995.849636425967
 20
969.1728616641096
 30
0.0
 11
1995.849636425967
 21
1863.17286166411
 31
0.0
  0
LINE
  5
D6
  8
0
  6
CONTINUOUS
 62
     7
 10
1995.849636425967
 20
1863.17286166411
 30
0.0
 11
1998.849636425967
 21
1863.17286166411
 31
0.0
  0
LINE
  5
D7
  8
0
  6
CONTINUOUS
 62
     7
 10
1990.349636425967
 20
1863.17286166411
 30
0.0
 11
1990.349636425967
 21
1863.67286166411
 31
0.0
  0
LINE
  5
D8
  8
0
  6
CONTINUOUS
 62
     7
 10
1700.349636425967
 20
1863.67286166411
 30
0.0
 11
1700.349636425967
 21
1863.17286166411
 31
0.0
  0
LINE
  5
D9
  8
0
  6
CONTINUOUS
 62
     7
 10
1700.349636425967
 20
1863.67286166411
 30
0.0
 11
1990.349636425967
 21
1863.67286166411
 31
0.0
  0
LINE
  5
DA
  8
0
  6
CONTINUOUS
 62
     7
 10
1993.349636425967
 20
1863.67286166411
 30
0.0
 11
1993.349636425967
 21
1863.17286166411
 31
0.0
  0
LINE
  5
DB
  8
0
  6
CONTINUOUS
 62
     7
 10
1990.349636425967
 20
1863.67286166411
 30
0.0
 11
1993.349636425967
 21
1863.67286166411
 31
0.0
  0
LINE
  5
DC
  8
0
  6
CONTINUOUS
 62
     7
 10
1697.349636425967
 20
1863.17286166411
 30
0.0
 11
1697.349636425967
 21
1863.67286166411
 31
0.0
  0
LINE
  5
DD
  8
0
  6
CONTINUOUS
 62
     7
 10
1697.349636425967
 20
1863.67286166411
 30
0.0
 11
1700.349636425967
 21
1863.67286166411
 31
0.0
  0
LINE
  5
DE
  8
0
  6
CONTINUOUS
 62
     7
 10
2288.849636425966
 20
1863.17286166411
 30
0.0
 11
2288.849636425966
 21
1863.67286166411
 31
0.0
  0
LINE
  5
DF
  8
0
  6
CONTINUOUS
 62
     7
 10
2288.849636425966
 20
1863.67286166411
 30
0.0
 11
2291.849636425967
 21
1863.67286166411
 31
0.0
  0
LINE
  5
E0
  8
0
  6
CONTINUOUS
 62
     7
 10
2291.849636425967
 20
1863.67286166411
 30
0.0
 11
2291.849636425967
 21
1863.17286166411
 31
0.0
  0
LINE
  5
E1
  8
0
  6
CONTINUOUS
 62
     7
 10
1995.849636425967
 20
1863.17286166411
 30
0.0
 11
1995.849636425967
 21
1863.67286166411
 31
0.0
  0
LINE
  5
E2
  8
0
  6
CONTINUOUS
 62
     7
 10
1995.849636425967
 20
1863.67286166411
 30
0.0
 11
1998.849636425967
 21
1863.67286166411
 31
0.0
  0
LINE
  5
E3
  8
0
  6
CONTINUOUS
 62
     7
 10
1998.849636425967
 20
1863.67286166411
 30
0.0
 11
1998.849636425967
 21
1863.17286166411
 31
0.0
  0
LINE
  5
E4
  8
0
  6
CONTINUOUS
 62
     7
 10
1998.849636425967
 20
1863.67286166411
 30
0.0
 11
2288.849636425966
 21
1863.67286166411
 31
0.0
  0
LINE
  5
E5
  8
0
  6
CONTINUOUS
 62
     7
 10
2276.349636425967
 20
1864.67286166411
 30
0.0
 11
1712.849636425967
 21
1864.67286166411
 31
0.0
  0
LINE
  5
E6
  8
0
  6
CONTINUOUS
 62
     7
 10
1993.349636425967
 20
1847.67286166411
 30
0.0
 11
1995.849636425967
 21
1847.67286166411
 31
0.0
  0
LINE
  5
E7
  8
0
  6
CONTINUOUS
 62
     7
 10
1712.849636425967
 20
967.1728616641096
 30
0.0
 11
2276.349636425967
 21
967.1728616641097
 31
0.0
  0
LINE
  5
E8
  8
0
  6
CONTINUOUS
 62
     7
 10
1712.849636425967
 20
968.1728616641094
 30
0.0
 11
1712.849636425967
 21
967.1728616641096
 31
0.0
  0
LINE
  5
E9
  8
0
  6
CONTINUOUS
 62
     7
 10
1995.849636425967
 20
984.1728616641096
 30
0.0
 11
1993.349636425967
 21
984.1728616641096
 31
0.0
  0
LINE
  5
EA
  8
0
  6
CONTINUOUS
 62
     7
 10
2276.349636425967
 20
967.1728616641097
 30
0.0
 11
2276.349636425967
 21
968.1728616641096
 31
0.0
  0
LINE
  5
EB
  8
0
  6
CONTINUOUS
 62
     7
 10
1712.849636425967
 20
1865.17286166411
 30
0.0
 11
1712.849636425967
 21
1863.67286166411
 31
0.0
  0
LINE
  5
EC
  8
0
  6
CONTINUOUS
 62
     7
 10
1712.849636425967
 20
968.1728616641094
 30
0.0
 11
1712.849636425967
 21
966.1728616641097
 31
0.0
  0
LINE
  5
ED
  8
0
  6
CONTINUOUS
 62
     7
 10
1712.849636425967
 20
966.1728616641097
 30
0.0
 11
1695.349636425967
 21
966.1728616641097
 31
0.0
  0
LINE
  5
EE
  8
0
  6
CONTINUOUS
 62
     7
 10
1695.349636425967
 20
966.1728616641097
 30
0.0
 11
1695.349636425967
 21
1865.17286166411
 31
0.0
  0
LINE
  5
EF
  8
0
  6
CONTINUOUS
 62
     7
 10
1695.349636425967
 20
1865.17286166411
 30
0.0
 11
1712.849636425967
 21
1865.17286166411
 31
0.0
  0
LINE
  5
F0
  8
0
  6
CONTINUOUS
 62
     7
 10
2293.849636425967
 20
965.6728616641097
 30
0.0
 11
2276.349636425967
 21
965.6728616641097
 31
0.0
  0
LINE
  5
F1
  8
0
  6
CONTINUOUS
 62
     7
 10
2276.349636425967
 20
965.6728616641097
 30
0.0
 11
2276.349636425967
 21
968.1728616641096
 31
0.0
  0
LINE
  5
F2
  8
0
  6
CONTINUOUS
 62
     7
 10
2276.349636425967
 20
1863.67286166411
 30
0.0
 11
2276.349636425967
 21
1864.67286166411
 31
0.0
  0
LINE
  5
F3
  8
0
  6
CONTINUOUS
 62
     7
 10
2293.849636425967
 20
1864.67286166411
 30
0.0
 11
2293.849636425967
 21
965.6728616641097
 31
0.0
  0
LINE
  5
F4
  8
0
  6
CONTINUOUS
 62
     7
 10
2276.349636425967
 20
1864.67286166411
 30
0.0
 11
2293.849636425967
 21
1864.67286166411
 31
0.0
  0
LINE
  5
F5
  8
0
  6
CONTINUOUS
 62
     8
 10
1996.049636425967
 20
968.1867975662932
 30
0.0
 11
1996.049636425967
 21
968.1728616641094
 31
0.0
  0
LINE
  5
F6
  8
0
  6
CONTINUOUS
 62
     8
 10
1697.549636425967
 20
968.1867975662932
 30
0.0
 11
1697.549636425967
 21
968.1728616641094
 31
0.0
  0
LINE
  5
F7
  8
0
  6
CONTINUOUS
 62
     8
 10
2291.649636425966
 20
968.1728616641096
 30
0.0
 11
2291.649636425966
 21
968.1867975662934
 31
0.0
  0
LINE
  5
F8
  8
0
  6
CONTINUOUS
 62
     8
 10
1993.149636425967
 20
968.1728616641096
 30
0.0
 11
1993.149636425967
 21
968.1867975662934
 31
0.0
  0
LINE
  5
F9
  8
0
  6
CONTINUOUS
 62
     7
 10
795.3915160357664
 20
1001.67286166411
 30
0.0
 11
795.3915160357664
 21
1001.47286166411
 31
0.0
  0
LINE
  5
FA
  8
0
  6
CONTINUOUS
 62
     7
 10
795.1915160357664
 20
1001.47286166411
 30
0.0
 11
795.3915160357664
 21
1001.47286166411
 31
0.0
  0
ARC
  5
FB
  8
0
  6
CONTINUOUS
 62
     7
 10
795.3915160357664
 20
1001.47286166411
 30
0.0
 40
0.1999999999999318
 50
90.0
 51
180.0
  0
ARC
  5
FC
  8
0
  6
CONTINUOUS
 62
     7
 10
796.1915160357664
 20
980.6728616641095
 30
0.0
 40
1.0
 50
180.0
 51
270.0000000000008
  0
LINE
  5
FD
  8
0
  6
CONTINUOUS
 62
     7
 10
795.1915160357664
 20
980.6728616641095
 30
0.0
 11
795.3915160357664
 21
980.6728616641095
 31
0.0
  0
ARC
  5
FE
  8
0
  6
CONTINUOUS
 62
     7
 10
796.1915160357664
 20
980.6728616641095
 30
0.0
 40
0.8000000000000682
 50
180.0
 51
270.0000000000008
  0
LINE
  5
FF
  8
0
  6
CONTINUOUS
 62
     7
 10
796.1915160357664
 20
979.6728616641095
 30
0.0
 11
796.1915160357664
 21
979.8728616641095
 31
0.0
  0
LINE
  5
100
  8
0
  6
CONTINUOUS
 62
     7
 10
795.3915160357664
 20
1001.47286166411
 30
0.0
 11
795.3915160357664
 21
980.6728616641095
 31
0.0
  0
LINE
  5
101
  8
0
  6
CONTINUOUS
 62
     7
 10
795.3915160357664
 20
1001.67286166411
 30
0.0
 11
796.9915160357664
 21
1001.67286166411
 31
0.0
  0
LINE
  5
102
  8
0
  6
CONTINUOUS
 62
     7
 10
796.9915160357664
 20
1001.67286166411
 30
0.0
 11
796.7915160357663
 21
1001.47286166411
 31
0.0
  0
LINE
  5
103
  8
0
  6
CONTINUOUS
 62
     7
 10
796.7915160357663
 20
1001.47286166411
 30
0.0
 11
795.3915160357664
 21
1001.47286166411
 31
0.0
  0
LINE
  5
104
  8
0
  6
CONTINUOUS
 62
     7
 10
809.2915160357664
 20
968.4728616641094
 30
0.0
 11
809.2915160357664
 21
981.4728616641095
 31
0.0
  0
LINE
  5
105
  8
0
  6
CONTINUOUS
 62
     7
 10
809.7087277192245
 20
968.4728616641094
 30
0.0
 11
809.2915160357664
 21
968.4728616641094
 31
0.0
  0
ARC
  5
106
  8
0
  6
CONTINUOUS
 62
     7
 10
809.4915543616945
 20
968.6798296152014
 30
0.0
 40
0.3000000000001111
 50
279.5765884810813
 51
316.378347032729
  0
ARC
  5
107
  8
0
  6
CONTINUOUS
 62
     7
 10
809.4083714382698
 20
969.1728616641095
 30
0.0
 40
0.8000000000000556
 50
184.9699465946955
 51
279.5765884810638
  0
LINE
  5
108
  8
0
  6
CONTINUOUS
 62
     7
 10
807.7701905980956
 20
978.7768214991969
 30
0.0
 11
808.61137921673
 21
969.1035551073845
 31
0.0
  0
ARC
  5
109
  8
0
  6
CONTINUOUS
 62
     7
 10
806.5747022657858
 20
978.6728616641095
 30
0.0
 40
1.200000000000074
 50
4.969946594688837
 51
90.0
  0
LINE
  5
10A
  8
0
  6
CONTINUOUS
 62
     7
 10
796.1915160357664
 20
979.8728616641095
 30
0.0
 11
806.5747022657858
 21
979.8728616641095
 31
0.0
  0
LINE
  5
10B
  8
0
  6
CONTINUOUS
 62
     7
 10
796.7915160357663
 20
981.4728616641095
 30
0.0
 11
796.7915160357663
 21
1001.47286166411
 31
0.0
  0
LINE
  5
10C
  8
0
  6
CONTINUOUS
 62
     7
 10
809.2915160357664
 20
981.4728616641095
 30
0.0
 11
796.7915160357663
 21
981.4728616641095
 31
0.0
  0
LINE
  5
10D
  8
0
  6
CONTINUOUS
 62
     7
 10
806.5747022657858
 20
979.6728616641095
 30
0.0
 11
796.1915160357664
 21
979.6728616641095
 31
0.0
  0
LINE
  5
10E
  8
0
  6
CONTINUOUS
 62
     7
 10
806.5747022657858
 20
979.6728616641095
 30
0.0
 11
806.5747022657858
 21
979.8728616641095
 31
0.0
  0
LINE
  5
10F
  8
0
  6
CONTINUOUS
 62
     7
 10
796.7915160357663
 20
981.4728616641095
 30
0.0
 11
796.9915160357664
 21
981.6728616641095
 31
0.0
  0
LINE
  5
110
  8
0
  6
CONTINUOUS
 62
     7
 10
809.2915160357664
 20
981.4728616641095
 30
0.0
 11
809.4915160357664
 21
981.6728616641095
 31
0.0
  0
ARC
  5
111
  8
0
  6
CONTINUOUS
 62
     7
 10
806.5747022657858
 20
978.6728616641095
 30
0.0
 40
1.000000000000074
 50
4.969946594684417
 51
90.0
  0
LINE
  5
112
  8
0
  6
CONTINUOUS
 62
     7
 10
807.5709425427107
 20
978.7594948600156
 30
0.0
 11
807.7701905980956
 21
978.7768214991969
 31
0.0
  0
LINE
  5
113
  8
0
  6
CONTINUOUS
 62
     7
 10
808.412131161345
 20
969.0862284682033
 30
0.0
 11
807.5709425427107
 21
978.7594948600156
 31
0.0
  0
LINE
  5
114
  8
0
  6
CONTINUOUS
 62
     7
 10
808.61137921673
 20
969.1035551073845
 30
0.0
 11
808.412131161345
 21
969.0862284682033
 31
0.0
  0
LINE
  5
115
  8
0
  6
CONTINUOUS
 62
     7
 10
809.5414641157495
 20
968.3840103858565
 30
0.0
 11
809.5747372851195
 21
968.1867975662932
 31
0.0
  0
ARC
  5
116
  8
0
  6
CONTINUOUS
 62
     7
 10
809.4083714382698
 20
969.1728616641095
 30
0.0
 40
1.000000000000163
 50
184.9699465946917
 51
279.5765884810662
  0
LINE
  5
117
  8
0
  6
CONTINUOUS
 62
     7
 10
809.2915160357664
 20
968.4728616641094
 30
0.0
 11
809.4915160357664
 21
968.6728616641095
 31
0.0
  0
POLYLINE
  5
118
  8
0
  6
CONTINUOUS
 62
     7
 66
     1
 10
0.0
 20
0.0
 30
0.0
  0
VERTEX
  5
340
  8
0
  6
CONTINUOUS
 62
     7
 10
809.7087277192245
 20
968.4728616641094
 30
0.0
  0
VERTEX
  5
341
  8
0
  6
CONTINUOUS
 62
     7
 10
809.7150791791385
 20
968.475619596287
 30
0.0
  0
VERTEX
  5
342
  8
0
  6
CONTINUOUS
 62
     7
 10
809.7214072404641
 20
968.478446036035
 30
0.0
  0
VERTEX
  5
343
  8
0
  6
CONTINUOUS
 62
     7
 10
809.7277099190325
 20
968.481341823198
 30
0.0
  0
VERTEX
  5
344
  8
0
  6
CONTINUOUS
 62
     7
 10
809.7339861221674
 20
968.4843049805817
 30
0.0
  0
VERTEX
  5
345
  8
0
  6
CONTINUOUS
 62
     7
 10
809.7402347571921
 20
968.4873335309903
 30
0.0
  0
VERTEX
  5
346
  8
0
  6
CONTINUOUS
 62
     7
 10
809.7464547314302
 20
968.4904254972295
 30
0.0
  0
VERTEX
  5
347
  8
0
  6
CONTINUOUS
 62
     7
 10
809.7526449522053
 20
968.4935789021041
 30
0.0
  0
VERTEX
  5
348
  8
0
  6
CONTINUOUS
 62
     7
 10
809.7588043268413
 20
968.4967917684195
 30
0.0
  0
VERTEX
  5
349
  8
0
  6
CONTINUOUS
 62
     7
 10
809.764931762661
 20
968.5000621189802
 30
0.0
  0
VERTEX
  5
34A
  8
0
  6
CONTINUOUS
 62
     7
 10
809.7710261669882
 20
968.5033879765914
 30
0.0
  0
VERTEX
  5
34B
  8
0
  6
CONTINUOUS
 62
     7
 10
809.7770864471468
 20
968.5067673640583
 30
0.0
  0
VERTEX
  5
34C
  8
0
  6
CONTINUOUS
 62
     7
 10
809.7831115104601
 20
968.5101983041862
 30
0.0
  0
VERTEX
  5
34D
  8
0
  6
CONTINUOUS
 62
     7
 10
809.7891002642515
 20
968.5136788197799
 30
0.0
  0
VERTEX
  5
34E
  8
0
  6
CONTINUOUS
 62
     7
 10
809.7950516158448
 20
968.5172069336443
 30
0.0
  0
VERTEX
  5
34F
  8
0
  6
CONTINUOUS
 62
     7
 10
809.8009644725631
 20
968.5207806685847
 30
0.0
  0
VERTEX
  5
350
  8
0
  6
CONTINUOUS
 62
     7
 10
809.8068377417305
 20
968.5243980474062
 30
0.0
  0
VERTEX
  5
351
  8
0
  6
CONTINUOUS
 62
     7
 10
809.8126703306705
 20
968.5280570929139
 30
0.0
  0
VERTEX
  5
352
  8
0
  6
CONTINUOUS
 62
     7
 10
809.8184611467061
 20
968.5317558279125
 30
0.0
  0
VERTEX
  5
353
  8
0
  6
CONTINUOUS
 62
     7
 10
809.8242090971612
 20
968.5354922752072
 30
0.0
  0
VERTEX
  5
354
  8
0
  6
CONTINUOUS
 62
     7
 10
809.8299130893594
 20
968.5392644576034
 30
0.0
  0
VERTEX
  5
355
  8
0
  6
CONTINUOUS
 62
     7
 10
809.835572030624
 20
968.5430703979057
 30
0.0
  0
VERTEX
  5
356
  8
0
  6
CONTINUOUS
 62
     7
 10
809.8411848282789
 20
968.5469081189196
 30
0.0
  0
VERTEX
  5
357
  8
0
  6
CONTINUOUS
 62
     7
 10
809.8467503896474
 20
968.5507756434499
 30
0.0
  0
VERTEX
  5
358
  8
0
  6
CONTINUOUS
 62
     7
 10
809.852267622053
 20
968.5546709943017
 30
0.0
  0
VERTEX
  5
359
  8
0
  6
CONTINUOUS
 62
     7
 10
809.857735373072
 20
968.5585921164568
 30
0.0
  0
VERTEX
  5
35A
  8
0
  6
CONTINUOUS
 62
     7
 10
809.8631514312717
 20
968.5625355754959
 30
0.0
  0
VERTEX
  5
35B
  8
0
  6
CONTINUOUS
 62
     7
 10
809.8685126763818
 20
968.5664967532031
 30
0.0
  0
VERTEX
  5
35C
  8
0
  6
CONTINUOUS
 62
     7
 10
809.8738159586405
 20
968.5704709929486
 30
0.0
  0
VERTEX
  5
35D
  8
0
  6
CONTINUOUS
 62
     7
 10
809.8790581282856
 20
968.5744536381018
 30
0.0
  0
VERTEX
  5
35E
  8
0
  6
CONTINUOUS
 62
     7
 10
809.8842360355552
 20
968.5784400320326
 30
0.0
  0
VERTEX
  5
35F
  8
0
  6
CONTINUOUS
 62
     7
 10
809.8893465306871
 20
968.582425518111
 30
0.0
  0
VERTEX
  5
360
  8
0
  6
CONTINUOUS
 62
     7
 10
809.8943864639195
 20
968.5864054397064
 30
0.0
  0
VERTEX
  5
361
  8
0
  6
CONTINUOUS
 62
     7
 10
809.8993526854904
 20
968.5903751401888
 30
0.0
  0
VERTEX
  5
362
  8
0
  6
CONTINUOUS
 62
     7
 10
809.9042420456373
 20
968.5943299629281
 30
0.0
  0
VERTEX
  5
363
  8
0
  6
CONTINUOUS
 62
     7
 10
809.9090513945987
 20
968.598265251294
 30
0.0
  0
VERTEX
  5
364
  8
0
  6
CONTINUOUS
 62
     7
 10
809.9137775826123
 20
968.6021763486561
 30
0.0
  0
VERTEX
  5
365
  8
0
  6
CONTINUOUS
 62
     7
 10
809.9184174599159
 20
968.6060585983843
 30
0.0
  0
VERTEX
  5
366
  8
0
  6
CONTINUOUS
 62
     7
 10
809.9229678767479
 20
968.6099073438486
 30
0.0
  0
VERTEX
  5
367
  8
0
  6
CONTINUOUS
 62
     7
 10
809.9274256824682
 20
968.613717927106
 30
0.0
  0
VERTEX
  5
368
  8
0
  6
CONTINUOUS
 62
     7
 10
809.9317873470941
 20
968.6174851229263
 30
0.0
  0
VERTEX
  5
369
  8
0
  6
CONTINUOUS
 62
     7
 10
809.93604837067
 20
968.6212022555367
 30
0.0
  0
VERTEX
  5
36A
  8
0
  6
CONTINUOUS
 62
     7
 10
809.9402041004178
 20
968.6248624206272
 30
0.0
  0
VERTEX
  5
36B
  8
0
  6
CONTINUOUS
 62
     7
 10
809.9442498835601
 20
968.6284587138888
 30
0.0
  0
VERTEX
  5
36C
  8
0
  6
CONTINUOUS
 62
     7
 10
809.9481810673194
 20
968.6319842310113
 30
0.0
  0
VERTEX
  5
36D
  8
0
  6
CONTINUOUS
 62
     7
 10
809.9519929989185
 20
968.6354320676854
 30
0.0
  0
VERTEX
  5
36E
  8
0
  6
CONTINUOUS
 62
     7
 10
809.9556810255796
 20
968.6387953196015
 30
0.0
  0
VERTEX
  5
36F
  8
0
  6
CONTINUOUS
 62
     7
 10
809.9592404945251
 20
968.6420670824499
 30
0.0
  0
VERTEX
  5
370
  8
0
  6
CONTINUOUS
 62
     7
 10
809.9626667529769
 20
968.6452404519206
 30
0.0
  0
VERTEX
  5
371
  8
0
  6
CONTINUOUS
 62
     7
 10
809.9659551481489
 20
968.6483085236947
 30
0.0
  0
VERTEX
  5
372
  8
0
  6
CONTINUOUS
 62
     7
 10
809.9690985178698
 20
968.6512618418536
 30
0.0
  0
VERTEX
  5
373
  8
0
  6
CONTINUOUS
 62
     7
 10
809.9720801292108
 20
968.6540812187117
 30
0.0
  0
VERTEX
  5
374
  8
0
  6
CONTINUOUS
 62
     7
 10
809.9748809678696
 20
968.6567451468305
 30
0.0
  0
VERTEX
  5
375
  8
0
  6
CONTINUOUS
 62
     7
 10
809.9774820195443
 20
968.6592321187711
 30
0.0
  0
VERTEX
  5
376
  8
0
  6
CONTINUOUS
 62
     7
 10
809.9798642699317
 20
968.6615206270944
 30
0.0
  0
VERTEX
  5
377
  8
0
  6
CONTINUOUS
 62
     7
 10
809.9820087047302
 20
968.6635891643623
 30
0.0
  0
VERTEX
  5
378
  8
0
  6
CONTINUOUS
 62
     7
 10
809.9838963096371
 20
968.6654162231355
 30
0.0
  0
VERTEX
  5
379
  8
0
  6
CONTINUOUS
 62
     7
 10
809.9855094230909
 20
968.6669816711171
 30
0.0
  0
VERTEX
  5
37A
  8
0
  6
CONTINUOUS
 62
     7
 10
809.9868584369109
 20
968.6682938939443
 30
0.0
  0
VERTEX
  5
37B
  8
0
  6
CONTINUOUS
 62
     7
 10
809.9879801949395
 20
968.6693881673121
 30
0.0
  0
VERTEX
  5
37C
  8
0
  6
CONTINUOUS
 62
     7
 10
809.9889125731421
 20
968.670300816131
 30
0.0
  0
VERTEX
  5
37D
  8
0
  6
CONTINUOUS
 62
     7
 10
809.9896934474834
 20
968.6710681653099
 30
0.0
  0
VERTEX
  5
37E
  8
0
  6
CONTINUOUS
 62
     7
 10
809.9903606939292
 20
968.6717265397596
 30
0.0
  0
VERTEX
  5
37F
  8
0
  6
CONTINUOUS
 62
     7
 10
809.9909521884445
 20
968.6723122643895
 30
0.0
  0
VERTEX
  5
380
  8
0
  6
CONTINUOUS
 62
     7
 10
809.9915058069946
 20
968.6728616641095
 30
0.0
  0
SEQEND
  5
3C6
  8
0
  6
CONTINUOUS
 62
     7
  0
ARC
  5
119
  8
0
  6
CONTINUOUS
 62
     7
 10
809.4915543616945
 20
968.6798296152014
 30
0.0
 40
0.5000000000001004
 50
279.5765884810791
 51
359.2015057739035
  0
LINE
  5
11A
  8
0
  6
CONTINUOUS
 62
     7
 10
810.4915160357664
 20
969.1728616641095
 30
0.0
 11
809.4915160357663
 21
969.1728616641095
 31
0.0
  0
LINE
  5
11B
  8
0
  6
CONTINUOUS
 62
     7
 10
810.4915160357664
 20
968.6728616641095
 30
0.0
 11
810.4915160357664
 21
969.1728616641095
 31
0.0
  0
LINE
  5
11C
  8
0
  6
CONTINUOUS
 62
     7
 10
809.4915160357663
 20
968.6728616641095
 30
0.0
 11
810.4915160357664
 21
968.6728616641095
 31
0.0
  0
LINE
  5
11D
  8
0
  6
CONTINUOUS
 62
     7
 10
809.4915160357663
 20
968.6728616641095
 30
0.0
 11
809.4915160357663
 21
969.1728616641095
 31
0.0
  0
LINE
  5
11E
  8
0
  6
CONTINUOUS
 62
     7
 10
813.4915160357663
 20
969.1728616641095
 30
0.0
 11
813.4915160357663
 21
968.6728616641095
 31
0.0
  0
LINE
  5
11F
  8
0
  6
CONTINUOUS
 62
     7
 10
813.4915160357663
 20
968.6728616641095
 30
0.0
 11
810.4915160357664
 21
968.6728616641095
 31
0.0
  0
LINE
  5
120
  8
0
  6
CONTINUOUS
 62
     7
 10
810.4915160357664
 20
969.1728616641095
 30
0.0
 11
813.4915160357663
 21
969.1728616641095
 31
0.0
  0
LINE
  5
121
  8
0
  6
CONTINUOUS
 62
     7
 10
795.4915160357663
 20
1863.17286166411
 30
0.0
 11
810.4915160357664
 21
1863.17286166411
 31
0.0
  0
LINE
  5
122
  8
0
  6
CONTINUOUS
 62
     7
 10
810.4915160357664
 20
969.1728616641095
 30
0.0
 11
810.4915160357664
 21
1863.17286166411
 31
0.0
  0
LINE
  5
123
  8
0
  6
CONTINUOUS
 62
     7
 10
809.4915160357663
 20
969.1728616641095
 30
0.0
 11
809.4915160357663
 21
981.6728616641095
 31
0.0
  0
LINE
  5
124
  8
0
  6
CONTINUOUS
 62
     7
 10
809.4915160357663
 20
981.6728616641095
 30
0.0
 11
796.9915160357664
 21
981.6728616641095
 31
0.0
  0
LINE
  5
125
  8
0
  6
CONTINUOUS
 62
     7
 10
796.9915160357664
 20
981.6728616641095
 30
0.0
 11
796.9915160357664
 21
1002.172861664109
 31
0.0
  0
LINE
  5
126
  8
0
  6
CONTINUOUS
 62
     7
 10
796.9915160357664
 20
1002.172861664109
 30
0.0
 11
795.4915160357663
 21
1002.172861664109
 31
0.0
  0
LINE
  5
127
  8
0
  6
CONTINUOUS
 62
     7
 10
795.4915160357663
 20
1863.17286166411
 30
0.0
 11
795.4915160357663
 21
1002.172861664109
 31
0.0
  0
LINE
  5
128
  8
0
  6
CONTINUOUS
 62
     7
 10
810.4915160357664
 20
1863.17286166411
 30
0.0
 11
813.4915160357663
 21
1863.17286166411
 31
0.0
  0
LINE
  5
129
  8
0
  6
CONTINUOUS
 62
     7
 10
813.4915160357663
 20
1863.17286166411
 30
0.0
 11
813.4915160357663
 21
969.1728616641095
 31
0.0
  0
LINE
  5
12A
  8
0
  6
CONTINUOUS
 62
     7
 10
795.4915160357663
 20
1863.67286166411
 30
0.0
 11
795.4915160357663
 21
1863.17286166411
 31
0.0
  0
LINE
  5
12B
  8
0
  6
CONTINUOUS
 62
     7
 10
810.4915160357664
 20
1863.17286166411
 30
0.0
 11
810.4915160357664
 21
1863.67286166411
 31
0.0
  0
LINE
  5
12C
  8
0
  6
CONTINUOUS
 62
     7
 10
810.4915160357664
 20
1863.67286166411
 30
0.0
 11
795.4915160357663
 21
1863.67286166411
 31
0.0
  0
LINE
  5
12D
  8
0
  6
CONTINUOUS
 62
     7
 10
813.4915160357663
 20
1863.67286166411
 30
0.0
 11
813.4915160357663
 21
1863.17286166411
 31
0.0
  0
LINE
  5
12E
  8
0
  6
CONTINUOUS
 62
     7
 10
810.4915160357664
 20
1863.67286166411
 30
0.0
 11
813.4915160357663
 21
1863.67286166411
 31
0.0
  0
LINE
  5
12F
  8
0
  6
CONTINUOUS
 62
     7
 10
515.1915160357663
 20
1864.67286166411
 30
0.0
 11
794.1915160357664
 21
1864.67286166411
 31
0.0
  0
LINE
  5
130
  8
0
  6
CONTINUOUS
 62
     7
 10
794.1915160357664
 20
966.6728616641101
 30
0.0
 11
794.1915160357664
 21
1864.67286166411
 31
0.0
  0
LINE
  5
131
  8
0
  6
CONTINUOUS
 62
     7
 10
515.1915160357663
 20
966.6728616641101
 30
0.0
 11
515.1915160357663
 21
1864.67286166411
 31
0.0
  0
LINE
  5
132
  8
0
  6
CONTINUOUS
 62
     7
 10
515.1915160357663
 20
966.6728616641101
 30
0.0
 11
794.1915160357664
 21
966.6728616641101
 31
0.0
  0
LINE
  5
133
  8
0
  6
CONTINUOUS
 62
     7
 10
794.1915160357664
 20
966.1728616641099
 30
0.0
 11
794.1915160357664
 21
966.6728616641099
 31
0.0
  0
LINE
  5
134
  8
0
  6
CONTINUOUS
 62
     7
 10
794.1915160357664
 20
966.1728616641099
 30
0.0
 11
515.1915160357663
 21
966.1728616641099
 31
0.0
  0
LINE
  5
135
  8
0
  6
CONTINUOUS
 62
     7
 10
515.1915160357663
 20
966.1728616641099
 30
0.0
 11
515.1915160357663
 21
966.6728616641099
 31
0.0
  0
LINE
  5
136
  8
0
  6
CONTINUOUS
 62
     7
 10
795.1915160357663
 20
966.1728616641099
 30
0.0
 11
795.1915160357663
 21
1865.17286166411
 31
0.0
  0
LINE
  5
137
  8
0
  6
CONTINUOUS
 62
     7
 10
794.1915160357664
 20
1865.17286166411
 30
0.0
 11
794.1915160357664
 21
966.1728616641099
 31
0.0
  0
LINE
  5
138
  8
0
  6
CONTINUOUS
 62
     7
 10
795.1915160357663
 20
1865.17286166411
 30
0.0
 11
794.1915160357664
 21
1865.17286166411
 31
0.0
  0
LINE
  5
139
  8
0
  6
CONTINUOUS
 62
     7
 10
795.1915160357663
 20
966.1728616641099
 30
0.0
 11
794.1915160357664
 21
966.1728616641099
 31
0.0
  0
LINE
  5
13A
  8
0
  6
CONTINUOUS
 62
     7
 10
794.1915160357664
 20
966.1728616641099
 30
0.0
 11
794.1915160357664
 21
965.6728616641097
 31
0.0
  0
LINE
  5
13B
  8
0
  6
CONTINUOUS
 62
     7
 10
795.1915160357663
 20
965.6728616641097
 30
0.0
 11
795.1915160357663
 21
966.1728616641099
 31
0.0
  0
LINE
  5
13C
  8
0
  6
CONTINUOUS
 62
     7
 10
795.1915160357663
 20
965.6728616641097
 30
0.0
 11
794.1915160357664
 21
965.6728616641097
 31
0.0
  0
LINE
  5
13D
  8
0
  6
CONTINUOUS
 62
     7
 10
515.1915160357663
 20
1865.17286166411
 30
0.0
 11
515.1915160357663
 21
1864.67286166411
 31
0.0
  0
LINE
  5
13E
  8
0
  6
CONTINUOUS
 62
     7
 10
794.1915160357664
 20
1865.17286166411
 30
0.0
 11
794.1915160357664
 21
1864.67286166411
 31
0.0
  0
LINE
  5
13F
  8
0
  6
CONTINUOUS
 62
     7
 10
794.1915160357664
 20
1865.17286166411
 30
0.0
 11
515.1915160357663
 21
1865.17286166411
 31
0.0
  0
LINE
  5
140
  8
0
  6
CONTINUOUS
 62
     7
 10
515.1915160357663
 20
965.6728616641099
 30
0.0
 11
794.1915160357664
 21
965.6728616641097
 31
0.0
  0
LINE
  5
141
  8
0
  6
CONTINUOUS
 62
     7
 10
515.1915160357663
 20
965.6728616641099
 30
0.0
 11
515.1915160357663
 21
966.1728616641099
 31
0.0
  0
LINE
  5
142
  8
0
  6
CONTINUOUS
 62
     7
 10
3011.282314676454
 20
969.1035551073848
 30
0.0
 11
3012.123503295088
 21
978.776821499197
 31
0.0
  0
LINE
  5
143
  8
0
  6
CONTINUOUS
 62
     7
 10
3012.123503295088
 20
978.776821499197
 30
0.0
 11
3012.322751350473
 21
978.7594948600158
 31
0.0
  0
LINE
  5
144
  8
0
  6
CONTINUOUS
 62
     7
 10
3012.322751350473
 20
978.7594948600158
 30
0.0
 11
3011.481562731839
 21
969.0862284682034
 31
0.0
  0
LINE
  5
145
  8
0
  6
CONTINUOUS
 62
     7
 10
3011.282314676454
 20
969.1035551073848
 30
0.0
 11
3011.481562731839
 21
969.0862284682034
 31
0.0
  0
LINE
  5
146
  8
0
  6
CONTINUOUS
 62
     7
 10
3022.902177857417
 20
1001.67286166411
 30
0.0
 11
3024.502177857418
 21
1001.67286166411
 31
0.0
  0
LINE
  5
147
  8
0
  6
CONTINUOUS
 62
     7
 10
3024.502177857418
 20
1001.67286166411
 30
0.0
 11
3024.502177857418
 21
1001.47286166411
 31
0.0
  0
LINE
  5
148
  8
0
  6
CONTINUOUS
 62
     7
 10
3024.502177857418
 20
1001.47286166411
 30
0.0
 11
3023.102177857417
 21
1001.47286166411
 31
0.0
  0
LINE
  5
149
  8
0
  6
CONTINUOUS
 62
     7
 10
3022.902177857417
 20
1001.67286166411
 30
0.0
 11
3023.102177857417
 21
1001.47286166411
 31
0.0
  0
LINE
  5
14A
  8
0
  6
CONTINUOUS
 62
     7
 10
3024.702177857417
 20
980.6728616641096
 30
0.0
 11
3024.502177857418
 21
980.6728616641096
 31
0.0
  0
LINE
  5
14B
  8
0
  6
CONTINUOUS
 62
     7
 10
3024.502177857418
 20
980.6728616641096
 30
0.0
 11
3024.502177857418
 21
1001.47286166411
 31
0.0
  0
LINE
  5
14C
  8
0
  6
CONTINUOUS
 62
     7
 10
3024.702177857417
 20
1001.47286166411
 30
0.0
 11
3024.502177857418
 21
1001.47286166411
 31
0.0
  0
LINE
  5
14D
  8
0
  6
CONTINUOUS
 62
     7
 10
3023.102177857417
 20
1001.47286166411
 30
0.0
 11
3023.102177857417
 21
981.4728616641096
 31
0.0
  0
LINE
  5
14E
  8
0
  6
CONTINUOUS
 62
     7
 10
3022.902177857417
 20
981.6728616641097
 30
0.0
 11
3023.102177857417
 21
981.4728616641096
 31
0.0
  0
LINE
  5
14F
  8
0
  6
CONTINUOUS
 62
     7
 10
3013.318991627398
 20
979.8728616641097
 30
0.0
 11
3023.702177857417
 21
979.8728616641097
 31
0.0
  0
LINE
  5
150
  8
0
  6
CONTINUOUS
 62
     7
 10
3023.702177857417
 20
979.8728616641097
 30
0.0
 11
3023.702177857417
 21
979.6728616641097
 31
0.0
  0
LINE
  5
151
  8
0
  6
CONTINUOUS
 62
     7
 10
3023.702177857417
 20
979.6728616641097
 30
0.0
 11
3013.318991627398
 21
979.6728616641097
 31
0.0
  0
LINE
  5
152
  8
0
  6
CONTINUOUS
 62
     7
 10
3013.318991627398
 20
979.8728616641097
 30
0.0
 11
3013.318991627398
 21
979.6728616641097
 31
0.0
  0
ARC
  5
153
  8
0
  6
CONTINUOUS
 62
     7
 10
3013.318991627398
 20
978.6728616641096
 30
0.0
 40
1.200000000000045
 50
90.0
 51
175.0300534053107
  0
ARC
  5
154
  8
0
  6
CONTINUOUS
 62
     7
 10
3013.318991627398
 20
978.6728616641096
 30
0.0
 40
1.000000000000114
 50
90.0
 51
175.0300534053085
  0
ARC
  5
155
  8
0
  6
CONTINUOUS
 62
     7
 10
3010.485322454914
 20
969.1728616641096
 30
0.0
 40
0.8000000000004236
 50
260.4234115189525
 51
355.0300534053171
  0
ARC
  5
156
  8
0
  6
CONTINUOUS
 62
     7
 10
3010.485322454914
 20
969.1728616641096
 30
0.0
 40
1.000000000000424
 50
260.4234115189601
 51
355.0300534053116
  0
LINE
  5
157
  8
0
  6
CONTINUOUS
 62
     7
 10
3010.352229777434
 20
968.3840103858568
 30
0.0
 11
3010.318956608065
 21
968.1867975662934
 31
0.0
  0
ARC
  5
158
  8
0
  6
CONTINUOUS
 62
     7
 10
3024.502177857418
 20
1001.47286166411
 30
0.0
 40
0.1999999999999318
 50
0.0
 51
90.0
  0
LINE
  5
159
  8
0
  6
CONTINUOUS
 62
     7
 10
3023.102177857417
 20
981.4728616641096
 30
0.0
 11
3010.602177857417
 21
981.4728616641096
 31
0.0
  0
LINE
  5
15A
  8
0
  6
CONTINUOUS
 62
     7
 10
3010.402177857418
 20
981.6728616641097
 30
0.0
 11
3010.602177857417
 21
981.4728616641096
 31
0.0
  0
ARC
  5
15B
  8
0
  6
CONTINUOUS
 62
     7
 10
3023.702177857417
 20
980.6728616641096
 30
0.0
 40
0.8000000000006366
 50
270.0000000000008
 51
0.0
  0
ARC
  5
15C
  8
0
  6
CONTINUOUS
 62
     7
 10
3023.702177857417
 20
980.6728616641096
 30
0.0
 40
1.0
 50
270.0000000000008
 51
0.0
  0
ARC
  5
15D
  8
0
  6
CONTINUOUS
 62
     7
 10
3010.402139531489
 20
968.6798296152015
 30
0.0
 40
0.300000000000115
 50
223.6216529672419
 51
260.4234115188953
  0
LINE
  5
15E
  8
0
  6
CONTINUOUS
 62
     7
 10
3010.602177857417
 20
968.4728616641096
 30
0.0
 11
3010.184966173959
 21
968.4728616641096
 31
0.0
  0
LINE
  5
15F
  8
0
  6
CONTINUOUS
 62
     7
 10
3010.602177857417
 20
981.4728616641096
 30
0.0
 11
3010.602177857417
 21
968.4728616641096
 31
0.0
  0
LINE
  5
160
  8
0
  6
CONTINUOUS
 62
     7
 10
3010.402177857418
 20
968.6728616641096
 30
0.0
 11
3010.602177857417
 21
968.4728616641096
 31
0.0
  0
POLYLINE
  5
161
  8
0
  6
CONTINUOUS
 62
     7
 66
     1
 10
0.0
 20
0.0
 30
0.0
  0
VERTEX
  5
381
  8
0
  6
CONTINUOUS
 62
     7
 10
3010.184966173959
 20
968.4728616641096
 30
0.0
  0
VERTEX
  5
382
  8
0
  6
CONTINUOUS
 62
     7
 10
3010.178614714045
 20
968.475619596287
 30
0.0
  0
VERTEX
  5
383
  8
0
  6
CONTINUOUS
 62
     7
 10
3010.17228665272
 20
968.478446036035
 30
0.0
  0
VERTEX
  5
384
  8
0
  6
CONTINUOUS
 62
     7
 10
3010.165983974151
 20
968.4813418231984
 30
0.0
  0
VERTEX
  5
385
  8
0
  6
CONTINUOUS
 62
     7
 10
3010.159707771017
 20
968.4843049805817
 30
0.0
  0
VERTEX
  5
386
  8
0
  6
CONTINUOUS
 62
     7
 10
3010.153459135992
 20
968.4873335309906
 30
0.0
  0
VERTEX
  5
387
  8
0
  6
CONTINUOUS
 62
     7
 10
3010.147239161753
 20
968.4904254972297
 30
0.0
  0
VERTEX
  5
388
  8
0
  6
CONTINUOUS
 62
     7
 10
3010.141048940978
 20
968.4935789021043
 30
0.0
  0
VERTEX
  5
389
  8
0
  6
CONTINUOUS
 62
     7
 10
3010.134889566343
 20
968.4967917684194
 30
0.0
  0
VERTEX
  5
38A
  8
0
  6
CONTINUOUS
 62
     7
 10
3010.128762130523
 20
968.5000621189803
 30
0.0
  0
VERTEX
  5
38B
  8
0
  6
CONTINUOUS
 62
     7
 10
3010.122667726194
 20
968.5033879765915
 30
0.0
  0
VERTEX
  5
38C
  8
0
  6
CONTINUOUS
 62
     7
 10
3010.116607446037
 20
968.5067673640586
 30
0.0
  0
VERTEX
  5
38D
  8
0
  6
CONTINUOUS
 62
     7
 10
3010.110582382723
 20
968.5101983041861
 30
0.0
  0
VERTEX
  5
38E
  8
0
  6
CONTINUOUS
 62
     7
 10
3010.104593628932
 20
968.5136788197798
 30
0.0
  0
VERTEX
  5
38F
  8
0
  6
CONTINUOUS
 62
     7
 10
3010.098642277339
 20
968.5172069336443
 30
0.0
  0
VERTEX
  5
390
  8
0
  6
CONTINUOUS
 62
     7
 10
3010.09272942062
 20
968.5207806685848
 30
0.0
  0
VERTEX
  5
391
  8
0
  6
CONTINUOUS
 62
     7
 10
3010.086856151453
 20
968.5243980474063
 30
0.0
  0
VERTEX
  5
392
  8
0
  6
CONTINUOUS
 62
     7
 10
3010.081023562513
 20
968.5280570929139
 30
0.0
  0
VERTEX
  5
393
  8
0
  6
CONTINUOUS
 62
     7
 10
3010.075232746478
 20
968.5317558279125
 30
0.0
  0
VERTEX
  5
394
  8
0
  6
CONTINUOUS
 62
     7
 10
3010.069484796023
 20
968.5354922752074
 30
0.0
  0
VERTEX
  5
395
  8
0
  6
CONTINUOUS
 62
     7
 10
3010.063780803825
 20
968.5392644576036
 30
0.0
  0
VERTEX
  5
396
  8
0
  6
CONTINUOUS
 62
     7
 10
3010.05812186256
 20
968.5430703979059
 30
0.0
  0
VERTEX
  5
397
  8
0
  6
CONTINUOUS
 62
     7
 10
3010.052509064905
 20
968.5469081189199
 30
0.0
  0
VERTEX
  5
398
  8
0
  6
CONTINUOUS
 62
     7
 10
3010.046943503537
 20
968.5507756434499
 30
0.0
  0
VERTEX
  5
399
  8
0
  6
CONTINUOUS
 62
     7
 10
3010.041426271131
 20
968.5546709943017
 30
0.0
  0
VERTEX
  5
39A
  8
0
  6
CONTINUOUS
 62
     7
 10
3010.035958520112
 20
968.5585921164569
 30
0.0
  0
VERTEX
  5
39B
  8
0
  6
CONTINUOUS
 62
     7
 10
3010.030542461912
 20
968.562535575496
 30
0.0
  0
VERTEX
  5
39C
  8
0
  6
CONTINUOUS
 62
     7
 10
3010.025181216802
 20
968.5664967532031
 30
0.0
  0
VERTEX
  5
39D
  8
0
  6
CONTINUOUS
 62
     7
 10
3010.019877934543
 20
968.5704709929485
 30
0.0
  0
VERTEX
  5
39E
  8
0
  6
CONTINUOUS
 62
     7
 10
3010.014635764899
 20
968.5744536381017
 30
0.0
  0
VERTEX
  5
39F
  8
0
  6
CONTINUOUS
 62
     7
 10
3010.009457857629
 20
968.5784400320325
 30
0.0
  0
VERTEX
  5
3A0
  8
0
  6
CONTINUOUS
 62
     7
 10
3010.004347362496
 20
968.5824255181108
 30
0.0
  0
VERTEX
  5
3A1
  8
0
  6
CONTINUOUS
 62
     7
 10
3009.999307429264
 20
968.5864054397065
 30
0.0
  0
VERTEX
  5
3A2
  8
0
  6
CONTINUOUS
 62
     7
 10
3009.994341207694
 20
968.590375140189
 30
0.0
  0
VERTEX
  5
3A3
  8
0
  6
CONTINUOUS
 62
     7
 10
3009.989451847547
 20
968.5943299629284
 30
0.0
  0
VERTEX
  5
3A4
  8
0
  6
CONTINUOUS
 62
     7
 10
3009.984642498585
 20
968.5982652512942
 30
0.0
  0
VERTEX
  5
3A5
  8
0
  6
CONTINUOUS
 62
     7
 10
3009.979916310572
 20
968.6021763486563
 30
0.0
  0
VERTEX
  5
3A6
  8
0
  6
CONTINUOUS
 62
     7
 10
3009.975276433268
 20
968.6060585983848
 30
0.0
  0
VERTEX
  5
3A7
  8
0
  6
CONTINUOUS
 62
     7
 10
3009.970726016436
 20
968.6099073438488
 30
0.0
  0
VERTEX
  5
3A8
  8
0
  6
CONTINUOUS
 62
     7
 10
3009.966268210715
 20
968.6137179271061
 30
0.0
  0
VERTEX
  5
3A9
  8
0
  6
CONTINUOUS
 62
     7
 10
3009.96190654609
 20
968.6174851229265
 30
0.0
  0
VERTEX
  5
3AA
  8
0
  6
CONTINUOUS
 62
     7
 10
3009.957645522513
 20
968.6212022555368
 30
0.0
  0
VERTEX
  5
3AB
  8
0
  6
CONTINUOUS
 62
     7
 10
3009.953489792766
 20
968.6248624206273
 30
0.0
  0
VERTEX
  5
3AC
  8
0
  6
CONTINUOUS
 62
     7
 10
3009.949444009624
 20
968.628458713889
 30
0.0
  0
VERTEX
  5
3AD
  8
0
  6
CONTINUOUS
 62
     7
 10
3009.945512825864
 20
968.6319842310115
 30
0.0
  0
VERTEX
  5
3AE
  8
0
  6
CONTINUOUS
 62
     7
 10
3009.941700894265
 20
968.6354320676857
 30
0.0
  0
VERTEX
  5
3AF
  8
0
  6
CONTINUOUS
 62
     7
 10
3009.938012867604
 20
968.6387953196017
 30
0.0
  0
VERTEX
  5
3B0
  8
0
  6
CONTINUOUS
 62
     7
 10
3009.934453398659
 20
968.64206708245
 30
0.0
  0
VERTEX
  5
3B1
  8
0
  6
CONTINUOUS
 62
     7
 10
3009.931027140207
 20
968.6452404519208
 30
0.0
  0
VERTEX
  5
3B2
  8
0
  6
CONTINUOUS
 62
     7
 10
3009.927738745035
 20
968.6483085236949
 30
0.0
  0
VERTEX
  5
3B3
  8
0
  6
CONTINUOUS
 62
     7
 10
3009.924595375314
 20
968.6512618418539
 30
0.0
  0
VERTEX
  5
3B4
  8
0
  6
CONTINUOUS
 62
     7
 10
3009.921613763973
 20
968.654081218712
 30
0.0
  0
VERTEX
  5
3B5
  8
0
  6
CONTINUOUS
 62
     7
 10
3009.918812925314
 20
968.6567451468308
 30
0.0
  0
VERTEX
  5
3B6
  8
0
  6
CONTINUOUS
 62
     7
 10
3009.916211873639
 20
968.6592321187712
 30
0.0
  0
VERTEX
  5
3B7
  8
0
  6
CONTINUOUS
 62
     7
 10
3009.913829623252
 20
968.6615206270949
 30
0.0
  0
VERTEX
  5
3B8
  8
0
  6
CONTINUOUS
 62
     7
 10
3009.911685188453
 20
968.6635891643625
 30
0.0
  0
VERTEX
  5
3B9
  8
0
  6
CONTINUOUS
 62
     7
 10
3009.909797583547
 20
968.6654162231356
 30
0.0
  0
VERTEX
  5
3BA
  8
0
  6
CONTINUOUS
 62
     7
 10
3009.908184470092
 20
968.6669816711172
 30
0.0
  0
VERTEX
  5
3BB
  8
0
  6
CONTINUOUS
 62
     7
 10
3009.906835456274
 20
968.6682938939446
 30
0.0
  0
VERTEX
  5
3BC
  8
0
  6
CONTINUOUS
 62
     7
 10
3009.905713698244
 20
968.6693881673121
 30
0.0
  0
VERTEX
  5
3BD
  8
0
  6
CONTINUOUS
 62
     7
 10
3009.904781320042
 20
968.6703008161307
 30
0.0
  0
VERTEX
  5
3BE
  8
0
  6
CONTINUOUS
 62
     7
 10
3009.9040004457
 20
968.67106816531
 30
0.0
  0
VERTEX
  5
3BF
  8
0
  6
CONTINUOUS
 62
     7
 10
3009.903333199255
 20
968.6717265397597
 30
0.0
  0
VERTEX
  5
3C0
  8
0
  6
CONTINUOUS
 62
     7
 10
3009.902741704739
 20
968.6723122643896
 30
0.0
  0
VERTEX
  5
3C1
  8
0
  6
CONTINUOUS
 62
     7
 10
3009.902188086189
 20
968.6728616641096
 30
0.0
  0
SEQEND
  5
3C7
  8
0
  6
CONTINUOUS
 62
     7
  0
ARC
  5
162
  8
0
  6
CONTINUOUS
 62
     7
 10
3010.402139531489
 20
968.6798296152015
 30
0.0
 40
0.5000000000001892
 50
180.798494226098
 51
260.4234115189333
  0
LINE
  5
163
  8
0
  6
CONTINUOUS
 62
     7
 10
3006.402177857418
 20
968.6728616641096
 30
0.0
 11
3006.402177857418
 21
969.1728616641096
 31
0.0
  0
LINE
  5
164
  8
0
  6
CONTINUOUS
 62
     7
 10
3009.402177857417
 20
969.1728616641096
 30
0.0
 11
3009.402177857417
 21
968.6728616641096
 31
0.0
  0
LINE
  5
165
  8
0
  6
CONTINUOUS
 62
     7
 10
3009.402177857417
 20
968.6728616641096
 30
0.0
 11
3006.402177857418
 21
968.6728616641096
 31
0.0
  0
LINE
  5
166
  8
0
  6
CONTINUOUS
 62
     7
 10
3006.402177857418
 20
969.1728616641096
 30
0.0
 11
3009.402177857417
 21
969.1728616641096
 31
0.0
  0
LINE
  5
167
  8
0
  6
CONTINUOUS
 62
     7
 10
3010.402177857418
 20
968.6728616641096
 30
0.0
 11
3009.402177857417
 21
968.6728616641096
 31
0.0
  0
LINE
  5
168
  8
0
  6
CONTINUOUS
 62
     7
 10
3010.402177857418
 20
969.1728616641096
 30
0.0
 11
3009.402177857417
 21
969.1728616641096
 31
0.0
  0
LINE
  5
169
  8
0
  6
CONTINUOUS
 62
     7
 10
3010.402177857418
 20
968.6728616641096
 30
0.0
 11
3010.402177857418
 21
969.1728616641096
 31
0.0
  0
LINE
  5
16A
  8
0
  6
CONTINUOUS
 62
     7
 10
3006.402177857418
 20
969.1728616641096
 30
0.0
 11
3006.402177857418
 21
1863.172861664111
 31
0.0
  0
LINE
  5
16B
  8
0
  6
CONTINUOUS
 62
     7
 10
3006.402177857418
 20
1863.172861664111
 30
0.0
 11
3009.402177857417
 21
1863.172861664111
 31
0.0
  0
LINE
  5
16C
  8
0
  6
CONTINUOUS
 62
     7
 10
3009.402177857417
 20
1863.172861664111
 30
0.0
 11
3009.402177857417
 21
969.1728616641096
 31
0.0
  0
LINE
  5
16D
  8
0
  6
CONTINUOUS
 62
     7
 10
3009.402177857417
 20
1863.172861664111
 30
0.0
 11
3024.402177857417
 21
1863.172861664111
 31
0.0
  0
LINE
  5
16E
  8
0
  6
CONTINUOUS
 62
     7
 10
3022.902177857417
 20
1002.17286166411
 30
0.0
 11
3024.402177857417
 21
1002.17286166411
 31
0.0
  0
LINE
  5
16F
  8
0
  6
CONTINUOUS
 62
     7
 10
3010.402177857418
 20
981.6728616641097
 30
0.0
 11
3022.902177857417
 21
981.6728616641097
 31
0.0
  0
LINE
  5
170
  8
0
  6
CONTINUOUS
 62
     7
 10
3022.902177857417
 20
981.6728616641097
 30
0.0
 11
3022.902177857417
 21
1002.17286166411
 31
0.0
  0
LINE
  5
171
  8
0
  6
CONTINUOUS
 62
     7
 10
3010.402177857418
 20
969.1728616641096
 30
0.0
 11
3010.402177857418
 21
981.6728616641097
 31
0.0
  0
LINE
  5
172
  8
0
  6
CONTINUOUS
 62
     7
 10
3024.402177857417
 20
1863.172861664111
 30
0.0
 11
3024.402177857417
 21
1002.17286166411
 31
0.0
  0
LINE
  5
173
  8
0
  6
CONTINUOUS
 62
     7
 10
3006.402177857418
 20
1863.172861664111
 30
0.0
 11
3006.402177857418
 21
1863.672861664111
 31
0.0
  0
LINE
  5
174
  8
0
  6
CONTINUOUS
 62
     7
 10
3006.402177857418
 20
1863.672861664111
 30
0.0
 11
3009.402177857417
 21
1863.672861664111
 31
0.0
  0
LINE
  5
175
  8
0
  6
CONTINUOUS
 62
     7
 10
3009.402177857417
 20
1863.672861664111
 30
0.0
 11
3009.402177857417
 21
1863.172861664111
 31
0.0
  0
LINE
  5
176
  8
0
  6
CONTINUOUS
 62
     7
 10
3009.402177857417
 20
1863.672861664111
 30
0.0
 11
3024.402177857417
 21
1863.672861664111
 31
0.0
  0
LINE
  5
177
  8
0
  6
CONTINUOUS
 62
     7
 10
3024.402177857417
 20
1863.672861664111
 30
0.0
 11
3024.402177857417
 21
1863.172861664111
 31
0.0
  0
LINE
  5
178
  8
0
  6
CONTINUOUS
 62
     7
 10
3304.702177857418
 20
966.1728616641097
 30
0.0
 11
3025.702177857418
 21
966.1728616641096
 31
0.0
  0
LINE
  5
179
  8
0
  6
CONTINUOUS
 62
     7
 10
3025.702177857418
 20
1864.172861664109
 30
0.0
 11
3025.702177857418
 21
966.1728616641096
 31
0.0
  0
LINE
  5
17A
  8
0
  6
CONTINUOUS
 62
     7
 10
3304.702177857418
 20
1864.172861664109
 30
0.0
 11
3025.702177857418
 21
1864.172861664109
 31
0.0
  0
LINE
  5
17B
  8
0
  6
CONTINUOUS
 62
     7
 10
3304.702177857418
 20
1864.172861664109
 30
0.0
 11
3304.702177857418
 21
966.1728616641097
 31
0.0
  0
LINE
  5
17C
  8
0
  6
CONTINUOUS
 62
     7
 10
3025.702177857418
 20
1864.672861664109
 30
0.0
 11
3025.702177857418
 21
1864.17286166411
 31
0.0
  0
LINE
  5
17D
  8
0
  6
CONTINUOUS
 62
     7
 10
3025.702177857418
 20
1864.672861664109
 30
0.0
 11
3304.702177857418
 21
1864.672861664109
 31
0.0
  0
LINE
  5
17E
  8
0
  6
CONTINUOUS
 62
     7
 10
3304.702177857418
 20
1864.672861664109
 30
0.0
 11
3304.702177857418
 21
1864.17286166411
 31
0.0
  0
LINE
  5
17F
  8
0
  6
CONTINUOUS
 62
     7
 10
3024.702177857418
 20
1865.17286166411
 30
0.0
 11
3024.702177857418
 21
1864.672861664109
 31
0.0
  0
LINE
  5
180
  8
0
  6
CONTINUOUS
 62
     7
 10
3025.702177857418
 20
1864.672861664109
 30
0.0
 11
3025.702177857418
 21
1865.17286166411
 31
0.0
  0
LINE
  5
181
  8
0
  6
CONTINUOUS
 62
     7
 10
3024.702177857418
 20
1865.17286166411
 30
0.0
 11
3025.702177857418
 21
1865.17286166411
 31
0.0
  0
LINE
  5
182
  8
0
  6
CONTINUOUS
 62
     7
 10
3025.702177857418
 20
965.6728616641097
 30
0.0
 11
3025.702177857418
 21
1864.672861664109
 31
0.0
  0
LINE
  5
183
  8
0
  6
CONTINUOUS
 62
     7
 10
3024.702177857418
 20
965.6728616641097
 30
0.0
 11
3025.702177857418
 21
965.6728616641097
 31
0.0
  0
LINE
  5
184
  8
0
  6
CONTINUOUS
 62
     7
 10
3024.702177857417
 20
1864.672861664109
 30
0.0
 11
3024.702177857418
 21
965.6728616641097
 31
0.0
  0
LINE
  5
185
  8
0
  6
CONTINUOUS
 62
     7
 10
3024.702177857417
 20
1864.672861664109
 30
0.0
 11
3025.702177857418
 21
1864.672861664109
 31
0.0
  0
LINE
  5
186
  8
0
  6
CONTINUOUS
 62
     7
 10
3304.702177857418
 20
1865.17286166411
 30
0.0
 11
3304.702177857418
 21
1864.67286166411
 31
0.0
  0
LINE
  5
187
  8
0
  6
CONTINUOUS
 62
     7
 10
3304.702177857418
 20
1865.17286166411
 30
0.0
 11
3025.702177857418
 21
1865.17286166411
 31
0.0
  0
LINE
  5
188
  8
0
  6
CONTINUOUS
 62
     7
 10
3025.702177857418
 20
965.6728616641097
 30
0.0
 11
3025.702177857418
 21
966.1728616641096
 31
0.0
  0
LINE
  5
189
  8
0
  6
CONTINUOUS
 62
     7
 10
3304.702177857418
 20
965.6728616641099
 30
0.0
 11
3304.702177857418
 21
966.1728616641097
 31
0.0
  0
LINE
  5
18A
  8
0
  6
CONTINUOUS
 62
     7
 10
3025.702177857418
 20
965.6728616641097
 30
0.0
 11
3304.702177857418
 21
965.6728616641099
 31
0.0
  0
LINE
  5
18B
  8
0
  6
CONTINUOUS
 62
     7
 10
1996.849636425967
 20
2687.390515893781
 30
0.0
 11
1996.849636425967
 21
2687.190515893782
 31
0.0
  0
LINE
  5
18C
  8
0
  6
CONTINUOUS
 62
     7
 10
1996.849636425967
 20
2687.190515893782
 30
0.0
 11
1996.049636425967
 21
2687.190515893782
 31
0.0
  0
LINE
  5
18D
  8
0
  6
CONTINUOUS
 62
     7
 10
1996.049636425967
 20
2687.390515893781
 30
0.0
 11
1996.049636425967
 21
2687.190515893782
 31
0.0
  0
LINE
  5
18E
  8
0
  6
CONTINUOUS
 62
     7
 10
1996.049636425967
 20
2687.390515893781
 30
0.0
 11
1996.849636425967
 21
2687.390515893781
 31
0.0
  0
LINE
  5
18F
  8
0
  6
CONTINUOUS
 62
     7
 10
1995.849636425967
 20
2687.090515893779
 30
0.0
 11
1995.849636425967
 21
2687.190515893782
 31
0.0
  0
LINE
  5
190
  8
0
  6
CONTINUOUS
 62
     7
 10
1996.049636425967
 20
2687.190515893782
 30
0.0
 11
1995.849636425967
 21
2687.190515893782
 31
0.0
  0
ARC
  5
191
  8
0
  6
CONTINUOUS
 62
     7
 10
1996.049636425967
 20
2687.190515893782
 30
0.0
 40
0.2000000000000455
 50
90.0
 51
180.0
  0
LINE
  5
192
  8
0
  6
CONTINUOUS
 62
     7
 10
1996.849636425967
 20
2687.090515893779
 30
0.0
 11
1996.849636425967
 21
2687.190515893782
 31
0.0
  0
LINE
  5
193
  8
0
  6
CONTINUOUS
 62
     7
 10
1698.349636425967
 20
2687.190515893782
 30
0.0
 11
1697.549636425967
 21
2687.190515893782
 31
0.0
  0
LINE
  5
194
  8
0
  6
CONTINUOUS
 62
     7
 10
1697.549636425967
 20
2687.390515893782
 30
0.0
 11
1697.549636425967
 21
2687.190515893782
 31
0.0
  0
LINE
  5
195
  8
0
  6
CONTINUOUS
 62
     7
 10
1698.349636425967
 20
2687.390515893782
 30
0.0
 11
1698.349636425967
 21
2687.190515893782
 31
0.0
  0
LINE
  5
196
  8
0
  6
CONTINUOUS
 62
     7
 10
1697.549636425967
 20
2687.190515893782
 30
0.0
 11
1697.349636425967
 21
2687.190515893782
 31
0.0
  0
ARC
  5
197
  8
0
  6
CONTINUOUS
 62
     7
 10
1697.549636425967
 20
2687.190515893782
 30
0.0
 40
0.2000000000000455
 50
90.0
 51
180.0
  0
LINE
  5
198
  8
0
  6
CONTINUOUS
 62
     7
 10
1697.349636425967
 20
2687.090515893779
 30
0.0
 11
1697.349636425967
 21
2687.190515893782
 31
0.0
  0
LINE
  5
199
  8
0
  6
CONTINUOUS
 62
     7
 10
1698.349636425967
 20
2687.090515893779
 30
0.0
 11
1698.349636425967
 21
2687.190515893782
 31
0.0
  0
LINE
  5
19A
  8
0
  6
CONTINUOUS
 62
     7
 10
1996.849636425967
 20
2687.390515893781
 30
0.0
 11
2276.349636425967
 21
2687.390515893782
 31
0.0
  0
LINE
  5
19B
  8
0
  6
CONTINUOUS
 62
     7
 10
2290.849636425967
 20
2687.190515893782
 30
0.0
 11
2290.849636425967
 21
2687.390515893782
 31
0.0
  0
LINE
  5
19C
  8
0
  6
CONTINUOUS
 62
     7
 10
2290.849636425967
 20
2687.190515893782
 30
0.0
 11
1996.849636425967
 21
2687.190515893782
 31
0.0
  0
LINE
  5
19D
  8
0
  6
CONTINUOUS
 62
     7
 10
2290.849636425967
 20
2687.190515893782
 30
0.0
 11
2290.849636425967
 21
2687.090515893779
 31
0.0
  0
LINE
  5
19E
  8
0
  6
CONTINUOUS
 62
     7
 10
1926.349636425967
 20
2687.390515893782
 30
0.0
 11
1992.349636425967
 21
2687.390515893782
 31
0.0
  0
LINE
  5
19F
  8
0
  6
CONTINUOUS
 62
     7
 10
1992.349636425967
 20
2687.190515893782
 30
0.0
 11
1992.349636425967
 21
2687.390515893782
 31
0.0
  0
LINE
  5
1A0
  8
0
  6
CONTINUOUS
 62
     7
 10
1992.349636425967
 20
2687.190515893782
 30
0.0
 11
1698.349636425967
 21
2687.190515893782
 31
0.0
  0
LINE
  5
1A1
  8
0
  6
CONTINUOUS
 62
     7
 10
1992.349636425967
 20
2687.190515893782
 30
0.0
 11
1992.349636425967
 21
2687.090515893779
 31
0.0
  0
LINE
  5
1A2
  8
0
  6
CONTINUOUS
 62
     7
 10
2291.649636425966
 20
2687.190515893782
 30
0.0
 11
2291.649636425966
 21
2687.390515893782
 31
0.0
  0
LINE
  5
1A3
  8
0
  6
CONTINUOUS
 62
     7
 10
2291.649636425966
 20
2687.190515893782
 30
0.0
 11
2290.849636425967
 21
2687.190515893782
 31
0.0
  0
LINE
  5
1A4
  8
0
  6
CONTINUOUS
 62
     7
 10
2291.649636425966
 20
2687.190515893782
 30
0.0
 11
2291.849636425967
 21
2687.190515893782
 31
0.0
  0
LINE
  5
1A5
  8
0
  6
CONTINUOUS
 62
     7
 10
2291.849636425967
 20
2687.190515893782
 30
0.0
 11
2291.849636425967
 21
2687.090515893779
 31
0.0
  0
ARC
  5
1A6
  8
0
  6
CONTINUOUS
 62
     7
 10
2291.649636425966
 20
2687.190515893782
 30
0.0
 40
0.2000000000002728
 50
0.0
 51
90.0
  0
LINE
  5
1A7
  8
0
  6
CONTINUOUS
 62
     7
 10
1992.349636425967
 20
2687.390515893782
 30
0.0
 11
1993.149636425967
 21
2687.390515893782
 31
0.0
  0
LINE
  5
1A8
  8
0
  6
CONTINUOUS
 62
     7
 10
1993.149636425967
 20
2687.190515893782
 30
0.0
 11
1993.149636425967
 21
2687.390515893782
 31
0.0
  0
LINE
  5
1A9
  8
0
  6
CONTINUOUS
 62
     7
 10
1993.149636425967
 20
2687.190515893782
 30
0.0
 11
1992.349636425967
 21
2687.190515893782
 31
0.0
  0
LINE
  5
1AA
  8
0
  6
CONTINUOUS
 62
     7
 10
1993.149636425967
 20
2687.190515893782
 30
0.0
 11
1993.349636425967
 21
2687.190515893782
 31
0.0
  0
LINE
  5
1AB
  8
0
  6
CONTINUOUS
 62
     7
 10
1993.349636425967
 20
2687.190515893782
 30
0.0
 11
1993.349636425967
 21
2687.090515893779
 31
0.0
  0
ARC
  5
1AC
  8
0
  6
CONTINUOUS
 62
     7
 10
1993.149636425967
 20
2687.190515893782
 30
0.0
 40
0.1999999999998181
 50
0.0
 51
90.0
  0
LINE
  5
1AD
  8
0
  6
CONTINUOUS
 62
     7
 10
1993.349636425967
 20
2672.090515893782
 30
0.0
 11
1993.349636425967
 21
2687.090515893782
 31
0.0
  0
LINE
  5
1AE
  8
0
  6
CONTINUOUS
 62
     7
 10
1700.349636425967
 20
2669.090515893782
 30
0.0
 11
1990.349636425967
 21
2669.090515893782
 31
0.0
  0
ARC
  5
1AF
  8
0
  6
CONTINUOUS
 62
     7
 10
1990.349636425967
 20
2672.090515893782
 30
0.0
 40
3.0
 50
270.0000000000008
 51
0.0
  0
LINE
  5
1B0
  8
0
  6
CONTINUOUS
 62
     7
 10
1697.349636425967
 20
2672.090515893782
 30
0.0
 11
1697.349636425967
 21
2687.090515893782
 31
0.0
  0
ARC
  5
1B1
  8
0
  6
CONTINUOUS
 62
     7
 10
1700.349636425967
 20
2672.090515893782
 30
0.0
 40
3.0
 50
180.0
 51
270.0000000000008
  0
LINE
  5
1B2
  8
0
  6
CONTINUOUS
 62
     7
 10
1697.349636425967
 20
2687.090515893782
 30
0.0
 11
1993.349636425967
 21
2687.090515893782
 31
0.0
  0
LINE
  5
1B3
  8
0
  6
CONTINUOUS
 62
     7
 10
1995.849636425966
 20
2687.090515893782
 30
0.0
 11
2291.849636425967
 21
2687.090515893782
 31
0.0
  0
LINE
  5
1B4
  8
0
  6
CONTINUOUS
 62
     7
 10
1995.849636425966
 20
2672.090515893782
 30
0.0
 11
1995.849636425966
 21
2687.090515893782
 31
0.0
  0
LINE
  5
1B5
  8
0
  6
CONTINUOUS
 62
     7
 10
1998.849636425966
 20
2669.090515893782
 30
0.0
 11
2288.849636425966
 21
2669.090515893782
 31
0.0
  0
LINE
  5
1B6
  8
0
  6
CONTINUOUS
 62
     7
 10
2291.849636425967
 20
2672.090515893782
 30
0.0
 11
2291.849636425967
 21
2687.090515893782
 31
0.0
  0
ARC
  5
1B7
  8
0
  6
CONTINUOUS
 62
     7
 10
1998.849636425966
 20
2672.090515893782
 30
0.0
 40
3.0
 50
180.0
 51
270.0000000000008
  0
ARC
  5
1B8
  8
0
  6
CONTINUOUS
 62
     7
 10
2288.849636425966
 20
2672.090515893782
 30
0.0
 40
3.000000000000455
 50
270.0000000000008
 51
0.0
  0
LINE
  5
1B9
  8
0
  6
CONTINUOUS
 62
     7
 10
2276.349636425967
 20
2688.890515893782
 30
0.0
 11
1712.849636425967
 21
2688.890515893782
 31
0.0
  0
LINE
  5
1BA
  8
0
  6
CONTINUOUS
 62
     7
 10
2276.349636425967
 20
2967.390515893782
 30
0.0
 11
1712.849636425967
 21
2967.390515893782
 31
0.0
  0
LINE
  5
1BB
  8
0
  6
CONTINUOUS
 62
     7
 10
2276.349636425967
 20
2967.390515893782
 30
0.0
 11
2276.349636425967
 21
2688.890515893782
 31
0.0
  0
LINE
  5
1BC
  8
0
  6
CONTINUOUS
 62
     7
 10
2276.349636425967
 20
2687.890515893782
 30
0.0
 11
2276.349636425967
 21
2688.890515893782
 31
0.0
  0
LINE
  5
1BD
  8
0
  6
CONTINUOUS
 62
     7
 10
2276.349636425967
 20
2687.890515893782
 30
0.0
 11
1712.849636425967
 21
2687.890515893782
 31
0.0
  0
LINE
  5
1BE
  8
0
  6
CONTINUOUS
 62
     7
 10
1926.349636425967
 20
2687.390515893782
 30
0.0
 11
1926.349636425967
 21
2687.890515893782
 31
0.0
  0
LINE
  5
1BF
  8
0
  6
CONTINUOUS
 62
     7
 10
1926.349636425967
 20
2687.390515893782
 30
0.0
 11
1712.849636425967
 21
2687.390515893782
 31
0.0
  0
LINE
  5
1C0
  8
0
  6
CONTINUOUS
 62
     7
 10
1996.049636425967
 20
2687.390515893782
 30
0.0
 11
1993.149636425967
 21
2687.390515893782
 31
0.0
  0
LINE
  5
1C1
  8
0
  6
CONTINUOUS
 62
     7
 10
2276.349636425967
 20
2688.390515893782
 30
0.0
 11
2293.849636425967
 21
2688.390515893782
 31
0.0
  0
LINE
  5
1C2
  8
0
  6
CONTINUOUS
 62
     7
 10
2276.349636425967
 20
2967.390515893782
 30
0.0
 11
2276.349636425967
 21
2688.390515893782
 31
0.0
  0
LINE
  5
1C3
  8
0
  6
CONTINUOUS
 62
     7
 10
2293.849636425967
 20
2967.390515893782
 30
0.0
 11
2276.349636425967
 21
2967.390515893782
 31
0.0
  0
LINE
  5
1C4
  8
0
  6
CONTINUOUS
 62
     7
 10
2293.849636425967
 20
2688.390515893782
 30
0.0
 11
2293.849636425967
 21
2967.390515893782
 31
0.0
  0
LINE
  5
1C5
  8
0
  6
CONTINUOUS
 62
     7
 10
1712.849636425967
 20
2687.390515893782
 30
0.0
 11
1712.849636425967
 21
2688.390515893782
 31
0.0
  0
LINE
  5
1C6
  8
0
  6
CONTINUOUS
 62
     7
 10
1695.349636425967
 20
2687.390515893782
 30
0.0
 11
1712.849636425967
 21
2687.390515893782
 31
0.0
  0
LINE
  5
1C7
  8
0
  6
CONTINUOUS
 62
     7
 10
1695.349636425967
 20
2687.390515893782
 30
0.0
 11
1695.349636425967
 21
2688.390515893782
 31
0.0
  0
LINE
  5
1C8
  8
0
  6
CONTINUOUS
 62
     7
 10
1712.849636425967
 20
2688.390515893782
 30
0.0
 11
1695.349636425967
 21
2688.390515893782
 31
0.0
  0
LINE
  5
1C9
  8
0
  6
CONTINUOUS
 62
     7
 10
2293.849636425967
 20
2687.390515893782
 30
0.0
 11
2293.849636425967
 21
2688.390515893782
 31
0.0
  0
LINE
  5
1CA
  8
0
  6
CONTINUOUS
 62
     7
 10
2276.349636425967
 20
2687.390515893782
 30
0.0
 11
2293.849636425967
 21
2687.390515893782
 31
0.0
  0
LINE
  5
1CB
  8
0
  6
CONTINUOUS
 62
     7
 10
2276.349636425967
 20
2687.390515893782
 30
0.0
 11
2276.349636425967
 21
2688.390515893782
 31
0.0
  0
LINE
  5
1CC
  8
0
  6
CONTINUOUS
 62
     7
 10
1695.349636425967
 20
2688.390515893782
 30
0.0
 11
1695.349636425967
 21
2967.390515893782
 31
0.0
  0
LINE
  5
1CD
  8
0
  6
CONTINUOUS
 62
     7
 10
1712.849636425967
 20
2967.390515893782
 30
0.0
 11
1712.849636425967
 21
2688.390515893782
 31
0.0
  0
LINE
  5
1CE
  8
0
  6
CONTINUOUS
 62
     7
 10
1695.349636425967
 20
2967.390515893782
 30
0.0
 11
1712.849636425967
 21
2967.390515893782
 31
0.0
  0
LINE
  5
1CF
  8
0
  6
CONTINUOUS
 62
     8
 10
1996.049636425967
 20
2687.190515893782
 30
0.0
 11
1996.049636425967
 21
2687.090515893779
 31
0.0
  0
LINE
  5
1D0
  8
0
  6
CONTINUOUS
 62
     8
 10
1697.549636425967
 20
2687.190515893782
 30
0.0
 11
1697.549636425967
 21
2687.090515893779
 31
0.0
  0
LINE
  5
1D1
  8
0
  6
CONTINUOUS
 62
     8
 10
2291.649636425966
 20
2687.090515893779
 30
0.0
 11
2291.649636425966
 21
2687.190515893782
 31
0.0
  0
LINE
  5
1D2
  8
0
  6
CONTINUOUS
 62
     8
 10
1993.149636425967
 20
2687.090515893779
 30
0.0
 11
1993.149636425967
 21
2687.190515893782
 31
0.0
  0
LINE
  5
1D3
  8
0
  6
CONTINUOUS
 62
     7
 10
4054.10392831273
 20
1017.17286166411
 30
0.0
 11
4617.603928312729
 21
1017.17286166411
 31
0.0
  0
LINE
  5
1D4
  8
0
  6
CONTINUOUS
 62
     7
 10
4054.10392831273
 20
967.1728616641097
 30
0.0
 11
4617.603928312729
 21
967.1728616641097
 31
0.0
  0
LINE
  5
1D5
  8
0
  6
CONTINUOUS
 62
     7
 10
4054.103928312729
 20
1850.17286166411
 30
0.0
 11
4617.603928312729
 21
1850.17286166411
 31
0.0
  0
LINE
  5
1D6
  8
0
  6
CONTINUOUS
 62
     7
 10
4054.103928312729
 20
1847.67286166411
 30
0.0
 11
4617.603928312729
 21
1847.67286166411
 31
0.0
  0
LINE
  5
1D7
  8
0
  6
CONTINUOUS
 62
     7
 10
4054.103928312729
 20
1847.67286166411
 30
0.0
 11
4054.103928312729
 21
1850.17286166411
 31
0.0
  0
LINE
  5
1D8
  8
0
  6
CONTINUOUS
 62
     7
 10
4617.603928312729
 20
1847.67286166411
 30
0.0
 11
4617.603928312729
 21
1850.17286166411
 31
0.0
  0
LINE
  5
1D9
  8
0
  6
CONTINUOUS
 62
     7
 10
4054.103928312729
 20
1864.67286166411
 30
0.0
 11
4617.603928312729
 21
1864.67286166411
 31
0.0
  0
LINE
  5
1DA
  8
0
  6
CONTINUOUS
 62
     7
 10
4054.103928312729
 20
1862.17286166411
 30
0.0
 11
4054.103928312729
 21
1864.67286166411
 31
0.0
  0
LINE
  5
1DB
  8
0
  6
CONTINUOUS
 62
     7
 10
4054.103928312729
 20
1862.17286166411
 30
0.0
 11
4617.603928312729
 21
1862.17286166411
 31
0.0
  0
LINE
  5
1DC
  8
0
  6
CONTINUOUS
 62
     7
 10
4617.603928312729
 20
1862.17286166411
 30
0.0
 11
4617.603928312729
 21
1864.67286166411
 31
0.0
  0
LINE
  5
1DD
  8
0
  6
CONTINUOUS
 62
     7
 10
4054.103928312729
 20
1862.17286166411
 30
0.0
 11
4054.103928312729
 21
1850.17286166411
 31
0.0
  0
LINE
  5
1DE
  8
0
  6
CONTINUOUS
 62
     7
 10
4617.603928312729
 20
1862.17286166411
 30
0.0
 11
4617.603928312729
 21
1850.17286166411
 31
0.0
  0
LINE
  5
1DF
  8
0
  6
CONTINUOUS
 62
     7
 10
4039.10392831273
 20
1864.172861664109
 30
0.0
 11
4036.60392831273
 21
1864.172861664109
 31
0.0
  0
LINE
  5
1E0
  8
0
  6
CONTINUOUS
 62
     7
 10
4036.60392831273
 20
1864.172861664109
 30
0.0
 11
4036.60392831273
 21
966.1728616641097
 31
0.0
  0
LINE
  5
1E1
  8
0
  6
CONTINUOUS
 62
     7
 10
4039.10392831273
 20
966.1728616641097
 30
0.0
 11
4039.10392831273
 21
1864.172861664109
 31
0.0
  0
LINE
  5
1E2
  8
0
  6
CONTINUOUS
 62
     7
 10
4036.60392831273
 20
966.1728616641097
 30
0.0
 11
4039.10392831273
 21
966.1728616641097
 31
0.0
  0
LINE
  5
1E3
  8
0
  6
CONTINUOUS
 62
     7
 10
4632.603928312729
 20
966.6728616641103
 30
0.0
 11
4635.10392831273
 21
966.6728616641104
 31
0.0
  0
LINE
  5
1E4
  8
0
  6
CONTINUOUS
 62
     7
 10
4632.603928312729
 20
1864.67286166411
 30
0.0
 11
4632.603928312729
 21
966.6728616641103
 31
0.0
  0
LINE
  5
1E5
  8
0
  6
CONTINUOUS
 62
     7
 10
4635.10392831273
 20
1864.67286166411
 30
0.0
 11
4632.603928312729
 21
1864.67286166411
 31
0.0
  0
LINE
  5
1E6
  8
0
  6
CONTINUOUS
 62
     7
 10
4635.10392831273
 20
966.6728616641104
 30
0.0
 11
4635.10392831273
 21
1864.67286166411
 31
0.0
  0
LINE
  5
1E7
  8
0
  6
CONTINUOUS
 62
     7
 10
4617.603928312729
 20
1864.67286166411
 30
0.0
 11
4617.603928312729
 21
966.6728616641103
 31
0.0
  0
LINE
  5
1E8
  8
0
  6
CONTINUOUS
 62
     7
 10
4620.10392831273
 20
966.6728616641103
 30
0.0
 11
4620.10392831273
 21
1864.67286166411
 31
0.0
  0
LINE
  5
1E9
  8
0
  6
CONTINUOUS
 62
     7
 10
4620.10392831273
 20
1864.67286166411
 30
0.0
 11
4617.603928312729
 21
1864.67286166411
 31
0.0
  0
LINE
  5
1EA
  8
0
  6
CONTINUOUS
 62
     7
 10
4617.603928312729
 20
966.6728616641103
 30
0.0
 11
4620.10392831273
 21
966.6728616641103
 31
0.0
  0
LINE
  5
1EB
  8
0
  6
CONTINUOUS
 62
     7
 10
4054.103928312729
 20
1864.172861664109
 30
0.0
 11
4051.60392831273
 21
1864.172861664109
 31
0.0
  0
LINE
  5
1EC
  8
0
  6
CONTINUOUS
 62
     7
 10
4054.103928312729
 20
966.1728616641099
 30
0.0
 11
4054.103928312729
 21
1864.172861664109
 31
0.0
  0
LINE
  5
1ED
  8
0
  6
CONTINUOUS
 62
     7
 10
4051.60392831273
 20
966.1728616641099
 30
0.0
 11
4054.103928312729
 21
966.1728616641099
 31
0.0
  0
LINE
  5
1EE
  8
0
  6
CONTINUOUS
 62
     7
 10
4051.60392831273
 20
1864.172861664109
 30
0.0
 11
4051.60392831273
 21
966.1728616641099
 31
0.0
  0
LINE
  5
1EF
  8
0
  6
CONTINUOUS
 62
     7
 10
4620.10392831273
 20
966.6728616641103
 30
0.0
 11
4620.10392831273
 21
1033.67286166411
 31
0.0
  0
LINE
  5
1F0
  8
0
  6
CONTINUOUS
 62
     7
 10
4620.10392831273
 20
966.6728616641103
 30
0.0
 11
4632.603928312729
 21
966.6728616641103
 31
0.0
  0
LINE
  5
1F1
  8
0
  6
CONTINUOUS
 62
     7
 10
4632.603928312729
 20
966.6728616641103
 30
0.0
 11
4632.603928312729
 21
1033.67286166411
 31
0.0
  0
LINE
  5
1F2
  8
0
  6
CONTINUOUS
 62
     7
 10
4620.10392831273
 20
1033.67286166411
 30
0.0
 11
4632.603928312729
 21
1033.67286166411
 31
0.0
  0
LINE
  5
1F3
  8
0
  6
CONTINUOUS
 62
     7
 10
4051.60392831273
 20
1797.172861664109
 30
0.0
 11
4039.10392831273
 21
1797.172861664109
 31
0.0
  0
LINE
  5
1F4
  8
0
  6
CONTINUOUS
 62
     7
 10
4039.10392831273
 20
1864.172861664109
 30
0.0
 11
4039.10392831273
 21
1797.172861664109
 31
0.0
  0
LINE
  5
1F5
  8
0
  6
CONTINUOUS
 62
     7
 10
4051.60392831273
 20
1864.172861664109
 30
0.0
 11
4039.10392831273
 21
1864.172861664109
 31
0.0
  0
LINE
  5
1F6
  8
0
  6
CONTINUOUS
 62
     7
 10
4051.60392831273
 20
1864.172861664109
 30
0.0
 11
4051.60392831273
 21
1797.172861664109
 31
0.0
  0
LINE
  5
1F7
  8
0
  6
CONTINUOUS
 62
     7
 10
4620.10392831273
 20
1797.67286166411
 30
0.0
 11
4620.10392831273
 21
1033.67286166411
 31
0.0
  0
LINE
  5
1F8
  8
0
  6
CONTINUOUS
 62
     7
 10
4620.10392831273
 20
1797.67286166411
 30
0.0
 11
4632.603928312729
 21
1797.67286166411
 31
0.0
  0
LINE
  5
1F9
  8
0
  6
CONTINUOUS
 62
     7
 10
4632.603928312729
 20
1797.67286166411
 30
0.0
 11
4632.603928312729
 21
1033.67286166411
 31
0.0
  0
LINE
  5
1FA
  8
0
  6
CONTINUOUS
 62
     7
 10
4039.10392831273
 20
1033.17286166411
 30
0.0
 11
4039.10392831273
 21
1797.172861664109
 31
0.0
  0
LINE
  5
1FB
  8
0
  6
CONTINUOUS
 62
     7
 10
4051.60392831273
 20
1033.17286166411
 30
0.0
 11
4051.60392831273
 21
1797.172861664109
 31
0.0
  0
LINE
  5
1FC
  8
0
  6
CONTINUOUS
 62
     7
 10
4051.60392831273
 20
1033.17286166411
 30
0.0
 11
4039.10392831273
 21
1033.17286166411
 31
0.0
  0
LINE
  5
1FD
  8
0
  6
CONTINUOUS
 62
     7
 10
4620.10392831273
 20
1864.67286166411
 30
0.0
 11
4632.603928312729
 21
1864.67286166411
 31
0.0
  0
LINE
  5
1FE
  8
0
  6
CONTINUOUS
 62
     7
 10
4632.603928312729
 20
1797.67286166411
 30
0.0
 11
4632.603928312729
 21
1864.67286166411
 31
0.0
  0
LINE
  5
1FF
  8
0
  6
CONTINUOUS
 62
     7
 10
4620.10392831273
 20
1797.67286166411
 30
0.0
 11
4620.10392831273
 21
1864.67286166411
 31
0.0
  0
LINE
  5
200
  8
0
  6
CONTINUOUS
 62
     7
 10
4039.10392831273
 20
1033.17286166411
 30
0.0
 11
4039.10392831273
 21
966.1728616641097
 31
0.0
  0
LINE
  5
201
  8
0
  6
CONTINUOUS
 62
     7
 10
4051.60392831273
 20
1033.17286166411
 30
0.0
 11
4051.60392831273
 21
966.1728616641097
 31
0.0
  0
LINE
  5
202
  8
0
  6
CONTINUOUS
 62
     7
 10
4051.60392831273
 20
966.1728616641097
 30
0.0
 11
4039.10392831273
 21
966.1728616641097
 31
0.0
  0
LINE
  5
203
  8
0
  6
CONTINUOUS
 62
     7
 10
4054.103928312729
 20
1864.672861664109
 30
0.0
 11
4054.103928312729
 21
1864.172861664109
 31
0.0
  0
LINE
  5
204
  8
0
  6
CONTINUOUS
 62
     7
 10
4036.60392831273
 20
1864.672861664109
 30
0.0
 11
4036.60392831273
 21
1864.172861664109
 31
0.0
  0
LINE
  5
205
  8
0
  6
CONTINUOUS
 62
     7
 10
4036.60392831273
 20
1864.172861664109
 30
0.0
 11
4054.103928312729
 21
1864.172861664109
 31
0.0
  0
LINE
  5
206
  8
0
  6
CONTINUOUS
 62
     7
 10
4036.60392831273
 20
1864.672861664109
 30
0.0
 11
4054.103928312729
 21
1864.672861664109
 31
0.0
  0
LINE
  5
207
  8
0
  6
CONTINUOUS
 62
     7
 10
4617.603928312729
 20
966.1728616641103
 30
0.0
 11
4617.603928312729
 21
966.6728616641103
 31
0.0
  0
LINE
  5
208
  8
0
  6
CONTINUOUS
 62
     7
 10
4635.10392831273
 20
966.1728616641103
 30
0.0
 11
4635.10392831273
 21
966.6728616641103
 31
0.0
  0
LINE
  5
209
  8
0
  6
CONTINUOUS
 62
     7
 10
4635.10392831273
 20
966.1728616641103
 30
0.0
 11
4617.603928312729
 21
966.1728616641103
 31
0.0
  0
LINE
  5
20A
  8
0
  6
CONTINUOUS
 62
     7
 10
4635.10392831273
 20
966.6728616641103
 30
0.0
 11
4617.603928312729
 21
966.6728616641103
 31
0.0
  0
LINE
  5
20B
  8
0
  6
CONTINUOUS
 62
     7
 10
4617.603928312729
 20
1865.17286166411
 30
0.0
 11
4617.603928312729
 21
1864.67286166411
 31
0.0
  0
LINE
  5
20C
  8
0
  6
CONTINUOUS
 62
     7
 10
4635.10392831273
 20
1865.17286166411
 30
0.0
 11
4617.603928312729
 21
1865.17286166411
 31
0.0
  0
LINE
  5
20D
  8
0
  6
CONTINUOUS
 62
     7
 10
4617.603928312729
 20
1864.67286166411
 30
0.0
 11
4635.10392831273
 21
1864.67286166411
 31
0.0
  0
LINE
  5
20E
  8
0
  6
CONTINUOUS
 62
     7
 10
4635.10392831273
 20
1865.17286166411
 30
0.0
 11
4635.10392831273
 21
1864.67286166411
 31
0.0
  0
LINE
  5
20F
  8
0
  6
CONTINUOUS
 62
     7
 10
4054.103928312729
 20
966.1728616641099
 30
0.0
 11
4036.60392831273
 21
966.1728616641097
 31
0.0
  0
LINE
  5
210
  8
0
  6
CONTINUOUS
 62
     7
 10
4054.103928312729
 20
965.6728616641099
 30
0.0
 11
4054.103928312729
 21
966.1728616641099
 31
0.0
  0
LINE
  5
211
  8
0
  6
CONTINUOUS
 62
     7
 10
4036.60392831273
 20
965.6728616641099
 30
0.0
 11
4054.103928312729
 21
965.6728616641099
 31
0.0
  0
LINE
  5
212
  8
0
  6
CONTINUOUS
 62
     7
 10
4036.60392831273
 20
965.6728616641099
 30
0.0
 11
4036.60392831273
 21
966.1728616641097
 31
0.0
  0
ENDSEC
  0
EOF
