  0
SECTION
  2
HEADER
  9
$ACADVER
  1
AC1006
  9
$DWGCODEPAGE
  3
dos932
  9
$INSBASE
 10
0.0
 20
0.0
 30
0.0
  9
$EXTMIN
 10
0.0
 20
0.0
  9
$EXTMAX
 10
5000.0
 20
3500.0
  9
$LIMMIN
 10
0.0
 20
0.0
  9
$LIMMAX
 10
5000.0
 20
3500.0
  9
$ORTHOMODE
 70
     0
  9
$REGENMODE
 70
     1
  9
$FILLMODE
 70
     1
  9
$QTEXTMODE
 70
     0
  9
$MIRRTEXT
 70
     1
  9
$DRAGMODE
 70
     2
  9
$LTSCALE
 40
1.0
  9
$OSMODE
 70
    37
  9
$ATTMODE
 70
     1
  9
$TEXTSIZE
 40
3.5
  9
$TRACEWID
 40
1.0
  9
$TEXTSTYLE
  7
STANDARD
  9
$CLAYER
  8
0
  9
$CELTYPE
  6
BYLAYER
  9
$CECOLOR
 62
   256
  9
$DIMSCALE
 40
1.0
  9
$DIMASZ
 40
3.302
  9
$DIMEXO
 40
1.0
  9
$DIMDLI
 40
3.75
  9
$DIMRND
 40
0.0
  9
$DIMDLE
 40
0.0
  9
$DIMEXE
 40
1.0
  9
$DIMTP
 40
0.0
  9
$DIMTM
 40
0.0
  9
$DIMTXT
 40
3.5
  9
$DIMCEN
 40
2.5
  9
$DIMTSZ
 40
0.0
  9
$DIMTOL
 70
     0
  9
$DIMLIM
 70
     0
  9
$DIMTIH
 70
     1
  9
$DIMTOH
 70
     1
  9
$DIMSE1
 70
     0
  9
$DIMSE2
 70
     0
  9
$DIMTAD
 70
     1
  9
$DIMZIN
 70
     0
  9
$DIMBLK
  1

  9
$DIMASO
 70
     1
  9
$DIMSHO
 70
     1
  9
$DIMPOST
  1

  9
$DIMAPOST
  1

  9
$DIMALT
 70
     0
  9
$DIMALTD
 70
     3
  9
$DIMALTF
 40
0.0393700787401575
  9
$DIMLFAC
 40
1.0
  9
$DIMTOFL
 70
     1
  9
$DIMTVP
 40
0.0
  9
$DIMTIX
 70
     0
  9
$DIMSOXD
 70
     0
  9
$DIMSAH
 70
     0
  9
$DIMBLK1
  1

  9
$DIMBLK2
  1

  9
$LUNITS
 70
     2
  9
$LUPREC
 70
     3
  9
$SKETCHINC
 40
1.0
  9
$FILLETRAD
 40
10.0
  9
$AUNITS
 70
     0
  9
$AUPREC
 70
     2
  9
$MENU
  1
.
  9
$ELEVATION
 40
0.0
  9
$THICKNESS
 40
0.0
  9
$LIMCHECK
 70
     0
  9
$CHAMFERA
 40
0.0
  9
$CHAMFERB
 40
0.0
  9
$SKPOLY
 70
     0
  9
$TDCREATE
 40
2459796.273432442
  9
$TDUPDATE
 40
2460139.362569387
  9
$TDINDWG
 40
0.0000000116
  9
$TDUSRTIMER
 40
0.0000000116
  9
$USRTIMER
 70
     1
  9
$ANGBASE
 50
0.0
  9
$ANGDIR
 70
     0
  9
$PDMODE
 70
     0
  9
$PDSIZE
 40
-1.0
  9
$PLINEWID
 40
0.0
  9
$COORDS
 70
     1
  9
$SPLFRAME
 70
     0
  9
$SPLINETYPE
 70
     6
  9
$SPLINESEGS
 70
     8
  9
$ATTDIA
 70
     0
  9
$ATTREQ
 70
     1
  9
$HANDLING
 70
     1
  9
$HANDSEED
  5
530
  9
$SURFTAB1
 70
     6
  9
$SURFTAB2
 70
     6
  9
$SURFTYPE
 70
     6
  9
$SURFU
 70
     6
  9
$SURFV
 70
     6
  9
$UCSNAME
  2

  9
$UCSORG
 10
0.0
 20
0.0
 30
0.0
  9
$UCSXDIR
 10
1.0
 20
0.0
 30
0.0
  9
$UCSYDIR
 10
0.0
 20
1.0
 30
0.0
  9
$USERI1
 70
     0
  9
$USERI2
 70
     0
  9
$USERI3
 70
     0
  9
$USERI4
 70
     0
  9
$USERI5
 70
     0
  9
$USERR1
 40
0.0
  9
$USERR2
 40
0.0
  9
$USERR3
 40
0.0
  9
$USERR4
 40
0.0
  9
$USERR5
 40
0.0
  9
$WORLDVIEW
 70
     1
  0
ENDSEC
  0
SECTION
  2
TABLES
  0
TABLE
  2
VPORT
 70
     1
  0
VPORT
  2
*ACTIVE
 70
     0
 10
0.0
 20
0.0
 11
1.0
 21
1.0
 12
2500.0
 22
1750.0
 13
0.0
 23
0.0
 14
10.0
 24
10.0
 15
10.0
 25
10.0
 16
0.0
 26
0.0
 36
1.0
 17
0.0
 27
0.0
 37
0.0
 40
3500.0
 41
1.428571428571429
 42
50.0
 43
0.0
 44
0.0
 50
0.0
 51
0.0
 71
     0
 72
  2000
 73
     1
 74
     3
 75
     0
 76
     0
 77
     0
 78
     0
  0
ENDTAB
  0
TABLE
  2
LTYPE
 70
     6
  0
LTYPE
  2
CONTINUOUS
 70
     0
  3
Solid line
 72
    65
 73
     0
 40
0.0
  0
LTYPE
  2
HIDDEN
 70
     0
  3
Hidden __ __ __ __ __ __ __ __ __ __ __ __ __ __
 72
    65
 73
     2
 40
1.905
 49
1.27
 49
-0.635
  0
LTYPE
  2
PHANTOM
 70
     0
  3
Phantom ______  __  __  ______  __  __  ______
 72
    65
 73
     6
 40
12.7
 49
6.35
 49
-1.27
 49
1.27
 49
-1.27
 49
1.27
 49
-1.27
  0
LTYPE
  2
CENTER
 70
     0
  3
Center ____ _ ____ _ ____ _ ____ _ ____ _ ____
 72
    65
 73
     4
 40
10.16
 49
6.35
 49
-1.27
 49
1.27
 49
-1.27
  0
LTYPE
  2
CENTERX2
 70
     0
  3
Center (2x) ________  __  ________  __  _____
 72
    65
 73
     4
 40
20.32
 49
12.7
 49
-2.54
 49
2.54
 49
-2.54
  0
LTYPE
  2
DOT2
 70
     0
  3
Dot (.5x) ........................................
 72
    65
 73
     2
 40
0.635
 49
0.0
 49
-0.635
  0
ENDTAB
  0
TABLE
  2
LAYER
 70
     3
  0
LAYER
  2
0
 70
     0
 62
     7
  6
CONTINUOUS
  0
LAYER
  2
SLD-0
 70
     0
 62
   179
  6
CONTINUOUS
  0
LAYER
  2
寸法
 70
     0
 62
   179
  6
CONTINUOUS
  0
ENDTAB
  0
TABLE
  2
STYLE
 70
     2
  0
STYLE
  2
STANDARD
 70
     0
 40
0.0
 41
1.0
 50
0.0
 71
     0
 42
3.5
  3
txt
  4
bigfont
  0
STYLE
  2
SLDTEXTSTYLE0
 70
     0
 40
0.0
 41
0.75
 50
0.0
 71
     0
 42
3.5
  3
TXT
  4
bigfont
  0
ENDTAB
  0
TABLE
  2
VIEW
 70
     0
  0
ENDTAB
  0
TABLE
  2
UCS
 70
     0
  0
ENDTAB
  0
ENDSEC
  0
SECTION
  2
BLOCKS
  0
ENDSEC
  0
SECTION
  2
ENTITIES
  0
LINE
  5
75
  8
0
  6
CONTINUOUS
 62
     7
 10
4839.484712179223
 20
258.5233124172521
 30
0.0
 11
3312.374599790194
 21
258.5233124172519
 31
0.0
  0
TEXT
  5
77
  8
0
  6
CONTINUOUS
 62
     7
 10
1706.521152560513
 20
3134.115941119229
 30
0.0
 40
52.91666666666666
  1
＜上面＞
 41
0.75
  7
SLDTEXTSTYLE0
  0
TEXT
  5
78
  8
0
  6
CONTINUOUS
 62
     7
 10
493.3091089290138
 20
2134.090186691168
 30
0.0
 40
52.91666666666666
  1
＜左側面＞
 41
0.75
  7
SLDTEXTSTYLE0
  0
TEXT
  5
79
  8
0
  6
CONTINUOUS
 62
     7
 10
1730.774067737716
 20
2130.593767889337
 30
0.0
 40
52.91666666666666
  1
＜正面＞
 41
0.75
  7
SLDTEXTSTYLE0
  0
TEXT
  5
7A
  8
0
  6
CONTINUOUS
 62
     7
 10
3377.814243189123
 20
326.489054196763
 30
0.0
 40
52.91666666666666
  1
品名：
 41
0.75
  7
SLDTEXTSTYLE0
  0
TEXT
  5
7B
  8
0
  6
CONTINUOUS
 62
     7
 10
4446.663437481703
 20
332.3177187478654
 30
0.0
 40
52.91666666666666
  1
Pamouna
 41
0.75
  7
SLDTEXTSTYLE0
  0
TEXT
  5
7C
  8
寸法
  6
CONTINUOUS
 62
     7
 10
4688.007304885427
 20
165.7088516276312
 30
0.0
 40
52.91666666666666
  1
1/1
 41
0.75
  7
SLDTEXTSTYLE0
  0
TEXT
  5
7D
  8
寸法
  6
CONTINUOUS
 62
     7
 10
4198.79693921183
 20
165.7088544215994
 30
0.0
 40
52.91666666666666
  1
2022/08/04
 41
0.75
  7
SLDTEXTSTYLE0
  0
TEXT
  5
7E
  8
寸法
  6
CONTINUOUS
 62
     7
 10
4017.190732011612
 20
2122.266812003092
 30
0.0
 40
52.91666666666666
  1
＜背面＞
 41
0.75
  7
SLDTEXTSTYLE0
  0
TEXT
  5
7F
  8
寸法
  6
CONTINUOUS
 62
     7
 10
3611.283129349215
 20
326.4179237671586
 30
0.0
 40
66.14583333333331
  1
MA-S502EM（-T）
 41
0.75
  7
SLDTEXTSTYLE0
  0
TEXT
  5
80
  8
寸法
  6
CONTINUOUS
 62
     7
 10
2965.851847914189
 20
2131.94141651502
 30
0.0
 40
52.91666666666666
  1
＜右側面＞
 41
0.75
  7
SLDTEXTSTYLE0
  0
LINE
  5
81
  8
0
  6
CONTINUOUS
 62
     7
 10
2015.658099354146
 20
1471.218990347165
 30
0.0
 11
2014.858099354146
 21
1471.218990347165
 31
0.0
  0
ARC
  5
82
  8
0
  6
CONTINUOUS
 62
     7
 10
2015.658099354146
 20
1471.018990347165
 30
0.0
 40
0.2000000000000455
 50
0.0
 51
90.0
  0
ARC
  5
83
  8
0
  6
CONTINUOUS
 62
     7
 10
2264.158099354144
 20
1471.018990347163
 30
0.0
 40
0.2000000000000455
 50
0.0
 51
90.0
  0
LINE
  5
84
  8
0
  6
CONTINUOUS
 62
     7
 10
2264.158099354144
 20
1471.218990347164
 30
0.0
 11
2263.358099354144
 21
1471.218990347164
 31
0.0
  0
LINE
  5
85
  8
0
  6
CONTINUOUS
 62
     7
 10
2014.858099354146
 20
1471.218990347165
 30
0.0
 11
1770.858099354146
 21
1471.218990347165
 31
0.0
  0
LINE
  5
86
  8
0
  6
CONTINUOUS
 62
     7
 10
2263.358099354144
 20
1471.218990347164
 30
0.0
 11
2019.358099354144
 21
1471.218990347164
 31
0.0
  0
LINE
  5
87
  8
0
  6
CONTINUOUS
 62
     7
 10
1770.858099354146
 20
1471.218990347165
 30
0.0
 11
1770.058099354146
 21
1471.218990347165
 31
0.0
  0
ARC
  5
88
  8
0
  6
CONTINUOUS
 62
     7
 10
1770.058099354146
 20
1471.018990347166
 30
0.0
 40
0.2000000000000455
 50
90.0
 51
180.0
  0
LINE
  5
89
  8
0
  6
CONTINUOUS
 62
     7
 10
2019.358099354144
 20
1471.218990347164
 30
0.0
 11
2018.558099354144
 21
1471.218990347164
 31
0.0
  0
ARC
  5
8A
  8
0
  6
CONTINUOUS
 62
     7
 10
2018.558099354144
 20
1471.018990347164
 30
0.0
 40
0.2000000000000455
 50
90.0
 51
180.0
  0
LINE
  5
8B
  8
0
  6
CONTINUOUS
 62
     7
 10
2018.358099354145
 20
1006.718990347166
 30
0.0
 11
2019.358099354145
 21
1006.718990347166
 31
0.0
  0
LINE
  5
8C
  8
0
  6
CONTINUOUS
 62
     7
 10
2018.358099354145
 20
1006.718990347166
 30
0.0
 11
2018.358099354145
 21
1470.718990347166
 31
0.0
  0
LINE
  5
8D
  8
0
  6
CONTINUOUS
 62
     7
 10
2018.358099354145
 20
1470.718990347166
 30
0.0
 11
2019.358099354145
 21
1470.718990347166
 31
0.0
  0
LINE
  5
8E
  8
0
  6
CONTINUOUS
 62
     7
 10
2019.358099354145
 20
1006.718990347166
 30
0.0
 11
2019.358099354145
 21
1007.718990347166
 31
0.0
  0
LINE
  5
8F
  8
0
  6
CONTINUOUS
 62
     7
 10
2019.358099354145
 20
1469.718990347166
 30
0.0
 11
2019.358099354145
 21
1470.718990347166
 31
0.0
  0
LINE
  5
90
  8
0
  6
CONTINUOUS
 62
     7
 10
1769.858099354145
 20
1006.718990347166
 30
0.0
 11
1770.858099354146
 21
1006.718990347166
 31
0.0
  0
LINE
  5
91
  8
0
  6
CONTINUOUS
 62
     7
 10
1769.858099354145
 20
1006.718990347166
 30
0.0
 11
1769.858099354145
 21
1470.718990347166
 31
0.0
  0
LINE
  5
92
  8
0
  6
CONTINUOUS
 62
     7
 10
1769.858099354145
 20
1470.718990347166
 30
0.0
 11
1770.858099354145
 21
1470.718990347166
 31
0.0
  0
LINE
  5
93
  8
0
  6
CONTINUOUS
 62
     7
 10
1770.858099354146
 20
1006.718990347166
 30
0.0
 11
1770.858099354146
 21
1007.718990347166
 31
0.0
  0
LINE
  5
94
  8
0
  6
CONTINUOUS
 62
     7
 10
1770.858099354145
 20
1469.718990347166
 30
0.0
 11
1770.858099354145
 21
1470.718990347166
 31
0.0
  0
LINE
  5
95
  8
0
  6
CONTINUOUS
 62
     7
 10
2264.358099354145
 20
1470.718990347166
 30
0.0
 11
2263.358099354145
 21
1470.718990347166
 31
0.0
  0
LINE
  5
96
  8
0
  6
CONTINUOUS
 62
     7
 10
2264.358099354145
 20
1006.718990347166
 30
0.0
 11
2263.358099354145
 21
1006.718990347166
 31
0.0
  0
LINE
  5
97
  8
0
  6
CONTINUOUS
 62
     7
 10
2263.358099354145
 20
1470.718990347166
 30
0.0
 11
2263.358099354145
 21
1469.718990347166
 31
0.0
  0
LINE
  5
98
  8
0
  6
CONTINUOUS
 62
     7
 10
2263.358099354145
 20
1007.718990347166
 30
0.0
 11
2263.358099354145
 21
1006.718990347166
 31
0.0
  0
LINE
  5
99
  8
0
  6
CONTINUOUS
 62
     7
 10
2264.358099354145
 20
1470.718990347166
 30
0.0
 11
2264.358099354145
 21
1006.718990347166
 31
0.0
  0
LINE
  5
9A
  8
0
  6
CONTINUOUS
 62
     7
 10
2015.858099354145
 20
1006.718990347166
 30
0.0
 11
2014.858099354146
 21
1006.718990347166
 31
0.0
  0
LINE
  5
9B
  8
0
  6
CONTINUOUS
 62
     7
 10
2015.858099354145
 20
1470.718990347166
 30
0.0
 11
2015.858099354145
 21
1006.718990347166
 31
0.0
  0
LINE
  5
9C
  8
0
  6
CONTINUOUS
 62
     7
 10
2015.858099354145
 20
1470.718990347166
 30
0.0
 11
2014.858099354146
 21
1470.718990347166
 31
0.0
  0
LINE
  5
9D
  8
0
  6
CONTINUOUS
 62
     7
 10
2014.858099354146
 20
1470.718990347166
 30
0.0
 11
2014.858099354146
 21
1469.718990347166
 31
0.0
  0
LINE
  5
9E
  8
0
  6
CONTINUOUS
 62
     7
 10
2014.858099354146
 20
1007.718990347166
 30
0.0
 11
2014.858099354146
 21
1006.718990347166
 31
0.0
  0
LINE
  5
9F
  8
0
  6
CONTINUOUS
 62
     7
 10
2263.358099354145
 20
1006.718990347166
 30
0.0
 11
2019.358099354145
 21
1006.718990347166
 31
0.0
  0
LINE
  5
A0
  8
0
  6
CONTINUOUS
 62
     7
 10
2014.858099354146
 20
1006.718990347166
 30
0.0
 11
1770.858099354146
 21
1006.718990347166
 31
0.0
  0
LINE
  5
A1
  8
0
  6
CONTINUOUS
 62
     7
 10
1770.858099354145
 20
1470.718990347166
 30
0.0
 11
2014.858099354146
 21
1470.718990347166
 31
0.0
  0
LINE
  5
A2
  8
0
  6
CONTINUOUS
 62
     7
 10
2019.358099354145
 20
1470.718990347166
 30
0.0
 11
2263.358099354145
 21
1470.718990347166
 31
0.0
  0
LINE
  5
A3
  8
0
  6
CONTINUOUS
 62
     7
 10
1771.858099354146
 20
1008.718990347166
 30
0.0
 11
2013.858099354146
 21
1008.718990347166
 31
0.0
  0
LINE
  5
A4
  8
0
  6
CONTINUOUS
 62
     7
 10
2014.858099354146
 20
1007.718990347166
 30
0.0
 11
2013.858099354146
 21
1008.718990347166
 31
0.0
  0
LINE
  5
A5
  8
0
  6
CONTINUOUS
 62
     7
 10
2014.858099354146
 20
1007.718990347166
 30
0.0
 11
1770.858099354146
 21
1007.718990347166
 31
0.0
  0
LINE
  5
A6
  8
0
  6
CONTINUOUS
 62
     7
 10
1771.858099354146
 20
1008.718990347166
 30
0.0
 11
1770.858099354146
 21
1007.718990347166
 31
0.0
  0
LINE
  5
A7
  8
0
  6
CONTINUOUS
 62
     7
 10
2013.858099354146
 20
1468.718990347166
 30
0.0
 11
1771.858099354146
 21
1468.718990347166
 31
0.0
  0
LINE
  5
A8
  8
0
  6
CONTINUOUS
 62
     7
 10
1771.858099354146
 20
1468.718990347166
 30
0.0
 11
1770.858099354146
 21
1469.718990347166
 31
0.0
  0
LINE
  5
A9
  8
0
  6
CONTINUOUS
 62
     7
 10
1770.858099354146
 20
1469.718990347166
 30
0.0
 11
2014.858099354146
 21
1469.718990347166
 31
0.0
  0
LINE
  5
AA
  8
0
  6
CONTINUOUS
 62
     7
 10
2014.858099354146
 20
1469.718990347166
 30
0.0
 11
2013.858099354146
 21
1468.718990347166
 31
0.0
  0
LINE
  5
AB
  8
0
  6
CONTINUOUS
 62
     7
 10
1771.858099354146
 20
1468.718990347166
 30
0.0
 11
1771.858099354146
 21
1008.718990347166
 31
0.0
  0
LINE
  5
AC
  8
0
  6
CONTINUOUS
 62
     7
 10
1770.858099354146
 20
1007.718990347166
 30
0.0
 11
1770.858099354146
 21
1469.718990347166
 31
0.0
  0
LINE
  5
AD
  8
0
  6
CONTINUOUS
 62
     7
 10
2013.858099354146
 20
1008.718990347166
 30
0.0
 11
2013.858099354146
 21
1468.718990347166
 31
0.0
  0
LINE
  5
AE
  8
0
  6
CONTINUOUS
 62
     7
 10
2014.858099354146
 20
1469.718990347166
 30
0.0
 11
2014.858099354146
 21
1007.718990347166
 31
0.0
  0
LINE
  5
AF
  8
0
  6
CONTINUOUS
 62
     7
 10
2020.358099354146
 20
1468.718990347166
 30
0.0
 11
2020.358099354145
 21
1008.718990347166
 31
0.0
  0
LINE
  5
B0
  8
0
  6
CONTINUOUS
 62
     7
 10
2020.358099354145
 20
1008.718990347166
 30
0.0
 11
2019.358099354145
 21
1007.718990347166
 31
0.0
  0
LINE
  5
B1
  8
0
  6
CONTINUOUS
 62
     7
 10
2019.358099354145
 20
1007.718990347166
 30
0.0
 11
2019.358099354146
 21
1469.718990347166
 31
0.0
  0
LINE
  5
B2
  8
0
  6
CONTINUOUS
 62
     7
 10
2020.358099354146
 20
1468.718990347166
 30
0.0
 11
2019.358099354146
 21
1469.718990347166
 31
0.0
  0
LINE
  5
B3
  8
0
  6
CONTINUOUS
 62
     7
 10
2263.358099354145
 20
1469.718990347166
 30
0.0
 11
2263.358099354145
 21
1007.718990347166
 31
0.0
  0
LINE
  5
B4
  8
0
  6
CONTINUOUS
 62
     7
 10
2263.358099354145
 20
1007.718990347166
 30
0.0
 11
2262.358099354145
 21
1008.718990347166
 31
0.0
  0
LINE
  5
B5
  8
0
  6
CONTINUOUS
 62
     7
 10
2262.358099354145
 20
1008.718990347166
 30
0.0
 11
2262.358099354145
 21
1468.718990347166
 31
0.0
  0
LINE
  5
B6
  8
0
  6
CONTINUOUS
 62
     7
 10
2263.358099354145
 20
1469.718990347166
 30
0.0
 11
2262.358099354145
 21
1468.718990347166
 31
0.0
  0
LINE
  5
B7
  8
0
  6
CONTINUOUS
 62
     7
 10
2262.358099354145
 20
1468.718990347166
 30
0.0
 11
2020.358099354146
 21
1468.718990347166
 31
0.0
  0
LINE
  5
B8
  8
0
  6
CONTINUOUS
 62
     7
 10
2020.358099354145
 20
1008.718990347166
 30
0.0
 11
2262.358099354145
 21
1008.718990347166
 31
0.0
  0
LINE
  5
B9
  8
0
  6
CONTINUOUS
 62
     7
 10
2263.358099354145
 20
1007.718990347166
 30
0.0
 11
2019.358099354145
 21
1007.718990347166
 31
0.0
  0
LINE
  5
BA
  8
0
  6
CONTINUOUS
 62
     7
 10
2019.358099354146
 20
1469.718990347166
 30
0.0
 11
2263.358099354145
 21
1469.718990347166
 31
0.0
  0
LINE
  5
BB
  8
0
  6
CONTINUOUS
 62
     7
 10
2018.358099354145
 20
1219.718990347166
 30
0.0
 11
2015.858099354145
 21
1219.718990347166
 31
0.0
  0
LINE
  5
BC
  8
0
  6
CONTINUOUS
 62
     7
 10
2015.858099354145
 20
1202.718990347166
 30
0.0
 11
2018.358099354145
 21
1202.718990347166
 31
0.0
  0
LINE
  5
BD
  8
0
  6
CONTINUOUS
 62
     7
 10
2015.858099354146
 20
1471.007841625418
 30
0.0
 11
2015.858099354146
 21
1470.918990347165
 31
0.0
  0
LINE
  5
BE
  8
0
  6
CONTINUOUS
 62
     7
 10
2015.658099354146
 20
1470.718990347165
 30
0.0
 11
2015.658099354146
 21
1471.205054444981
 31
0.0
  0
ARC
  5
BF
  8
0
  6
CONTINUOUS
 62
     7
 10
2015.659483233896
 20
1471.006438187495
 30
0.0
 40
0.1986210785921375
 50
0.4048499762036346
 51
90.39920793480415
  0
POLYLINE
  5
C0
  8
0
  6
CONTINUOUS
 62
     7
 66
     1
 10
0.0
 20
0.0
 30
0.0
  0
VERTEX
  5
29C
  8
0
  6
CONTINUOUS
 62
     7
 10
2015.858099354146
 20
1470.918990347165
 30
0.0
  0
VERTEX
  5
29D
  8
0
  6
CONTINUOUS
 62
     7
 10
2015.858081917384
 20
1470.916232414988
 30
0.0
  0
VERTEX
  5
29E
  8
0
  6
CONTINUOUS
 62
     7
 10
2015.85802611962
 20
1470.91340597524
 30
0.0
  0
VERTEX
  5
29F
  8
0
  6
CONTINUOUS
 62
     7
 10
2015.857927518031
 20
1470.910510188076
 30
0.0
  0
VERTEX
  5
2A0
  8
0
  6
CONTINUOUS
 62
     7
 10
2015.857783081821
 20
1470.907547030693
 30
0.0
  0
VERTEX
  5
2A1
  8
0
  6
CONTINUOUS
 62
     7
 10
2015.857589780198
 20
1470.904518480284
 30
0.0
  0
VERTEX
  5
2A2
  8
0
  6
CONTINUOUS
 62
     7
 10
2015.857344582368
 20
1470.901426514045
 30
0.0
  0
VERTEX
  5
2A3
  8
0
  6
CONTINUOUS
 62
     7
 10
2015.857044457537
 20
1470.898273109171
 30
0.0
  0
VERTEX
  5
2A4
  8
0
  6
CONTINUOUS
 62
     7
 10
2015.85668637491
 20
1470.895060242855
 30
0.0
  0
VERTEX
  5
2A5
  8
0
  6
CONTINUOUS
 62
     7
 10
2015.856267303696
 20
1470.891789892294
 30
0.0
  0
VERTEX
  5
2A6
  8
0
  6
CONTINUOUS
 62
     7
 10
2015.855784213099
 20
1470.888464034683
 30
0.0
  0
VERTEX
  5
2A7
  8
0
  6
CONTINUOUS
 62
     7
 10
2015.855234072325
 20
1470.885084647216
 30
0.0
  0
VERTEX
  5
2A8
  8
0
  6
CONTINUOUS
 62
     7
 10
2015.854613850581
 20
1470.881653707088
 30
0.0
  0
VERTEX
  5
2A9
  8
0
  6
CONTINUOUS
 62
     7
 10
2015.853920517073
 20
1470.878173191495
 30
0.0
  0
VERTEX
  5
2AA
  8
0
  6
CONTINUOUS
 62
     7
 10
2015.853151041007
 20
1470.87464507763
 30
0.0
  0
VERTEX
  5
2AB
  8
0
  6
CONTINUOUS
 62
     7
 10
2015.85230239159
 20
1470.87107134269
 30
0.0
  0
VERTEX
  5
2AC
  8
0
  6
CONTINUOUS
 62
     7
 10
2015.851371538027
 20
1470.867453963868
 30
0.0
  0
VERTEX
  5
2AD
  8
0
  6
CONTINUOUS
 62
     7
 10
2015.850355449526
 20
1470.863794918361
 30
0.0
  0
VERTEX
  5
2AE
  8
0
  6
CONTINUOUS
 62
     7
 10
2015.849251095291
 20
1470.860096183362
 30
0.0
  0
VERTEX
  5
2AF
  8
0
  6
CONTINUOUS
 62
     7
 10
2015.848055444529
 20
1470.856359736067
 30
0.0
  0
VERTEX
  5
2B0
  8
0
  6
CONTINUOUS
 62
     7
 10
2015.846765466447
 20
1470.852587553671
 30
0.0
  0
VERTEX
  5
2B1
  8
0
  6
CONTINUOUS
 62
     7
 10
2015.84537813025
 20
1470.848781613369
 30
0.0
  0
VERTEX
  5
2B2
  8
0
  6
CONTINUOUS
 62
     7
 10
2015.843890405145
 20
1470.844943892355
 30
0.0
  0
VERTEX
  5
2B3
  8
0
  6
CONTINUOUS
 62
     7
 10
2015.842299260338
 20
1470.841076367825
 30
0.0
  0
VERTEX
  5
2B4
  8
0
  6
CONTINUOUS
 62
     7
 10
2015.840601665035
 20
1470.837181016973
 30
0.0
  0
VERTEX
  5
2B5
  8
0
  6
CONTINUOUS
 62
     7
 10
2015.838794575886
 20
1470.833259894818
 30
0.0
  0
VERTEX
  5
2B6
  8
0
  6
CONTINUOUS
 62
     7
 10
2015.836874726977
 20
1470.829316435779
 30
0.0
  0
VERTEX
  5
2B7
  8
0
  6
CONTINUOUS
 62
     7
 10
2015.834838661396
 20
1470.825355258072
 30
0.0
  0
VERTEX
  5
2B8
  8
0
  6
CONTINUOUS
 62
     7
 10
2015.832682916031
 20
1470.821381018326
 30
0.0
  0
VERTEX
  5
2B9
  8
0
  6
CONTINUOUS
 62
     7
 10
2015.830404027767
 20
1470.817398373173
 30
0.0
  0
VERTEX
  5
2BA
  8
0
  6
CONTINUOUS
 62
     7
 10
2015.827998533494
 20
1470.813411979242
 30
0.0
  0
VERTEX
  5
2BB
  8
0
  6
CONTINUOUS
 62
     7
 10
2015.825462970098
 20
1470.809426493164
 30
0.0
  0
VERTEX
  5
2BC
  8
0
  6
CONTINUOUS
 62
     7
 10
2015.822793874468
 20
1470.805446571568
 30
0.0
  0
VERTEX
  5
2BD
  8
0
  6
CONTINUOUS
 62
     7
 10
2015.819987783492
 20
1470.801476871086
 30
0.0
  0
VERTEX
  5
2BE
  8
0
  6
CONTINUOUS
 62
     7
 10
2015.817041234056
 20
1470.797522048347
 30
0.0
  0
VERTEX
  5
2BF
  8
0
  6
CONTINUOUS
 62
     7
 10
2015.81395076305
 20
1470.793586759981
 30
0.0
  0
VERTEX
  5
2C0
  8
0
  6
CONTINUOUS
 62
     7
 10
2015.81071290736
 20
1470.789675662618
 30
0.0
  0
VERTEX
  5
2C1
  8
0
  6
CONTINUOUS
 62
     7
 10
2015.807324203874
 20
1470.78579341289
 30
0.0
  0
VERTEX
  5
2C2
  8
0
  6
CONTINUOUS
 62
     7
 10
2015.80378118948
 20
1470.781944667426
 30
0.0
  0
VERTEX
  5
2C3
  8
0
  6
CONTINUOUS
 62
     7
 10
2015.800080402673
 20
1470.778134084169
 30
0.0
  0
VERTEX
  5
2C4
  8
0
  6
CONTINUOUS
 62
     7
 10
2015.796219076801
 20
1470.774366888348
 30
0.0
  0
VERTEX
  5
2C5
  8
0
  6
CONTINUOUS
 62
     7
 10
2015.792196221941
 20
1470.770649755738
 30
0.0
  0
VERTEX
  5
2C6
  8
0
  6
CONTINUOUS
 62
     7
 10
2015.788011128093
 20
1470.766989590647
 30
0.0
  0
VERTEX
  5
2C7
  8
0
  6
CONTINUOUS
 62
     7
 10
2015.78366308526
 20
1470.763393297386
 30
0.0
  0
VERTEX
  5
2C8
  8
0
  6
CONTINUOUS
 62
     7
 10
2015.779151383443
 20
1470.759867780263
 30
0.0
  0
VERTEX
  5
2C9
  8
0
  6
CONTINUOUS
 62
     7
 10
2015.774475312646
 20
1470.756419943589
 30
0.0
  0
VERTEX
  5
2CA
  8
0
  6
CONTINUOUS
 62
     7
 10
2015.769634162871
 20
1470.753056691673
 30
0.0
  0
VERTEX
  5
2CB
  8
0
  6
CONTINUOUS
 62
     7
 10
2015.764627224119
 20
1470.749784928825
 30
0.0
  0
VERTEX
  5
2CC
  8
0
  6
CONTINUOUS
 62
     7
 10
2015.759453786393
 20
1470.746611559354
 30
0.0
  0
VERTEX
  5
2CD
  8
0
  6
CONTINUOUS
 62
     7
 10
2015.754113139699
 20
1470.74354348758
 30
0.0
  0
VERTEX
  5
2CE
  8
0
  6
CONTINUOUS
 62
     7
 10
2015.748605797552
 20
1470.740590169421
 30
0.0
  0
VERTEX
  5
2CF
  8
0
  6
CONTINUOUS
 62
     7
 10
2015.742936939895
 20
1470.737770792563
 30
0.0
  0
VERTEX
  5
2D0
  8
0
  6
CONTINUOUS
 62
     7
 10
2015.737112859009
 20
1470.735106864444
 30
0.0
  0
VERTEX
  5
2D1
  8
0
  6
CONTINUOUS
 62
     7
 10
2015.731139847177
 20
1470.732619892503
 30
0.0
  0
VERTEX
  5
2D2
  8
0
  6
CONTINUOUS
 62
     7
 10
2015.725024196677
 20
1470.73033138418
 30
0.0
  0
VERTEX
  5
2D3
  8
0
  6
CONTINUOUS
 62
     7
 10
2015.718772199791
 20
1470.728262846912
 30
0.0
  0
VERTEX
  5
2D4
  8
0
  6
CONTINUOUS
 62
     7
 10
2015.712390148799
 20
1470.726435788139
 30
0.0
  0
VERTEX
  5
2D5
  8
0
  6
CONTINUOUS
 62
     7
 10
2015.705884568066
 20
1470.724870340157
 30
0.0
  0
VERTEX
  5
2D6
  8
0
  6
CONTINUOUS
 62
     7
 10
2015.699266794995
 20
1470.72355811733
 30
0.0
  0
VERTEX
  5
2D7
  8
0
  6
CONTINUOUS
 62
     7
 10
2015.69255270528
 20
1470.722463843962
 30
0.0
  0
VERTEX
  5
2D8
  8
0
  6
CONTINUOUS
 62
     7
 10
2015.685758351697
 20
1470.721551195144
 30
0.0
  0
VERTEX
  5
2D9
  8
0
  6
CONTINUOUS
 62
     7
 10
2015.678899787019
 20
1470.720783845965
 30
0.0
  0
VERTEX
  5
2DA
  8
0
  6
CONTINUOUS
 62
     7
 10
2015.671993064017
 20
1470.720125471515
 30
0.0
  0
VERTEX
  5
2DB
  8
0
  6
CONTINUOUS
 62
     7
 10
2015.665054235468
 20
1470.719539746885
 30
0.0
  0
VERTEX
  5
2DC
  8
0
  6
CONTINUOUS
 62
     7
 10
2015.658099354146
 20
1470.718990347165
 30
0.0
  0
SEQEND
  5
526
  8
0
  6
CONTINUOUS
 62
     7
  0
LINE
  5
C1
  8
0
  6
CONTINUOUS
 62
     7
 10
2014.858099354146
 20
1471.205054444981
 30
0.0
 11
2014.858099354146
 21
1470.718990347165
 31
0.0
  0
LINE
  5
C2
  8
0
  6
CONTINUOUS
 62
     7
 10
2015.658099354146
 20
1471.205054444981
 30
0.0
 11
2014.858099354146
 21
1471.205054444981
 31
0.0
  0
LINE
  5
C3
  8
0
  6
CONTINUOUS
 62
     7
 10
2014.858099354146
 20
1471.218990347165
 30
0.0
 11
2014.858099354146
 21
1471.205054444981
 31
0.0
  0
LINE
  5
C4
  8
0
  6
CONTINUOUS
 62
     7
 10
2015.858099354146
 20
1471.018990347165
 30
0.0
 11
2015.858099354146
 21
1471.007841625418
 31
0.0
  0
LINE
  5
C5
  8
0
  6
CONTINUOUS
 62
     7
 10
2015.858099354146
 20
1470.918990347165
 30
0.0
 11
2015.858099354146
 21
1470.718990347166
 31
0.0
  0
LINE
  5
C6
  8
0
  6
CONTINUOUS
 62
     7
 10
2264.358099354144
 20
1471.007841625416
 30
0.0
 11
2264.358099354144
 21
1470.918990347164
 31
0.0
  0
LINE
  5
C7
  8
0
  6
CONTINUOUS
 62
     7
 10
2264.158099354144
 20
1470.718990347163
 30
0.0
 11
2264.158099354144
 21
1471.205054444979
 31
0.0
  0
ARC
  5
C8
  8
0
  6
CONTINUOUS
 62
     7
 10
2264.159483233895
 20
1471.006438187493
 30
0.0
 40
0.1986210785917201
 50
0.4048499761385097
 51
90.39920793480508
  0
POLYLINE
  5
C9
  8
0
  6
CONTINUOUS
 62
     7
 66
     1
 10
0.0
 20
0.0
 30
0.0
  0
VERTEX
  5
2DD
  8
0
  6
CONTINUOUS
 62
     7
 10
2264.358099354144
 20
1470.918990347164
 30
0.0
  0
VERTEX
  5
2DE
  8
0
  6
CONTINUOUS
 62
     7
 10
2264.358081917382
 20
1470.916232414986
 30
0.0
  0
VERTEX
  5
2DF
  8
0
  6
CONTINUOUS
 62
     7
 10
2264.358026119618
 20
1470.913405975238
 30
0.0
  0
VERTEX
  5
2E0
  8
0
  6
CONTINUOUS
 62
     7
 10
2264.357927518029
 20
1470.910510188075
 30
0.0
  0
VERTEX
  5
2E1
  8
0
  6
CONTINUOUS
 62
     7
 10
2264.357783081819
 20
1470.907547030691
 30
0.0
  0
VERTEX
  5
2E2
  8
0
  6
CONTINUOUS
 62
     7
 10
2264.357589780196
 20
1470.904518480282
 30
0.0
  0
VERTEX
  5
2E3
  8
0
  6
CONTINUOUS
 62
     7
 10
2264.357344582366
 20
1470.901426514043
 30
0.0
  0
VERTEX
  5
2E4
  8
0
  6
CONTINUOUS
 62
     7
 10
2264.357044457535
 20
1470.898273109168
 30
0.0
  0
VERTEX
  5
2E5
  8
0
  6
CONTINUOUS
 62
     7
 10
2264.356686374909
 20
1470.895060242853
 30
0.0
  0
VERTEX
  5
2E6
  8
0
  6
CONTINUOUS
 62
     7
 10
2264.356267303694
 20
1470.891789892293
 30
0.0
  0
VERTEX
  5
2E7
  8
0
  6
CONTINUOUS
 62
     7
 10
2264.355784213096
 20
1470.888464034681
 30
0.0
  0
VERTEX
  5
2E8
  8
0
  6
CONTINUOUS
 62
     7
 10
2264.355234072323
 20
1470.885084647214
 30
0.0
  0
VERTEX
  5
2E9
  8
0
  6
CONTINUOUS
 62
     7
 10
2264.354613850579
 20
1470.881653707087
 30
0.0
  0
VERTEX
  5
2EA
  8
0
  6
CONTINUOUS
 62
     7
 10
2264.353920517071
 20
1470.878173191493
 30
0.0
  0
VERTEX
  5
2EB
  8
0
  6
CONTINUOUS
 62
     7
 10
2264.353151041005
 20
1470.874645077628
 30
0.0
  0
VERTEX
  5
2EC
  8
0
  6
CONTINUOUS
 62
     7
 10
2264.352302391589
 20
1470.871071342688
 30
0.0
  0
VERTEX
  5
2ED
  8
0
  6
CONTINUOUS
 62
     7
 10
2264.351371538025
 20
1470.867453963867
 30
0.0
  0
VERTEX
  5
2EE
  8
0
  6
CONTINUOUS
 62
     7
 10
2264.350355449524
 20
1470.863794918359
 30
0.0
  0
VERTEX
  5
2EF
  8
0
  6
CONTINUOUS
 62
     7
 10
2264.349251095289
 20
1470.86009618336
 30
0.0
  0
VERTEX
  5
2F0
  8
0
  6
CONTINUOUS
 62
     7
 10
2264.348055444527
 20
1470.856359736066
 30
0.0
  0
VERTEX
  5
2F1
  8
0
  6
CONTINUOUS
 62
     7
 10
2264.346765466445
 20
1470.85258755367
 30
0.0
  0
VERTEX
  5
2F2
  8
0
  6
CONTINUOUS
 62
     7
 10
2264.345378130248
 20
1470.848781613367
 30
0.0
  0
VERTEX
  5
2F3
  8
0
  6
CONTINUOUS
 62
     7
 10
2264.343890405143
 20
1470.844943892353
 30
0.0
  0
VERTEX
  5
2F4
  8
0
  6
CONTINUOUS
 62
     7
 10
2264.342299260336
 20
1470.841076367823
 30
0.0
  0
VERTEX
  5
2F5
  8
0
  6
CONTINUOUS
 62
     7
 10
2264.340601665033
 20
1470.837181016971
 30
0.0
  0
VERTEX
  5
2F6
  8
0
  6
CONTINUOUS
 62
     7
 10
2264.338794575884
 20
1470.833259894816
 30
0.0
  0
VERTEX
  5
2F7
  8
0
  6
CONTINUOUS
 62
     7
 10
2264.336874726975
 20
1470.829316435777
 30
0.0
  0
VERTEX
  5
2F8
  8
0
  6
CONTINUOUS
 62
     7
 10
2264.334838661394
 20
1470.82535525807
 30
0.0
  0
VERTEX
  5
2F9
  8
0
  6
CONTINUOUS
 62
     7
 10
2264.332682916028
 20
1470.821381018325
 30
0.0
  0
VERTEX
  5
2FA
  8
0
  6
CONTINUOUS
 62
     7
 10
2264.330404027765
 20
1470.817398373171
 30
0.0
  0
VERTEX
  5
2FB
  8
0
  6
CONTINUOUS
 62
     7
 10
2264.327998533492
 20
1470.813411979241
 30
0.0
  0
VERTEX
  5
2FC
  8
0
  6
CONTINUOUS
 62
     7
 10
2264.325462970096
 20
1470.809426493162
 30
0.0
  0
VERTEX
  5
2FD
  8
0
  6
CONTINUOUS
 62
     7
 10
2264.322793874466
 20
1470.805446571567
 30
0.0
  0
VERTEX
  5
2FE
  8
0
  6
CONTINUOUS
 62
     7
 10
2264.31998778349
 20
1470.801476871084
 30
0.0
  0
VERTEX
  5
2FF
  8
0
  6
CONTINUOUS
 62
     7
 10
2264.317041234055
 20
1470.797522048345
 30
0.0
  0
VERTEX
  5
300
  8
0
  6
CONTINUOUS
 62
     7
 10
2264.313950763049
 20
1470.793586759979
 30
0.0
  0
VERTEX
  5
301
  8
0
  6
CONTINUOUS
 62
     7
 10
2264.310712907358
 20
1470.789675662617
 30
0.0
  0
VERTEX
  5
302
  8
0
  6
CONTINUOUS
 62
     7
 10
2264.307324203872
 20
1470.785793412889
 30
0.0
  0
VERTEX
  5
303
  8
0
  6
CONTINUOUS
 62
     7
 10
2264.303781189478
 20
1470.781944667425
 30
0.0
  0
VERTEX
  5
304
  8
0
  6
CONTINUOUS
 62
     7
 10
2264.300080402671
 20
1470.778134084167
 30
0.0
  0
VERTEX
  5
305
  8
0
  6
CONTINUOUS
 62
     7
 10
2264.2962190768
 20
1470.774366888347
 30
0.0
  0
VERTEX
  5
306
  8
0
  6
CONTINUOUS
 62
     7
 10
2264.29219622194
 20
1470.770649755736
 30
0.0
  0
VERTEX
  5
307
  8
0
  6
CONTINUOUS
 62
     7
 10
2264.288011128091
 20
1470.766989590646
 30
0.0
  0
VERTEX
  5
308
  8
0
  6
CONTINUOUS
 62
     7
 10
2264.283663085258
 20
1470.763393297384
 30
0.0
  0
VERTEX
  5
309
  8
0
  6
CONTINUOUS
 62
     7
 10
2264.279151383441
 20
1470.759867780262
 30
0.0
  0
VERTEX
  5
30A
  8
0
  6
CONTINUOUS
 62
     7
 10
2264.274475312644
 20
1470.756419943588
 30
0.0
  0
VERTEX
  5
30B
  8
0
  6
CONTINUOUS
 62
     7
 10
2264.269634162868
 20
1470.753056691672
 30
0.0
  0
VERTEX
  5
30C
  8
0
  6
CONTINUOUS
 62
     7
 10
2264.264627224117
 20
1470.749784928824
 30
0.0
  0
VERTEX
  5
30D
  8
0
  6
CONTINUOUS
 62
     7
 10
2264.259453786391
 20
1470.746611559352
 30
0.0
  0
VERTEX
  5
30E
  8
0
  6
CONTINUOUS
 62
     7
 10
2264.254113139697
 20
1470.743543487578
 30
0.0
  0
VERTEX
  5
30F
  8
0
  6
CONTINUOUS
 62
     7
 10
2264.248605797549
 20
1470.740590169419
 30
0.0
  0
VERTEX
  5
310
  8
0
  6
CONTINUOUS
 62
     7
 10
2264.242936939892
 20
1470.737770792561
 30
0.0
  0
VERTEX
  5
311
  8
0
  6
CONTINUOUS
 62
     7
 10
2264.237112859007
 20
1470.735106864443
 30
0.0
  0
VERTEX
  5
312
  8
0
  6
CONTINUOUS
 62
     7
 10
2264.231139847175
 20
1470.732619892502
 30
0.0
  0
VERTEX
  5
313
  8
0
  6
CONTINUOUS
 62
     7
 10
2264.225024196675
 20
1470.730331384179
 30
0.0
  0
VERTEX
  5
314
  8
0
  6
CONTINUOUS
 62
     7
 10
2264.218772199789
 20
1470.728262846911
 30
0.0
  0
VERTEX
  5
315
  8
0
  6
CONTINUOUS
 62
     7
 10
2264.212390148797
 20
1470.726435788137
 30
0.0
  0
VERTEX
  5
316
  8
0
  6
CONTINUOUS
 62
     7
 10
2264.205884568064
 20
1470.724870340156
 30
0.0
  0
VERTEX
  5
317
  8
0
  6
CONTINUOUS
 62
     7
 10
2264.199266794993
 20
1470.723558117329
 30
0.0
  0
VERTEX
  5
318
  8
0
  6
CONTINUOUS
 62
     7
 10
2264.192552705279
 20
1470.722463843961
 30
0.0
  0
VERTEX
  5
319
  8
0
  6
CONTINUOUS
 62
     7
 10
2264.185758351696
 20
1470.721551195142
 30
0.0
  0
VERTEX
  5
31A
  8
0
  6
CONTINUOUS
 62
     7
 10
2264.178899787017
 20
1470.720783845963
 30
0.0
  0
VERTEX
  5
31B
  8
0
  6
CONTINUOUS
 62
     7
 10
2264.171993064016
 20
1470.720125471513
 30
0.0
  0
VERTEX
  5
31C
  8
0
  6
CONTINUOUS
 62
     7
 10
2264.165054235467
 20
1470.719539746883
 30
0.0
  0
VERTEX
  5
31D
  8
0
  6
CONTINUOUS
 62
     7
 10
2264.158099354144
 20
1470.718990347163
 30
0.0
  0
SEQEND
  5
527
  8
0
  6
CONTINUOUS
 62
     7
  0
LINE
  5
CA
  8
0
  6
CONTINUOUS
 62
     7
 10
2264.158099354144
 20
1471.205054444979
 30
0.0
 11
2263.358099354144
 21
1471.20505444498
 31
0.0
  0
LINE
  5
CB
  8
0
  6
CONTINUOUS
 62
     7
 10
2263.358099354144
 20
1471.20505444498
 30
0.0
 11
2263.358099354144
 21
1470.718990347164
 31
0.0
  0
LINE
  5
CC
  8
0
  6
CONTINUOUS
 62
     7
 10
2264.358099354144
 20
1471.018990347163
 30
0.0
 11
2264.358099354144
 21
1471.007841625416
 31
0.0
  0
LINE
  5
CD
  8
0
  6
CONTINUOUS
 62
     7
 10
2263.358099354144
 20
1471.218990347164
 30
0.0
 11
2263.358099354144
 21
1471.20505444498
 31
0.0
  0
LINE
  5
CE
  8
0
  6
CONTINUOUS
 62
     7
 10
2264.358099354144
 20
1470.918990347164
 30
0.0
 11
2264.358099354144
 21
1470.718990347166
 31
0.0
  0
LINE
  5
CF
  8
0
  6
CONTINUOUS
 62
     7
 10
2014.858099354146
 20
1471.205054444981
 30
0.0
 11
1770.858099354146
 21
1471.205054444981
 31
0.0
  0
LINE
  5
D0
  8
0
  6
CONTINUOUS
 62
     7
 10
1770.858099354146
 20
1470.718990347165
 30
0.0
 11
1770.858099354146
 21
1471.205054444981
 31
0.0
  0
LINE
  5
D1
  8
0
  6
CONTINUOUS
 62
     7
 10
1770.858099354146
 20
1471.205054444981
 30
0.0
 11
1770.858099354146
 21
1471.218990347165
 31
0.0
  0
LINE
  5
D2
  8
0
  6
CONTINUOUS
 62
     7
 10
2263.358099354144
 20
1471.20505444498
 30
0.0
 11
2019.358099354144
 21
1471.20505444498
 31
0.0
  0
LINE
  5
D3
  8
0
  6
CONTINUOUS
 62
     7
 10
2019.358099354144
 20
1470.718990347164
 30
0.0
 11
2019.358099354144
 21
1471.20505444498
 31
0.0
  0
LINE
  5
D4
  8
0
  6
CONTINUOUS
 62
     7
 10
2019.358099354144
 20
1471.20505444498
 30
0.0
 11
2019.358099354144
 21
1471.218990347164
 31
0.0
  0
LINE
  5
D5
  8
0
  6
CONTINUOUS
 62
     7
 10
1769.858099354146
 20
1470.918990347166
 30
0.0
 11
1769.858099354146
 21
1471.007841625419
 31
0.0
  0
ARC
  5
D6
  8
0
  6
CONTINUOUS
 62
     7
 10
1770.056715474396
 20
1471.006438187495
 30
0.0
 40
0.1986210785928617
 50
89.60079206545913
 51
179.5951500236671
  0
LINE
  5
D7
  8
0
  6
CONTINUOUS
 62
     7
 10
1770.058099354146
 20
1471.205054444982
 30
0.0
 11
1770.058099354146
 21
1470.718990347166
 31
0.0
  0
POLYLINE
  5
D8
  8
0
  6
CONTINUOUS
 62
     7
 66
     1
 10
0.0
 20
0.0
 30
0.0
  0
VERTEX
  5
31E
  8
0
  6
CONTINUOUS
 62
     7
 10
1769.858099354146
 20
1470.918990347166
 30
0.0
  0
VERTEX
  5
31F
  8
0
  6
CONTINUOUS
 62
     7
 10
1769.858116790908
 20
1470.916232414989
 30
0.0
  0
VERTEX
  5
320
  8
0
  6
CONTINUOUS
 62
     7
 10
1769.858172588672
 20
1470.913405975241
 30
0.0
  0
VERTEX
  5
321
  8
0
  6
CONTINUOUS
 62
     7
 10
1769.858271190261
 20
1470.910510188078
 30
0.0
  0
VERTEX
  5
322
  8
0
  6
CONTINUOUS
 62
     7
 10
1769.858415626471
 20
1470.907547030694
 30
0.0
  0
VERTEX
  5
323
  8
0
  6
CONTINUOUS
 62
     7
 10
1769.858608928093
 20
1470.904518480285
 30
0.0
  0
VERTEX
  5
324
  8
0
  6
CONTINUOUS
 62
     7
 10
1769.858854125923
 20
1470.901426514046
 30
0.0
  0
VERTEX
  5
325
  8
0
  6
CONTINUOUS
 62
     7
 10
1769.859154250755
 20
1470.898273109172
 30
0.0
  0
VERTEX
  5
326
  8
0
  6
CONTINUOUS
 62
     7
 10
1769.859512333381
 20
1470.895060242857
 30
0.0
  0
VERTEX
  5
327
  8
0
  6
CONTINUOUS
 62
     7
 10
1769.859931404596
 20
1470.891789892296
 30
0.0
  0
VERTEX
  5
328
  8
0
  6
CONTINUOUS
 62
     7
 10
1769.860414495193
 20
1470.888464034685
 30
0.0
  0
VERTEX
  5
329
  8
0
  6
CONTINUOUS
 62
     7
 10
1769.860964635967
 20
1470.885084647217
 30
0.0
  0
VERTEX
  5
32A
  8
0
  6
CONTINUOUS
 62
     7
 10
1769.86158485771
 20
1470.88165370709
 30
0.0
  0
VERTEX
  5
32B
  8
0
  6
CONTINUOUS
 62
     7
 10
1769.862278191218
 20
1470.878173191496
 30
0.0
  0
VERTEX
  5
32C
  8
0
  6
CONTINUOUS
 62
     7
 10
1769.863047667284
 20
1470.874645077632
 30
0.0
  0
VERTEX
  5
32D
  8
0
  6
CONTINUOUS
 62
     7
 10
1769.863896316701
 20
1470.871071342691
 30
0.0
  0
VERTEX
  5
32E
  8
0
  6
CONTINUOUS
 62
     7
 10
1769.864827170264
 20
1470.86745396387
 30
0.0
  0
VERTEX
  5
32F
  8
0
  6
CONTINUOUS
 62
     7
 10
1769.865843258766
 20
1470.863794918362
 30
0.0
  0
VERTEX
  5
330
  8
0
  6
CONTINUOUS
 62
     7
 10
1769.866947613001
 20
1470.860096183363
 30
0.0
  0
VERTEX
  5
331
  8
0
  6
CONTINUOUS
 62
     7
 10
1769.868143263762
 20
1470.856359736068
 30
0.0
  0
VERTEX
  5
332
  8
0
  6
CONTINUOUS
 62
     7
 10
1769.869433241845
 20
1470.852587553672
 30
0.0
  0
VERTEX
  5
333
  8
0
  6
CONTINUOUS
 62
     7
 10
1769.870820578042
 20
1470.84878161337
 30
0.0
  0
VERTEX
  5
334
  8
0
  6
CONTINUOUS
 62
     7
 10
1769.872308303147
 20
1470.844943892356
 30
0.0
  0
VERTEX
  5
335
  8
0
  6
CONTINUOUS
 62
     7
 10
1769.873899447954
 20
1470.841076367826
 30
0.0
  0
VERTEX
  5
336
  8
0
  6
CONTINUOUS
 62
     7
 10
1769.875597043257
 20
1470.837181016974
 30
0.0
  0
VERTEX
  5
337
  8
0
  6
CONTINUOUS
 62
     7
 10
1769.877404132407
 20
1470.833259894819
 30
0.0
  0
VERTEX
  5
338
  8
0
  6
CONTINUOUS
 62
     7
 10
1769.879323981315
 20
1470.82931643578
 30
0.0
  0
VERTEX
  5
339
  8
0
  6
CONTINUOUS
 62
     7
 10
1769.881360046896
 20
1470.825355258072
 30
0.0
  0
VERTEX
  5
33A
  8
0
  6
CONTINUOUS
 62
     7
 10
1769.883515792262
 20
1470.821381018327
 30
0.0
  0
VERTEX
  5
33B
  8
0
  6
CONTINUOUS
 62
     7
 10
1769.885794680526
 20
1470.817398373174
 30
0.0
  0
VERTEX
  5
33C
  8
0
  6
CONTINUOUS
 62
     7
 10
1769.888200174799
 20
1470.813411979243
 30
0.0
  0
VERTEX
  5
33D
  8
0
  6
CONTINUOUS
 62
     7
 10
1769.890735738195
 20
1470.809426493165
 30
0.0
  0
VERTEX
  5
33E
  8
0
  6
CONTINUOUS
 62
     7
 10
1769.893404833824
 20
1470.805446571569
 30
0.0
  0
VERTEX
  5
33F
  8
0
  6
CONTINUOUS
 62
     7
 10
1769.8962109248
 20
1470.801476871086
 30
0.0
  0
VERTEX
  5
340
  8
0
  6
CONTINUOUS
 62
     7
 10
1769.899157474236
 20
1470.797522048347
 30
0.0
  0
VERTEX
  5
341
  8
0
  6
CONTINUOUS
 62
     7
 10
1769.902247945242
 20
1470.793586759982
 30
0.0
  0
VERTEX
  5
342
  8
0
  6
CONTINUOUS
 62
     7
 10
1769.905485800932
 20
1470.789675662619
 30
0.0
  0
VERTEX
  5
343
  8
0
  6
CONTINUOUS
 62
     7
 10
1769.908874504418
 20
1470.785793412891
 30
0.0
  0
VERTEX
  5
344
  8
0
  6
CONTINUOUS
 62
     7
 10
1769.912417518813
 20
1470.781944667427
 30
0.0
  0
VERTEX
  5
345
  8
0
  6
CONTINUOUS
 62
     7
 10
1769.916118305619
 20
1470.77813408417
 30
0.0
  0
VERTEX
  5
346
  8
0
  6
CONTINUOUS
 62
     7
 10
1769.919979631491
 20
1470.774366888349
 30
0.0
  0
VERTEX
  5
347
  8
0
  6
CONTINUOUS
 62
     7
 10
1769.924002486351
 20
1470.770649755739
 30
0.0
  0
VERTEX
  5
348
  8
0
  6
CONTINUOUS
 62
     7
 10
1769.928187580199
 20
1470.766989590648
 30
0.0
  0
VERTEX
  5
349
  8
0
  6
CONTINUOUS
 62
     7
 10
1769.932535623032
 20
1470.763393297387
 30
0.0
  0
VERTEX
  5
34A
  8
0
  6
CONTINUOUS
 62
     7
 10
1769.937047324849
 20
1470.759867780265
 30
0.0
  0
VERTEX
  5
34B
  8
0
  6
CONTINUOUS
 62
     7
 10
1769.941723395646
 20
1470.75641994359
 30
0.0
  0
VERTEX
  5
34C
  8
0
  6
CONTINUOUS
 62
     7
 10
1769.946564545421
 20
1470.753056691674
 30
0.0
  0
VERTEX
  5
34D
  8
0
  6
CONTINUOUS
 62
     7
 10
1769.951571484173
 20
1470.749784928826
 30
0.0
  0
VERTEX
  5
34E
  8
0
  6
CONTINUOUS
 62
     7
 10
1769.956744921899
 20
1470.746611559355
 30
0.0
  0
VERTEX
  5
34F
  8
0
  6
CONTINUOUS
 62
     7
 10
1769.962085568593
 20
1470.743543487581
 30
0.0
  0
VERTEX
  5
350
  8
0
  6
CONTINUOUS
 62
     7
 10
1769.967592910741
 20
1470.740590169421
 30
0.0
  0
VERTEX
  5
351
  8
0
  6
CONTINUOUS
 62
     7
 10
1769.973261768398
 20
1470.737770792564
 30
0.0
  0
VERTEX
  5
352
  8
0
  6
CONTINUOUS
 62
     7
 10
1769.979085849283
 20
1470.735106864445
 30
0.0
  0
VERTEX
  5
353
  8
0
  6
CONTINUOUS
 62
     7
 10
1769.985058861115
 20
1470.732619892505
 30
0.0
  0
VERTEX
  5
354
  8
0
  6
CONTINUOUS
 62
     7
 10
1769.991174511615
 20
1470.730331384181
 30
0.0
  0
VERTEX
  5
355
  8
0
  6
CONTINUOUS
 62
     7
 10
1769.997426508501
 20
1470.728262846913
 30
0.0
  0
VERTEX
  5
356
  8
0
  6
CONTINUOUS
 62
     7
 10
1770.003808559493
 20
1470.72643578814
 30
0.0
  0
VERTEX
  5
357
  8
0
  6
CONTINUOUS
 62
     7
 10
1770.010314140226
 20
1470.724870340158
 30
0.0
  0
VERTEX
  5
358
  8
0
  6
CONTINUOUS
 62
     7
 10
1770.016931913297
 20
1470.723558117331
 30
0.0
  0
VERTEX
  5
359
  8
0
  6
CONTINUOUS
 62
     7
 10
1770.023646003011
 20
1470.722463843963
 30
0.0
  0
VERTEX
  5
35A
  8
0
  6
CONTINUOUS
 62
     7
 10
1770.030440356595
 20
1470.721551195145
 30
0.0
  0
VERTEX
  5
35B
  8
0
  6
CONTINUOUS
 62
     7
 10
1770.037298921274
 20
1470.720783845966
 30
0.0
  0
VERTEX
  5
35C
  8
0
  6
CONTINUOUS
 62
     7
 10
1770.044205644275
 20
1470.720125471516
 30
0.0
  0
VERTEX
  5
35D
  8
0
  6
CONTINUOUS
 62
     7
 10
1770.051144472823
 20
1470.719539746886
 30
0.0
  0
VERTEX
  5
35E
  8
0
  6
CONTINUOUS
 62
     7
 10
1770.058099354146
 20
1470.718990347166
 30
0.0
  0
SEQEND
  5
528
  8
0
  6
CONTINUOUS
 62
     7
  0
LINE
  5
D9
  8
0
  6
CONTINUOUS
 62
     7
 10
1770.858099354146
 20
1471.205054444981
 30
0.0
 11
1770.058099354146
 21
1471.205054444982
 31
0.0
  0
LINE
  5
DA
  8
0
  6
CONTINUOUS
 62
     7
 10
1769.858099354146
 20
1471.007841625419
 30
0.0
 11
1769.858099354146
 21
1471.018990347166
 31
0.0
  0
LINE
  5
DB
  8
0
  6
CONTINUOUS
 62
     7
 10
1769.858099354146
 20
1470.718990347166
 30
0.0
 11
1769.858099354146
 21
1470.918990347166
 31
0.0
  0
LINE
  5
DC
  8
0
  6
CONTINUOUS
 62
     7
 10
2018.358099354144
 20
1470.918990347164
 30
0.0
 11
2018.358099354144
 21
1471.007841625417
 31
0.0
  0
ARC
  5
DD
  8
0
  6
CONTINUOUS
 62
     7
 10
2018.556715474394
 20
1471.006438187494
 30
0.0
 40
0.198621078592589
 50
89.60079206532794
 51
179.5951500236661
  0
LINE
  5
DE
  8
0
  6
CONTINUOUS
 62
     7
 10
2018.558099354144
 20
1471.205054444981
 30
0.0
 11
2018.558099354144
 21
1470.718990347164
 31
0.0
  0
POLYLINE
  5
DF
  8
0
  6
CONTINUOUS
 62
     7
 66
     1
 10
0.0
 20
0.0
 30
0.0
  0
VERTEX
  5
35F
  8
0
  6
CONTINUOUS
 62
     7
 10
2018.358099354144
 20
1470.918990347164
 30
0.0
  0
VERTEX
  5
360
  8
0
  6
CONTINUOUS
 62
     7
 10
2018.358116790906
 20
1470.916232414987
 30
0.0
  0
VERTEX
  5
361
  8
0
  6
CONTINUOUS
 62
     7
 10
2018.35817258867
 20
1470.913405975239
 30
0.0
  0
VERTEX
  5
362
  8
0
  6
CONTINUOUS
 62
     7
 10
2018.35827119026
 20
1470.910510188076
 30
0.0
  0
VERTEX
  5
363
  8
0
  6
CONTINUOUS
 62
     7
 10
2018.358415626468
 20
1470.907547030692
 30
0.0
  0
VERTEX
  5
364
  8
0
  6
CONTINUOUS
 62
     7
 10
2018.358608928091
 20
1470.904518480284
 30
0.0
  0
VERTEX
  5
365
  8
0
  6
CONTINUOUS
 62
     7
 10
2018.358854125921
 20
1470.901426514044
 30
0.0
  0
VERTEX
  5
366
  8
0
  6
CONTINUOUS
 62
     7
 10
2018.359154250753
 20
1470.89827310917
 30
0.0
  0
VERTEX
  5
367
  8
0
  6
CONTINUOUS
 62
     7
 10
2018.359512333379
 20
1470.895060242855
 30
0.0
  0
VERTEX
  5
368
  8
0
  6
CONTINUOUS
 62
     7
 10
2018.359931404593
 20
1470.891789892294
 30
0.0
  0
VERTEX
  5
369
  8
0
  6
CONTINUOUS
 62
     7
 10
2018.360414495191
 20
1470.888464034683
 30
0.0
  0
VERTEX
  5
36A
  8
0
  6
CONTINUOUS
 62
     7
 10
2018.360964635965
 20
1470.885084647216
 30
0.0
  0
VERTEX
  5
36B
  8
0
  6
CONTINUOUS
 62
     7
 10
2018.361584857709
 20
1470.881653707087
 30
0.0
  0
VERTEX
  5
36C
  8
0
  6
CONTINUOUS
 62
     7
 10
2018.362278191217
 20
1470.878173191494
 30
0.0
  0
VERTEX
  5
36D
  8
0
  6
CONTINUOUS
 62
     7
 10
2018.363047667282
 20
1470.87464507763
 30
0.0
  0
VERTEX
  5
36E
  8
0
  6
CONTINUOUS
 62
     7
 10
2018.3638963167
 20
1470.871071342689
 30
0.0
  0
VERTEX
  5
36F
  8
0
  6
CONTINUOUS
 62
     7
 10
2018.364827170262
 20
1470.867453963868
 30
0.0
  0
VERTEX
  5
370
  8
0
  6
CONTINUOUS
 62
     7
 10
2018.365843258764
 20
1470.86379491836
 30
0.0
  0
VERTEX
  5
371
  8
0
  6
CONTINUOUS
 62
     7
 10
2018.366947612999
 20
1470.860096183362
 30
0.0
  0
VERTEX
  5
372
  8
0
  6
CONTINUOUS
 62
     7
 10
2018.368143263761
 20
1470.856359736067
 30
0.0
  0
VERTEX
  5
373
  8
0
  6
CONTINUOUS
 62
     7
 10
2018.369433241843
 20
1470.852587553671
 30
0.0
  0
VERTEX
  5
374
  8
0
  6
CONTINUOUS
 62
     7
 10
2018.37082057804
 20
1470.848781613368
 30
0.0
  0
VERTEX
  5
375
  8
0
  6
CONTINUOUS
 62
     7
 10
2018.372308303145
 20
1470.844943892354
 30
0.0
  0
VERTEX
  5
376
  8
0
  6
CONTINUOUS
 62
     7
 10
2018.373899447952
 20
1470.841076367824
 30
0.0
  0
VERTEX
  5
377
  8
0
  6
CONTINUOUS
 62
     7
 10
2018.375597043255
 20
1470.837181016973
 30
0.0
  0
VERTEX
  5
378
  8
0
  6
CONTINUOUS
 62
     7
 10
2018.377404132405
 20
1470.833259894817
 30
0.0
  0
VERTEX
  5
379
  8
0
  6
CONTINUOUS
 62
     7
 10
2018.379323981313
 20
1470.829316435778
 30
0.0
  0
VERTEX
  5
37A
  8
0
  6
CONTINUOUS
 62
     7
 10
2018.381360046894
 20
1470.825355258071
 30
0.0
  0
VERTEX
  5
37B
  8
0
  6
CONTINUOUS
 62
     7
 10
2018.38351579226
 20
1470.821381018326
 30
0.0
  0
VERTEX
  5
37C
  8
0
  6
CONTINUOUS
 62
     7
 10
2018.385794680524
 20
1470.817398373172
 30
0.0
  0
VERTEX
  5
37D
  8
0
  6
CONTINUOUS
 62
     7
 10
2018.388200174797
 20
1470.813411979241
 30
0.0
  0
VERTEX
  5
37E
  8
0
  6
CONTINUOUS
 62
     7
 10
2018.390735738192
 20
1470.809426493163
 30
0.0
  0
VERTEX
  5
37F
  8
0
  6
CONTINUOUS
 62
     7
 10
2018.393404833822
 20
1470.805446571568
 30
0.0
  0
VERTEX
  5
380
  8
0
  6
CONTINUOUS
 62
     7
 10
2018.396210924798
 20
1470.801476871085
 30
0.0
  0
VERTEX
  5
381
  8
0
  6
CONTINUOUS
 62
     7
 10
2018.399157474234
 20
1470.797522048346
 30
0.0
  0
VERTEX
  5
382
  8
0
  6
CONTINUOUS
 62
     7
 10
2018.40224794524
 20
1470.79358675998
 30
0.0
  0
VERTEX
  5
383
  8
0
  6
CONTINUOUS
 62
     7
 10
2018.40548580093
 20
1470.789675662618
 30
0.0
  0
VERTEX
  5
384
  8
0
  6
CONTINUOUS
 62
     7
 10
2018.408874504416
 20
1470.785793412889
 30
0.0
  0
VERTEX
  5
385
  8
0
  6
CONTINUOUS
 62
     7
 10
2018.41241751881
 20
1470.781944667425
 30
0.0
  0
VERTEX
  5
386
  8
0
  6
CONTINUOUS
 62
     7
 10
2018.416118305617
 20
1470.778134084168
 30
0.0
  0
VERTEX
  5
387
  8
0
  6
CONTINUOUS
 62
     7
 10
2018.419979631489
 20
1470.774366888348
 30
0.0
  0
VERTEX
  5
388
  8
0
  6
CONTINUOUS
 62
     7
 10
2018.424002486349
 20
1470.770649755737
 30
0.0
  0
VERTEX
  5
389
  8
0
  6
CONTINUOUS
 62
     7
 10
2018.428187580197
 20
1470.766989590647
 30
0.0
  0
VERTEX
  5
38A
  8
0
  6
CONTINUOUS
 62
     7
 10
2018.43253562303
 20
1470.763393297385
 30
0.0
  0
VERTEX
  5
38B
  8
0
  6
CONTINUOUS
 62
     7
 10
2018.437047324847
 20
1470.759867780263
 30
0.0
  0
VERTEX
  5
38C
  8
0
  6
CONTINUOUS
 62
     7
 10
2018.441723395644
 20
1470.756419943589
 30
0.0
  0
VERTEX
  5
38D
  8
0
  6
CONTINUOUS
 62
     7
 10
2018.44656454542
 20
1470.753056691672
 30
0.0
  0
VERTEX
  5
38E
  8
0
  6
CONTINUOUS
 62
     7
 10
2018.451571484171
 20
1470.749784928824
 30
0.0
  0
VERTEX
  5
38F
  8
0
  6
CONTINUOUS
 62
     7
 10
2018.456744921898
 20
1470.746611559354
 30
0.0
  0
VERTEX
  5
390
  8
0
  6
CONTINUOUS
 62
     7
 10
2018.462085568591
 20
1470.743543487579
 30
0.0
  0
VERTEX
  5
391
  8
0
  6
CONTINUOUS
 62
     7
 10
2018.46759291074
 20
1470.740590169421
 30
0.0
  0
VERTEX
  5
392
  8
0
  6
CONTINUOUS
 62
     7
 10
2018.473261768396
 20
1470.737770792562
 30
0.0
  0
VERTEX
  5
393
  8
0
  6
CONTINUOUS
 62
     7
 10
2018.479085849281
 20
1470.735106864443
 30
0.0
  0
VERTEX
  5
394
  8
0
  6
CONTINUOUS
 62
     7
 10
2018.485058861114
 20
1470.732619892503
 30
0.0
  0
VERTEX
  5
395
  8
0
  6
CONTINUOUS
 62
     7
 10
2018.491174511613
 20
1470.73033138418
 30
0.0
  0
VERTEX
  5
396
  8
0
  6
CONTINUOUS
 62
     7
 10
2018.497426508499
 20
1470.728262846912
 30
0.0
  0
VERTEX
  5
397
  8
0
  6
CONTINUOUS
 62
     7
 10
2018.503808559492
 20
1470.726435788139
 30
0.0
  0
VERTEX
  5
398
  8
0
  6
CONTINUOUS
 62
     7
 10
2018.510314140224
 20
1470.724870340157
 30
0.0
  0
VERTEX
  5
399
  8
0
  6
CONTINUOUS
 62
     7
 10
2018.516931913295
 20
1470.72355811733
 30
0.0
  0
VERTEX
  5
39A
  8
0
  6
CONTINUOUS
 62
     7
 10
2018.523646003009
 20
1470.722463843962
 30
0.0
  0
VERTEX
  5
39B
  8
0
  6
CONTINUOUS
 62
     7
 10
2018.530440356593
 20
1470.721551195143
 30
0.0
  0
VERTEX
  5
39C
  8
0
  6
CONTINUOUS
 62
     7
 10
2018.537298921272
 20
1470.720783845964
 30
0.0
  0
VERTEX
  5
39D
  8
0
  6
CONTINUOUS
 62
     7
 10
2018.544205644273
 20
1470.720125471514
 30
0.0
  0
VERTEX
  5
39E
  8
0
  6
CONTINUOUS
 62
     7
 10
2018.551144472822
 20
1470.719539746884
 30
0.0
  0
VERTEX
  5
39F
  8
0
  6
CONTINUOUS
 62
     7
 10
2018.558099354144
 20
1470.718990347164
 30
0.0
  0
SEQEND
  5
529
  8
0
  6
CONTINUOUS
 62
     7
  0
LINE
  5
E0
  8
0
  6
CONTINUOUS
 62
     7
 10
2019.358099354144
 20
1471.20505444498
 30
0.0
 11
2018.558099354144
 21
1471.205054444981
 31
0.0
  0
LINE
  5
E1
  8
0
  6
CONTINUOUS
 62
     7
 10
2018.358099354144
 20
1471.007841625417
 30
0.0
 11
2018.358099354144
 21
1471.018990347164
 31
0.0
  0
LINE
  5
E2
  8
0
  6
CONTINUOUS
 62
     7
 10
2018.358099354144
 20
1470.718990347166
 30
0.0
 11
2018.358099354144
 21
1470.918990347164
 31
0.0
  0
LINE
  5
E3
  8
0
  6
CONTINUOUS
 62
     7
 10
1785.358099354145
 20
1886.218990347161
 30
0.0
 11
2248.858099354145
 21
1886.218990347161
 31
0.0
  0
LINE
  5
E4
  8
0
  6
CONTINUOUS
 62
     7
 10
2248.858099354145
 20
1903.218990347161
 30
0.0
 11
1785.358099354145
 21
1903.218990347161
 31
0.0
  0
LINE
  5
E5
  8
0
  6
CONTINUOUS
 62
     7
 10
2018.358099354144
 20
1463.218990347166
 30
0.0
 11
2015.858099354145
 21
1463.218990347166
 31
0.0
  0
LINE
  5
E6
  8
0
  6
CONTINUOUS
 62
     7
 10
2015.858099354145
 20
1446.218990347166
 30
0.0
 11
2018.358099354143
 21
1446.218990347166
 31
0.0
  0
LINE
  5
E7
  8
0
  6
CONTINUOUS
 62
     7
 10
1785.358099354145
 20
1006.718990347166
 30
0.0
 11
1785.358099354145
 21
1005.718990347166
 31
0.0
  0
LINE
  5
E8
  8
0
  6
CONTINUOUS
 62
     7
 10
2018.358099354145
 20
1022.718990347166
 30
0.0
 11
2015.858099354145
 21
1022.718990347166
 31
0.0
  0
LINE
  5
E9
  8
0
  6
CONTINUOUS
 62
     7
 10
2248.858099354145
 20
1005.718990347166
 30
0.0
 11
2248.858099354145
 21
1006.718990347166
 31
0.0
  0
LINE
  5
EA
  8
0
  6
CONTINUOUS
 62
     7
 10
1785.358099354145
 20
1005.718990347166
 30
0.0
 11
2248.858099354145
 21
1005.718990347166
 31
0.0
  0
LINE
  5
EB
  8
0
  6
CONTINUOUS
 62
     7
 10
1767.858099354145
 20
1903.718990347158
 30
0.0
 11
1785.358099354145
 21
1903.718990347158
 31
0.0
  0
LINE
  5
EC
  8
0
  6
CONTINUOUS
 62
     7
 10
1785.358099354145
 20
1903.718990347158
 30
0.0
 11
1785.358099354145
 21
1471.218990347165
 31
0.0
  0
LINE
  5
ED
  8
0
  6
CONTINUOUS
 62
     7
 10
1785.358099354145
 20
1006.718990347166
 30
0.0
 11
1785.358099354145
 21
1004.718990347164
 31
0.0
  0
LINE
  5
EE
  8
0
  6
CONTINUOUS
 62
     7
 10
1785.358099354145
 20
1004.718990347164
 30
0.0
 11
1767.858099354145
 21
1004.718990347164
 31
0.0
  0
LINE
  5
EF
  8
0
  6
CONTINUOUS
 62
     7
 10
1767.858099354145
 20
1004.718990347164
 30
0.0
 11
1767.858099354145
 21
1903.718990347158
 31
0.0
  0
LINE
  5
F0
  8
0
  6
CONTINUOUS
 62
     7
 10
2266.358099354145
 20
1004.21899034716
 30
0.0
 11
2248.858099354145
 21
1004.21899034716
 31
0.0
  0
LINE
  5
F1
  8
0
  6
CONTINUOUS
 62
     7
 10
2248.858099354145
 20
1004.21899034716
 30
0.0
 11
2248.858099354145
 21
1006.718990347166
 31
0.0
  0
LINE
  5
F2
  8
0
  6
CONTINUOUS
 62
     7
 10
2248.858099354145
 20
1471.218990347164
 30
0.0
 11
2248.858099354145
 21
1903.218990347154
 31
0.0
  0
LINE
  5
F3
  8
0
  6
CONTINUOUS
 62
     7
 10
2248.858099354145
 20
1903.218990347154
 30
0.0
 11
2266.358099354145
 21
1903.218990347154
 31
0.0
  0
LINE
  5
F4
  8
0
  6
CONTINUOUS
 62
     7
 10
2266.358099354145
 20
1903.218990347154
 30
0.0
 11
2266.358099354145
 21
1004.21899034716
 31
0.0
  0
LINE
  5
F5
  8
0
  6
CONTINUOUS
 62
     8
 10
2015.658099354146
 20
1471.205054444981
 30
0.0
 11
2015.658099354146
 21
1471.218990347165
 31
0.0
  0
LINE
  5
F6
  8
0
  6
CONTINUOUS
 62
     8
 10
2264.158099354144
 20
1471.205054444979
 30
0.0
 11
2264.158099354144
 21
1471.218990347164
 31
0.0
  0
LINE
  5
F7
  8
0
  6
CONTINUOUS
 62
     8
 10
1770.058099354146
 20
1471.218990347166
 30
0.0
 11
1770.058099354146
 21
1471.205054444982
 31
0.0
  0
LINE
  5
F8
  8
0
  6
CONTINUOUS
 62
     8
 10
2018.558099354144
 20
1471.218990347164
 30
0.0
 11
2018.558099354144
 21
1471.205054444981
 31
0.0
  0
LINE
  5
F9
  8
0
  6
CONTINUOUS
 62
     7
 10
844.924053263534
 20
1457.718990347166
 30
0.0
 11
844.924053263534
 21
1437.218990347166
 31
0.0
  0
LINE
  5
FA
  8
0
  6
CONTINUOUS
 62
     7
 10
857.424053263534
 20
1457.718990347166
 30
0.0
 11
844.924053263534
 21
1457.718990347166
 31
0.0
  0
LINE
  5
FB
  8
0
  6
CONTINUOUS
 62
     7
 10
857.424053263534
 20
1470.718990347166
 30
0.0
 11
857.424053263534
 21
1457.718990347166
 31
0.0
  0
LINE
  5
FC
  8
0
  6
CONTINUOUS
 62
     7
 10
861.424053263534
 20
1470.718990347166
 30
0.0
 11
857.424053263534
 21
1470.718990347166
 31
0.0
  0
LINE
  5
FD
  8
0
  6
CONTINUOUS
 62
     7
 10
861.4240532635339
 20
1006.718990347166
 30
0.0
 11
861.424053263534
 21
1470.718990347166
 31
0.0
  0
LINE
  5
FE
  8
0
  6
CONTINUOUS
 62
     7
 10
843.4240532635339
 20
1006.718990347166
 30
0.0
 11
861.4240532635339
 21
1006.718990347166
 31
0.0
  0
LINE
  5
FF
  8
0
  6
CONTINUOUS
 62
     7
 10
844.924053263534
 20
1437.218990347166
 30
0.0
 11
843.424053263534
 21
1437.218990347166
 31
0.0
  0
LINE
  5
100
  8
0
  6
CONTINUOUS
 62
     7
 10
843.424053263534
 20
1437.218990347166
 30
0.0
 11
843.4240532635339
 21
1006.718990347166
 31
0.0
  0
LINE
  5
101
  8
0
  6
CONTINUOUS
 62
     7
 10
863.424053263534
 20
1469.718990347166
 30
0.0
 11
861.424053263534
 21
1469.718990347166
 31
0.0
  0
LINE
  5
102
  8
0
  6
CONTINUOUS
 62
     7
 10
863.4240532635339
 20
1007.718990347166
 30
0.0
 11
863.424053263534
 21
1469.718990347166
 31
0.0
  0
LINE
  5
103
  8
0
  6
CONTINUOUS
 62
     7
 10
863.4240532635339
 20
1007.718990347166
 30
0.0
 11
861.4240532635339
 21
1007.718990347166
 31
0.0
  0
LINE
  5
104
  8
0
  6
CONTINUOUS
 62
     7
 10
864.424053263534
 20
1468.718990347166
 30
0.0
 11
864.4240532635339
 21
1008.718990347166
 31
0.0
  0
LINE
  5
105
  8
0
  6
CONTINUOUS
 62
     7
 10
864.4240532635339
 20
1008.718990347166
 30
0.0
 11
863.4240532635339
 21
1007.718990347166
 31
0.0
  0
LINE
  5
106
  8
0
  6
CONTINUOUS
 62
     7
 10
864.424053263534
 20
1468.718990347166
 30
0.0
 11
863.424053263534
 21
1469.718990347166
 31
0.0
  0
LINE
  5
107
  8
0
  6
CONTINUOUS
 62
     7
 10
843.1240532635339
 20
1458.718990347166
 30
0.0
 11
843.3240532635339
 21
1458.718990347166
 31
0.0
  0
LINE
  5
108
  8
0
  6
CONTINUOUS
 62
     7
 10
843.3240532635339
 20
1458.718990347166
 30
0.0
 11
843.3240532635336
 21
1437.918990347166
 31
0.0
  0
LINE
  5
109
  8
0
  6
CONTINUOUS
 62
     7
 10
843.1240532635337
 20
1437.918990347166
 30
0.0
 11
843.3240532635336
 21
1437.918990347166
 31
0.0
  0
LINE
  5
10A
  8
0
  6
CONTINUOUS
 62
     7
 10
844.9240532635336
 20
1437.718990347166
 30
0.0
 11
844.7240532635336
 21
1437.918990347166
 31
0.0
  0
LINE
  5
10B
  8
0
  6
CONTINUOUS
 62
     7
 10
844.7240532635336
 20
1437.918990347166
 30
0.0
 11
844.724053263534
 21
1457.918990347166
 31
0.0
  0
LINE
  5
10C
  8
0
  6
CONTINUOUS
 62
     7
 10
844.9240532635339
 20
1457.718990347166
 30
0.0
 11
844.724053263534
 21
1457.918990347166
 31
0.0
  0
LINE
  5
10D
  8
0
  6
CONTINUOUS
 62
     7
 10
843.3240532635336
 20
1437.718990347166
 30
0.0
 11
843.3240532635336
 21
1437.918990347166
 31
0.0
  0
ARC
  5
10E
  8
0
  6
CONTINUOUS
 62
     7
 10
843.3240532635336
 20
1437.918990347166
 30
0.0
 40
0.2000000000000455
 50
180.0
 51
270.0000000000008
  0
LINE
  5
10F
  8
0
  6
CONTINUOUS
 62
     7
 10
844.9240532635336
 20
1437.718990347166
 30
0.0
 11
843.3240532635336
 21
1437.718990347166
 31
0.0
  0
LINE
  5
110
  8
0
  6
CONTINUOUS
 62
     7
 10
843.3240532635336
 20
1437.918990347166
 30
0.0
 11
844.7240532635336
 21
1437.918990347166
 31
0.0
  0
ARC
  5
111
  8
0
  6
CONTINUOUS
 62
     7
 10
854.5072394935534
 20
1460.718990347166
 30
0.0
 40
1.200000000000074
 50
270.0000000000008
 51
355.0300534053119
  0
LINE
  5
112
  8
0
  6
CONTINUOUS
 62
     7
 10
856.5439164444975
 20
1470.288296903891
 30
0.0
 11
855.7027278258631
 21
1460.615030512079
 31
0.0
  0
ARC
  5
113
  8
0
  6
CONTINUOUS
 62
     7
 10
857.3409086660373
 20
1470.218990347166
 30
0.0
 40
0.7999999999999607
 50
80.42341151894367
 51
175.0300534053215
  0
ARC
  5
114
  8
0
  6
CONTINUOUS
 62
     7
 10
857.4240915894621
 20
1470.712022396074
 30
0.0
 40
0.2999999999999504
 50
43.62165296727105
 51
80.42341151895877
  0
LINE
  5
115
  8
0
  6
CONTINUOUS
 62
     7
 10
857.2240532635338
 20
1470.918990347166
 30
0.0
 11
857.641264946992
 21
1470.918990347166
 31
0.0
  0
LINE
  5
116
  8
0
  6
CONTINUOUS
 62
     7
 10
857.2240532635338
 20
1457.918990347166
 30
0.0
 11
857.2240532635338
 21
1470.918990347166
 31
0.0
  0
LINE
  5
117
  8
0
  6
CONTINUOUS
 62
     7
 10
844.724053263534
 20
1457.918990347166
 30
0.0
 11
857.2240532635338
 21
1457.918990347166
 31
0.0
  0
ARC
  5
118
  8
0
  6
CONTINUOUS
 62
     7
 10
844.1240532635339
 20
1458.718990347166
 30
0.0
 40
0.8000000000000682
 50
90.0
 51
180.0
  0
LINE
  5
119
  8
0
  6
CONTINUOUS
 62
     7
 10
854.5072394935534
 20
1459.518990347166
 30
0.0
 11
844.1240532635339
 21
1459.518990347166
 31
0.0
  0
LINE
  5
11A
  8
0
  6
CONTINUOUS
 62
     7
 10
857.4240532635339
 20
1457.718990347166
 30
0.0
 11
857.2240532635338
 21
1457.918990347166
 31
0.0
  0
LINE
  5
11B
  8
0
  6
CONTINUOUS
 62
     7
 10
857.4240532635339
 20
1470.718990347166
 30
0.0
 11
857.2240532635338
 21
1470.918990347166
 31
0.0
  0
ARC
  5
11C
  8
0
  6
CONTINUOUS
 62
     7
 10
844.1240532635339
 20
1458.718990347166
 30
0.0
 40
1.0
 50
90.0
 51
180.0
  0
LINE
  5
11D
  8
0
  6
CONTINUOUS
 62
     7
 10
844.1240532635339
 20
1459.518990347166
 30
0.0
 11
844.1240532635339
 21
1459.718990347166
 31
0.0
  0
LINE
  5
11E
  8
0
  6
CONTINUOUS
 62
     7
 10
844.1240532635339
 20
1459.718990347166
 30
0.0
 11
854.5072394935534
 21
1459.718990347166
 31
0.0
  0
LINE
  5
11F
  8
0
  6
CONTINUOUS
 62
     7
 10
854.5072394935534
 20
1459.518990347166
 30
0.0
 11
854.5072394935534
 21
1459.718990347166
 31
0.0
  0
LINE
  5
120
  8
0
  6
CONTINUOUS
 62
     7
 10
855.7027278258631
 20
1460.615030512079
 30
0.0
 11
855.5034797704782
 21
1460.63235715126
 31
0.0
  0
LINE
  5
121
  8
0
  6
CONTINUOUS
 62
     7
 10
855.5034797704782
 20
1460.63235715126
 30
0.0
 11
856.3446683891126
 21
1470.305623543072
 31
0.0
  0
LINE
  5
122
  8
0
  6
CONTINUOUS
 62
     7
 10
856.5439164444975
 20
1470.288296903891
 30
0.0
 11
856.3446683891126
 21
1470.305623543072
 31
0.0
  0
ARC
  5
123
  8
0
  6
CONTINUOUS
 62
     7
 10
854.5072394935534
 20
1460.718990347166
 30
0.0
 40
1.000000000000084
 50
270.0000000000008
 51
355.0300534053099
  0
ARC
  5
124
  8
0
  6
CONTINUOUS
 62
     7
 10
857.3409086660373
 20
1470.218990347166
 30
0.0
 40
0.9999999999999509
 50
80.42341151893885
 51
175.0300534053215
  0
LINE
  5
125
  8
0
  6
CONTINUOUS
 62
     7
 10
857.4740013435169
 20
1471.007841625419
 30
0.0
 11
857.5072745128869
 21
1471.205054444982
 31
0.0
  0
POLYLINE
  5
126
  8
0
  6
CONTINUOUS
 62
     7
 66
     1
 10
0.0
 20
0.0
 30
0.0
  0
VERTEX
  5
3A0
  8
0
  6
CONTINUOUS
 62
     7
 10
857.641264946992
 20
1470.918990347166
 30
0.0
  0
VERTEX
  5
3A1
  8
0
  6
CONTINUOUS
 62
     7
 10
857.647616406906
 20
1470.916232414989
 30
0.0
  0
VERTEX
  5
3A2
  8
0
  6
CONTINUOUS
 62
     7
 10
857.6539444682319
 20
1470.913405975241
 30
0.0
  0
VERTEX
  5
3A3
  8
0
  6
CONTINUOUS
 62
     7
 10
857.6602471468003
 20
1470.910510188078
 30
0.0
  0
VERTEX
  5
3A4
  8
0
  6
CONTINUOUS
 62
     7
 10
857.6665233499353
 20
1470.907547030694
 30
0.0
  0
VERTEX
  5
3A5
  8
0
  6
CONTINUOUS
 62
     7
 10
857.67277198496
 20
1470.904518480285
 30
0.0
  0
VERTEX
  5
3A6
  8
0
  6
CONTINUOUS
 62
     7
 10
857.6789919591982
 20
1470.901426514046
 30
0.0
  0
VERTEX
  5
3A7
  8
0
  6
CONTINUOUS
 62
     7
 10
857.6851821799737
 20
1470.898273109172
 30
0.0
  0
VERTEX
  5
3A8
  8
0
  6
CONTINUOUS
 62
     7
 10
857.6913415546096
 20
1470.895060242857
 30
0.0
  0
VERTEX
  5
3A9
  8
0
  6
CONTINUOUS
 62
     7
 10
857.6974689904291
 20
1470.891789892296
 30
0.0
  0
VERTEX
  5
3AA
  8
0
  6
CONTINUOUS
 62
     7
 10
857.7035633947564
 20
1470.888464034685
 30
0.0
  0
VERTEX
  5
3AB
  8
0
  6
CONTINUOUS
 62
     7
 10
857.7096236749151
 20
1470.885084647217
 30
0.0
  0
VERTEX
  5
3AC
  8
0
  6
CONTINUOUS
 62
     7
 10
857.715648738228
 20
1470.88165370709
 30
0.0
  0
VERTEX
  5
3AD
  8
0
  6
CONTINUOUS
 62
     7
 10
857.7216374920195
 20
1470.878173191496
 30
0.0
  0
VERTEX
  5
3AE
  8
0
  6
CONTINUOUS
 62
     7
 10
857.7275888436127
 20
1470.874645077632
 30
0.0
  0
VERTEX
  5
3AF
  8
0
  6
CONTINUOUS
 62
     7
 10
857.7335017003311
 20
1470.871071342691
 30
0.0
  0
VERTEX
  5
3B0
  8
0
  6
CONTINUOUS
 62
     7
 10
857.7393749694986
 20
1470.86745396387
 30
0.0
  0
VERTEX
  5
3B1
  8
0
  6
CONTINUOUS
 62
     7
 10
857.7452075584381
 20
1470.863794918362
 30
0.0
  0
VERTEX
  5
3B2
  8
0
  6
CONTINUOUS
 62
     7
 10
857.7509983744739
 20
1470.860096183363
 30
0.0
  0
VERTEX
  5
3B3
  8
0
  6
CONTINUOUS
 62
     7
 10
857.7567463249287
 20
1470.856359736068
 30
0.0
  0
VERTEX
  5
3B4
  8
0
  6
CONTINUOUS
 62
     7
 10
857.7624503171271
 20
1470.852587553672
 30
0.0
  0
VERTEX
  5
3B5
  8
0
  6
CONTINUOUS
 62
     7
 10
857.7681092583916
 20
1470.84878161337
 30
0.0
  0
VERTEX
  5
3B6
  8
0
  6
CONTINUOUS
 62
     7
 10
857.7737220560466
 20
1470.844943892356
 30
0.0
  0
VERTEX
  5
3B7
  8
0
  6
CONTINUOUS
 62
     7
 10
857.7792876174149
 20
1470.841076367826
 30
0.0
  0
VERTEX
  5
3B8
  8
0
  6
CONTINUOUS
 62
     7
 10
857.7848048498204
 20
1470.837181016974
 30
0.0
  0
VERTEX
  5
3B9
  8
0
  6
CONTINUOUS
 62
     7
 10
857.7902726008396
 20
1470.833259894819
 30
0.0
  0
VERTEX
  5
3BA
  8
0
  6
CONTINUOUS
 62
     7
 10
857.7956886590391
 20
1470.82931643578
 30
0.0
  0
VERTEX
  5
3BB
  8
0
  6
CONTINUOUS
 62
     7
 10
857.8010499041492
 20
1470.825355258072
 30
0.0
  0
VERTEX
  5
3BC
  8
0
  6
CONTINUOUS
 62
     7
 10
857.8063531864077
 20
1470.821381018327
 30
0.0
  0
VERTEX
  5
3BD
  8
0
  6
CONTINUOUS
 62
     7
 10
857.8115953560531
 20
1470.817398373174
 30
0.0
  0
VERTEX
  5
3BE
  8
0
  6
CONTINUOUS
 62
     7
 10
857.8167732633225
 20
1470.813411979243
 30
0.0
  0
VERTEX
  5
3BF
  8
0
  6
CONTINUOUS
 62
     7
 10
857.8218837584546
 20
1470.809426493165
 30
0.0
  0
VERTEX
  5
3C0
  8
0
  6
CONTINUOUS
 62
     7
 10
857.826923691687
 20
1470.805446571569
 30
0.0
  0
VERTEX
  5
3C1
  8
0
  6
CONTINUOUS
 62
     7
 10
857.8318899132577
 20
1470.801476871086
 30
0.0
  0
VERTEX
  5
3C2
  8
0
  6
CONTINUOUS
 62
     7
 10
857.8367792734048
 20
1470.797522048347
 30
0.0
  0
VERTEX
  5
3C3
  8
0
  6
CONTINUOUS
 62
     7
 10
857.8415886223661
 20
1470.793586759982
 30
0.0
  0
VERTEX
  5
3C4
  8
0
  6
CONTINUOUS
 62
     7
 10
857.8463148103797
 20
1470.789675662619
 30
0.0
  0
VERTEX
  5
3C5
  8
0
  6
CONTINUOUS
 62
     7
 10
857.8509546876834
 20
1470.785793412891
 30
0.0
  0
VERTEX
  5
3C6
  8
0
  6
CONTINUOUS
 62
     7
 10
857.8555051045155
 20
1470.781944667427
 30
0.0
  0
VERTEX
  5
3C7
  8
0
  6
CONTINUOUS
 62
     7
 10
857.8599629102357
 20
1470.77813408417
 30
0.0
  0
VERTEX
  5
3C8
  8
0
  6
CONTINUOUS
 62
     7
 10
857.8643245748619
 20
1470.774366888349
 30
0.0
  0
VERTEX
  5
3C9
  8
0
  6
CONTINUOUS
 62
     7
 10
857.8685855984374
 20
1470.770649755739
 30
0.0
  0
VERTEX
  5
3CA
  8
0
  6
CONTINUOUS
 62
     7
 10
857.8727413281852
 20
1470.766989590648
 30
0.0
  0
VERTEX
  5
3CB
  8
0
  6
CONTINUOUS
 62
     7
 10
857.8767871113274
 20
1470.763393297387
 30
0.0
  0
VERTEX
  5
3CC
  8
0
  6
CONTINUOUS
 62
     7
 10
857.8807182950873
 20
1470.759867780265
 30
0.0
  0
VERTEX
  5
3CD
  8
0
  6
CONTINUOUS
 62
     7
 10
857.8845302266859
 20
1470.75641994359
 30
0.0
  0
VERTEX
  5
3CE
  8
0
  6
CONTINUOUS
 62
     7
 10
857.8882182533468
 20
1470.753056691674
 30
0.0
  0
VERTEX
  5
3CF
  8
0
  6
CONTINUOUS
 62
     7
 10
857.8917777222923
 20
1470.749784928826
 30
0.0
  0
VERTEX
  5
3D0
  8
0
  6
CONTINUOUS
 62
     7
 10
857.8952039807442
 20
1470.746611559355
 30
0.0
  0
VERTEX
  5
3D1
  8
0
  6
CONTINUOUS
 62
     7
 10
857.8984923759164
 20
1470.743543487581
 30
0.0
  0
VERTEX
  5
3D2
  8
0
  6
CONTINUOUS
 62
     7
 10
857.901635745637
 20
1470.740590169421
 30
0.0
  0
VERTEX
  5
3D3
  8
0
  6
CONTINUOUS
 62
     7
 10
857.9046173569783
 20
1470.737770792564
 30
0.0
  0
VERTEX
  5
3D4
  8
0
  6
CONTINUOUS
 62
     7
 10
857.9074181956372
 20
1470.735106864445
 30
0.0
  0
VERTEX
  5
3D5
  8
0
  6
CONTINUOUS
 62
     7
 10
857.9100192473117
 20
1470.732619892505
 30
0.0
  0
VERTEX
  5
3D6
  8
0
  6
CONTINUOUS
 62
     7
 10
857.9124014976991
 20
1470.730331384181
 30
0.0
  0
VERTEX
  5
3D7
  8
0
  6
CONTINUOUS
 62
     7
 10
857.9145459324976
 20
1470.728262846913
 30
0.0
  0
VERTEX
  5
3D8
  8
0
  6
CONTINUOUS
 62
     7
 10
857.9164335374044
 20
1470.72643578814
 30
0.0
  0
VERTEX
  5
3D9
  8
0
  6
CONTINUOUS
 62
     7
 10
857.9180466508584
 20
1470.724870340158
 30
0.0
  0
VERTEX
  5
3DA
  8
0
  6
CONTINUOUS
 62
     7
 10
857.9193956646783
 20
1470.723558117331
 30
0.0
  0
VERTEX
  5
3DB
  8
0
  6
CONTINUOUS
 62
     7
 10
857.9205174227067
 20
1470.722463843963
 30
0.0
  0
VERTEX
  5
3DC
  8
0
  6
CONTINUOUS
 62
     7
 10
857.9214498009095
 20
1470.721551195145
 30
0.0
  0
VERTEX
  5
3DD
  8
0
  6
CONTINUOUS
 62
     7
 10
857.922230675251
 20
1470.720783845966
 30
0.0
  0
VERTEX
  5
3DE
  8
0
  6
CONTINUOUS
 62
     7
 10
857.9228979216966
 20
1470.720125471516
 30
0.0
  0
VERTEX
  5
3DF
  8
0
  6
CONTINUOUS
 62
     7
 10
857.923489416212
 20
1470.719539746886
 30
0.0
  0
VERTEX
  5
3E0
  8
0
  6
CONTINUOUS
 62
     7
 10
857.9240430347621
 20
1470.718990347166
 30
0.0
  0
SEQEND
  5
52A
  8
0
  6
CONTINUOUS
 62
     7
  0
ARC
  5
127
  8
0
  6
CONTINUOUS
 62
     7
 10
857.4240915894621
 20
1470.712022396074
 30
0.0
 40
0.4999999999999618
 50
0.7984942260975312
 51
80.4234115189431
  0
LINE
  5
128
  8
0
  6
CONTINUOUS
 62
     7
 10
563.1240532635276
 20
1903.21899034716
 30
0.0
 11
842.1240532635276
 21
1903.218990347158
 31
0.0
  0
LINE
  5
129
  8
0
  6
CONTINUOUS
 62
     7
 10
842.1240532635343
 20
1005.218990347164
 30
0.0
 11
842.1240532635276
 21
1903.218990347158
 31
0.0
  0
LINE
  5
12A
  8
0
  6
CONTINUOUS
 62
     7
 10
563.1240532635342
 20
1005.218990347166
 30
0.0
 11
842.1240532635343
 21
1005.218990347164
 31
0.0
  0
LINE
  5
12B
  8
0
  6
CONTINUOUS
 62
     7
 10
563.1240532635342
 20
1005.218990347166
 30
0.0
 11
563.1240532635276
 21
1903.21899034716
 31
0.0
  0
LINE
  5
12C
  8
0
  6
CONTINUOUS
 62
     7
 10
842.1240532635343
 20
1004.718990347164
 30
0.0
 11
842.1240532635343
 21
1005.218990347164
 31
0.0
  0
LINE
  5
12D
  8
0
  6
CONTINUOUS
 62
     7
 10
563.1240532635342
 20
1004.718990347166
 30
0.0
 11
563.1240532635342
 21
1005.218990347166
 31
0.0
  0
LINE
  5
12E
  8
0
  6
CONTINUOUS
 62
     7
 10
842.1240532635343
 20
1004.718990347164
 30
0.0
 11
563.1240532635342
 21
1004.718990347166
 31
0.0
  0
LINE
  5
12F
  8
0
  6
CONTINUOUS
 62
     7
 10
842.1240532635276
 20
1903.718990347158
 30
0.0
 11
842.1240532635343
 21
1004.718990347164
 31
0.0
  0
LINE
  5
130
  8
0
  6
CONTINUOUS
 62
     7
 10
843.1240532635276
 20
1903.718990347158
 30
0.0
 11
842.1240532635276
 21
1903.718990347158
 31
0.0
  0
LINE
  5
131
  8
0
  6
CONTINUOUS
 62
     7
 10
843.1240532635343
 20
1004.718990347164
 30
0.0
 11
843.1240532635276
 21
1903.718990347158
 31
0.0
  0
LINE
  5
132
  8
0
  6
CONTINUOUS
 62
     7
 10
843.1240532635343
 20
1004.718990347164
 30
0.0
 11
842.1240532635343
 21
1004.718990347164
 31
0.0
  0
LINE
  5
133
  8
0
  6
CONTINUOUS
 62
     7
 10
842.1240532635218
 20
1004.718990347164
 30
0.0
 11
842.1240532635218
 21
1004.21899034716
 31
0.0
  0
LINE
  5
134
  8
0
  6
CONTINUOUS
 62
     7
 10
843.1240532635218
 20
1004.21899034716
 30
0.0
 11
843.1240532635218
 21
1004.718990347164
 31
0.0
  0
LINE
  5
135
  8
0
  6
CONTINUOUS
 62
     7
 10
843.1240532635218
 20
1004.21899034716
 30
0.0
 11
842.1240532635218
 21
1004.21899034716
 31
0.0
  0
LINE
  5
136
  8
0
  6
CONTINUOUS
 62
     7
 10
842.1240532635276
 20
1903.718990347158
 30
0.0
 11
842.1240532635276
 21
1903.218990347158
 31
0.0
  0
LINE
  5
137
  8
0
  6
CONTINUOUS
 62
     7
 10
563.1240532635276
 20
1903.71899034716
 30
0.0
 11
563.1240532635276
 21
1903.21899034716
 31
0.0
  0
LINE
  5
138
  8
0
  6
CONTINUOUS
 62
     7
 10
842.1240532635276
 20
1903.718990347158
 30
0.0
 11
563.1240532635276
 21
1903.71899034716
 31
0.0
  0
LINE
  5
139
  8
0
  6
CONTINUOUS
 62
     7
 10
563.1240532635218
 20
1004.218990347158
 30
0.0
 11
563.1240532635218
 21
1004.718990347158
 31
0.0
  0
LINE
  5
13A
  8
0
  6
CONTINUOUS
 62
     7
 10
563.1240532635218
 20
1004.218990347158
 30
0.0
 11
842.1240532635218
 21
1004.21899034716
 31
0.0
  0
LINE
  5
13B
  8
0
  6
CONTINUOUS
 62
     7
 10
3013.312452041264
 20
1006.718990347166
 30
0.0
 11
3031.312452041264
 21
1006.718990347166
 31
0.0
  0
LINE
  5
13C
  8
0
  6
CONTINUOUS
 62
     7
 10
3013.312452041264
 20
1470.718990347166
 30
0.0
 11
3013.312452041264
 21
1006.718990347166
 31
0.0
  0
LINE
  5
13D
  8
0
  6
CONTINUOUS
 62
     7
 10
3017.312452041264
 20
1470.718990347166
 30
0.0
 11
3013.312452041264
 21
1470.718990347166
 31
0.0
  0
LINE
  5
13E
  8
0
  6
CONTINUOUS
 62
     7
 10
3017.312452041264
 20
1470.718990347166
 30
0.0
 11
3017.312452041264
 21
1457.718990347166
 31
0.0
  0
LINE
  5
13F
  8
0
  6
CONTINUOUS
 62
     7
 10
3017.312452041264
 20
1457.718990347166
 30
0.0
 11
3029.812452041264
 21
1457.718990347166
 31
0.0
  0
LINE
  5
140
  8
0
  6
CONTINUOUS
 62
     7
 10
3029.812452041264
 20
1457.718990347166
 30
0.0
 11
3029.812452041264
 21
1437.218990347166
 31
0.0
  0
LINE
  5
141
  8
0
  6
CONTINUOUS
 62
     7
 10
3029.812452041264
 20
1437.218990347166
 30
0.0
 11
3031.312452041264
 21
1437.218990347166
 31
0.0
  0
LINE
  5
142
  8
0
  6
CONTINUOUS
 62
     7
 10
3031.312452041264
 20
1006.718990347166
 30
0.0
 11
3031.312452041264
 21
1437.218990347166
 31
0.0
  0
LINE
  5
143
  8
0
  6
CONTINUOUS
 62
     7
 10
3011.312452041264
 20
1007.718990347166
 30
0.0
 11
3013.312452041264
 21
1007.718990347166
 31
0.0
  0
LINE
  5
144
  8
0
  6
CONTINUOUS
 62
     7
 10
3011.312452041264
 20
1469.718990347166
 30
0.0
 11
3011.312452041264
 21
1007.718990347166
 31
0.0
  0
LINE
  5
145
  8
0
  6
CONTINUOUS
 62
     7
 10
3011.312452041264
 20
1469.718990347166
 30
0.0
 11
3013.312452041264
 21
1469.718990347166
 31
0.0
  0
LINE
  5
146
  8
0
  6
CONTINUOUS
 62
     7
 10
3011.312452041264
 20
1007.718990347166
 30
0.0
 11
3010.312452041264
 21
1008.718990347166
 31
0.0
  0
LINE
  5
147
  8
0
  6
CONTINUOUS
 62
     7
 10
3010.312452041264
 20
1008.718990347166
 30
0.0
 11
3010.312452041264
 21
1468.718990347166
 31
0.0
  0
LINE
  5
148
  8
0
  6
CONTINUOUS
 62
     7
 10
3011.312452041264
 20
1469.718990347166
 30
0.0
 11
3010.312452041264
 21
1468.718990347166
 31
0.0
  0
LINE
  5
149
  8
0
  6
CONTINUOUS
 62
     7
 10
3020.229265811256
 20
1459.718990347164
 30
0.0
 11
3030.612452041276
 21
1459.718990347164
 31
0.0
  0
LINE
  5
14A
  8
0
  6
CONTINUOUS
 62
     7
 10
3030.612452041276
 20
1459.718990347164
 30
0.0
 11
3030.612452041276
 21
1459.518990347163
 31
0.0
  0
LINE
  5
14B
  8
0
  6
CONTINUOUS
 62
     7
 10
3030.612452041276
 20
1459.518990347163
 30
0.0
 11
3020.229265811256
 21
1459.518990347163
 31
0.0
  0
LINE
  5
14C
  8
0
  6
CONTINUOUS
 62
     7
 10
3020.229265811256
 20
1459.718990347164
 30
0.0
 11
3020.229265811256
 21
1459.518990347163
 31
0.0
  0
ARC
  5
14D
  8
0
  6
CONTINUOUS
 62
     7
 10
3020.229265811256
 20
1460.718990347163
 30
0.0
 40
0.9999999999999509
 50
184.9699465946793
 51
270.0000000000008
  0
ARC
  5
14E
  8
0
  6
CONTINUOUS
 62
     7
 10
3020.229265811256
 20
1460.718990347163
 30
0.0
 40
1.199999999999961
 50
184.9699465946901
 51
270.0000000000008
  0
LINE
  5
14F
  8
0
  6
CONTINUOUS
 62
     7
 10
3019.233025534332
 20
1460.632357151257
 30
0.0
 11
3019.033777478947
 21
1460.615030512076
 31
0.0
  0
LINE
  5
150
  8
0
  6
CONTINUOUS
 62
     7
 10
3017.512452041276
 20
1470.918990347164
 30
0.0
 11
3017.512452041276
 21
1457.918990347163
 31
0.0
  0
LINE
  5
151
  8
0
  6
CONTINUOUS
 62
     7
 10
3017.095240357818
 20
1470.918990347164
 30
0.0
 11
3017.512452041276
 21
1470.918990347164
 31
0.0
  0
ARC
  5
152
  8
0
  6
CONTINUOUS
 62
     7
 10
3017.312413715348
 20
1470.712022396071
 30
0.0
 40
0.300000000000124
 50
99.57658848109824
 51
136.3783470326676
  0
ARC
  5
153
  8
0
  6
CONTINUOUS
 62
     7
 10
3017.395596638773
 20
1470.218990347164
 30
0.0
 40
0.7999999999999814
 50
4.969946594678492
 51
99.57658848108044
  0
LINE
  5
154
  8
0
  6
CONTINUOUS
 62
     7
 10
3019.033777478947
 20
1460.615030512076
 30
0.0
 11
3018.192588860312
 21
1470.288296903888
 31
0.0
  0
ARC
  5
155
  8
0
  6
CONTINUOUS
 62
     7
 10
3030.612452041276
 20
1458.718990347163
 30
0.0
 40
0.8000000000001819
 50
0.0
 51
90.0
  0
LINE
  5
156
  8
0
  6
CONTINUOUS
 62
     7
 10
3031.412452041276
 20
1437.918990347163
 30
0.0
 11
3031.412452041276
 21
1458.718990347163
 31
0.0
  0
LINE
  5
157
  8
0
  6
CONTINUOUS
 62
     7
 10
3030.012452041276
 20
1437.918990347163
 30
0.0
 11
3031.412452041276
 21
1437.918990347163
 31
0.0
  0
LINE
  5
158
  8
0
  6
CONTINUOUS
 62
     7
 10
3030.012452041276
 20
1457.918990347163
 30
0.0
 11
3030.012452041276
 21
1437.918990347163
 31
0.0
  0
LINE
  5
159
  8
0
  6
CONTINUOUS
 62
     7
 10
3017.512452041276
 20
1457.918990347163
 30
0.0
 11
3030.012452041276
 21
1457.918990347163
 31
0.0
  0
LINE
  5
15A
  8
0
  6
CONTINUOUS
 62
     7
 10
3017.512452041276
 20
1457.918990347163
 30
0.0
 11
3017.312452041276
 21
1457.718990347164
 31
0.0
  0
LINE
  5
15B
  8
0
  6
CONTINUOUS
 62
     7
 10
3017.512452041276
 20
1470.918990347164
 30
0.0
 11
3017.312452041276
 21
1470.718990347164
 31
0.0
  0
LINE
  5
15C
  8
0
  6
CONTINUOUS
 62
     7
 10
3018.391836915697
 20
1470.305623543069
 30
0.0
 11
3019.233025534332
 21
1460.632357151257
 31
0.0
  0
LINE
  5
15D
  8
0
  6
CONTINUOUS
 62
     7
 10
3018.192588860312
 20
1470.288296903888
 30
0.0
 11
3018.391836915697
 21
1470.305623543069
 31
0.0
  0
ARC
  5
15E
  8
0
  6
CONTINUOUS
 62
     7
 10
3030.612452041276
 20
1458.718990347163
 30
0.0
 40
1.000000000000227
 50
0.0
 51
90.0
  0
LINE
  5
15F
  8
0
  6
CONTINUOUS
 62
     7
 10
3031.612452041276
 20
1458.718990347163
 30
0.0
 11
3031.412452041276
 21
1458.718990347163
 31
0.0
  0
LINE
  5
160
  8
0
  6
CONTINUOUS
 62
     7
 10
3017.262503961293
 20
1471.007841625416
 30
0.0
 11
3017.229230791923
 21
1471.20505444498
 31
0.0
  0
ARC
  5
161
  8
0
  6
CONTINUOUS
 62
     7
 10
3017.395596638773
 20
1470.218990347164
 30
0.0
 40
0.9999999999999509
 50
4.969946594678492
 51
99.57658848106757
  0
LINE
  5
162
  8
0
  6
CONTINUOUS
 62
     7
 10
3031.612452041276
 20
1437.918990347163
 30
0.0
 11
3031.412452041276
 21
1437.918990347163
 31
0.0
  0
POLYLINE
  5
163
  8
0
  6
CONTINUOUS
 62
     7
 66
     1
 10
0.0
 20
0.0
 30
0.0
  0
VERTEX
  5
3E1
  8
0
  6
CONTINUOUS
 62
     7
 10
3017.095240357818
 20
1470.918990347164
 30
0.0
  0
VERTEX
  5
3E2
  8
0
  6
CONTINUOUS
 62
     7
 10
3017.088888897904
 20
1470.916232414986
 30
0.0
  0
VERTEX
  5
3E3
  8
0
  6
CONTINUOUS
 62
     7
 10
3017.082560836579
 20
1470.913405975238
 30
0.0
  0
VERTEX
  5
3E4
  8
0
  6
CONTINUOUS
 62
     7
 10
3017.07625815801
 20
1470.910510188075
 30
0.0
  0
VERTEX
  5
3E5
  8
0
  6
CONTINUOUS
 62
     7
 10
3017.069981954875
 20
1470.907547030692
 30
0.0
  0
VERTEX
  5
3E6
  8
0
  6
CONTINUOUS
 62
     7
 10
3017.06373331985
 20
1470.904518480283
 30
0.0
  0
VERTEX
  5
3E7
  8
0
  6
CONTINUOUS
 62
     7
 10
3017.057513345612
 20
1470.901426514044
 30
0.0
  0
VERTEX
  5
3E8
  8
0
  6
CONTINUOUS
 62
     7
 10
3017.051323124837
 20
1470.898273109169
 30
0.0
  0
VERTEX
  5
3E9
  8
0
  6
CONTINUOUS
 62
     7
 10
3017.045163750201
 20
1470.895060242854
 30
0.0
  0
VERTEX
  5
3EA
  8
0
  6
CONTINUOUS
 62
     7
 10
3017.039036314382
 20
1470.891789892293
 30
0.0
  0
VERTEX
  5
3EB
  8
0
  6
CONTINUOUS
 62
     7
 10
3017.032941910054
 20
1470.888464034682
 30
0.0
  0
VERTEX
  5
3EC
  8
0
  6
CONTINUOUS
 62
     7
 10
3017.026881629896
 20
1470.885084647215
 30
0.0
  0
VERTEX
  5
3ED
  8
0
  6
CONTINUOUS
 62
     7
 10
3017.020856566583
 20
1470.881653707087
 30
0.0
  0
VERTEX
  5
3EE
  8
0
  6
CONTINUOUS
 62
     7
 10
3017.014867812791
 20
1470.878173191493
 30
0.0
  0
VERTEX
  5
3EF
  8
0
  6
CONTINUOUS
 62
     7
 10
3017.008916461198
 20
1470.874645077629
 30
0.0
  0
VERTEX
  5
3F0
  8
0
  6
CONTINUOUS
 62
     7
 10
3017.003003604479
 20
1470.871071342689
 30
0.0
  0
VERTEX
  5
3F1
  8
0
  6
CONTINUOUS
 62
     7
 10
3016.997130335312
 20
1470.867453963867
 30
0.0
  0
VERTEX
  5
3F2
  8
0
  6
CONTINUOUS
 62
     7
 10
3016.991297746372
 20
1470.863794918359
 30
0.0
  0
VERTEX
  5
3F3
  8
0
  6
CONTINUOUS
 62
     7
 10
3016.985506930337
 20
1470.860096183361
 30
0.0
  0
VERTEX
  5
3F4
  8
0
  6
CONTINUOUS
 62
     7
 10
3016.979758979881
 20
1470.856359736066
 30
0.0
  0
VERTEX
  5
3F5
  8
0
  6
CONTINUOUS
 62
     7
 10
3016.974054987683
 20
1470.85258755367
 30
0.0
  0
VERTEX
  5
3F6
  8
0
  6
CONTINUOUS
 62
     7
 10
3016.968396046419
 20
1470.848781613367
 30
0.0
  0
VERTEX
  5
3F7
  8
0
  6
CONTINUOUS
 62
     7
 10
3016.962783248764
 20
1470.844943892353
 30
0.0
  0
VERTEX
  5
3F8
  8
0
  6
CONTINUOUS
 62
     7
 10
3016.957217687395
 20
1470.841076367823
 30
0.0
  0
VERTEX
  5
3F9
  8
0
  6
CONTINUOUS
 62
     7
 10
3016.951700454989
 20
1470.837181016971
 30
0.0
  0
VERTEX
  5
3FA
  8
0
  6
CONTINUOUS
 62
     7
 10
3016.946232703971
 20
1470.833259894816
 30
0.0
  0
VERTEX
  5
3FB
  8
0
  6
CONTINUOUS
 62
     7
 10
3016.940816645771
 20
1470.829316435777
 30
0.0
  0
VERTEX
  5
3FC
  8
0
  6
CONTINUOUS
 62
     7
 10
3016.93545540066
 20
1470.82535525807
 30
0.0
  0
VERTEX
  5
3FD
  8
0
  6
CONTINUOUS
 62
     7
 10
3016.930152118402
 20
1470.821381018325
 30
0.0
  0
VERTEX
  5
3FE
  8
0
  6
CONTINUOUS
 62
     7
 10
3016.924909948757
 20
1470.817398373171
 30
0.0
  0
VERTEX
  5
3FF
  8
0
  6
CONTINUOUS
 62
     7
 10
3016.919732041487
 20
1470.813411979241
 30
0.0
  0
VERTEX
  5
400
  8
0
  6
CONTINUOUS
 62
     7
 10
3016.914621546356
 20
1470.809426493162
 30
0.0
  0
VERTEX
  5
401
  8
0
  6
CONTINUOUS
 62
     7
 10
3016.909581613123
 20
1470.805446571567
 30
0.0
  0
VERTEX
  5
402
  8
0
  6
CONTINUOUS
 62
     7
 10
3016.904615391552
 20
1470.801476871084
 30
0.0
  0
VERTEX
  5
403
  8
0
  6
CONTINUOUS
 62
     7
 10
3016.899726031405
 20
1470.797522048345
 30
0.0
  0
VERTEX
  5
404
  8
0
  6
CONTINUOUS
 62
     7
 10
3016.894916682444
 20
1470.793586759979
 30
0.0
  0
VERTEX
  5
405
  8
0
  6
CONTINUOUS
 62
     7
 10
3016.89019049443
 20
1470.789675662617
 30
0.0
  0
VERTEX
  5
406
  8
0
  6
CONTINUOUS
 62
     7
 10
3016.885550617127
 20
1470.785793412889
 30
0.0
  0
VERTEX
  5
407
  8
0
  6
CONTINUOUS
 62
     7
 10
3016.881000200294
 20
1470.781944667425
 30
0.0
  0
VERTEX
  5
408
  8
0
  6
CONTINUOUS
 62
     7
 10
3016.876542394574
 20
1470.778134084167
 30
0.0
  0
VERTEX
  5
409
  8
0
  6
CONTINUOUS
 62
     7
 10
3016.872180729948
 20
1470.774366888347
 30
0.0
  0
VERTEX
  5
40A
  8
0
  6
CONTINUOUS
 62
     7
 10
3016.867919706373
 20
1470.770649755737
 30
0.0
  0
VERTEX
  5
40B
  8
0
  6
CONTINUOUS
 62
     7
 10
3016.863763976625
 20
1470.766989590646
 30
0.0
  0
VERTEX
  5
40C
  8
0
  6
CONTINUOUS
 62
     7
 10
3016.859718193482
 20
1470.763393297384
 30
0.0
  0
VERTEX
  5
40D
  8
0
  6
CONTINUOUS
 62
     7
 10
3016.855787009722
 20
1470.759867780262
 30
0.0
  0
VERTEX
  5
40E
  8
0
  6
CONTINUOUS
 62
     7
 10
3016.851975078124
 20
1470.756419943587
 30
0.0
  0
VERTEX
  5
40F
  8
0
  6
CONTINUOUS
 62
     7
 10
3016.848287051463
 20
1470.753056691671
 30
0.0
  0
VERTEX
  5
410
  8
0
  6
CONTINUOUS
 62
     7
 10
3016.844727582518
 20
1470.749784928823
 30
0.0
  0
VERTEX
  5
411
  8
0
  6
CONTINUOUS
 62
     7
 10
3016.841301324066
 20
1470.746611559352
 30
0.0
  0
VERTEX
  5
412
  8
0
  6
CONTINUOUS
 62
     7
 10
3016.838012928893
 20
1470.743543487578
 30
0.0
  0
VERTEX
  5
413
  8
0
  6
CONTINUOUS
 62
     7
 10
3016.834869559173
 20
1470.740590169419
 30
0.0
  0
VERTEX
  5
414
  8
0
  6
CONTINUOUS
 62
     7
 10
3016.831887947832
 20
1470.737770792561
 30
0.0
  0
VERTEX
  5
415
  8
0
  6
CONTINUOUS
 62
     7
 10
3016.829087109173
 20
1470.735106864443
 30
0.0
  0
VERTEX
  5
416
  8
0
  6
CONTINUOUS
 62
     7
 10
3016.826486057498
 20
1470.732619892502
 30
0.0
  0
VERTEX
  5
417
  8
0
  6
CONTINUOUS
 62
     7
 10
3016.824103807111
 20
1470.730331384178
 30
0.0
  0
VERTEX
  5
418
  8
0
  6
CONTINUOUS
 62
     7
 10
3016.821959372312
 20
1470.728262846911
 30
0.0
  0
VERTEX
  5
419
  8
0
  6
CONTINUOUS
 62
     7
 10
3016.820071767405
 20
1470.726435788137
 30
0.0
  0
VERTEX
  5
41A
  8
0
  6
CONTINUOUS
 62
     7
 10
3016.818458653951
 20
1470.724870340156
 30
0.0
  0
VERTEX
  5
41B
  8
0
  6
CONTINUOUS
 62
     7
 10
3016.817109640132
 20
1470.723558117329
 30
0.0
  0
VERTEX
  5
41C
  8
0
  6
CONTINUOUS
 62
     7
 10
3016.815987882103
 20
1470.722463843961
 30
0.0
  0
VERTEX
  5
41D
  8
0
  6
CONTINUOUS
 62
     7
 10
3016.815055503901
 20
1470.721551195142
 30
0.0
  0
VERTEX
  5
41E
  8
0
  6
CONTINUOUS
 62
     7
 10
3016.814274629559
 20
1470.720783845963
 30
0.0
  0
VERTEX
  5
41F
  8
0
  6
CONTINUOUS
 62
     7
 10
3016.813607383114
 20
1470.720125471513
 30
0.0
  0
VERTEX
  5
420
  8
0
  6
CONTINUOUS
 62
     7
 10
3016.813015888598
 20
1470.719539746884
 30
0.0
  0
VERTEX
  5
421
  8
0
  6
CONTINUOUS
 62
     7
 10
3016.812462270048
 20
1470.718990347164
 30
0.0
  0
SEQEND
  5
52B
  8
0
  6
CONTINUOUS
 62
     7
  0
ARC
  5
164
  8
0
  6
CONTINUOUS
 62
     7
 10
3017.312413715348
 20
1470.712022396071
 30
0.0
 40
0.5000000000000815
 50
99.57658848106543
 51
179.2015057738761
  0
LINE
  5
165
  8
0
  6
CONTINUOUS
 62
     7
 10
3029.812452041276
 20
1437.718990347164
 30
0.0
 11
3030.012452041276
 21
1437.918990347163
 31
0.0
  0
LINE
  5
166
  8
0
  6
CONTINUOUS
 62
     7
 10
3030.012452041276
 20
1457.918990347163
 30
0.0
 11
3029.812452041276
 21
1457.718990347164
 31
0.0
  0
LINE
  5
167
  8
0
  6
CONTINUOUS
 62
     7
 10
3031.412452041276
 20
1437.718990347164
 30
0.0
 11
3031.412452041276
 21
1437.918990347163
 31
0.0
  0
ARC
  5
168
  8
0
  6
CONTINUOUS
 62
     7
 10
3031.412452041276
 20
1437.918990347163
 30
0.0
 40
0.1999999999998181
 50
270.0000000000008
 51
0.0
  0
LINE
  5
169
  8
0
  6
CONTINUOUS
 62
     7
 10
3031.412452041276
 20
1437.718990347164
 30
0.0
 11
3029.812452041276
 21
1437.718990347164
 31
0.0
  0
LINE
  5
16A
  8
0
  6
CONTINUOUS
 62
     7
 10
3311.612452041276
 20
1004.718990347158
 30
0.0
 11
3032.612452041276
 21
1004.71899034716
 31
0.0
  0
LINE
  5
16B
  8
0
  6
CONTINUOUS
 62
     7
 10
3032.612452041269
 20
1902.718990347154
 30
0.0
 11
3032.612452041276
 21
1004.71899034716
 31
0.0
  0
LINE
  5
16C
  8
0
  6
CONTINUOUS
 62
     7
 10
3311.612452041269
 20
1902.718990347151
 30
0.0
 11
3032.612452041269
 21
1902.718990347154
 31
0.0
  0
LINE
  5
16D
  8
0
  6
CONTINUOUS
 62
     7
 10
3311.612452041269
 20
1902.718990347151
 30
0.0
 11
3311.612452041276
 21
1004.718990347158
 31
0.0
  0
LINE
  5
16E
  8
0
  6
CONTINUOUS
 62
     7
 10
3311.612452041269
 20
1903.218990347152
 30
0.0
 11
3311.612452041269
 21
1902.718990347151
 31
0.0
  0
LINE
  5
16F
  8
0
  6
CONTINUOUS
 62
     7
 10
3032.612452041269
 20
1903.218990347154
 30
0.0
 11
3032.612452041269
 21
1902.718990347154
 31
0.0
  0
LINE
  5
170
  8
0
  6
CONTINUOUS
 62
     7
 10
3032.612452041269
 20
1903.218990347154
 30
0.0
 11
3311.612452041269
 21
1903.218990347152
 31
0.0
  0
LINE
  5
171
  8
0
  6
CONTINUOUS
 62
     7
 10
3031.61245204127
 20
1903.718990347158
 30
0.0
 11
3031.61245204127
 21
1903.218990347154
 31
0.0
  0
LINE
  5
172
  8
0
  6
CONTINUOUS
 62
     7
 10
3031.61245204127
 20
1903.718990347158
 30
0.0
 11
3032.61245204127
 21
1903.718990347158
 31
0.0
  0
LINE
  5
173
  8
0
  6
CONTINUOUS
 62
     7
 10
3032.61245204127
 20
1903.218990347154
 30
0.0
 11
3032.61245204127
 21
1903.718990347158
 31
0.0
  0
LINE
  5
174
  8
0
  6
CONTINUOUS
 62
     7
 10
3032.612452041276
 20
1004.21899034716
 30
0.0
 11
3032.612452041269
 21
1903.218990347154
 31
0.0
  0
LINE
  5
175
  8
0
  6
CONTINUOUS
 62
     7
 10
3031.612452041269
 20
1903.218990347154
 30
0.0
 11
3032.612452041269
 21
1903.218990347154
 31
0.0
  0
LINE
  5
176
  8
0
  6
CONTINUOUS
 62
     7
 10
3031.612452041276
 20
1004.21899034716
 30
0.0
 11
3032.612452041276
 21
1004.21899034716
 31
0.0
  0
LINE
  5
177
  8
0
  6
CONTINUOUS
 62
     7
 10
3031.612452041269
 20
1903.218990347154
 30
0.0
 11
3031.612452041276
 21
1004.21899034716
 31
0.0
  0
LINE
  5
178
  8
0
  6
CONTINUOUS
 62
     7
 10
3311.61245204127
 20
1903.71899034716
 30
0.0
 11
3311.61245204127
 21
1903.21899034716
 31
0.0
  0
LINE
  5
179
  8
0
  6
CONTINUOUS
 62
     7
 10
3311.61245204127
 20
1903.71899034716
 30
0.0
 11
3032.61245204127
 21
1903.718990347158
 31
0.0
  0
LINE
  5
17A
  8
0
  6
CONTINUOUS
 62
     7
 10
3311.612452041276
 20
1004.218990347158
 30
0.0
 11
3311.612452041276
 21
1004.718990347158
 31
0.0
  0
LINE
  5
17B
  8
0
  6
CONTINUOUS
 62
     7
 10
3032.612452041276
 20
1004.21899034716
 30
0.0
 11
3032.612452041276
 21
1004.71899034716
 31
0.0
  0
LINE
  5
17C
  8
0
  6
CONTINUOUS
 62
     7
 10
3032.612452041276
 20
1004.21899034716
 30
0.0
 11
3311.612452041276
 21
1004.218990347158
 31
0.0
  0
LINE
  5
17D
  8
0
  6
CONTINUOUS
 62
     7
 10
2018.358099354145
 20
2675.644633708183
 30
0.0
 11
2019.358099354145
 21
2675.644633708183
 31
0.0
  0
LINE
  5
17E
  8
0
  6
CONTINUOUS
 62
     7
 10
2019.358099354145
 20
2675.644633708183
 30
0.0
 11
2019.358099354145
 21
2679.144643936967
 31
0.0
  0
LINE
  5
17F
  8
0
  6
CONTINUOUS
 62
     7
 10
2018.358099354145
 20
2675.644633708183
 30
0.0
 11
2018.358099354145
 21
2679.427422024099
 31
0.0
  0
LINE
  5
180
  8
0
  6
CONTINUOUS
 62
     7
 10
1769.858099354145
 20
2675.644633708183
 30
0.0
 11
1770.858099354146
 21
2675.644633708183
 31
0.0
  0
LINE
  5
181
  8
0
  6
CONTINUOUS
 62
     7
 10
1770.858099354146
 20
2675.644633708183
 30
0.0
 11
1770.858099354146
 21
2679.144643936955
 31
0.0
  0
LINE
  5
182
  8
0
  6
CONTINUOUS
 62
     7
 10
1769.858099354145
 20
2675.644633708183
 30
0.0
 11
1769.858099354146
 21
2679.427422024725
 31
0.0
  0
LINE
  5
183
  8
0
  6
CONTINUOUS
 62
     7
 10
2264.358099354145
 20
2675.644633708183
 30
0.0
 11
2263.358099354145
 21
2675.644633708183
 31
0.0
  0
LINE
  5
184
  8
0
  6
CONTINUOUS
 62
     7
 10
2264.358099354145
 20
2679.427422024738
 30
0.0
 11
2264.358099354145
 21
2675.644633708183
 31
0.0
  0
LINE
  5
185
  8
0
  6
CONTINUOUS
 62
     7
 10
2263.358099354145
 20
2679.144643936967
 30
0.0
 11
2263.358099354145
 21
2675.644633708183
 31
0.0
  0
LINE
  5
186
  8
0
  6
CONTINUOUS
 62
     7
 10
2015.858099354145
 20
2675.644633708183
 30
0.0
 11
2014.858099354146
 21
2675.644633708183
 31
0.0
  0
LINE
  5
187
  8
0
  6
CONTINUOUS
 62
     7
 10
2014.858099354146
 20
2679.144643936955
 30
0.0
 11
2014.858099354146
 21
2675.644633708183
 31
0.0
  0
LINE
  5
188
  8
0
  6
CONTINUOUS
 62
     7
 10
2015.858099354146
 20
2679.427422024725
 30
0.0
 11
2015.858099354145
 21
2675.644633708183
 31
0.0
  0
LINE
  5
189
  8
0
  6
CONTINUOUS
 62
     7
 10
1770.858099354146
 20
2675.644633708183
 30
0.0
 11
2014.858099354146
 21
2675.644633708183
 31
0.0
  0
LINE
  5
18A
  8
0
  6
CONTINUOUS
 62
     7
 10
2019.358099354145
 20
2675.644633708183
 30
0.0
 11
2263.358099354145
 21
2675.644633708183
 31
0.0
  0
LINE
  5
18B
  8
0
  6
CONTINUOUS
 62
     7
 10
2014.858099354146
 20
2673.644633708183
 30
0.0
 11
2014.858099354146
 21
2675.644633708183
 31
0.0
  0
LINE
  5
18C
  8
0
  6
CONTINUOUS
 62
     7
 10
1770.858099354146
 20
2673.644633708183
 30
0.0
 11
2014.858099354146
 21
2673.644633708183
 31
0.0
  0
LINE
  5
18D
  8
0
  6
CONTINUOUS
 62
     7
 10
1770.858099354146
 20
2673.644633708183
 30
0.0
 11
1770.858099354146
 21
2675.644633708183
 31
0.0
  0
LINE
  5
18E
  8
0
  6
CONTINUOUS
 62
     7
 10
2013.858099354146
 20
2672.644633708183
 30
0.0
 11
1771.858099354146
 21
2672.644633708183
 31
0.0
  0
LINE
  5
18F
  8
0
  6
CONTINUOUS
 62
     7
 10
2014.858099354146
 20
2673.644633708183
 30
0.0
 11
2013.858099354146
 21
2672.644633708183
 31
0.0
  0
LINE
  5
190
  8
0
  6
CONTINUOUS
 62
     7
 10
1771.858099354146
 20
2672.644633708183
 30
0.0
 11
1770.858099354146
 21
2673.644633708183
 31
0.0
  0
LINE
  5
191
  8
0
  6
CONTINUOUS
 62
     7
 10
2263.358099354145
 20
2673.644633708183
 30
0.0
 11
2263.358099354145
 21
2675.644633708183
 31
0.0
  0
LINE
  5
192
  8
0
  6
CONTINUOUS
 62
     7
 10
2019.358099354146
 20
2673.644633708183
 30
0.0
 11
2263.358099354145
 21
2673.644633708183
 31
0.0
  0
LINE
  5
193
  8
0
  6
CONTINUOUS
 62
     7
 10
2019.358099354146
 20
2673.644633708183
 30
0.0
 11
2019.358099354146
 21
2675.644633708183
 31
0.0
  0
LINE
  5
194
  8
0
  6
CONTINUOUS
 62
     7
 10
2262.358099354145
 20
2672.644633708184
 30
0.0
 11
2020.358099354146
 21
2672.644633708184
 31
0.0
  0
LINE
  5
195
  8
0
  6
CONTINUOUS
 62
     7
 10
2020.358099354146
 20
2672.644633708184
 30
0.0
 11
2019.358099354146
 21
2673.644633708183
 31
0.0
  0
LINE
  5
196
  8
0
  6
CONTINUOUS
 62
     7
 10
2263.358099354145
 20
2673.644633708183
 30
0.0
 11
2262.358099354145
 21
2672.644633708184
 31
0.0
  0
LINE
  5
197
  8
0
  6
CONTINUOUS
 62
     7
 10
2014.858099354147
 20
2680.724018582605
 30
0.0
 11
2014.858099354147
 21
2679.561412458831
 31
0.0
  0
LINE
  5
198
  8
0
  6
CONTINUOUS
 62
     7
 10
2015.658099354147
 20
2680.724018582605
 30
0.0
 11
2014.858099354147
 21
2680.724018582605
 31
0.0
  0
LINE
  5
199
  8
0
  6
CONTINUOUS
 62
     7
 10
2015.658099354147
 20
2679.561412458831
 30
0.0
 11
2015.658099354147
 21
2680.724018582605
 31
0.0
  0
LINE
  5
19A
  8
0
  6
CONTINUOUS
 62
     7
 10
2015.658099354147
 20
2679.561412458831
 30
0.0
 11
2014.858099354147
 21
2679.561412458831
 31
0.0
  0
LINE
  5
19B
  8
0
  6
CONTINUOUS
 62
     7
 10
2015.858099354147
 20
2680.52477052722
 30
0.0
 11
2015.858099354147
 21
2679.5946856282
 31
0.0
  0
ARC
  5
19C
  8
0
  6
CONTINUOUS
 62
     7
 10
2015.706715474396
 20
2679.886909790619
 30
0.0
 40
0.3291079460441109
 50
261.5051279083378
 51
297.3859751204309
  0
ARC
  5
19D
  8
0
  6
CONTINUOUS
 62
     7
 10
2015.658474619678
 20
2680.524393845469
 30
0.0
 40
0.1996250898578184
 50
0.1081141021132037
 51
90.1077076225061
  0
LINE
  5
19E
  8
0
  6
CONTINUOUS
 62
     7
 10
2015.658099354147
 20
2679.144643936955
 30
0.0
 11
2015.658099354147
 21
2679.561412458831
 31
0.0
  0
LINE
  5
19F
  8
0
  6
CONTINUOUS
 62
     7
 10
2015.658099354147
 20
2679.144643936955
 30
0.0
 11
2014.858099354147
 21
2679.144643936955
 31
0.0
  0
LINE
  5
1A0
  8
0
  6
CONTINUOUS
 62
     7
 10
2014.858099354147
 20
2679.561412458831
 30
0.0
 11
2014.858099354147
 21
2679.144643936955
 31
0.0
  0
LINE
  5
1A1
  8
0
  6
CONTINUOUS
 62
     7
 10
2015.858099354147
 20
2679.5946856282
 30
0.0
 11
2015.858099354147
 21
2679.427422024725
 31
0.0
  0
POLYLINE
  5
1A2
  8
0
  6
CONTINUOUS
 62
     7
 66
     1
 10
0.0
 20
0.0
 30
0.0
  0
VERTEX
  5
422
  8
0
  6
CONTINUOUS
 62
     7
 10
2015.858099354147
 20
2679.427422024725
 30
0.0
  0
VERTEX
  5
423
  8
0
  6
CONTINUOUS
 62
     7
 10
2015.858081917385
 20
2679.421070564812
 30
0.0
  0
VERTEX
  5
424
  8
0
  6
CONTINUOUS
 62
     7
 10
2015.858026119621
 20
2679.414742503486
 30
0.0
  0
VERTEX
  5
425
  8
0
  6
CONTINUOUS
 62
     7
 10
2015.857927518031
 20
2679.408439824917
 30
0.0
  0
VERTEX
  5
426
  8
0
  6
CONTINUOUS
 62
     7
 10
2015.857783081822
 20
2679.402163621782
 30
0.0
  0
VERTEX
  5
427
  8
0
  6
CONTINUOUS
 62
     7
 10
2015.857589780199
 20
2679.395914986757
 30
0.0
  0
VERTEX
  5
428
  8
0
  6
CONTINUOUS
 62
     7
 10
2015.857344582369
 20
2679.38969501252
 30
0.0
  0
VERTEX
  5
429
  8
0
  6
CONTINUOUS
 62
     7
 10
2015.857044457537
 20
2679.383504791744
 30
0.0
  0
VERTEX
  5
42A
  8
0
  6
CONTINUOUS
 62
     7
 10
2015.856686374911
 20
2679.377345417109
 30
0.0
  0
VERTEX
  5
42B
  8
0
  6
CONTINUOUS
 62
     7
 10
2015.856267303697
 20
2679.371217981289
 30
0.0
  0
VERTEX
  5
42C
  8
0
  6
CONTINUOUS
 62
     7
 10
2015.855784213099
 20
2679.365123576962
 30
0.0
  0
VERTEX
  5
42D
  8
0
  6
CONTINUOUS
 62
     7
 10
2015.855234072325
 20
2679.359063296803
 30
0.0
  0
VERTEX
  5
42E
  8
0
  6
CONTINUOUS
 62
     7
 10
2015.854613850582
 20
2679.35303823349
 30
0.0
  0
VERTEX
  5
42F
  8
0
  6
CONTINUOUS
 62
     7
 10
2015.853920517074
 20
2679.347049479698
 30
0.0
  0
VERTEX
  5
430
  8
0
  6
CONTINUOUS
 62
     7
 10
2015.853151041008
 20
2679.341098128105
 30
0.0
  0
VERTEX
  5
431
  8
0
  6
CONTINUOUS
 62
     7
 10
2015.852302391591
 20
2679.335185271387
 30
0.0
  0
VERTEX
  5
432
  8
0
  6
CONTINUOUS
 62
     7
 10
2015.851371538028
 20
2679.329312002219
 30
0.0
  0
VERTEX
  5
433
  8
0
  6
CONTINUOUS
 62
     7
 10
2015.850355449526
 20
2679.32347941328
 30
0.0
  0
VERTEX
  5
434
  8
0
  6
CONTINUOUS
 62
     7
 10
2015.849251095291
 20
2679.317688597244
 30
0.0
  0
VERTEX
  5
435
  8
0
  6
CONTINUOUS
 62
     7
 10
2015.84805544453
 20
2679.311940646789
 30
0.0
  0
VERTEX
  5
436
  8
0
  6
CONTINUOUS
 62
     7
 10
2015.846765466448
 20
2679.306236654591
 30
0.0
  0
VERTEX
  5
437
  8
0
  6
CONTINUOUS
 62
     7
 10
2015.845378130251
 20
2679.300577713326
 30
0.0
  0
VERTEX
  5
438
  8
0
  6
CONTINUOUS
 62
     7
 10
2015.843890405145
 20
2679.294964915671
 30
0.0
  0
VERTEX
  5
439
  8
0
  6
CONTINUOUS
 62
     7
 10
2015.842299260339
 20
2679.289399354303
 30
0.0
  0
VERTEX
  5
43A
  8
0
  6
CONTINUOUS
 62
     7
 10
2015.840601665035
 20
2679.283882121897
 30
0.0
  0
VERTEX
  5
43B
  8
0
  6
CONTINUOUS
 62
     7
 10
2015.838794575886
 20
2679.278414370878
 30
0.0
  0
VERTEX
  5
43C
  8
0
  6
CONTINUOUS
 62
     7
 10
2015.836874726978
 20
2679.272998312678
 30
0.0
  0
VERTEX
  5
43D
  8
0
  6
CONTINUOUS
 62
     7
 10
2015.834838661397
 20
2679.267637067569
 30
0.0
  0
VERTEX
  5
43E
  8
0
  6
CONTINUOUS
 62
     7
 10
2015.832682916031
 20
2679.26233378531
 30
0.0
  0
VERTEX
  5
43F
  8
0
  6
CONTINUOUS
 62
     7
 10
2015.830404027767
 20
2679.257091615665
 30
0.0
  0
VERTEX
  5
440
  8
0
  6
CONTINUOUS
 62
     7
 10
2015.827998533494
 20
2679.251913708395
 30
0.0
  0
VERTEX
  5
441
  8
0
  6
CONTINUOUS
 62
     7
 10
2015.825462970099
 20
2679.246803213263
 30
0.0
  0
VERTEX
  5
442
  8
0
  6
CONTINUOUS
 62
     7
 10
2015.822793874469
 20
2679.24176328003
 30
0.0
  0
VERTEX
  5
443
  8
0
  6
CONTINUOUS
 62
     7
 10
2015.819987783493
 20
2679.23679705846
 30
0.0
  0
VERTEX
  5
444
  8
0
  6
CONTINUOUS
 62
     7
 10
2015.817041234057
 20
2679.231907698313
 30
0.0
  0
VERTEX
  5
445
  8
0
  6
CONTINUOUS
 62
     7
 10
2015.813950763051
 20
2679.227098349351
 30
0.0
  0
VERTEX
  5
446
  8
0
  6
CONTINUOUS
 62
     7
 10
2015.81071290736
 20
2679.222372161337
 30
0.0
  0
VERTEX
  5
447
  8
0
  6
CONTINUOUS
 62
     7
 10
2015.807324203874
 20
2679.217732284034
 30
0.0
  0
VERTEX
  5
448
  8
0
  6
CONTINUOUS
 62
     7
 10
2015.80378118948
 20
2679.213181867202
 30
0.0
  0
VERTEX
  5
449
  8
0
  6
CONTINUOUS
 62
     7
 10
2015.800080402674
 20
2679.208724061481
 30
0.0
  0
VERTEX
  5
44A
  8
0
  6
CONTINUOUS
 62
     7
 10
2015.796219076802
 20
2679.204362396856
 30
0.0
  0
VERTEX
  5
44B
  8
0
  6
CONTINUOUS
 62
     7
 10
2015.792196221942
 20
2679.200101373281
 30
0.0
  0
VERTEX
  5
44C
  8
0
  6
CONTINUOUS
 62
     7
 10
2015.788011128094
 20
2679.195945643532
 30
0.0
  0
VERTEX
  5
44D
  8
0
  6
CONTINUOUS
 62
     7
 10
2015.78366308526
 20
2679.19189986039
 30
0.0
  0
VERTEX
  5
44E
  8
0
  6
CONTINUOUS
 62
     7
 10
2015.779151383444
 20
2679.18796867663
 30
0.0
  0
VERTEX
  5
44F
  8
0
  6
CONTINUOUS
 62
     7
 10
2015.774475312647
 20
2679.184156745031
 30
0.0
  0
VERTEX
  5
450
  8
0
  6
CONTINUOUS
 62
     7
 10
2015.769634162872
 20
2679.180468718371
 30
0.0
  0
VERTEX
  5
451
  8
0
  6
CONTINUOUS
 62
     7
 10
2015.76462722412
 20
2679.176909249426
 30
0.0
  0
VERTEX
  5
452
  8
0
  6
CONTINUOUS
 62
     7
 10
2015.759453786393
 20
2679.173482990973
 30
0.0
  0
VERTEX
  5
453
  8
0
  6
CONTINUOUS
 62
     7
 10
2015.7541131397
 20
2679.170194595801
 30
0.0
  0
VERTEX
  5
454
  8
0
  6
CONTINUOUS
 62
     7
 10
2015.748605797552
 20
2679.167051226081
 30
0.0
  0
VERTEX
  5
455
  8
0
  6
CONTINUOUS
 62
     7
 10
2015.742936939896
 20
2679.16406961474
 30
0.0
  0
VERTEX
  5
456
  8
0
  6
CONTINUOUS
 62
     7
 10
2015.73711285901
 20
2679.16126877608
 30
0.0
  0
VERTEX
  5
457
  8
0
  6
CONTINUOUS
 62
     7
 10
2015.731139847177
 20
2679.158667724406
 30
0.0
  0
VERTEX
  5
458
  8
0
  6
CONTINUOUS
 62
     7
 10
2015.725024196678
 20
2679.156285474019
 30
0.0
  0
VERTEX
  5
459
  8
0
  6
CONTINUOUS
 62
     7
 10
2015.718772199791
 20
2679.15414103922
 30
0.0
  0
VERTEX
  5
45A
  8
0
  6
CONTINUOUS
 62
     7
 10
2015.7123901488
 20
2679.152253434313
 30
0.0
  0
VERTEX
  5
45B
  8
0
  6
CONTINUOUS
 62
     7
 10
2015.705884568067
 20
2679.150640320859
 30
0.0
  0
VERTEX
  5
45C
  8
0
  6
CONTINUOUS
 62
     7
 10
2015.699266794996
 20
2679.149291307039
 30
0.0
  0
VERTEX
  5
45D
  8
0
  6
CONTINUOUS
 62
     7
 10
2015.692552705281
 20
2679.14816954901
 30
0.0
  0
VERTEX
  5
45E
  8
0
  6
CONTINUOUS
 62
     7
 10
2015.685758351698
 20
2679.147237170808
 30
0.0
  0
VERTEX
  5
45F
  8
0
  6
CONTINUOUS
 62
     7
 10
2015.678899787019
 20
2679.146456296467
 30
0.0
  0
VERTEX
  5
460
  8
0
  6
CONTINUOUS
 62
     7
 10
2015.671993064018
 20
2679.145789050021
 30
0.0
  0
VERTEX
  5
461
  8
0
  6
CONTINUOUS
 62
     7
 10
2015.665054235469
 20
2679.145197555505
 30
0.0
  0
VERTEX
  5
462
  8
0
  6
CONTINUOUS
 62
     7
 10
2015.658099354147
 20
2679.144643936955
 30
0.0
  0
SEQEND
  5
52C
  8
0
  6
CONTINUOUS
 62
     7
  0
LINE
  5
1A3
  8
0
  6
CONTINUOUS
 62
     7
 10
2015.658099354147
 20
2681.565207201239
 30
0.0
 11
2014.858099354147
 21
2681.565207201239
 31
0.0
  0
LINE
  5
1A4
  8
0
  6
CONTINUOUS
 62
     7
 10
2015.658099354147
 20
2680.724018582605
 30
0.0
 11
2015.658099354147
 21
2681.565207201239
 31
0.0
  0
LINE
  5
1A5
  8
0
  6
CONTINUOUS
 62
     7
 10
2014.858099354147
 20
2681.565207201239
 30
0.0
 11
2014.858099354147
 21
2680.724018582605
 31
0.0
  0
ARC
  5
1A6
  8
0
  6
CONTINUOUS
 62
     7
 10
2015.658474619678
 20
2681.365582464103
 30
0.0
 40
0.1996250898587271
 50
0.1081141023739973
 51
90.10770762237507
  0
LINE
  5
1A7
  8
0
  6
CONTINUOUS
 62
     7
 10
2015.858099354147
 20
2681.365959145855
 30
0.0
 11
2015.858099354147
 21
2680.52477052722
 31
0.0
  0
LINE
  5
1A8
  8
0
  6
CONTINUOUS
 62
     7
 10
2014.858099354147
 20
2682.561447478164
 30
0.0
 11
2015.658099354147
 21
2682.561447478164
 31
0.0
  0
LINE
  5
1A9
  8
0
  6
CONTINUOUS
 62
     7
 10
2015.658099354147
 20
2681.565207201239
 30
0.0
 11
2015.658099354147
 21
2682.561447478164
 31
0.0
  0
LINE
  5
1AA
  8
0
  6
CONTINUOUS
 62
     7
 10
2014.858099354147
 20
2682.561447478164
 30
0.0
 11
2014.858099354147
 21
2681.565207201239
 31
0.0
  0
LINE
  5
1AB
  8
0
  6
CONTINUOUS
 62
     7
 10
2015.658099354147
 20
2682.561447478164
 30
0.0
 11
2015.858099354147
 21
2682.561447478164
 31
0.0
  0
LINE
  5
1AC
  8
0
  6
CONTINUOUS
 62
     7
 10
2015.858099354147
 20
2682.561447478164
 30
0.0
 11
2015.858099354147
 21
2681.365959145855
 31
0.0
  0
LINE
  5
1AD
  8
0
  6
CONTINUOUS
 62
     7
 10
2015.658099354147
 20
2692.944633708184
 30
0.0
 11
2015.658099354147
 21
2693.944633708184
 31
0.0
  0
LINE
  5
1AE
  8
0
  6
CONTINUOUS
 62
     7
 10
2015.658099354147
 20
2692.944633708184
 30
0.0
 11
2014.858099354147
 21
2692.944633708184
 31
0.0
  0
LINE
  5
1AF
  8
0
  6
CONTINUOUS
 62
     7
 10
2014.858099354147
 20
2692.944633708184
 30
0.0
 11
2014.858099354147
 21
2693.944633708184
 31
0.0
  0
LINE
  5
1B0
  8
0
  6
CONTINUOUS
 62
     7
 10
2015.658099354147
 20
2682.561447478164
 30
0.0
 11
2015.658099354147
 21
2692.944633708184
 31
0.0
  0
LINE
  5
1B1
  8
0
  6
CONTINUOUS
 62
     7
 10
2014.858099354147
 20
2692.944633708184
 30
0.0
 11
2014.858099354147
 21
2682.561447478164
 31
0.0
  0
LINE
  5
1B2
  8
0
  6
CONTINUOUS
 62
     7
 10
2015.658099354147
 20
2692.944633708184
 30
0.0
 11
2015.858099354147
 21
2692.944633708184
 31
0.0
  0
LINE
  5
1B3
  8
0
  6
CONTINUOUS
 62
     7
 10
2015.858099354147
 20
2692.944633708184
 30
0.0
 11
2015.858099354147
 21
2682.561447478164
 31
0.0
  0
ARC
  5
1B4
  8
0
  6
CONTINUOUS
 62
     7
 10
2015.658099354147
 20
2693.744633708183
 30
0.0
 40
0.2000000000002728
 50
0.0
 51
90.0
  0
LINE
  5
1B5
  8
0
  6
CONTINUOUS
 62
     7
 10
2015.858099354147
 20
2693.744633708183
 30
0.0
 11
2015.858099354147
 21
2692.944633708184
 31
0.0
  0
LINE
  5
1B6
  8
0
  6
CONTINUOUS
 62
     7
 10
2263.358099354145
 20
2680.724018582616
 30
0.0
 11
2263.358099354145
 21
2679.561412458842
 31
0.0
  0
LINE
  5
1B7
  8
0
  6
CONTINUOUS
 62
     7
 10
2264.158099354145
 20
2680.724018582616
 30
0.0
 11
2263.358099354145
 21
2680.724018582616
 31
0.0
  0
LINE
  5
1B8
  8
0
  6
CONTINUOUS
 62
     7
 10
2264.158099354145
 20
2679.561412458842
 30
0.0
 11
2264.158099354145
 21
2680.724018582616
 31
0.0
  0
LINE
  5
1B9
  8
0
  6
CONTINUOUS
 62
     7
 10
2264.158099354145
 20
2679.561412458842
 30
0.0
 11
2263.358099354145
 21
2679.561412458842
 31
0.0
  0
LINE
  5
1BA
  8
0
  6
CONTINUOUS
 62
     7
 10
2264.358099354145
 20
2680.524770527231
 30
0.0
 11
2264.358099354145
 21
2679.594685628212
 31
0.0
  0
ARC
  5
1BB
  8
0
  6
CONTINUOUS
 62
     7
 10
2264.206715474396
 20
2679.886909790623
 30
0.0
 40
0.3291079460365063
 50
261.505127907865
 51
297.3859751207688
  0
ARC
  5
1BC
  8
0
  6
CONTINUOUS
 62
     7
 10
2264.158474619677
 20
2680.524393845482
 30
0.0
 40
0.1996250898566678
 50
0.1081141015917396
 51
90.1077076227681
  0
LINE
  5
1BD
  8
0
  6
CONTINUOUS
 62
     7
 10
2264.158099354145
 20
2679.144643936967
 30
0.0
 11
2264.158099354145
 21
2679.561412458842
 31
0.0
  0
LINE
  5
1BE
  8
0
  6
CONTINUOUS
 62
     7
 10
2264.158099354145
 20
2679.144643936967
 30
0.0
 11
2263.358099354145
 21
2679.144643936967
 31
0.0
  0
LINE
  5
1BF
  8
0
  6
CONTINUOUS
 62
     7
 10
2263.358099354145
 20
2679.561412458842
 30
0.0
 11
2263.358099354145
 21
2679.144643936967
 31
0.0
  0
LINE
  5
1C0
  8
0
  6
CONTINUOUS
 62
     7
 10
2264.358099354145
 20
2679.594685628212
 30
0.0
 11
2264.358099354145
 21
2679.427422024738
 31
0.0
  0
POLYLINE
  5
1C1
  8
0
  6
CONTINUOUS
 62
     7
 66
     1
 10
0.0
 20
0.0
 30
0.0
  0
VERTEX
  5
463
  8
0
  6
CONTINUOUS
 62
     7
 10
2264.358099354145
 20
2679.427422024738
 30
0.0
  0
VERTEX
  5
464
  8
0
  6
CONTINUOUS
 62
     7
 10
2264.358081917383
 20
2679.421070564823
 30
0.0
  0
VERTEX
  5
465
  8
0
  6
CONTINUOUS
 62
     7
 10
2264.358026119619
 20
2679.414742503498
 30
0.0
  0
VERTEX
  5
466
  8
0
  6
CONTINUOUS
 62
     7
 10
2264.35792751803
 20
2679.408439824929
 30
0.0
  0
VERTEX
  5
467
  8
0
  6
CONTINUOUS
 62
     7
 10
2264.35778308182
 20
2679.402163621794
 30
0.0
  0
VERTEX
  5
468
  8
0
  6
CONTINUOUS
 62
     7
 10
2264.357589780197
 20
2679.39591498677
 30
0.0
  0
VERTEX
  5
469
  8
0
  6
CONTINUOUS
 62
     7
 10
2264.357344582367
 20
2679.389695012532
 30
0.0
  0
VERTEX
  5
46A
  8
0
  6
CONTINUOUS
 62
     7
 10
2264.357044457536
 20
2679.383504791756
 30
0.0
  0
VERTEX
  5
46B
  8
0
  6
CONTINUOUS
 62
     7
 10
2264.356686374909
 20
2679.37734541712
 30
0.0
  0
VERTEX
  5
46C
  8
0
  6
CONTINUOUS
 62
     7
 10
2264.356267303695
 20
2679.371217981301
 30
0.0
  0
VERTEX
  5
46D
  8
0
  6
CONTINUOUS
 62
     7
 10
2264.355784213097
 20
2679.365123576973
 30
0.0
  0
VERTEX
  5
46E
  8
0
  6
CONTINUOUS
 62
     7
 10
2264.355234072324
 20
2679.359063296815
 30
0.0
  0
VERTEX
  5
46F
  8
0
  6
CONTINUOUS
 62
     7
 10
2264.35461385058
 20
2679.353038233502
 30
0.0
  0
VERTEX
  5
470
  8
0
  6
CONTINUOUS
 62
     7
 10
2264.353920517071
 20
2679.34704947971
 30
0.0
  0
VERTEX
  5
471
  8
0
  6
CONTINUOUS
 62
     7
 10
2264.353151041006
 20
2679.341098128117
 30
0.0
  0
VERTEX
  5
472
  8
0
  6
CONTINUOUS
 62
     7
 10
2264.352302391589
 20
2679.335185271399
 30
0.0
  0
VERTEX
  5
473
  8
0
  6
CONTINUOUS
 62
     7
 10
2264.351371538026
 20
2679.329312002231
 30
0.0
  0
VERTEX
  5
474
  8
0
  6
CONTINUOUS
 62
     7
 10
2264.350355449524
 20
2679.323479413292
 30
0.0
  0
VERTEX
  5
475
  8
0
  6
CONTINUOUS
 62
     7
 10
2264.34925109529
 20
2679.317688597256
 30
0.0
  0
VERTEX
  5
476
  8
0
  6
CONTINUOUS
 62
     7
 10
2264.348055444528
 20
2679.311940646801
 30
0.0
  0
VERTEX
  5
477
  8
0
  6
CONTINUOUS
 62
     7
 10
2264.346765466446
 20
2679.306236654603
 30
0.0
  0
VERTEX
  5
478
  8
0
  6
CONTINUOUS
 62
     7
 10
2264.345378130249
 20
2679.300577713338
 30
0.0
  0
VERTEX
  5
479
  8
0
  6
CONTINUOUS
 62
     7
 10
2264.343890405144
 20
2679.294964915683
 30
0.0
  0
VERTEX
  5
47A
  8
0
  6
CONTINUOUS
 62
     7
 10
2264.342299260336
 20
2679.289399354315
 30
0.0
  0
VERTEX
  5
47B
  8
0
  6
CONTINUOUS
 62
     7
 10
2264.340601665033
 20
2679.283882121909
 30
0.0
  0
VERTEX
  5
47C
  8
0
  6
CONTINUOUS
 62
     7
 10
2264.338794575885
 20
2679.27841437089
 30
0.0
  0
VERTEX
  5
47D
  8
0
  6
CONTINUOUS
 62
     7
 10
2264.336874726976
 20
2679.27299831269
 30
0.0
  0
VERTEX
  5
47E
  8
0
  6
CONTINUOUS
 62
     7
 10
2264.334838661395
 20
2679.26763706758
 30
0.0
  0
VERTEX
  5
47F
  8
0
  6
CONTINUOUS
 62
     7
 10
2264.332682916029
 20
2679.262333785322
 30
0.0
  0
VERTEX
  5
480
  8
0
  6
CONTINUOUS
 62
     7
 10
2264.330404027766
 20
2679.257091615676
 30
0.0
  0
VERTEX
  5
481
  8
0
  6
CONTINUOUS
 62
     7
 10
2264.327998533492
 20
2679.251913708407
 30
0.0
  0
VERTEX
  5
482
  8
0
  6
CONTINUOUS
 62
     7
 10
2264.325462970097
 20
2679.246803213275
 30
0.0
  0
VERTEX
  5
483
  8
0
  6
CONTINUOUS
 62
     7
 10
2264.322793874467
 20
2679.241763280042
 30
0.0
  0
VERTEX
  5
484
  8
0
  6
CONTINUOUS
 62
     7
 10
2264.31998778349
 20
2679.236797058472
 30
0.0
  0
VERTEX
  5
485
  8
0
  6
CONTINUOUS
 62
     7
 10
2264.317041234056
 20
2679.231907698324
 30
0.0
  0
VERTEX
  5
486
  8
0
  6
CONTINUOUS
 62
     7
 10
2264.313950763049
 20
2679.227098349364
 30
0.0
  0
VERTEX
  5
487
  8
0
  6
CONTINUOUS
 62
     7
 10
2264.310712907358
 20
2679.22237216135
 30
0.0
  0
VERTEX
  5
488
  8
0
  6
CONTINUOUS
 62
     7
 10
2264.307324203873
 20
2679.217732284046
 30
0.0
  0
VERTEX
  5
489
  8
0
  6
CONTINUOUS
 62
     7
 10
2264.303781189478
 20
2679.213181867214
 30
0.0
  0
VERTEX
  5
48A
  8
0
  6
CONTINUOUS
 62
     7
 10
2264.300080402671
 20
2679.208724061493
 30
0.0
  0
VERTEX
  5
48B
  8
0
  6
CONTINUOUS
 62
     7
 10
2264.2962190768
 20
2679.204362396868
 30
0.0
  0
VERTEX
  5
48C
  8
0
  6
CONTINUOUS
 62
     7
 10
2264.29219622194
 20
2679.200101373292
 30
0.0
  0
VERTEX
  5
48D
  8
0
  6
CONTINUOUS
 62
     7
 10
2264.288011128092
 20
2679.195945643544
 30
0.0
  0
VERTEX
  5
48E
  8
0
  6
CONTINUOUS
 62
     7
 10
2264.283663085259
 20
2679.191899860401
 30
0.0
  0
VERTEX
  5
48F
  8
0
  6
CONTINUOUS
 62
     7
 10
2264.279151383442
 20
2679.187968676642
 30
0.0
  0
VERTEX
  5
490
  8
0
  6
CONTINUOUS
 62
     7
 10
2264.274475312645
 20
2679.184156745043
 30
0.0
  0
VERTEX
  5
491
  8
0
  6
CONTINUOUS
 62
     7
 10
2264.269634162869
 20
2679.180468718382
 30
0.0
  0
VERTEX
  5
492
  8
0
  6
CONTINUOUS
 62
     7
 10
2264.264627224118
 20
2679.176909249437
 30
0.0
  0
VERTEX
  5
493
  8
0
  6
CONTINUOUS
 62
     7
 10
2264.259453786392
 20
2679.173482990985
 30
0.0
  0
VERTEX
  5
494
  8
0
  6
CONTINUOUS
 62
     7
 10
2264.254113139698
 20
2679.170194595813
 30
0.0
  0
VERTEX
  5
495
  8
0
  6
CONTINUOUS
 62
     7
 10
2264.24860579755
 20
2679.167051226092
 30
0.0
  0
VERTEX
  5
496
  8
0
  6
CONTINUOUS
 62
     7
 10
2264.242936939893
 20
2679.164069614751
 30
0.0
  0
VERTEX
  5
497
  8
0
  6
CONTINUOUS
 62
     7
 10
2264.237112859008
 20
2679.161268776093
 30
0.0
  0
VERTEX
  5
498
  8
0
  6
CONTINUOUS
 62
     7
 10
2264.231139847175
 20
2679.158667724418
 30
0.0
  0
VERTEX
  5
499
  8
0
  6
CONTINUOUS
 62
     7
 10
2264.225024196675
 20
2679.15628547403
 30
0.0
  0
VERTEX
  5
49A
  8
0
  6
CONTINUOUS
 62
     7
 10
2264.218772199789
 20
2679.154141039232
 30
0.0
  0
VERTEX
  5
49B
  8
0
  6
CONTINUOUS
 62
     7
 10
2264.212390148797
 20
2679.152253434325
 30
0.0
  0
VERTEX
  5
49C
  8
0
  6
CONTINUOUS
 62
     7
 10
2264.205884568065
 20
2679.150640320871
 30
0.0
  0
VERTEX
  5
49D
  8
0
  6
CONTINUOUS
 62
     7
 10
2264.199266794994
 20
2679.149291307051
 30
0.0
  0
VERTEX
  5
49E
  8
0
  6
CONTINUOUS
 62
     7
 10
2264.192552705279
 20
2679.148169549022
 30
0.0
  0
VERTEX
  5
49F
  8
0
  6
CONTINUOUS
 62
     7
 10
2264.185758351696
 20
2679.14723717082
 30
0.0
  0
VERTEX
  5
4A0
  8
0
  6
CONTINUOUS
 62
     7
 10
2264.178899787017
 20
2679.146456296479
 30
0.0
  0
VERTEX
  5
4A1
  8
0
  6
CONTINUOUS
 62
     7
 10
2264.171993064016
 20
2679.145789050033
 30
0.0
  0
VERTEX
  5
4A2
  8
0
  6
CONTINUOUS
 62
     7
 10
2264.165054235467
 20
2679.145197555517
 30
0.0
  0
VERTEX
  5
4A3
  8
0
  6
CONTINUOUS
 62
     7
 10
2264.158099354145
 20
2679.144643936967
 30
0.0
  0
SEQEND
  5
52D
  8
0
  6
CONTINUOUS
 62
     7
  0
LINE
  5
1C2
  8
0
  6
CONTINUOUS
 62
     7
 10
2264.158099354145
 20
2681.565207201251
 30
0.0
 11
2263.358099354145
 21
2681.565207201251
 31
0.0
  0
LINE
  5
1C3
  8
0
  6
CONTINUOUS
 62
     7
 10
2264.158099354145
 20
2680.724018582616
 30
0.0
 11
2264.158099354145
 21
2681.565207201251
 31
0.0
  0
LINE
  5
1C4
  8
0
  6
CONTINUOUS
 62
     7
 10
2263.358099354145
 20
2681.565207201251
 30
0.0
 11
2263.358099354145
 21
2680.724018582616
 31
0.0
  0
ARC
  5
1C5
  8
0
  6
CONTINUOUS
 62
     7
 10
2264.158474619677
 20
2681.365582464116
 30
0.0
 40
0.1996250898578193
 50
0.1081141021135731
 51
90.10770762263661
  0
LINE
  5
1C6
  8
0
  6
CONTINUOUS
 62
     7
 10
2264.358099354145
 20
2681.365959145866
 30
0.0
 11
2264.358099354145
 21
2680.524770527231
 31
0.0
  0
LINE
  5
1C7
  8
0
  6
CONTINUOUS
 62
     7
 10
2263.358099354145
 20
2682.561447478176
 30
0.0
 11
2264.158099354145
 21
2682.561447478176
 31
0.0
  0
LINE
  5
1C8
  8
0
  6
CONTINUOUS
 62
     7
 10
2264.158099354145
 20
2681.565207201251
 30
0.0
 11
2264.158099354145
 21
2682.561447478176
 31
0.0
  0
LINE
  5
1C9
  8
0
  6
CONTINUOUS
 62
     7
 10
2263.358099354145
 20
2682.561447478176
 30
0.0
 11
2263.358099354145
 21
2681.565207201251
 31
0.0
  0
LINE
  5
1CA
  8
0
  6
CONTINUOUS
 62
     7
 10
2264.158099354145
 20
2682.561447478176
 30
0.0
 11
2264.358099354145
 21
2682.561447478176
 31
0.0
  0
LINE
  5
1CB
  8
0
  6
CONTINUOUS
 62
     7
 10
2264.358099354145
 20
2682.561447478176
 30
0.0
 11
2264.358099354145
 21
2681.365959145866
 31
0.0
  0
LINE
  5
1CC
  8
0
  6
CONTINUOUS
 62
     7
 10
2264.158099354145
 20
2692.944633708195
 30
0.0
 11
2263.358099354145
 21
2692.944633708195
 31
0.0
  0
LINE
  5
1CD
  8
0
  6
CONTINUOUS
 62
     7
 10
2264.158099354145
 20
2682.561447478176
 30
0.0
 11
2264.158099354145
 21
2692.944633708195
 31
0.0
  0
LINE
  5
1CE
  8
0
  6
CONTINUOUS
 62
     7
 10
2263.358099354145
 20
2692.944633708195
 30
0.0
 11
2263.358099354145
 21
2682.561447478176
 31
0.0
  0
LINE
  5
1CF
  8
0
  6
CONTINUOUS
 62
     7
 10
2264.158099354145
 20
2692.944633708195
 30
0.0
 11
2264.158099354145
 21
2693.944633708195
 31
0.0
  0
LINE
  5
1D0
  8
0
  6
CONTINUOUS
 62
     7
 10
2263.358099354145
 20
2692.944633708195
 30
0.0
 11
2263.358099354145
 21
2693.944633708195
 31
0.0
  0
LINE
  5
1D1
  8
0
  6
CONTINUOUS
 62
     7
 10
2264.158099354145
 20
2692.944633708195
 30
0.0
 11
2264.358099354145
 21
2692.944633708195
 31
0.0
  0
LINE
  5
1D2
  8
0
  6
CONTINUOUS
 62
     7
 10
2264.358099354145
 20
2692.944633708195
 30
0.0
 11
2264.358099354145
 21
2682.561447478176
 31
0.0
  0
ARC
  5
1D3
  8
0
  6
CONTINUOUS
 62
     7
 10
2264.158099354145
 20
2693.744633708196
 30
0.0
 40
0.1999999999998181
 50
0.0
 51
90.0
  0
LINE
  5
1D4
  8
0
  6
CONTINUOUS
 62
     7
 10
2264.358099354145
 20
2693.744633708196
 30
0.0
 11
2264.358099354145
 21
2692.944633708195
 31
0.0
  0
LINE
  5
1D5
  8
0
  6
CONTINUOUS
 62
     7
 10
2014.858099354147
 20
2680.724018582605
 30
0.0
 11
1770.858099354146
 21
2680.724018582605
 31
0.0
  0
LINE
  5
1D6
  8
0
  6
CONTINUOUS
 62
     7
 10
2014.858099354147
 20
2679.561412458831
 30
0.0
 11
1770.858099354146
 21
2679.561412458831
 31
0.0
  0
LINE
  5
1D7
  8
0
  6
CONTINUOUS
 62
     7
 10
1770.858099354146
 20
2679.561412458831
 30
0.0
 11
1770.858099354146
 21
2680.724018582605
 31
0.0
  0
LINE
  5
1D8
  8
0
  6
CONTINUOUS
 62
     7
 10
2014.858099354147
 20
2679.144643936955
 30
0.0
 11
1770.858099354146
 21
2679.144643936955
 31
0.0
  0
LINE
  5
1D9
  8
0
  6
CONTINUOUS
 62
     7
 10
1770.858099354146
 20
2679.144643936955
 30
0.0
 11
1770.858099354146
 21
2679.561412458831
 31
0.0
  0
LINE
  5
1DA
  8
0
  6
CONTINUOUS
 62
     7
 10
2014.858099354147
 20
2681.565207201239
 30
0.0
 11
1770.858099354146
 21
2681.565207201239
 31
0.0
  0
LINE
  5
1DB
  8
0
  6
CONTINUOUS
 62
     7
 10
1770.858099354146
 20
2680.724018582605
 30
0.0
 11
1770.858099354146
 21
2681.565207201239
 31
0.0
  0
LINE
  5
1DC
  8
0
  6
CONTINUOUS
 62
     7
 10
1770.858099354146
 20
2682.561447478164
 30
0.0
 11
2014.858099354147
 21
2682.561447478164
 31
0.0
  0
LINE
  5
1DD
  8
0
  6
CONTINUOUS
 62
     7
 10
1770.858099354146
 20
2681.565207201239
 30
0.0
 11
1770.858099354146
 21
2682.561447478164
 31
0.0
  0
LINE
  5
1DE
  8
0
  6
CONTINUOUS
 62
     7
 10
2014.858099354147
 20
2692.944633708184
 30
0.0
 11
1770.858099354146
 21
2692.944633708184
 31
0.0
  0
LINE
  5
1DF
  8
0
  6
CONTINUOUS
 62
     7
 10
1770.858099354146
 20
2682.561447478164
 30
0.0
 11
1770.858099354146
 21
2692.944633708184
 31
0.0
  0
LINE
  5
1E0
  8
0
  6
CONTINUOUS
 62
     7
 10
1770.858099354146
 20
2693.944633708184
 30
0.0
 11
1770.858099354146
 21
2692.944633708184
 31
0.0
  0
LINE
  5
1E1
  8
0
  6
CONTINUOUS
 62
     7
 10
2263.358099354145
 20
2680.724018582616
 30
0.0
 11
2019.358099354144
 21
2680.724018582616
 31
0.0
  0
LINE
  5
1E2
  8
0
  6
CONTINUOUS
 62
     7
 10
2263.358099354145
 20
2679.561412458842
 30
0.0
 11
2019.358099354144
 21
2679.561412458842
 31
0.0
  0
LINE
  5
1E3
  8
0
  6
CONTINUOUS
 62
     7
 10
2019.358099354144
 20
2679.561412458842
 30
0.0
 11
2019.358099354144
 21
2680.724018582616
 31
0.0
  0
LINE
  5
1E4
  8
0
  6
CONTINUOUS
 62
     7
 10
2263.358099354145
 20
2679.144643936967
 30
0.0
 11
2019.358099354144
 21
2679.144643936967
 31
0.0
  0
LINE
  5
1E5
  8
0
  6
CONTINUOUS
 62
     7
 10
2019.358099354144
 20
2679.144643936967
 30
0.0
 11
2019.358099354144
 21
2679.561412458842
 31
0.0
  0
LINE
  5
1E6
  8
0
  6
CONTINUOUS
 62
     7
 10
2263.358099354145
 20
2681.565207201251
 30
0.0
 11
2019.358099354144
 21
2681.565207201251
 31
0.0
  0
LINE
  5
1E7
  8
0
  6
CONTINUOUS
 62
     7
 10
2019.358099354144
 20
2680.724018582616
 30
0.0
 11
2019.358099354144
 21
2681.565207201251
 31
0.0
  0
LINE
  5
1E8
  8
0
  6
CONTINUOUS
 62
     7
 10
2019.358099354144
 20
2682.561447478176
 30
0.0
 11
2263.358099354145
 21
2682.561447478176
 31
0.0
  0
LINE
  5
1E9
  8
0
  6
CONTINUOUS
 62
     7
 10
2019.358099354144
 20
2681.565207201251
 30
0.0
 11
2019.358099354144
 21
2682.561447478176
 31
0.0
  0
LINE
  5
1EA
  8
0
  6
CONTINUOUS
 62
     7
 10
2263.358099354145
 20
2692.944633708195
 30
0.0
 11
2019.358099354144
 21
2692.944633708195
 31
0.0
  0
LINE
  5
1EB
  8
0
  6
CONTINUOUS
 62
     7
 10
2019.358099354144
 20
2682.561447478176
 30
0.0
 11
2019.358099354144
 21
2692.944633708195
 31
0.0
  0
LINE
  5
1EC
  8
0
  6
CONTINUOUS
 62
     7
 10
2019.358099354144
 20
2693.944633708195
 30
0.0
 11
2019.358099354144
 21
2692.944633708195
 31
0.0
  0
LINE
  5
1ED
  8
0
  6
CONTINUOUS
 62
     7
 10
1769.858099354146
 20
2679.5946856282
 30
0.0
 11
1769.858099354146
 21
2680.52477052722
 31
0.0
  0
ARC
  5
1EE
  8
0
  6
CONTINUOUS
 62
     7
 10
1770.057724088614
 20
2680.524393845469
 30
0.0
 40
0.1996250898578184
 50
89.89229237749392
 51
179.8918858978868
  0
LINE
  5
1EF
  8
0
  6
CONTINUOUS
 62
     7
 10
1770.058099354146
 20
2680.724018582605
 30
0.0
 11
1770.058099354146
 21
2679.561412458831
 31
0.0
  0
ARC
  5
1F0
  8
0
  6
CONTINUOUS
 62
     7
 10
1770.009483233896
 20
2679.886909790619
 30
0.0
 40
0.3291079460440062
 50
242.6140248796058
 51
278.4948720917029
  0
LINE
  5
1F1
  8
0
  6
CONTINUOUS
 62
     7
 10
1770.858099354146
 20
2679.561412458831
 30
0.0
 11
1770.058099354146
 21
2679.561412458831
 31
0.0
  0
LINE
  5
1F2
  8
0
  6
CONTINUOUS
 62
     7
 10
1770.858099354146
 20
2680.724018582605
 30
0.0
 11
1770.058099354146
 21
2680.724018582605
 31
0.0
  0
LINE
  5
1F3
  8
0
  6
CONTINUOUS
 62
     7
 10
1770.858099354146
 20
2679.144643936955
 30
0.0
 11
1770.058099354146
 21
2679.144643936955
 31
0.0
  0
LINE
  5
1F4
  8
0
  6
CONTINUOUS
 62
     7
 10
1770.058099354146
 20
2679.561412458831
 30
0.0
 11
1770.058099354146
 21
2679.144643936955
 31
0.0
  0
LINE
  5
1F5
  8
0
  6
CONTINUOUS
 62
     7
 10
1769.858099354146
 20
2679.427422024725
 30
0.0
 11
1769.858099354146
 21
2679.5946856282
 31
0.0
  0
POLYLINE
  5
1F6
  8
0
  6
CONTINUOUS
 62
     7
 66
     1
 10
0.0
 20
0.0
 30
0.0
  0
VERTEX
  5
4A4
  8
0
  6
CONTINUOUS
 62
     7
 10
1769.858099354146
 20
2679.427422024725
 30
0.0
  0
VERTEX
  5
4A5
  8
0
  6
CONTINUOUS
 62
     7
 10
1769.858116790908
 20
2679.421070564811
 30
0.0
  0
VERTEX
  5
4A6
  8
0
  6
CONTINUOUS
 62
     7
 10
1769.858172588672
 20
2679.414742503486
 30
0.0
  0
VERTEX
  5
4A7
  8
0
  6
CONTINUOUS
 62
     7
 10
1769.858271190261
 20
2679.408439824917
 30
0.0
  0
VERTEX
  5
4A8
  8
0
  6
CONTINUOUS
 62
     7
 10
1769.858415626471
 20
2679.402163621782
 30
0.0
  0
VERTEX
  5
4A9
  8
0
  6
CONTINUOUS
 62
     7
 10
1769.858608928093
 20
2679.395914986757
 30
0.0
  0
VERTEX
  5
4AA
  8
0
  6
CONTINUOUS
 62
     7
 10
1769.858854125923
 20
2679.389695012519
 30
0.0
  0
VERTEX
  5
4AB
  8
0
  6
CONTINUOUS
 62
     7
 10
1769.859154250755
 20
2679.383504791744
 30
0.0
  0
VERTEX
  5
4AC
  8
0
  6
CONTINUOUS
 62
     7
 10
1769.859512333381
 20
2679.377345417108
 30
0.0
  0
VERTEX
  5
4AD
  8
0
  6
CONTINUOUS
 62
     7
 10
1769.859931404596
 20
2679.371217981288
 30
0.0
  0
VERTEX
  5
4AE
  8
0
  6
CONTINUOUS
 62
     7
 10
1769.860414495193
 20
2679.365123576961
 30
0.0
  0
VERTEX
  5
4AF
  8
0
  6
CONTINUOUS
 62
     7
 10
1769.860964635967
 20
2679.359063296803
 30
0.0
  0
VERTEX
  5
4B0
  8
0
  6
CONTINUOUS
 62
     7
 10
1769.86158485771
 20
2679.353038233489
 30
0.0
  0
VERTEX
  5
4B1
  8
0
  6
CONTINUOUS
 62
     7
 10
1769.862278191218
 20
2679.347049479698
 30
0.0
  0
VERTEX
  5
4B2
  8
0
  6
CONTINUOUS
 62
     7
 10
1769.863047667284
 20
2679.341098128105
 30
0.0
  0
VERTEX
  5
4B3
  8
0
  6
CONTINUOUS
 62
     7
 10
1769.863896316701
 20
2679.335185271386
 30
0.0
  0
VERTEX
  5
4B4
  8
0
  6
CONTINUOUS
 62
     7
 10
1769.864827170264
 20
2679.329312002219
 30
0.0
  0
VERTEX
  5
4B5
  8
0
  6
CONTINUOUS
 62
     7
 10
1769.865843258766
 20
2679.32347941328
 30
0.0
  0
VERTEX
  5
4B6
  8
0
  6
CONTINUOUS
 62
     7
 10
1769.866947613001
 20
2679.317688597244
 30
0.0
  0
VERTEX
  5
4B7
  8
0
  6
CONTINUOUS
 62
     7
 10
1769.868143263762
 20
2679.311940646788
 30
0.0
  0
VERTEX
  5
4B8
  8
0
  6
CONTINUOUS
 62
     7
 10
1769.869433241845
 20
2679.306236654591
 30
0.0
  0
VERTEX
  5
4B9
  8
0
  6
CONTINUOUS
 62
     7
 10
1769.870820578042
 20
2679.300577713326
 30
0.0
  0
VERTEX
  5
4BA
  8
0
  6
CONTINUOUS
 62
     7
 10
1769.872308303147
 20
2679.294964915672
 30
0.0
  0
VERTEX
  5
4BB
  8
0
  6
CONTINUOUS
 62
     7
 10
1769.873899447954
 20
2679.289399354303
 30
0.0
  0
VERTEX
  5
4BC
  8
0
  6
CONTINUOUS
 62
     7
 10
1769.875597043257
 20
2679.283882121897
 30
0.0
  0
VERTEX
  5
4BD
  8
0
  6
CONTINUOUS
 62
     7
 10
1769.877404132407
 20
2679.278414370878
 30
0.0
  0
VERTEX
  5
4BE
  8
0
  6
CONTINUOUS
 62
     7
 10
1769.879323981315
 20
2679.272998312678
 30
0.0
  0
VERTEX
  5
4BF
  8
0
  6
CONTINUOUS
 62
     7
 10
1769.881360046896
 20
2679.267637067568
 30
0.0
  0
VERTEX
  5
4C0
  8
0
  6
CONTINUOUS
 62
     7
 10
1769.883515792262
 20
2679.26233378531
 30
0.0
  0
VERTEX
  5
4C1
  8
0
  6
CONTINUOUS
 62
     7
 10
1769.885794680526
 20
2679.257091615665
 30
0.0
  0
VERTEX
  5
4C2
  8
0
  6
CONTINUOUS
 62
     7
 10
1769.888200174799
 20
2679.251913708395
 30
0.0
  0
VERTEX
  5
4C3
  8
0
  6
CONTINUOUS
 62
     7
 10
1769.890735738195
 20
2679.246803213263
 30
0.0
  0
VERTEX
  5
4C4
  8
0
  6
CONTINUOUS
 62
     7
 10
1769.893404833824
 20
2679.241763280031
 30
0.0
  0
VERTEX
  5
4C5
  8
0
  6
CONTINUOUS
 62
     7
 10
1769.8962109248
 20
2679.23679705846
 30
0.0
  0
VERTEX
  5
4C6
  8
0
  6
CONTINUOUS
 62
     7
 10
1769.899157474236
 20
2679.231907698312
 30
0.0
  0
VERTEX
  5
4C7
  8
0
  6
CONTINUOUS
 62
     7
 10
1769.902247945242
 20
2679.227098349351
 30
0.0
  0
VERTEX
  5
4C8
  8
0
  6
CONTINUOUS
 62
     7
 10
1769.905485800932
 20
2679.222372161338
 30
0.0
  0
VERTEX
  5
4C9
  8
0
  6
CONTINUOUS
 62
     7
 10
1769.908874504418
 20
2679.217732284034
 30
0.0
  0
VERTEX
  5
4CA
  8
0
  6
CONTINUOUS
 62
     7
 10
1769.912417518813
 20
2679.213181867202
 30
0.0
  0
VERTEX
  5
4CB
  8
0
  6
CONTINUOUS
 62
     7
 10
1769.916118305619
 20
2679.208724061481
 30
0.0
  0
VERTEX
  5
4CC
  8
0
  6
CONTINUOUS
 62
     7
 10
1769.919979631491
 20
2679.204362396856
 30
0.0
  0
VERTEX
  5
4CD
  8
0
  6
CONTINUOUS
 62
     7
 10
1769.924002486351
 20
2679.20010137328
 30
0.0
  0
VERTEX
  5
4CE
  8
0
  6
CONTINUOUS
 62
     7
 10
1769.928187580199
 20
2679.195945643532
 30
0.0
  0
VERTEX
  5
4CF
  8
0
  6
CONTINUOUS
 62
     7
 10
1769.932535623032
 20
2679.19189986039
 30
0.0
  0
VERTEX
  5
4D0
  8
0
  6
CONTINUOUS
 62
     7
 10
1769.937047324849
 20
2679.187968676631
 30
0.0
  0
VERTEX
  5
4D1
  8
0
  6
CONTINUOUS
 62
     7
 10
1769.941723395646
 20
2679.184156745031
 30
0.0
  0
VERTEX
  5
4D2
  8
0
  6
CONTINUOUS
 62
     7
 10
1769.946564545421
 20
2679.18046871837
 30
0.0
  0
VERTEX
  5
4D3
  8
0
  6
CONTINUOUS
 62
     7
 10
1769.951571484173
 20
2679.176909249425
 30
0.0
  0
VERTEX
  5
4D4
  8
0
  6
CONTINUOUS
 62
     7
 10
1769.956744921899
 20
2679.173482990972
 30
0.0
  0
VERTEX
  5
4D5
  8
0
  6
CONTINUOUS
 62
     7
 10
1769.962085568593
 20
2679.170194595801
 30
0.0
  0
VERTEX
  5
4D6
  8
0
  6
CONTINUOUS
 62
     7
 10
1769.967592910741
 20
2679.16705122608
 30
0.0
  0
VERTEX
  5
4D7
  8
0
  6
CONTINUOUS
 62
     7
 10
1769.973261768398
 20
2679.16406961474
 30
0.0
  0
VERTEX
  5
4D8
  8
0
  6
CONTINUOUS
 62
     7
 10
1769.979085849283
 20
2679.161268776081
 30
0.0
  0
VERTEX
  5
4D9
  8
0
  6
CONTINUOUS
 62
     7
 10
1769.985058861115
 20
2679.158667724406
 30
0.0
  0
VERTEX
  5
4DA
  8
0
  6
CONTINUOUS
 62
     7
 10
1769.991174511615
 20
2679.156285474019
 30
0.0
  0
VERTEX
  5
4DB
  8
0
  6
CONTINUOUS
 62
     7
 10
1769.997426508501
 20
2679.15414103922
 30
0.0
  0
VERTEX
  5
4DC
  8
0
  6
CONTINUOUS
 62
     7
 10
1770.003808559493
 20
2679.152253434313
 30
0.0
  0
VERTEX
  5
4DD
  8
0
  6
CONTINUOUS
 62
     7
 10
1770.010314140226
 20
2679.15064032086
 30
0.0
  0
VERTEX
  5
4DE
  8
0
  6
CONTINUOUS
 62
     7
 10
1770.016931913297
 20
2679.149291307039
 30
0.0
  0
VERTEX
  5
4DF
  8
0
  6
CONTINUOUS
 62
     7
 10
1770.023646003011
 20
2679.148169549011
 30
0.0
  0
VERTEX
  5
4E0
  8
0
  6
CONTINUOUS
 62
     7
 10
1770.030440356595
 20
2679.147237170808
 30
0.0
  0
VERTEX
  5
4E1
  8
0
  6
CONTINUOUS
 62
     7
 10
1770.037298921274
 20
2679.146456296467
 30
0.0
  0
VERTEX
  5
4E2
  8
0
  6
CONTINUOUS
 62
     7
 10
1770.044205644275
 20
2679.145789050021
 30
0.0
  0
VERTEX
  5
4E3
  8
0
  6
CONTINUOUS
 62
     7
 10
1770.051144472823
 20
2679.145197555506
 30
0.0
  0
VERTEX
  5
4E4
  8
0
  6
CONTINUOUS
 62
     7
 10
1770.058099354146
 20
2679.144643936955
 30
0.0
  0
SEQEND
  5
52E
  8
0
  6
CONTINUOUS
 62
     7
  0
LINE
  5
1F7
  8
0
  6
CONTINUOUS
 62
     7
 10
1770.058099354146
 20
2681.565207201239
 30
0.0
 11
1770.058099354146
 21
2680.724018582605
 31
0.0
  0
LINE
  5
1F8
  8
0
  6
CONTINUOUS
 62
     7
 10
1770.858099354146
 20
2681.565207201239
 30
0.0
 11
1770.058099354146
 21
2681.565207201239
 31
0.0
  0
ARC
  5
1F9
  8
0
  6
CONTINUOUS
 62
     7
 10
1770.057724088615
 20
2681.365582464103
 30
0.0
 40
0.1996250898587271
 50
89.89229237762493
 51
179.891885897626
  0
LINE
  5
1FA
  8
0
  6
CONTINUOUS
 62
     7
 10
1769.858099354146
 20
2680.52477052722
 30
0.0
 11
1769.858099354146
 21
2681.365959145855
 31
0.0
  0
LINE
  5
1FB
  8
0
  6
CONTINUOUS
 62
     7
 10
1769.858099354146
 20
2682.561447478164
 30
0.0
 11
1770.058099354146
 21
2682.561447478164
 31
0.0
  0
LINE
  5
1FC
  8
0
  6
CONTINUOUS
 62
     7
 10
1770.058099354146
 20
2682.561447478164
 30
0.0
 11
1770.058099354146
 21
2681.565207201239
 31
0.0
  0
LINE
  5
1FD
  8
0
  6
CONTINUOUS
 62
     7
 10
1769.858099354146
 20
2681.365959145855
 30
0.0
 11
1769.858099354146
 21
2682.561447478164
 31
0.0
  0
LINE
  5
1FE
  8
0
  6
CONTINUOUS
 62
     7
 10
1770.058099354146
 20
2682.561447478164
 30
0.0
 11
1770.858099354146
 21
2682.561447478164
 31
0.0
  0
LINE
  5
1FF
  8
0
  6
CONTINUOUS
 62
     7
 10
1769.858099354146
 20
2692.944633708184
 30
0.0
 11
1770.058099354146
 21
2692.944633708184
 31
0.0
  0
LINE
  5
200
  8
0
  6
CONTINUOUS
 62
     7
 10
1770.058099354146
 20
2692.944633708184
 30
0.0
 11
1770.058099354146
 21
2682.561447478164
 31
0.0
  0
LINE
  5
201
  8
0
  6
CONTINUOUS
 62
     7
 10
1769.858099354146
 20
2682.561447478164
 30
0.0
 11
1769.858099354146
 21
2692.944633708184
 31
0.0
  0
LINE
  5
202
  8
0
  6
CONTINUOUS
 62
     7
 10
1770.858099354146
 20
2692.944633708184
 30
0.0
 11
1770.058099354146
 21
2692.944633708184
 31
0.0
  0
ARC
  5
203
  8
0
  6
CONTINUOUS
 62
     7
 10
1770.058099354146
 20
2693.744633708183
 30
0.0
 40
0.2000000000002728
 50
90.0
 51
179.9999999999842
  0
LINE
  5
204
  8
0
  6
CONTINUOUS
 62
     7
 10
1770.058099354146
 20
2693.944633708184
 30
0.0
 11
1770.058099354146
 21
2692.944633708184
 31
0.0
  0
LINE
  5
205
  8
0
  6
CONTINUOUS
 62
     7
 10
1769.858099354146
 20
2692.944633708184
 30
0.0
 11
1769.858099354146
 21
2693.744633708183
 31
0.0
  0
LINE
  5
206
  8
0
  6
CONTINUOUS
 62
     7
 10
2018.358099354144
 20
2679.594685628212
 30
0.0
 11
2018.358099354144
 21
2680.524770527231
 31
0.0
  0
ARC
  5
207
  8
0
  6
CONTINUOUS
 62
     7
 10
2018.557724088612
 20
2680.524393845481
 30
0.0
 40
0.1996250898573516
 50
89.8922923773629
 51
179.8918858981476
  0
LINE
  5
208
  8
0
  6
CONTINUOUS
 62
     7
 10
2018.558099354144
 20
2680.724018582616
 30
0.0
 11
2018.558099354144
 21
2679.561412458842
 31
0.0
  0
ARC
  5
209
  8
0
  6
CONTINUOUS
 62
     7
 10
2018.509483233894
 20
2679.886909790626
 30
0.0
 40
0.3291079460396547
 50
242.6140248793471
 51
278.4948720919373
  0
LINE
  5
20A
  8
0
  6
CONTINUOUS
 62
     7
 10
2019.358099354144
 20
2679.561412458842
 30
0.0
 11
2018.558099354144
 21
2679.561412458842
 31
0.0
  0
LINE
  5
20B
  8
0
  6
CONTINUOUS
 62
     7
 10
2019.358099354144
 20
2680.724018582616
 30
0.0
 11
2018.558099354144
 21
2680.724018582616
 31
0.0
  0
LINE
  5
20C
  8
0
  6
CONTINUOUS
 62
     7
 10
2019.358099354144
 20
2679.144643936967
 30
0.0
 11
2018.558099354144
 21
2679.144643936967
 31
0.0
  0
LINE
  5
20D
  8
0
  6
CONTINUOUS
 62
     7
 10
2018.558099354144
 20
2679.561412458842
 30
0.0
 11
2018.558099354144
 21
2679.144643936967
 31
0.0
  0
LINE
  5
20E
  8
0
  6
CONTINUOUS
 62
     7
 10
2018.358099354144
 20
2679.427422024738
 30
0.0
 11
2018.358099354144
 21
2679.594685628212
 31
0.0
  0
POLYLINE
  5
20F
  8
0
  6
CONTINUOUS
 62
     7
 66
     1
 10
0.0
 20
0.0
 30
0.0
  0
VERTEX
  5
4E5
  8
0
  6
CONTINUOUS
 62
     7
 10
2018.358099354144
 20
2679.427422024737
 30
0.0
  0
VERTEX
  5
4E6
  8
0
  6
CONTINUOUS
 62
     7
 10
2018.358116790906
 20
2679.421070564822
 30
0.0
  0
VERTEX
  5
4E7
  8
0
  6
CONTINUOUS
 62
     7
 10
2018.35817258867
 20
2679.414742503498
 30
0.0
  0
VERTEX
  5
4E8
  8
0
  6
CONTINUOUS
 62
     7
 10
2018.35827119026
 20
2679.408439824929
 30
0.0
  0
VERTEX
  5
4E9
  8
0
  6
CONTINUOUS
 62
     7
 10
2018.358415626468
 20
2679.402163621794
 30
0.0
  0
VERTEX
  5
4EA
  8
0
  6
CONTINUOUS
 62
     7
 10
2018.358608928091
 20
2679.395914986769
 30
0.0
  0
VERTEX
  5
4EB
  8
0
  6
CONTINUOUS
 62
     7
 10
2018.358854125921
 20
2679.389695012531
 30
0.0
  0
VERTEX
  5
4EC
  8
0
  6
CONTINUOUS
 62
     7
 10
2018.359154250753
 20
2679.383504791756
 30
0.0
  0
VERTEX
  5
4ED
  8
0
  6
CONTINUOUS
 62
     7
 10
2018.359512333379
 20
2679.377345417121
 30
0.0
  0
VERTEX
  5
4EE
  8
0
  6
CONTINUOUS
 62
     7
 10
2018.359931404593
 20
2679.371217981301
 30
0.0
  0
VERTEX
  5
4EF
  8
0
  6
CONTINUOUS
 62
     7
 10
2018.360414495191
 20
2679.365123576973
 30
0.0
  0
VERTEX
  5
4F0
  8
0
  6
CONTINUOUS
 62
     7
 10
2018.360964635965
 20
2679.359063296815
 30
0.0
  0
VERTEX
  5
4F1
  8
0
  6
CONTINUOUS
 62
     7
 10
2018.361584857709
 20
2679.353038233502
 30
0.0
  0
VERTEX
  5
4F2
  8
0
  6
CONTINUOUS
 62
     7
 10
2018.362278191217
 20
2679.34704947971
 30
0.0
  0
VERTEX
  5
4F3
  8
0
  6
CONTINUOUS
 62
     7
 10
2018.363047667282
 20
2679.341098128117
 30
0.0
  0
VERTEX
  5
4F4
  8
0
  6
CONTINUOUS
 62
     7
 10
2018.3638963167
 20
2679.335185271399
 30
0.0
  0
VERTEX
  5
4F5
  8
0
  6
CONTINUOUS
 62
     7
 10
2018.364827170262
 20
2679.329312002231
 30
0.0
  0
VERTEX
  5
4F6
  8
0
  6
CONTINUOUS
 62
     7
 10
2018.365843258764
 20
2679.323479413291
 30
0.0
  0
VERTEX
  5
4F7
  8
0
  6
CONTINUOUS
 62
     7
 10
2018.366947612999
 20
2679.317688597256
 30
0.0
  0
VERTEX
  5
4F8
  8
0
  6
CONTINUOUS
 62
     7
 10
2018.368143263761
 20
2679.3119406468
 30
0.0
  0
VERTEX
  5
4F9
  8
0
  6
CONTINUOUS
 62
     7
 10
2018.369433241843
 20
2679.306236654602
 30
0.0
  0
VERTEX
  5
4FA
  8
0
  6
CONTINUOUS
 62
     7
 10
2018.37082057804
 20
2679.300577713338
 30
0.0
  0
VERTEX
  5
4FB
  8
0
  6
CONTINUOUS
 62
     7
 10
2018.372308303145
 20
2679.294964915683
 30
0.0
  0
VERTEX
  5
4FC
  8
0
  6
CONTINUOUS
 62
     7
 10
2018.373899447952
 20
2679.289399354314
 30
0.0
  0
VERTEX
  5
4FD
  8
0
  6
CONTINUOUS
 62
     7
 10
2018.375597043255
 20
2679.283882121909
 30
0.0
  0
VERTEX
  5
4FE
  8
0
  6
CONTINUOUS
 62
     7
 10
2018.377404132405
 20
2679.27841437089
 30
0.0
  0
VERTEX
  5
4FF
  8
0
  6
CONTINUOUS
 62
     7
 10
2018.379323981313
 20
2679.27299831269
 30
0.0
  0
VERTEX
  5
500
  8
0
  6
CONTINUOUS
 62
     7
 10
2018.381360046894
 20
2679.26763706758
 30
0.0
  0
VERTEX
  5
501
  8
0
  6
CONTINUOUS
 62
     7
 10
2018.38351579226
 20
2679.262333785322
 30
0.0
  0
VERTEX
  5
502
  8
0
  6
CONTINUOUS
 62
     7
 10
2018.385794680524
 20
2679.257091615676
 30
0.0
  0
VERTEX
  5
503
  8
0
  6
CONTINUOUS
 62
     7
 10
2018.388200174797
 20
2679.251913708407
 30
0.0
  0
VERTEX
  5
504
  8
0
  6
CONTINUOUS
 62
     7
 10
2018.390735738192
 20
2679.246803213275
 30
0.0
  0
VERTEX
  5
505
  8
0
  6
CONTINUOUS
 62
     7
 10
2018.393404833822
 20
2679.241763280043
 30
0.0
  0
VERTEX
  5
506
  8
0
  6
CONTINUOUS
 62
     7
 10
2018.396210924798
 20
2679.236797058471
 30
0.0
  0
VERTEX
  5
507
  8
0
  6
CONTINUOUS
 62
     7
 10
2018.399157474234
 20
2679.231907698324
 30
0.0
  0
VERTEX
  5
508
  8
0
  6
CONTINUOUS
 62
     7
 10
2018.40224794524
 20
2679.227098349363
 30
0.0
  0
VERTEX
  5
509
  8
0
  6
CONTINUOUS
 62
     7
 10
2018.40548580093
 20
2679.22237216135
 30
0.0
  0
VERTEX
  5
50A
  8
0
  6
CONTINUOUS
 62
     7
 10
2018.408874504416
 20
2679.217732284045
 30
0.0
  0
VERTEX
  5
50B
  8
0
  6
CONTINUOUS
 62
     7
 10
2018.41241751881
 20
2679.213181867214
 30
0.0
  0
VERTEX
  5
50C
  8
0
  6
CONTINUOUS
 62
     7
 10
2018.416118305617
 20
2679.208724061494
 30
0.0
  0
VERTEX
  5
50D
  8
0
  6
CONTINUOUS
 62
     7
 10
2018.419979631489
 20
2679.204362396868
 30
0.0
  0
VERTEX
  5
50E
  8
0
  6
CONTINUOUS
 62
     7
 10
2018.424002486349
 20
2679.200101373292
 30
0.0
  0
VERTEX
  5
50F
  8
0
  6
CONTINUOUS
 62
     7
 10
2018.428187580197
 20
2679.195945643544
 30
0.0
  0
VERTEX
  5
510
  8
0
  6
CONTINUOUS
 62
     7
 10
2018.43253562303
 20
2679.191899860401
 30
0.0
  0
VERTEX
  5
511
  8
0
  6
CONTINUOUS
 62
     7
 10
2018.437047324847
 20
2679.187968676642
 30
0.0
  0
VERTEX
  5
512
  8
0
  6
CONTINUOUS
 62
     7
 10
2018.441723395644
 20
2679.184156745044
 30
0.0
  0
VERTEX
  5
513
  8
0
  6
CONTINUOUS
 62
     7
 10
2018.44656454542
 20
2679.180468718382
 30
0.0
  0
VERTEX
  5
514
  8
0
  6
CONTINUOUS
 62
     7
 10
2018.451571484171
 20
2679.176909249437
 30
0.0
  0
VERTEX
  5
515
  8
0
  6
CONTINUOUS
 62
     7
 10
2018.456744921898
 20
2679.173482990985
 30
0.0
  0
VERTEX
  5
516
  8
0
  6
CONTINUOUS
 62
     7
 10
2018.462085568591
 20
2679.170194595813
 30
0.0
  0
VERTEX
  5
517
  8
0
  6
CONTINUOUS
 62
     7
 10
2018.46759291074
 20
2679.167051226092
 30
0.0
  0
VERTEX
  5
518
  8
0
  6
CONTINUOUS
 62
     7
 10
2018.473261768396
 20
2679.164069614751
 30
0.0
  0
VERTEX
  5
519
  8
0
  6
CONTINUOUS
 62
     7
 10
2018.479085849281
 20
2679.161268776092
 30
0.0
  0
VERTEX
  5
51A
  8
0
  6
CONTINUOUS
 62
     7
 10
2018.485058861114
 20
2679.158667724418
 30
0.0
  0
VERTEX
  5
51B
  8
0
  6
CONTINUOUS
 62
     7
 10
2018.491174511613
 20
2679.15628547403
 30
0.0
  0
VERTEX
  5
51C
  8
0
  6
CONTINUOUS
 62
     7
 10
2018.497426508499
 20
2679.154141039231
 30
0.0
  0
VERTEX
  5
51D
  8
0
  6
CONTINUOUS
 62
     7
 10
2018.503808559492
 20
2679.152253434324
 30
0.0
  0
VERTEX
  5
51E
  8
0
  6
CONTINUOUS
 62
     7
 10
2018.510314140224
 20
2679.150640320871
 30
0.0
  0
VERTEX
  5
51F
  8
0
  6
CONTINUOUS
 62
     7
 10
2018.516931913295
 20
2679.149291307051
 30
0.0
  0
VERTEX
  5
520
  8
0
  6
CONTINUOUS
 62
     7
 10
2018.523646003009
 20
2679.148169549022
 30
0.0
  0
VERTEX
  5
521
  8
0
  6
CONTINUOUS
 62
     7
 10
2018.530440356593
 20
2679.14723717082
 30
0.0
  0
VERTEX
  5
522
  8
0
  6
CONTINUOUS
 62
     7
 10
2018.537298921272
 20
2679.146456296478
 30
0.0
  0
VERTEX
  5
523
  8
0
  6
CONTINUOUS
 62
     7
 10
2018.544205644273
 20
2679.145789050032
 30
0.0
  0
VERTEX
  5
524
  8
0
  6
CONTINUOUS
 62
     7
 10
2018.551144472822
 20
2679.145197555517
 30
0.0
  0
VERTEX
  5
525
  8
0
  6
CONTINUOUS
 62
     7
 10
2018.558099354144
 20
2679.144643936967
 30
0.0
  0
SEQEND
  5
52F
  8
0
  6
CONTINUOUS
 62
     7
  0
ARC
  5
210
  8
0
  6
CONTINUOUS
 62
     7
 10
2018.557724088613
 20
2681.365582464115
 30
0.0
 40
0.1996250898587184
 50
89.8922923777552
 51
179.8918858977568
  0
LINE
  5
211
  8
0
  6
CONTINUOUS
 62
     7
 10
2018.558099354144
 20
2681.565207201251
 30
0.0
 11
2018.558099354144
 21
2680.724018582616
 31
0.0
  0
LINE
  5
212
  8
0
  6
CONTINUOUS
 62
     7
 10
2018.358099354144
 20
2680.524770527231
 30
0.0
 11
2018.358099354144
 21
2681.365959145866
 31
0.0
  0
LINE
  5
213
  8
0
  6
CONTINUOUS
 62
     7
 10
2019.358099354144
 20
2681.565207201251
 30
0.0
 11
2018.558099354144
 21
2681.565207201251
 31
0.0
  0
LINE
  5
214
  8
0
  6
CONTINUOUS
 62
     7
 10
2018.358099354144
 20
2682.561447478176
 30
0.0
 11
2018.558099354144
 21
2682.561447478176
 31
0.0
  0
LINE
  5
215
  8
0
  6
CONTINUOUS
 62
     7
 10
2018.558099354144
 20
2682.561447478176
 30
0.0
 11
2018.558099354144
 21
2681.565207201251
 31
0.0
  0
LINE
  5
216
  8
0
  6
CONTINUOUS
 62
     7
 10
2018.358099354144
 20
2681.365959145866
 30
0.0
 11
2018.358099354144
 21
2682.561447478176
 31
0.0
  0
LINE
  5
217
  8
0
  6
CONTINUOUS
 62
     7
 10
2018.558099354144
 20
2682.561447478176
 30
0.0
 11
2019.358099354144
 21
2682.561447478176
 31
0.0
  0
LINE
  5
218
  8
0
  6
CONTINUOUS
 62
     7
 10
2018.358099354144
 20
2692.944633708195
 30
0.0
 11
2018.558099354144
 21
2692.944633708195
 31
0.0
  0
LINE
  5
219
  8
0
  6
CONTINUOUS
 62
     7
 10
2018.558099354144
 20
2692.944633708195
 30
0.0
 11
2018.558099354144
 21
2682.561447478176
 31
0.0
  0
LINE
  5
21A
  8
0
  6
CONTINUOUS
 62
     7
 10
2018.358099354144
 20
2682.561447478176
 30
0.0
 11
2018.358099354144
 21
2692.944633708195
 31
0.0
  0
LINE
  5
21B
  8
0
  6
CONTINUOUS
 62
     7
 10
2019.358099354144
 20
2692.944633708195
 30
0.0
 11
2018.558099354144
 21
2692.944633708195
 31
0.0
  0
LINE
  5
21C
  8
0
  6
CONTINUOUS
 62
     7
 10
2018.558099354144
 20
2693.944633708195
 30
0.0
 11
2018.558099354144
 21
2692.944633708195
 31
0.0
  0
ARC
  5
21D
  8
0
  6
CONTINUOUS
 62
     7
 10
2018.558099354144
 20
2693.744633708196
 30
0.0
 40
0.2000000000000455
 50
90.0
 51
179.9999999999842
  0
LINE
  5
21E
  8
0
  6
CONTINUOUS
 62
     7
 10
2018.358099354144
 20
2692.944633708195
 30
0.0
 11
2018.358099354144
 21
2693.744633708196
 31
0.0
  0
LINE
  5
21F
  8
0
  6
CONTINUOUS
 62
     7
 10
2248.858099354145
 20
2695.444633708184
 30
0.0
 11
1785.358099354145
 21
2695.444633708184
 31
0.0
  0
LINE
  5
220
  8
0
  6
CONTINUOUS
 62
     7
 10
2248.858099354145
 20
2973.944633708184
 30
0.0
 11
1785.358099354145
 21
2973.944633708184
 31
0.0
  0
LINE
  5
221
  8
0
  6
CONTINUOUS
 62
     7
 10
2248.858099354145
 20
2973.944633708184
 30
0.0
 11
2248.858099354145
 21
2695.444633708184
 31
0.0
  0
LINE
  5
222
  8
0
  6
CONTINUOUS
 62
     7
 10
2248.858099354145
 20
2694.444633708184
 30
0.0
 11
2248.858099354145
 21
2695.444633708184
 31
0.0
  0
LINE
  5
223
  8
0
  6
CONTINUOUS
 62
     7
 10
2248.858099354145
 20
2694.444633708184
 30
0.0
 11
1785.358099354145
 21
2694.444633708184
 31
0.0
  0
LINE
  5
224
  8
0
  6
CONTINUOUS
 62
     7
 10
2248.858099354145
 20
2693.944633708184
 30
0.0
 11
1785.358099354145
 21
2693.944633708184
 31
0.0
  0
LINE
  5
225
  8
0
  6
CONTINUOUS
 62
     7
 10
2248.858099354145
 20
2694.944633708187
 30
0.0
 11
2266.358099354145
 21
2694.944633708187
 31
0.0
  0
LINE
  5
226
  8
0
  6
CONTINUOUS
 62
     7
 10
2248.858099354145
 20
2973.944633708187
 30
0.0
 11
2248.858099354145
 21
2694.944633708187
 31
0.0
  0
LINE
  5
227
  8
0
  6
CONTINUOUS
 62
     7
 10
2266.358099354145
 20
2973.944633708187
 30
0.0
 11
2248.858099354145
 21
2973.944633708187
 31
0.0
  0
LINE
  5
228
  8
0
  6
CONTINUOUS
 62
     7
 10
2266.358099354145
 20
2694.944633708187
 30
0.0
 11
2266.358099354145
 21
2973.944633708187
 31
0.0
  0
LINE
  5
229
  8
0
  6
CONTINUOUS
 62
     7
 10
1767.858099354145
 20
2693.94463370819
 30
0.0
 11
1785.358099354145
 21
2693.94463370819
 31
0.0
  0
LINE
  5
22A
  8
0
  6
CONTINUOUS
 62
     7
 10
1767.858099354145
 20
2693.94463370819
 30
0.0
 11
1767.858099354145
 21
2694.94463370819
 31
0.0
  0
LINE
  5
22B
  8
0
  6
CONTINUOUS
 62
     7
 10
1785.358099354145
 20
2693.94463370819
 30
0.0
 11
1785.358099354145
 21
2694.94463370819
 31
0.0
  0
LINE
  5
22C
  8
0
  6
CONTINUOUS
 62
     7
 10
1785.358099354145
 20
2694.94463370819
 30
0.0
 11
1767.858099354145
 21
2694.94463370819
 31
0.0
  0
LINE
  5
22D
  8
0
  6
CONTINUOUS
 62
     7
 10
2266.358099354145
 20
2693.944633708187
 30
0.0
 11
2266.358099354145
 21
2694.944633708187
 31
0.0
  0
LINE
  5
22E
  8
0
  6
CONTINUOUS
 62
     7
 10
2248.858099354145
 20
2693.944633708187
 30
0.0
 11
2248.858099354145
 21
2694.944633708187
 31
0.0
  0
LINE
  5
22F
  8
0
  6
CONTINUOUS
 62
     7
 10
2248.858099354145
 20
2693.944633708187
 30
0.0
 11
2266.358099354145
 21
2693.944633708187
 31
0.0
  0
LINE
  5
230
  8
0
  6
CONTINUOUS
 62
     7
 10
1785.358099354145
 20
2973.94463370819
 30
0.0
 11
1785.358099354145
 21
2694.94463370819
 31
0.0
  0
LINE
  5
231
  8
0
  6
CONTINUOUS
 62
     7
 10
1767.858099354145
 20
2973.94463370819
 30
0.0
 11
1785.358099354145
 21
2973.94463370819
 31
0.0
  0
LINE
  5
232
  8
0
  6
CONTINUOUS
 62
     7
 10
1767.858099354145
 20
2694.94463370819
 30
0.0
 11
1767.858099354145
 21
2973.94463370819
 31
0.0
  0
LINE
  5
233
  8
0
  6
CONTINUOUS
 62
     7
 10
4051.069605638252
 20
1055.718990347166
 30
0.0
 11
4514.569605638251
 21
1055.718990347166
 31
0.0
  0
LINE
  5
234
  8
0
  6
CONTINUOUS
 62
     7
 10
4051.069605638252
 20
1005.718990347166
 30
0.0
 11
4514.569605638251
 21
1005.718990347166
 31
0.0
  0
LINE
  5
235
  8
0
  6
CONTINUOUS
 62
     7
 10
4051.069605638252
 20
1888.718990347161
 30
0.0
 11
4514.569605638251
 21
1888.718990347161
 31
0.0
  0
LINE
  5
236
  8
0
  6
CONTINUOUS
 62
     7
 10
4514.569605638251
 20
1886.218990347161
 30
0.0
 11
4514.569605638251
 21
1888.718990347161
 31
0.0
  0
LINE
  5
237
  8
0
  6
CONTINUOUS
 62
     7
 10
4051.069605638252
 20
1886.218990347161
 30
0.0
 11
4051.069605638252
 21
1888.718990347161
 31
0.0
  0
LINE
  5
238
  8
0
  6
CONTINUOUS
 62
     7
 10
4051.069605638252
 20
1886.218990347161
 30
0.0
 11
4514.569605638251
 21
1886.218990347161
 31
0.0
  0
LINE
  5
239
  8
0
  6
CONTINUOUS
 62
     7
 10
4051.069605638252
 20
1903.218990347161
 30
0.0
 11
4514.569605638251
 21
1903.218990347161
 31
0.0
  0
LINE
  5
23A
  8
0
  6
CONTINUOUS
 62
     7
 10
4514.569605638251
 20
1900.718990347161
 30
0.0
 11
4514.569605638251
 21
1903.218990347161
 31
0.0
  0
LINE
  5
23B
  8
0
  6
CONTINUOUS
 62
     7
 10
4051.069605638252
 20
1900.718990347161
 30
0.0
 11
4051.069605638252
 21
1903.218990347161
 31
0.0
  0
LINE
  5
23C
  8
0
  6
CONTINUOUS
 62
     7
 10
4051.069605638252
 20
1900.718990347161
 30
0.0
 11
4514.569605638251
 21
1900.718990347161
 31
0.0
  0
LINE
  5
23D
  8
0
  6
CONTINUOUS
 62
     7
 10
4514.569605638251
 20
1900.718990347161
 30
0.0
 11
4514.569605638251
 21
1888.718990347161
 31
0.0
  0
LINE
  5
23E
  8
0
  6
CONTINUOUS
 62
     7
 10
4051.069605638252
 20
1900.718990347161
 30
0.0
 11
4051.069605638252
 21
1888.718990347161
 31
0.0
  0
LINE
  5
23F
  8
0
  6
CONTINUOUS
 62
     7
 10
4529.569605638251
 20
1005.218990347168
 30
0.0
 11
4532.069605638251
 21
1005.218990347168
 31
0.0
  0
LINE
  5
240
  8
0
  6
CONTINUOUS
 62
     7
 10
4529.569605638251
 20
1903.218990347161
 30
0.0
 11
4529.569605638251
 21
1005.218990347168
 31
0.0
  0
LINE
  5
241
  8
0
  6
CONTINUOUS
 62
     7
 10
4532.069605638251
 20
1903.218990347161
 30
0.0
 11
4529.569605638251
 21
1903.218990347161
 31
0.0
  0
LINE
  5
242
  8
0
  6
CONTINUOUS
 62
     7
 10
4532.069605638251
 20
1005.218990347168
 30
0.0
 11
4532.069605638251
 21
1903.218990347161
 31
0.0
  0
LINE
  5
243
  8
0
  6
CONTINUOUS
 62
     7
 10
4036.069605638252
 20
1902.71899034715
 30
0.0
 11
4033.569605638252
 21
1902.71899034715
 31
0.0
  0
LINE
  5
244
  8
0
  6
CONTINUOUS
 62
     7
 10
4033.569605638252
 20
1902.71899034715
 30
0.0
 11
4033.569605638252
 21
1004.718990347157
 31
0.0
  0
LINE
  5
245
  8
0
  6
CONTINUOUS
 62
     7
 10
4036.069605638252
 20
1004.718990347157
 30
0.0
 11
4036.069605638252
 21
1902.71899034715
 31
0.0
  0
LINE
  5
246
  8
0
  6
CONTINUOUS
 62
     7
 10
4033.569605638252
 20
1004.718990347157
 30
0.0
 11
4036.069605638252
 21
1004.718990347157
 31
0.0
  0
LINE
  5
247
  8
0
  6
CONTINUOUS
 62
     7
 10
4514.569605638251
 20
1005.218990347168
 30
0.0
 11
4517.069605638252
 21
1005.218990347168
 31
0.0
  0
LINE
  5
248
  8
0
  6
CONTINUOUS
 62
     7
 10
4514.569605638251
 20
1903.218990347161
 30
0.0
 11
4514.569605638251
 21
1005.218990347168
 31
0.0
  0
LINE
  5
249
  8
0
  6
CONTINUOUS
 62
     7
 10
4517.069605638251
 20
1903.218990347161
 30
0.0
 11
4514.569605638251
 21
1903.218990347161
 31
0.0
  0
LINE
  5
24A
  8
0
  6
CONTINUOUS
 62
     7
 10
4517.069605638252
 20
1005.218990347168
 30
0.0
 11
4517.069605638251
 21
1903.218990347161
 31
0.0
  0
LINE
  5
24B
  8
0
  6
CONTINUOUS
 62
     7
 10
4051.069605638252
 20
1902.71899034715
 30
0.0
 11
4048.569605638251
 21
1902.71899034715
 31
0.0
  0
LINE
  5
24C
  8
0
  6
CONTINUOUS
 62
     7
 10
4048.569605638251
 20
1902.71899034715
 30
0.0
 11
4048.569605638251
 21
1004.718990347157
 31
0.0
  0
LINE
  5
24D
  8
0
  6
CONTINUOUS
 62
     7
 10
4051.069605638252
 20
1004.718990347157
 30
0.0
 11
4051.069605638252
 21
1902.71899034715
 31
0.0
  0
LINE
  5
24E
  8
0
  6
CONTINUOUS
 62
     7
 10
4048.569605638251
 20
1004.718990347157
 30
0.0
 11
4051.069605638252
 21
1004.718990347157
 31
0.0
  0
LINE
  5
24F
  8
0
  6
CONTINUOUS
 62
     7
 10
4048.569605638251
 20
1835.718990347151
 30
0.0
 11
4036.069605638252
 21
1835.718990347151
 31
0.0
  0
LINE
  5
250
  8
0
  6
CONTINUOUS
 62
     7
 10
4036.069605638252
 20
1902.71899034715
 30
0.0
 11
4036.069605638252
 21
1835.718990347151
 31
0.0
  0
LINE
  5
251
  8
0
  6
CONTINUOUS
 62
     7
 10
4048.569605638251
 20
1902.71899034715
 30
0.0
 11
4036.069605638252
 21
1902.71899034715
 31
0.0
  0
LINE
  5
252
  8
0
  6
CONTINUOUS
 62
     7
 10
4048.569605638251
 20
1902.71899034715
 30
0.0
 11
4048.569605638251
 21
1835.718990347151
 31
0.0
  0
LINE
  5
253
  8
0
  6
CONTINUOUS
 62
     7
 10
4517.069605638252
 20
1072.218990347168
 30
0.0
 11
4529.569605638251
 21
1072.218990347168
 31
0.0
  0
LINE
  5
254
  8
0
  6
CONTINUOUS
 62
     7
 10
4529.569605638251
 20
1005.218990347168
 30
0.0
 11
4529.569605638251
 21
1072.218990347168
 31
0.0
  0
LINE
  5
255
  8
0
  6
CONTINUOUS
 62
     7
 10
4517.069605638251
 20
1005.218990347168
 30
0.0
 11
4529.569605638251
 21
1005.218990347168
 31
0.0
  0
LINE
  5
256
  8
0
  6
CONTINUOUS
 62
     7
 10
4517.069605638251
 20
1005.218990347168
 30
0.0
 11
4517.069605638252
 21
1072.218990347168
 31
0.0
  0
LINE
  5
257
  8
0
  6
CONTINUOUS
 62
     7
 10
4529.569605638251
 20
1836.218990347161
 30
0.0
 11
4529.569605638251
 21
1072.218990347168
 31
0.0
  0
LINE
  5
258
  8
0
  6
CONTINUOUS
 62
     7
 10
4517.069605638251
 20
1836.218990347161
 30
0.0
 11
4517.069605638252
 21
1072.218990347168
 31
0.0
  0
LINE
  5
259
  8
0
  6
CONTINUOUS
 62
     7
 10
4517.069605638251
 20
1836.218990347161
 30
0.0
 11
4529.569605638251
 21
1836.218990347161
 31
0.0
  0
LINE
  5
25A
  8
0
  6
CONTINUOUS
 62
     7
 10
4036.069605638252
 20
1071.718990347157
 30
0.0
 11
4036.069605638252
 21
1835.718990347151
 31
0.0
  0
LINE
  5
25B
  8
0
  6
CONTINUOUS
 62
     7
 10
4048.569605638251
 20
1071.718990347157
 30
0.0
 11
4036.069605638252
 21
1071.718990347157
 31
0.0
  0
LINE
  5
25C
  8
0
  6
CONTINUOUS
 62
     7
 10
4048.569605638251
 20
1071.718990347157
 30
0.0
 11
4048.569605638251
 21
1835.718990347151
 31
0.0
  0
LINE
  5
25D
  8
0
  6
CONTINUOUS
 62
     7
 10
4048.569605638251
 20
1004.718990347157
 30
0.0
 11
4036.069605638252
 21
1004.718990347157
 31
0.0
  0
LINE
  5
25E
  8
0
  6
CONTINUOUS
 62
     7
 10
4036.069605638252
 20
1071.718990347157
 30
0.0
 11
4036.069605638252
 21
1004.718990347157
 31
0.0
  0
LINE
  5
25F
  8
0
  6
CONTINUOUS
 62
     7
 10
4048.569605638251
 20
1071.718990347157
 30
0.0
 11
4048.569605638251
 21
1004.718990347157
 31
0.0
  0
LINE
  5
260
  8
0
  6
CONTINUOUS
 62
     7
 10
4517.069605638251
 20
1836.218990347161
 30
0.0
 11
4517.069605638251
 21
1903.218990347161
 31
0.0
  0
LINE
  5
261
  8
0
  6
CONTINUOUS
 62
     7
 10
4517.069605638251
 20
1903.218990347161
 30
0.0
 11
4529.569605638251
 21
1903.218990347161
 31
0.0
  0
LINE
  5
262
  8
0
  6
CONTINUOUS
 62
     7
 10
4529.569605638251
 20
1836.218990347161
 30
0.0
 11
4529.569605638251
 21
1903.218990347161
 31
0.0
  0
LINE
  5
263
  8
0
  6
CONTINUOUS
 62
     7
 10
4514.569605638251
 20
1004.718990347168
 30
0.0
 11
4514.569605638251
 21
1005.218990347168
 31
0.0
  0
LINE
  5
264
  8
0
  6
CONTINUOUS
 62
     7
 10
4532.069605638251
 20
1004.718990347168
 30
0.0
 11
4514.569605638251
 21
1004.718990347168
 31
0.0
  0
LINE
  5
265
  8
0
  6
CONTINUOUS
 62
     7
 10
4532.069605638251
 20
1005.218990347168
 30
0.0
 11
4514.569605638251
 21
1005.218990347168
 31
0.0
  0
LINE
  5
266
  8
0
  6
CONTINUOUS
 62
     7
 10
4532.069605638251
 20
1004.718990347168
 30
0.0
 11
4532.069605638251
 21
1005.218990347168
 31
0.0
  0
LINE
  5
267
  8
0
  6
CONTINUOUS
 62
     7
 10
4033.569605638252
 20
1903.21899034715
 30
0.0
 11
4033.569605638252
 21
1902.71899034715
 31
0.0
  0
LINE
  5
268
  8
0
  6
CONTINUOUS
 62
     7
 10
4033.569605638252
 20
1903.21899034715
 30
0.0
 11
4051.069605638252
 21
1903.21899034715
 31
0.0
  0
LINE
  5
269
  8
0
  6
CONTINUOUS
 62
     7
 10
4051.069605638252
 20
1903.21899034715
 30
0.0
 11
4051.069605638252
 21
1902.71899034715
 31
0.0
  0
LINE
  5
26A
  8
0
  6
CONTINUOUS
 62
     7
 10
4033.569605638252
 20
1902.71899034715
 30
0.0
 11
4051.069605638252
 21
1902.71899034715
 31
0.0
  0
LINE
  5
26B
  8
0
  6
CONTINUOUS
 62
     7
 10
4514.569605638251
 20
1903.218990347161
 30
0.0
 11
4532.069605638251
 21
1903.218990347161
 31
0.0
  0
LINE
  5
26C
  8
0
  6
CONTINUOUS
 62
     7
 10
4514.569605638251
 20
1903.718990347161
 30
0.0
 11
4514.569605638251
 21
1903.218990347161
 31
0.0
  0
LINE
  5
26D
  8
0
  6
CONTINUOUS
 62
     7
 10
4532.069605638251
 20
1903.718990347161
 30
0.0
 11
4514.569605638251
 21
1903.718990347161
 31
0.0
  0
LINE
  5
26E
  8
0
  6
CONTINUOUS
 62
     7
 10
4532.069605638251
 20
1903.718990347161
 30
0.0
 11
4532.069605638251
 21
1903.218990347161
 31
0.0
  0
LINE
  5
26F
  8
0
  6
CONTINUOUS
 62
     7
 10
4051.069605638252
 20
1004.218990347157
 30
0.0
 11
4051.069605638252
 21
1004.718990347157
 31
0.0
  0
LINE
  5
270
  8
0
  6
CONTINUOUS
 62
     7
 10
4033.569605638252
 20
1004.218990347157
 30
0.0
 11
4033.569605638252
 21
1004.718990347157
 31
0.0
  0
LINE
  5
271
  8
0
  6
CONTINUOUS
 62
     7
 10
4051.069605638252
 20
1004.718990347157
 30
0.0
 11
4033.569605638252
 21
1004.718990347157
 31
0.0
  0
LINE
  5
272
  8
0
  6
CONTINUOUS
 62
     7
 10
4033.569605638252
 20
1004.218990347157
 30
0.0
 11
4051.069605638252
 21
1004.218990347157
 31
0.0
  0
ENDSEC
  0
EOF
