  0
SECTION
  2
HEADER
  9
$ACADVER
  1
AC1006
  9
$DWGCODEPAGE
  3
dos932
  9
$INSBASE
 10
0.0
 20
0.0
 30
0.0
  9
$EXTMIN
 10
0.0
 20
0.0
  9
$EXTMAX
 10
5000.0
 20
3500.0
  9
$LIMMIN
 10
0.0
 20
0.0
  9
$LIMMAX
 10
5000.0
 20
3500.0
  9
$ORTHOMODE
 70
     0
  9
$REGENMODE
 70
     1
  9
$FILLMODE
 70
     1
  9
$QTEXTMODE
 70
     0
  9
$MIRRTEXT
 70
     1
  9
$DRAGMODE
 70
     2
  9
$LTSCALE
 40
1.0
  9
$OSMODE
 70
    37
  9
$ATTMODE
 70
     1
  9
$TEXTSIZE
 40
3.5
  9
$TRACEWID
 40
1.0
  9
$TEXTSTYLE
  7
STANDARD
  9
$CLAYER
  8
0
  9
$CELTYPE
  6
BYLAYER
  9
$CECOLOR
 62
   256
  9
$DIMSCALE
 40
1.0
  9
$DIMASZ
 40
3.302
  9
$DIMEXO
 40
1.0
  9
$DIMDLI
 40
3.75
  9
$DIMRND
 40
0.0
  9
$DIMDLE
 40
0.0
  9
$DIMEXE
 40
1.0
  9
$DIMTP
 40
0.0
  9
$DIMTM
 40
0.0
  9
$DIMTXT
 40
3.5
  9
$DIMCEN
 40
2.5
  9
$DIMTSZ
 40
0.0
  9
$DIMTOL
 70
     0
  9
$DIMLIM
 70
     0
  9
$DIMTIH
 70
     1
  9
$DIMTOH
 70
     1
  9
$DIMSE1
 70
     0
  9
$DIMSE2
 70
     0
  9
$DIMTAD
 70
     1
  9
$DIMZIN
 70
     0
  9
$DIMBLK
  1

  9
$DIMASO
 70
     1
  9
$DIMSHO
 70
     1
  9
$DIMPOST
  1

  9
$DIMAPOST
  1

  9
$DIMALT
 70
     0
  9
$DIMALTD
 70
     3
  9
$DIMALTF
 40
0.0393700787401575
  9
$DIMLFAC
 40
1.0
  9
$DIMTOFL
 70
     1
  9
$DIMTVP
 40
0.0
  9
$DIMTIX
 70
     0
  9
$DIMSOXD
 70
     0
  9
$DIMSAH
 70
     0
  9
$DIMBLK1
  1

  9
$DIMBLK2
  1

  9
$LUNITS
 70
     2
  9
$LUPREC
 70
     3
  9
$SKETCHINC
 40
1.0
  9
$FILLETRAD
 40
10.0
  9
$AUNITS
 70
     0
  9
$AUPREC
 70
     2
  9
$MENU
  1
.
  9
$ELEVATION
 40
0.0
  9
$THICKNESS
 40
0.0
  9
$LIMCHECK
 70
     0
  9
$CHAMFERA
 40
0.0
  9
$CHAMFERB
 40
0.0
  9
$SKPOLY
 70
     0
  9
$TDCREATE
 40
2459796.267688415
  9
$TDUPDATE
 40
2460139.362256956
  9
$TDINDWG
 40
0.0000000116
  9
$TDUSRTIMER
 40
0.0000000116
  9
$USRTIMER
 70
     1
  9
$ANGBASE
 50
0.0
  9
$ANGDIR
 70
     0
  9
$PDMODE
 70
     0
  9
$PDSIZE
 40
-1.0
  9
$PLINEWID
 40
0.0
  9
$COORDS
 70
     1
  9
$SPLFRAME
 70
     0
  9
$SPLINETYPE
 70
     6
  9
$SPLINESEGS
 70
     8
  9
$ATTDIA
 70
     0
  9
$ATTREQ
 70
     1
  9
$HANDLING
 70
     1
  9
$HANDSEED
  5
3C0
  9
$SURFTAB1
 70
     6
  9
$SURFTAB2
 70
     6
  9
$SURFTYPE
 70
     6
  9
$SURFU
 70
     6
  9
$SURFV
 70
     6
  9
$UCSNAME
  2

  9
$UCSORG
 10
0.0
 20
0.0
 30
0.0
  9
$UCSXDIR
 10
1.0
 20
0.0
 30
0.0
  9
$UCSYDIR
 10
0.0
 20
1.0
 30
0.0
  9
$USERI1
 70
     0
  9
$USERI2
 70
     0
  9
$USERI3
 70
     0
  9
$USERI4
 70
     0
  9
$USERI5
 70
     0
  9
$USERR1
 40
0.0
  9
$USERR2
 40
0.0
  9
$USERR3
 40
0.0
  9
$USERR4
 40
0.0
  9
$USERR5
 40
0.0
  9
$WORLDVIEW
 70
     1
  0
ENDSEC
  0
SECTION
  2
TABLES
  0
TABLE
  2
VPORT
 70
     1
  0
VPORT
  2
*ACTIVE
 70
     0
 10
0.0
 20
0.0
 11
1.0
 21
1.0
 12
2500.0
 22
1750.0
 13
0.0
 23
0.0
 14
10.0
 24
10.0
 15
10.0
 25
10.0
 16
0.0
 26
0.0
 36
1.0
 17
0.0
 27
0.0
 37
0.0
 40
3500.0
 41
1.428571428571429
 42
50.0
 43
0.0
 44
0.0
 50
0.0
 51
0.0
 71
     0
 72
  2000
 73
     1
 74
     3
 75
     0
 76
     0
 77
     0
 78
     0
  0
ENDTAB
  0
TABLE
  2
LTYPE
 70
     6
  0
LTYPE
  2
CONTINUOUS
 70
     0
  3
Solid line
 72
    65
 73
     0
 40
0.0
  0
LTYPE
  2
HIDDEN
 70
     0
  3
Hidden __ __ __ __ __ __ __ __ __ __ __ __ __ __
 72
    65
 73
     2
 40
1.905
 49
1.27
 49
-0.635
  0
LTYPE
  2
PHANTOM
 70
     0
  3
Phantom ______  __  __  ______  __  __  ______
 72
    65
 73
     6
 40
12.7
 49
6.35
 49
-1.27
 49
1.27
 49
-1.27
 49
1.27
 49
-1.27
  0
LTYPE
  2
CENTER
 70
     0
  3
Center ____ _ ____ _ ____ _ ____ _ ____ _ ____
 72
    65
 73
     4
 40
10.16
 49
6.35
 49
-1.27
 49
1.27
 49
-1.27
  0
LTYPE
  2
CENTERX2
 70
     0
  3
Center (2x) ________  __  ________  __  _____
 72
    65
 73
     4
 40
20.32
 49
12.7
 49
-2.54
 49
2.54
 49
-2.54
  0
LTYPE
  2
DOT2
 70
     0
  3
Dot (.5x) ........................................
 72
    65
 73
     2
 40
0.635
 49
0.0
 49
-0.635
  0
ENDTAB
  0
TABLE
  2
LAYER
 70
     3
  0
LAYER
  2
0
 70
     0
 62
     7
  6
CONTINUOUS
  0
LAYER
  2
SLD-0
 70
     0
 62
   179
  6
CONTINUOUS
  0
LAYER
  2
寸法
 70
     0
 62
   179
  6
CONTINUOUS
  0
ENDTAB
  0
TABLE
  2
STYLE
 70
     2
  0
STYLE
  2
STANDARD
 70
     0
 40
0.0
 41
1.0
 50
0.0
 71
     0
 42
3.5
  3
txt
  4
bigfont
  0
STYLE
  2
SLDTEXTSTYLE0
 70
     0
 40
0.0
 41
0.75
 50
0.0
 71
     0
 42
3.5
  3
TXT
  4
bigfont
  0
ENDTAB
  0
TABLE
  2
VIEW
 70
     0
  0
ENDTAB
  0
TABLE
  2
UCS
 70
     0
  0
ENDTAB
  0
ENDSEC
  0
SECTION
  2
BLOCKS
  0
ENDSEC
  0
SECTION
  2
ENTITIES
  0
LINE
  5
75
  8
0
  6
CONTINUOUS
 62
     7
 10
4839.484712179223
 20
258.5233124172521
 30
0.0
 11
3312.374599790194
 21
258.5233124172519
 31
0.0
  0
TEXT
  5
77
  8
0
  6
CONTINUOUS
 62
     7
 10
1706.521152560513
 20
3134.115941119229
 30
0.0
 40
52.91666666666666
  1
＜上面＞
 41
0.75
  7
SLDTEXTSTYLE0
  0
TEXT
  5
78
  8
0
  6
CONTINUOUS
 62
     7
 10
493.3091089290138
 20
2134.090186691168
 30
0.0
 40
52.91666666666666
  1
＜左側面＞
 41
0.75
  7
SLDTEXTSTYLE0
  0
TEXT
  5
79
  8
0
  6
CONTINUOUS
 62
     7
 10
1730.774067737716
 20
2130.593767889337
 30
0.0
 40
52.91666666666666
  1
＜正面＞
 41
0.75
  7
SLDTEXTSTYLE0
  0
TEXT
  5
7A
  8
0
  6
CONTINUOUS
 62
     7
 10
3377.814243189123
 20
326.489054196763
 30
0.0
 40
52.91666666666666
  1
品名：
 41
0.75
  7
SLDTEXTSTYLE0
  0
TEXT
  5
7B
  8
0
  6
CONTINUOUS
 62
     7
 10
4446.663437481703
 20
332.3177187478654
 30
0.0
 40
52.91666666666666
  1
Pamouna
 41
0.75
  7
SLDTEXTSTYLE0
  0
TEXT
  5
7C
  8
寸法
  6
CONTINUOUS
 62
     7
 10
4688.007304885427
 20
165.7088516276312
 30
0.0
 40
52.91666666666666
  1
1/1
 41
0.75
  7
SLDTEXTSTYLE0
  0
TEXT
  5
7D
  8
寸法
  6
CONTINUOUS
 62
     7
 10
4198.79693921183
 20
165.7088544215994
 30
0.0
 40
52.91666666666666
  1
2022/08/04
 41
0.75
  7
SLDTEXTSTYLE0
  0
TEXT
  5
7E
  8
寸法
  6
CONTINUOUS
 62
     7
 10
4017.190732011612
 20
2122.266812003092
 30
0.0
 40
52.91666666666666
  1
＜背面＞
 41
0.75
  7
SLDTEXTSTYLE0
  0
TEXT
  5
7F
  8
寸法
  6
CONTINUOUS
 62
     7
 10
3611.283129349215
 20
326.4179237671586
 30
0.0
 40
66.14583333333331
  1
MA-S501EM（-T）
 41
0.75
  7
SLDTEXTSTYLE0
  0
TEXT
  5
80
  8
寸法
  6
CONTINUOUS
 62
     7
 10
2965.851847914189
 20
2131.94141651502
 30
0.0
 40
52.91666666666666
  1
＜右側面＞
 41
0.75
  7
SLDTEXTSTYLE0
  0
ARC
  5
81
  8
0
  6
CONTINUOUS
 62
     7
 10
2029.050396852019
 20
1415.671791257021
 30
0.0
 40
0.2000000000002728
 50
180.0
 51
270.0000000000008
  0
LINE
  5
82
  8
0
  6
CONTINUOUS
 62
     7
 10
2029.050396852019
 20
1415.471791257021
 30
0.0
 11
2029.850396852019
 21
1415.47179125702
 31
0.0
  0
ARC
  5
83
  8
0
  6
CONTINUOUS
 62
     7
 10
1780.550396852019
 20
1415.671791257023
 30
0.0
 40
0.2000000000000455
 50
180.0
 51
270.0000000000008
  0
LINE
  5
84
  8
0
  6
CONTINUOUS
 62
     7
 10
1780.550396852019
 20
1415.471791257023
 30
0.0
 11
1781.350396852019
 21
1415.471791257023
 31
0.0
  0
LINE
  5
85
  8
0
  6
CONTINUOUS
 62
     7
 10
2029.850396852019
 20
1415.47179125702
 30
0.0
 11
2273.850396852019
 21
1415.47179125702
 31
0.0
  0
LINE
  5
86
  8
0
  6
CONTINUOUS
 62
     7
 10
1781.350396852019
 20
1415.471791257023
 30
0.0
 11
2025.350396852019
 21
1415.471791257023
 31
0.0
  0
ARC
  5
87
  8
0
  6
CONTINUOUS
 62
     7
 10
2026.15039685202
 20
1415.671791257023
 30
0.0
 40
0.2000000000000455
 50
270.0000000000008
 51
0.0
  0
LINE
  5
88
  8
0
  6
CONTINUOUS
 62
     7
 10
2025.350396852019
 20
1415.471791257023
 30
0.0
 11
2026.15039685202
 21
1415.471791257023
 31
0.0
  0
LINE
  5
89
  8
0
  6
CONTINUOUS
 62
     7
 10
2273.850396852019
 20
1415.47179125702
 30
0.0
 11
2274.650396852019
 21
1415.47179125702
 31
0.0
  0
ARC
  5
8A
  8
0
  6
CONTINUOUS
 62
     7
 10
2274.650396852019
 20
1415.67179125702
 30
0.0
 40
0.2000000000000455
 50
270.0000000000008
 51
0.0
  0
LINE
  5
8B
  8
0
  6
CONTINUOUS
 62
     7
 10
2026.35039685202
 20
1879.971791257022
 30
0.0
 11
2025.35039685202
 21
1879.971791257022
 31
0.0
  0
LINE
  5
8C
  8
0
  6
CONTINUOUS
 62
     7
 10
2026.35039685202
 20
1879.971791257022
 30
0.0
 11
2026.35039685202
 21
1415.971791257022
 31
0.0
  0
LINE
  5
8D
  8
0
  6
CONTINUOUS
 62
     7
 10
2026.35039685202
 20
1415.971791257022
 30
0.0
 11
2025.35039685202
 21
1415.971791257022
 31
0.0
  0
LINE
  5
8E
  8
0
  6
CONTINUOUS
 62
     7
 10
2025.35039685202
 20
1879.971791257022
 30
0.0
 11
2025.35039685202
 21
1878.971791257022
 31
0.0
  0
LINE
  5
8F
  8
0
  6
CONTINUOUS
 62
     7
 10
2025.35039685202
 20
1416.971791257022
 30
0.0
 11
2025.35039685202
 21
1415.971791257022
 31
0.0
  0
LINE
  5
90
  8
0
  6
CONTINUOUS
 62
     7
 10
2274.850396852019
 20
1879.97179125702
 30
0.0
 11
2273.850396852019
 21
1879.97179125702
 31
0.0
  0
LINE
  5
91
  8
0
  6
CONTINUOUS
 62
     7
 10
2274.850396852019
 20
1879.97179125702
 30
0.0
 11
2274.85039685202
 21
1415.97179125702
 31
0.0
  0
LINE
  5
92
  8
0
  6
CONTINUOUS
 62
     7
 10
2274.85039685202
 20
1415.97179125702
 30
0.0
 11
2273.850396852019
 21
1415.97179125702
 31
0.0
  0
LINE
  5
93
  8
0
  6
CONTINUOUS
 62
     7
 10
2273.850396852019
 20
1879.97179125702
 30
0.0
 11
2273.850396852019
 21
1878.97179125702
 31
0.0
  0
LINE
  5
94
  8
0
  6
CONTINUOUS
 62
     7
 10
2273.850396852019
 20
1416.97179125702
 30
0.0
 11
2273.850396852019
 21
1415.97179125702
 31
0.0
  0
LINE
  5
95
  8
0
  6
CONTINUOUS
 62
     7
 10
2028.85039685202
 20
1415.97179125702
 30
0.0
 11
2029.85039685202
 21
1415.97179125702
 31
0.0
  0
LINE
  5
96
  8
0
  6
CONTINUOUS
 62
     7
 10
2028.850396852019
 20
1879.97179125702
 30
0.0
 11
2029.850396852019
 21
1879.97179125702
 31
0.0
  0
LINE
  5
97
  8
0
  6
CONTINUOUS
 62
     7
 10
2029.85039685202
 20
1415.97179125702
 30
0.0
 11
2029.85039685202
 21
1416.97179125702
 31
0.0
  0
LINE
  5
98
  8
0
  6
CONTINUOUS
 62
     7
 10
2029.850396852019
 20
1878.97179125702
 30
0.0
 11
2029.850396852019
 21
1879.97179125702
 31
0.0
  0
LINE
  5
99
  8
0
  6
CONTINUOUS
 62
     7
 10
2028.85039685202
 20
1415.97179125702
 30
0.0
 11
2028.850396852019
 21
1879.97179125702
 31
0.0
  0
LINE
  5
9A
  8
0
  6
CONTINUOUS
 62
     7
 10
1780.35039685202
 20
1415.971791257022
 30
0.0
 11
1781.35039685202
 21
1415.971791257022
 31
0.0
  0
LINE
  5
9B
  8
0
  6
CONTINUOUS
 62
     7
 10
1780.35039685202
 20
1415.971791257022
 30
0.0
 11
1780.35039685202
 21
1879.971791257022
 31
0.0
  0
LINE
  5
9C
  8
0
  6
CONTINUOUS
 62
     7
 10
1780.35039685202
 20
1879.971791257022
 30
0.0
 11
1781.35039685202
 21
1879.971791257022
 31
0.0
  0
LINE
  5
9D
  8
0
  6
CONTINUOUS
 62
     7
 10
1781.35039685202
 20
1415.971791257022
 30
0.0
 11
1781.35039685202
 21
1416.971791257022
 31
0.0
  0
LINE
  5
9E
  8
0
  6
CONTINUOUS
 62
     7
 10
1781.35039685202
 20
1878.971791257022
 30
0.0
 11
1781.35039685202
 21
1879.971791257022
 31
0.0
  0
LINE
  5
9F
  8
0
  6
CONTINUOUS
 62
     7
 10
1781.35039685202
 20
1879.971791257022
 30
0.0
 11
2025.35039685202
 21
1879.971791257022
 31
0.0
  0
LINE
  5
A0
  8
0
  6
CONTINUOUS
 62
     7
 10
2029.850396852019
 20
1879.97179125702
 30
0.0
 11
2273.850396852019
 21
1879.97179125702
 31
0.0
  0
LINE
  5
A1
  8
0
  6
CONTINUOUS
 62
     7
 10
2273.850396852019
 20
1415.97179125702
 30
0.0
 11
2029.85039685202
 21
1415.97179125702
 31
0.0
  0
LINE
  5
A2
  8
0
  6
CONTINUOUS
 62
     7
 10
2025.35039685202
 20
1415.971791257022
 30
0.0
 11
1781.35039685202
 21
1415.971791257022
 31
0.0
  0
LINE
  5
A3
  8
0
  6
CONTINUOUS
 62
     7
 10
2272.850396852019
 20
1877.97179125702
 30
0.0
 11
2030.85039685202
 21
1877.97179125702
 31
0.0
  0
LINE
  5
A4
  8
0
  6
CONTINUOUS
 62
     7
 10
2029.850396852019
 20
1878.97179125702
 30
0.0
 11
2030.85039685202
 21
1877.97179125702
 31
0.0
  0
LINE
  5
A5
  8
0
  6
CONTINUOUS
 62
     7
 10
2029.850396852019
 20
1878.97179125702
 30
0.0
 11
2273.850396852019
 21
1878.97179125702
 31
0.0
  0
LINE
  5
A6
  8
0
  6
CONTINUOUS
 62
     7
 10
2272.850396852019
 20
1877.97179125702
 30
0.0
 11
2273.850396852019
 21
1878.97179125702
 31
0.0
  0
LINE
  5
A7
  8
0
  6
CONTINUOUS
 62
     7
 10
2030.85039685202
 20
1417.97179125702
 30
0.0
 11
2272.850396852019
 21
1417.97179125702
 31
0.0
  0
LINE
  5
A8
  8
0
  6
CONTINUOUS
 62
     7
 10
2272.850396852019
 20
1417.97179125702
 30
0.0
 11
2273.850396852019
 21
1416.97179125702
 31
0.0
  0
LINE
  5
A9
  8
0
  6
CONTINUOUS
 62
     7
 10
2273.850396852019
 20
1416.97179125702
 30
0.0
 11
2029.850396852019
 21
1416.97179125702
 31
0.0
  0
LINE
  5
AA
  8
0
  6
CONTINUOUS
 62
     7
 10
2029.850396852019
 20
1416.97179125702
 30
0.0
 11
2030.85039685202
 21
1417.97179125702
 31
0.0
  0
LINE
  5
AB
  8
0
  6
CONTINUOUS
 62
     7
 10
2272.850396852019
 20
1417.97179125702
 30
0.0
 11
2272.850396852019
 21
1877.97179125702
 31
0.0
  0
LINE
  5
AC
  8
0
  6
CONTINUOUS
 62
     7
 10
2273.850396852019
 20
1878.97179125702
 30
0.0
 11
2273.850396852019
 21
1416.97179125702
 31
0.0
  0
LINE
  5
AD
  8
0
  6
CONTINUOUS
 62
     7
 10
2030.85039685202
 20
1877.97179125702
 30
0.0
 11
2030.85039685202
 21
1417.97179125702
 31
0.0
  0
LINE
  5
AE
  8
0
  6
CONTINUOUS
 62
     7
 10
2029.850396852019
 20
1416.97179125702
 30
0.0
 11
2029.850396852019
 21
1878.97179125702
 31
0.0
  0
LINE
  5
AF
  8
0
  6
CONTINUOUS
 62
     7
 10
2024.35039685202
 20
1417.971791257022
 30
0.0
 11
2024.35039685202
 21
1877.971791257022
 31
0.0
  0
LINE
  5
B0
  8
0
  6
CONTINUOUS
 62
     7
 10
2024.35039685202
 20
1877.971791257022
 30
0.0
 11
2025.35039685202
 21
1878.971791257022
 31
0.0
  0
LINE
  5
B1
  8
0
  6
CONTINUOUS
 62
     7
 10
2025.35039685202
 20
1878.971791257022
 30
0.0
 11
2025.35039685202
 21
1416.971791257022
 31
0.0
  0
LINE
  5
B2
  8
0
  6
CONTINUOUS
 62
     7
 10
2024.35039685202
 20
1417.971791257022
 30
0.0
 11
2025.35039685202
 21
1416.971791257022
 31
0.0
  0
LINE
  5
B3
  8
0
  6
CONTINUOUS
 62
     7
 10
1781.35039685202
 20
1416.971791257022
 30
0.0
 11
1781.35039685202
 21
1878.971791257022
 31
0.0
  0
LINE
  5
B4
  8
0
  6
CONTINUOUS
 62
     7
 10
1781.35039685202
 20
1878.971791257022
 30
0.0
 11
1782.35039685202
 21
1877.971791257022
 31
0.0
  0
LINE
  5
B5
  8
0
  6
CONTINUOUS
 62
     7
 10
1782.35039685202
 20
1877.971791257022
 30
0.0
 11
1782.35039685202
 21
1417.971791257022
 31
0.0
  0
LINE
  5
B6
  8
0
  6
CONTINUOUS
 62
     7
 10
1781.35039685202
 20
1416.971791257022
 30
0.0
 11
1782.35039685202
 21
1417.971791257022
 31
0.0
  0
LINE
  5
B7
  8
0
  6
CONTINUOUS
 62
     7
 10
1782.35039685202
 20
1417.971791257022
 30
0.0
 11
2024.35039685202
 21
1417.971791257022
 31
0.0
  0
LINE
  5
B8
  8
0
  6
CONTINUOUS
 62
     7
 10
2024.35039685202
 20
1877.971791257022
 30
0.0
 11
1782.35039685202
 21
1877.971791257022
 31
0.0
  0
LINE
  5
B9
  8
0
  6
CONTINUOUS
 62
     7
 10
2025.35039685202
 20
1416.971791257022
 30
0.0
 11
1781.35039685202
 21
1416.971791257022
 31
0.0
  0
LINE
  5
BA
  8
0
  6
CONTINUOUS
 62
     7
 10
1781.35039685202
 20
1878.971791257022
 30
0.0
 11
2025.35039685202
 21
1878.971791257022
 31
0.0
  0
LINE
  5
BB
  8
0
  6
CONTINUOUS
 62
     7
 10
2028.85039685202
 20
1637.971791257022
 30
0.0
 11
2026.35039685202
 21
1637.971791257022
 31
0.0
  0
LINE
  5
BC
  8
0
  6
CONTINUOUS
 62
     7
 10
2026.35039685202
 20
1620.971791257022
 30
0.0
 11
2028.85039685202
 21
1620.971791257022
 31
0.0
  0
LINE
  5
BD
  8
0
  6
CONTINUOUS
 62
     7
 10
2028.850396852019
 20
1415.682939978768
 30
0.0
 11
2028.850396852019
 21
1415.771791257021
 31
0.0
  0
LINE
  5
BE
  8
0
  6
CONTINUOUS
 62
     7
 10
2029.050396852019
 20
1415.971791257021
 30
0.0
 11
2029.050396852019
 21
1415.485727159205
 31
0.0
  0
ARC
  5
BF
  8
0
  6
CONTINUOUS
 62
     7
 10
2029.04901297227
 20
1415.684343416691
 30
0.0
 40
0.1986210785928617
 50
180.4048499763338
 51
270.3992079345417
  0
POLYLINE
  5
C0
  8
0
  6
CONTINUOUS
 62
     7
 66
     1
 10
0.0
 20
0.0
 30
0.0
  0
VERTEX
  5
234
  8
0
  6
CONTINUOUS
 62
     7
 10
2028.850396852019
 20
1415.771791257021
 30
0.0
  0
VERTEX
  5
235
  8
0
  6
CONTINUOUS
 62
     7
 10
2028.850414288781
 20
1415.774549189198
 30
0.0
  0
VERTEX
  5
236
  8
0
  6
CONTINUOUS
 62
     7
 10
2028.850470086545
 20
1415.777375628946
 30
0.0
  0
VERTEX
  5
237
  8
0
  6
CONTINUOUS
 62
     7
 10
2028.850568688134
 20
1415.780271416109
 30
0.0
  0
VERTEX
  5
238
  8
0
  6
CONTINUOUS
 62
     7
 10
2028.850713124344
 20
1415.783234573493
 30
0.0
  0
VERTEX
  5
239
  8
0
  6
CONTINUOUS
 62
     7
 10
2028.850906425967
 20
1415.786263123901
 30
0.0
  0
VERTEX
  5
23A
  8
0
  6
CONTINUOUS
 62
     7
 10
2028.851151623797
 20
1415.78935509014
 30
0.0
  0
VERTEX
  5
23B
  8
0
  6
CONTINUOUS
 62
     7
 10
2028.851451748628
 20
1415.792508495015
 30
0.0
  0
VERTEX
  5
23C
  8
0
  6
CONTINUOUS
 62
     7
 10
2028.851809831253
 20
1415.79572136133
 30
0.0
  0
VERTEX
  5
23D
  8
0
  6
CONTINUOUS
 62
     7
 10
2028.852228902469
 20
1415.798991711891
 30
0.0
  0
VERTEX
  5
23E
  8
0
  6
CONTINUOUS
 62
     7
 10
2028.852711993066
 20
1415.802317569502
 30
0.0
  0
VERTEX
  5
23F
  8
0
  6
CONTINUOUS
 62
     7
 10
2028.85326213384
 20
1415.805696956969
 30
0.0
  0
VERTEX
  5
240
  8
0
  6
CONTINUOUS
 62
     7
 10
2028.853882355584
 20
1415.809127897097
 30
0.0
  0
VERTEX
  5
241
  8
0
  6
CONTINUOUS
 62
     7
 10
2028.854575689091
 20
1415.812608412691
 30
0.0
  0
VERTEX
  5
242
  8
0
  6
CONTINUOUS
 62
     7
 10
2028.855345165157
 20
1415.816136526555
 30
0.0
  0
VERTEX
  5
243
  8
0
  6
CONTINUOUS
 62
     7
 10
2028.856193814575
 20
1415.819710261496
 30
0.0
  0
VERTEX
  5
244
  8
0
  6
CONTINUOUS
 62
     7
 10
2028.857124668137
 20
1415.823327640317
 30
0.0
  0
VERTEX
  5
245
  8
0
  6
CONTINUOUS
 62
     7
 10
2028.858140756639
 20
1415.826986685825
 30
0.0
  0
VERTEX
  5
246
  8
0
  6
CONTINUOUS
 62
     7
 10
2028.859245110874
 20
1415.830685420823
 30
0.0
  0
VERTEX
  5
247
  8
0
  6
CONTINUOUS
 62
     7
 10
2028.860440761636
 20
1415.834421868118
 30
0.0
  0
VERTEX
  5
248
  8
0
  6
CONTINUOUS
 62
     7
 10
2028.861730739718
 20
1415.838194050514
 30
0.0
  0
VERTEX
  5
249
  8
0
  6
CONTINUOUS
 62
     7
 10
2028.863118075915
 20
1415.841999990817
 30
0.0
  0
VERTEX
  5
24A
  8
0
  6
CONTINUOUS
 62
     7
 10
2028.86460580102
 20
1415.845837711831
 30
0.0
  0
VERTEX
  5
24B
  8
0
  6
CONTINUOUS
 62
     7
 10
2028.866196945827
 20
1415.849705236361
 30
0.0
  0
VERTEX
  5
24C
  8
0
  6
CONTINUOUS
 62
     7
 10
2028.86789454113
 20
1415.853600587212
 30
0.0
  0
VERTEX
  5
24D
  8
0
  6
CONTINUOUS
 62
     7
 10
2028.86970163028
 20
1415.857521709368
 30
0.0
  0
VERTEX
  5
24E
  8
0
  6
CONTINUOUS
 62
     7
 10
2028.871621479188
 20
1415.861465168407
 30
0.0
  0
VERTEX
  5
24F
  8
0
  6
CONTINUOUS
 62
     7
 10
2028.873657544769
 20
1415.865426346114
 30
0.0
  0
VERTEX
  5
250
  8
0
  6
CONTINUOUS
 62
     7
 10
2028.875813290135
 20
1415.869400585859
 30
0.0
  0
VERTEX
  5
251
  8
0
  6
CONTINUOUS
 62
     7
 10
2028.878092178398
 20
1415.873383231013
 30
0.0
  0
VERTEX
  5
252
  8
0
  6
CONTINUOUS
 62
     7
 10
2028.880497672671
 20
1415.877369624943
 30
0.0
  0
VERTEX
  5
253
  8
0
  6
CONTINUOUS
 62
     7
 10
2028.883033236067
 20
1415.881355111022
 30
0.0
  0
VERTEX
  5
254
  8
0
  6
CONTINUOUS
 62
     7
 10
2028.885702331697
 20
1415.885335032618
 30
0.0
  0
VERTEX
  5
255
  8
0
  6
CONTINUOUS
 62
     7
 10
2028.888508422674
 20
1415.8893047331
 30
0.0
  0
VERTEX
  5
256
  8
0
  6
CONTINUOUS
 62
     7
 10
2028.891454972109
 20
1415.893259555839
 30
0.0
  0
VERTEX
  5
257
  8
0
  6
CONTINUOUS
 62
     7
 10
2028.894545443115
 20
1415.897194844205
 30
0.0
  0
VERTEX
  5
258
  8
0
  6
CONTINUOUS
 62
     7
 10
2028.897783298806
 20
1415.901105941567
 30
0.0
  0
VERTEX
  5
259
  8
0
  6
CONTINUOUS
 62
     7
 10
2028.901172002292
 20
1415.904988191296
 30
0.0
  0
VERTEX
  5
25A
  8
0
  6
CONTINUOUS
 62
     7
 10
2028.904715016686
 20
1415.90883693676
 30
0.0
  0
VERTEX
  5
25B
  8
0
  6
CONTINUOUS
 62
     7
 10
2028.908415803493
 20
1415.912647520017
 30
0.0
  0
VERTEX
  5
25C
  8
0
  6
CONTINUOUS
 62
     7
 10
2028.912277129364
 20
1415.916414715838
 30
0.0
  0
VERTEX
  5
25D
  8
0
  6
CONTINUOUS
 62
     7
 10
2028.916299984225
 20
1415.920131848448
 30
0.0
  0
VERTEX
  5
25E
  8
0
  6
CONTINUOUS
 62
     7
 10
2028.920485078072
 20
1415.923792013539
 30
0.0
  0
VERTEX
  5
25F
  8
0
  6
CONTINUOUS
 62
     7
 10
2028.924833120906
 20
1415.9273883068
 30
0.0
  0
VERTEX
  5
260
  8
0
  6
CONTINUOUS
 62
     7
 10
2028.929344822722
 20
1415.930913823923
 30
0.0
  0
VERTEX
  5
261
  8
0
  6
CONTINUOUS
 62
     7
 10
2028.934020893519
 20
1415.934361660597
 30
0.0
  0
VERTEX
  5
262
  8
0
  6
CONTINUOUS
 62
     7
 10
2028.938862043295
 20
1415.937724912513
 30
0.0
  0
VERTEX
  5
263
  8
0
  6
CONTINUOUS
 62
     7
 10
2028.943868982047
 20
1415.940996675361
 30
0.0
  0
VERTEX
  5
264
  8
0
  6
CONTINUOUS
 62
     7
 10
2028.949042419772
 20
1415.944170044832
 30
0.0
  0
VERTEX
  5
265
  8
0
  6
CONTINUOUS
 62
     7
 10
2028.954383066466
 20
1415.947238116606
 30
0.0
  0
VERTEX
  5
266
  8
0
  6
CONTINUOUS
 62
     7
 10
2028.959890408614
 20
1415.950191434765
 30
0.0
  0
VERTEX
  5
267
  8
0
  6
CONTINUOUS
 62
     7
 10
2028.965559266271
 20
1415.953010811623
 30
0.0
  0
VERTEX
  5
268
  8
0
  6
CONTINUOUS
 62
     7
 10
2028.971383347156
 20
1415.955674739742
 30
0.0
  0
VERTEX
  5
269
  8
0
  6
CONTINUOUS
 62
     7
 10
2028.977356358989
 20
1415.958161711682
 30
0.0
  0
VERTEX
  5
26A
  8
0
  6
CONTINUOUS
 62
     7
 10
2028.983472009488
 20
1415.960450220006
 30
0.0
  0
VERTEX
  5
26B
  8
0
  6
CONTINUOUS
 62
     7
 10
2028.989724006374
 20
1415.962518757273
 30
0.0
  0
VERTEX
  5
26C
  8
0
  6
CONTINUOUS
 62
     7
 10
2028.996106057367
 20
1415.964345816047
 30
0.0
  0
VERTEX
  5
26D
  8
0
  6
CONTINUOUS
 62
     7
 10
2029.002611638099
 20
1415.965911264029
 30
0.0
  0
VERTEX
  5
26E
  8
0
  6
CONTINUOUS
 62
     7
 10
2029.00922941117
 20
1415.967223486856
 30
0.0
  0
VERTEX
  5
26F
  8
0
  6
CONTINUOUS
 62
     7
 10
2029.015943500884
 20
1415.968317760223
 30
0.0
  0
VERTEX
  5
270
  8
0
  6
CONTINUOUS
 62
     7
 10
2029.022737854468
 20
1415.969230409042
 30
0.0
  0
VERTEX
  5
271
  8
0
  6
CONTINUOUS
 62
     7
 10
2029.029596419147
 20
1415.969997758221
 30
0.0
  0
VERTEX
  5
272
  8
0
  6
CONTINUOUS
 62
     7
 10
2029.036503142148
 20
1415.970656132671
 30
0.0
  0
VERTEX
  5
273
  8
0
  6
CONTINUOUS
 62
     7
 10
2029.043441970697
 20
1415.971241857301
 30
0.0
  0
VERTEX
  5
274
  8
0
  6
CONTINUOUS
 62
     7
 10
2029.050396852019
 20
1415.971791257021
 30
0.0
  0
SEQEND
  5
3BA
  8
0
  6
CONTINUOUS
 62
     7
  0
LINE
  5
C1
  8
0
  6
CONTINUOUS
 62
     7
 10
2029.850396852019
 20
1415.485727159205
 30
0.0
 11
2029.850396852019
 21
1415.971791257021
 31
0.0
  0
LINE
  5
C2
  8
0
  6
CONTINUOUS
 62
     7
 10
2029.050396852019
 20
1415.485727159205
 30
0.0
 11
2029.850396852019
 21
1415.485727159205
 31
0.0
  0
LINE
  5
C3
  8
0
  6
CONTINUOUS
 62
     7
 10
2028.850396852019
 20
1415.671791257021
 30
0.0
 11
2028.850396852019
 21
1415.682939978768
 31
0.0
  0
LINE
  5
C4
  8
0
  6
CONTINUOUS
 62
     7
 10
2029.850396852019
 20
1415.471791257021
 30
0.0
 11
2029.850396852019
 21
1415.485727159205
 31
0.0
  0
LINE
  5
C5
  8
0
  6
CONTINUOUS
 62
     7
 10
2028.850396852019
 20
1415.771791257021
 30
0.0
 11
2028.850396852019
 21
1415.97179125702
 31
0.0
  0
LINE
  5
C6
  8
0
  6
CONTINUOUS
 62
     7
 10
1780.350396852019
 20
1415.68293997877
 30
0.0
 11
1780.350396852019
 21
1415.771791257023
 31
0.0
  0
POLYLINE
  5
C7
  8
0
  6
CONTINUOUS
 62
     7
 66
     1
 10
0.0
 20
0.0
 30
0.0
  0
VERTEX
  5
275
  8
0
  6
CONTINUOUS
 62
     7
 10
1780.350396852019
 20
1415.771791257023
 30
0.0
  0
VERTEX
  5
276
  8
0
  6
CONTINUOUS
 62
     7
 10
1780.350414288781
 20
1415.774549189201
 30
0.0
  0
VERTEX
  5
277
  8
0
  6
CONTINUOUS
 62
     7
 10
1780.350470086545
 20
1415.777375628948
 30
0.0
  0
VERTEX
  5
278
  8
0
  6
CONTINUOUS
 62
     7
 10
1780.350568688134
 20
1415.780271416112
 30
0.0
  0
VERTEX
  5
279
  8
0
  6
CONTINUOUS
 62
     7
 10
1780.350713124344
 20
1415.783234573495
 30
0.0
  0
VERTEX
  5
27A
  8
0
  6
CONTINUOUS
 62
     7
 10
1780.350906425967
 20
1415.786263123904
 30
0.0
  0
VERTEX
  5
27B
  8
0
  6
CONTINUOUS
 62
     7
 10
1780.351151623797
 20
1415.789355090143
 30
0.0
  0
VERTEX
  5
27C
  8
0
  6
CONTINUOUS
 62
     7
 10
1780.351451748628
 20
1415.792508495018
 30
0.0
  0
VERTEX
  5
27D
  8
0
  6
CONTINUOUS
 62
     7
 10
1780.351809831254
 20
1415.795721361333
 30
0.0
  0
VERTEX
  5
27E
  8
0
  6
CONTINUOUS
 62
     7
 10
1780.35222890247
 20
1415.798991711894
 30
0.0
  0
VERTEX
  5
27F
  8
0
  6
CONTINUOUS
 62
     7
 10
1780.352711993067
 20
1415.802317569505
 30
0.0
  0
VERTEX
  5
280
  8
0
  6
CONTINUOUS
 62
     7
 10
1780.353262133841
 20
1415.805696956972
 30
0.0
  0
VERTEX
  5
281
  8
0
  6
CONTINUOUS
 62
     7
 10
1780.353882355585
 20
1415.8091278971
 30
0.0
  0
VERTEX
  5
282
  8
0
  6
CONTINUOUS
 62
     7
 10
1780.354575689092
 20
1415.812608412693
 30
0.0
  0
VERTEX
  5
283
  8
0
  6
CONTINUOUS
 62
     7
 10
1780.355345165158
 20
1415.816136526558
 30
0.0
  0
VERTEX
  5
284
  8
0
  6
CONTINUOUS
 62
     7
 10
1780.356193814575
 20
1415.819710261499
 30
0.0
  0
VERTEX
  5
285
  8
0
  6
CONTINUOUS
 62
     7
 10
1780.357124668138
 20
1415.82332764032
 30
0.0
  0
VERTEX
  5
286
  8
0
  6
CONTINUOUS
 62
     7
 10
1780.358140756639
 20
1415.826986685827
 30
0.0
  0
VERTEX
  5
287
  8
0
  6
CONTINUOUS
 62
     7
 10
1780.359245110874
 20
1415.830685420826
 30
0.0
  0
VERTEX
  5
288
  8
0
  6
CONTINUOUS
 62
     7
 10
1780.360440761636
 20
1415.834421868121
 30
0.0
  0
VERTEX
  5
289
  8
0
  6
CONTINUOUS
 62
     7
 10
1780.361730739719
 20
1415.838194050517
 30
0.0
  0
VERTEX
  5
28A
  8
0
  6
CONTINUOUS
 62
     7
 10
1780.363118075915
 20
1415.841999990819
 30
0.0
  0
VERTEX
  5
28B
  8
0
  6
CONTINUOUS
 62
     7
 10
1780.364605801021
 20
1415.845837711833
 30
0.0
  0
VERTEX
  5
28C
  8
0
  6
CONTINUOUS
 62
     7
 10
1780.366196945828
 20
1415.849705236363
 30
0.0
  0
VERTEX
  5
28D
  8
0
  6
CONTINUOUS
 62
     7
 10
1780.367894541131
 20
1415.853600587215
 30
0.0
  0
VERTEX
  5
28E
  8
0
  6
CONTINUOUS
 62
     7
 10
1780.36970163028
 20
1415.857521709371
 30
0.0
  0
VERTEX
  5
28F
  8
0
  6
CONTINUOUS
 62
     7
 10
1780.371621479188
 20
1415.861465168409
 30
0.0
  0
VERTEX
  5
290
  8
0
  6
CONTINUOUS
 62
     7
 10
1780.373657544769
 20
1415.865426346116
 30
0.0
  0
VERTEX
  5
291
  8
0
  6
CONTINUOUS
 62
     7
 10
1780.375813290135
 20
1415.869400585862
 30
0.0
  0
VERTEX
  5
292
  8
0
  6
CONTINUOUS
 62
     7
 10
1780.378092178398
 20
1415.873383231015
 30
0.0
  0
VERTEX
  5
293
  8
0
  6
CONTINUOUS
 62
     7
 10
1780.380497672672
 20
1415.877369624946
 30
0.0
  0
VERTEX
  5
294
  8
0
  6
CONTINUOUS
 62
     7
 10
1780.383033236068
 20
1415.881355111025
 30
0.0
  0
VERTEX
  5
295
  8
0
  6
CONTINUOUS
 62
     7
 10
1780.385702331697
 20
1415.88533503262
 30
0.0
  0
VERTEX
  5
296
  8
0
  6
CONTINUOUS
 62
     7
 10
1780.388508422674
 20
1415.889304733103
 30
0.0
  0
VERTEX
  5
297
  8
0
  6
CONTINUOUS
 62
     7
 10
1780.391454972109
 20
1415.893259555842
 30
0.0
  0
VERTEX
  5
298
  8
0
  6
CONTINUOUS
 62
     7
 10
1780.394545443116
 20
1415.897194844208
 30
0.0
  0
VERTEX
  5
299
  8
0
  6
CONTINUOUS
 62
     7
 10
1780.397783298806
 20
1415.90110594157
 30
0.0
  0
VERTEX
  5
29A
  8
0
  6
CONTINUOUS
 62
     7
 10
1780.401172002292
 20
1415.904988191298
 30
0.0
  0
VERTEX
  5
29B
  8
0
  6
CONTINUOUS
 62
     7
 10
1780.404715016686
 20
1415.908836936762
 30
0.0
  0
VERTEX
  5
29C
  8
0
  6
CONTINUOUS
 62
     7
 10
1780.408415803493
 20
1415.91264752002
 30
0.0
  0
VERTEX
  5
29D
  8
0
  6
CONTINUOUS
 62
     7
 10
1780.412277129364
 20
1415.91641471584
 30
0.0
  0
VERTEX
  5
29E
  8
0
  6
CONTINUOUS
 62
     7
 10
1780.416299984224
 20
1415.92013184845
 30
0.0
  0
VERTEX
  5
29F
  8
0
  6
CONTINUOUS
 62
     7
 10
1780.420485078072
 20
1415.923792013541
 30
0.0
  0
VERTEX
  5
2A0
  8
0
  6
CONTINUOUS
 62
     7
 10
1780.424833120906
 20
1415.927388306802
 30
0.0
  0
VERTEX
  5
2A1
  8
0
  6
CONTINUOUS
 62
     7
 10
1780.429344822722
 20
1415.930913823925
 30
0.0
  0
VERTEX
  5
2A2
  8
0
  6
CONTINUOUS
 62
     7
 10
1780.434020893519
 20
1415.934361660599
 30
0.0
  0
VERTEX
  5
2A3
  8
0
  6
CONTINUOUS
 62
     7
 10
1780.438862043295
 20
1415.937724912515
 30
0.0
  0
VERTEX
  5
2A4
  8
0
  6
CONTINUOUS
 62
     7
 10
1780.443868982047
 20
1415.940996675364
 30
0.0
  0
VERTEX
  5
2A5
  8
0
  6
CONTINUOUS
 62
     7
 10
1780.449042419773
 20
1415.944170044834
 30
0.0
  0
VERTEX
  5
2A6
  8
0
  6
CONTINUOUS
 62
     7
 10
1780.454383066466
 20
1415.947238116608
 30
0.0
  0
VERTEX
  5
2A7
  8
0
  6
CONTINUOUS
 62
     7
 10
1780.459890408615
 20
1415.950191434768
 30
0.0
  0
VERTEX
  5
2A8
  8
0
  6
CONTINUOUS
 62
     7
 10
1780.465559266272
 20
1415.953010811626
 30
0.0
  0
VERTEX
  5
2A9
  8
0
  6
CONTINUOUS
 62
     7
 10
1780.471383347156
 20
1415.955674739744
 30
0.0
  0
VERTEX
  5
2AA
  8
0
  6
CONTINUOUS
 62
     7
 10
1780.477356358989
 20
1415.958161711685
 30
0.0
  0
VERTEX
  5
2AB
  8
0
  6
CONTINUOUS
 62
     7
 10
1780.483472009489
 20
1415.960450220008
 30
0.0
  0
VERTEX
  5
2AC
  8
0
  6
CONTINUOUS
 62
     7
 10
1780.489724006375
 20
1415.962518757276
 30
0.0
  0
VERTEX
  5
2AD
  8
0
  6
CONTINUOUS
 62
     7
 10
1780.496106057367
 20
1415.964345816049
 30
0.0
  0
VERTEX
  5
2AE
  8
0
  6
CONTINUOUS
 62
     7
 10
1780.5026116381
 20
1415.965911264031
 30
0.0
  0
VERTEX
  5
2AF
  8
0
  6
CONTINUOUS
 62
     7
 10
1780.509229411171
 20
1415.967223486858
 30
0.0
  0
VERTEX
  5
2B0
  8
0
  6
CONTINUOUS
 62
     7
 10
1780.515943500884
 20
1415.968317760226
 30
0.0
  0
VERTEX
  5
2B1
  8
0
  6
CONTINUOUS
 62
     7
 10
1780.522737854468
 20
1415.969230409045
 30
0.0
  0
VERTEX
  5
2B2
  8
0
  6
CONTINUOUS
 62
     7
 10
1780.529596419148
 20
1415.969997758224
 30
0.0
  0
VERTEX
  5
2B3
  8
0
  6
CONTINUOUS
 62
     7
 10
1780.536503142148
 20
1415.970656132673
 30
0.0
  0
VERTEX
  5
2B4
  8
0
  6
CONTINUOUS
 62
     7
 10
1780.543441970697
 20
1415.971241857303
 30
0.0
  0
VERTEX
  5
2B5
  8
0
  6
CONTINUOUS
 62
     7
 10
1780.550396852019
 20
1415.971791257023
 30
0.0
  0
SEQEND
  5
3BB
  8
0
  6
CONTINUOUS
 62
     7
  0
LINE
  5
C8
  8
0
  6
CONTINUOUS
 62
     7
 10
1780.550396852019
 20
1415.971791257023
 30
0.0
 11
1780.550396852019
 21
1415.485727159207
 31
0.0
  0
ARC
  5
C9
  8
0
  6
CONTINUOUS
 62
     7
 10
1780.54901297227
 20
1415.684343416694
 30
0.0
 40
0.198621078592407
 50
180.4048499763347
 51
270.3992079346078
  0
LINE
  5
CA
  8
0
  6
CONTINUOUS
 62
     7
 10
1780.550396852019
 20
1415.485727159207
 30
0.0
 11
1781.350396852019
 21
1415.485727159207
 31
0.0
  0
LINE
  5
CB
  8
0
  6
CONTINUOUS
 62
     7
 10
1781.350396852019
 20
1415.485727159207
 30
0.0
 11
1781.350396852019
 21
1415.971791257023
 31
0.0
  0
LINE
  5
CC
  8
0
  6
CONTINUOUS
 62
     7
 10
1780.350396852019
 20
1415.671791257023
 30
0.0
 11
1780.350396852019
 21
1415.68293997877
 31
0.0
  0
LINE
  5
CD
  8
0
  6
CONTINUOUS
 62
     7
 10
1781.350396852019
 20
1415.471791257023
 30
0.0
 11
1781.350396852019
 21
1415.485727159207
 31
0.0
  0
LINE
  5
CE
  8
0
  6
CONTINUOUS
 62
     7
 10
1780.350396852019
 20
1415.771791257023
 30
0.0
 11
1780.350396852019
 21
1415.971791257022
 31
0.0
  0
LINE
  5
CF
  8
0
  6
CONTINUOUS
 62
     7
 10
2029.850396852019
 20
1415.485727159205
 30
0.0
 11
2273.850396852019
 21
1415.485727159205
 31
0.0
  0
LINE
  5
D0
  8
0
  6
CONTINUOUS
 62
     7
 10
2273.850396852019
 20
1415.971791257021
 30
0.0
 11
2273.850396852019
 21
1415.485727159205
 31
0.0
  0
LINE
  5
D1
  8
0
  6
CONTINUOUS
 62
     7
 10
2273.850396852019
 20
1415.485727159205
 30
0.0
 11
2273.850396852019
 21
1415.471791257021
 31
0.0
  0
LINE
  5
D2
  8
0
  6
CONTINUOUS
 62
     7
 10
1781.350396852019
 20
1415.485727159207
 30
0.0
 11
2025.350396852019
 21
1415.485727159207
 31
0.0
  0
LINE
  5
D3
  8
0
  6
CONTINUOUS
 62
     7
 10
2025.350396852019
 20
1415.971791257023
 30
0.0
 11
2025.350396852019
 21
1415.485727159207
 31
0.0
  0
LINE
  5
D4
  8
0
  6
CONTINUOUS
 62
     7
 10
2025.350396852019
 20
1415.485727159207
 30
0.0
 11
2025.350396852019
 21
1415.471791257023
 31
0.0
  0
LINE
  5
D5
  8
0
  6
CONTINUOUS
 62
     7
 10
2026.350396852019
 20
1415.771791257022
 30
0.0
 11
2026.350396852019
 21
1415.68293997877
 31
0.0
  0
ARC
  5
D6
  8
0
  6
CONTINUOUS
 62
     7
 10
2026.15178073177
 20
1415.684343416693
 30
0.0
 40
0.1986210785917217
 50
269.6007920651958
 51
359.5951500237967
  0
LINE
  5
D7
  8
0
  6
CONTINUOUS
 62
     7
 10
2026.15039685202
 20
1415.485727159207
 30
0.0
 11
2026.15039685202
 21
1415.971791257023
 31
0.0
  0
POLYLINE
  5
D8
  8
0
  6
CONTINUOUS
 62
     7
 66
     1
 10
0.0
 20
0.0
 30
0.0
  0
VERTEX
  5
2B6
  8
0
  6
CONTINUOUS
 62
     7
 10
2026.35039685202
 20
1415.771791257023
 30
0.0
  0
VERTEX
  5
2B7
  8
0
  6
CONTINUOUS
 62
     7
 10
2026.350379415258
 20
1415.7745491892
 30
0.0
  0
VERTEX
  5
2B8
  8
0
  6
CONTINUOUS
 62
     7
 10
2026.350323617494
 20
1415.777375628948
 30
0.0
  0
VERTEX
  5
2B9
  8
0
  6
CONTINUOUS
 62
     7
 10
2026.350225015904
 20
1415.780271416111
 30
0.0
  0
VERTEX
  5
2BA
  8
0
  6
CONTINUOUS
 62
     7
 10
2026.350080579695
 20
1415.783234573494
 30
0.0
  0
VERTEX
  5
2BB
  8
0
  6
CONTINUOUS
 62
     7
 10
2026.349887278072
 20
1415.786263123903
 30
0.0
  0
VERTEX
  5
2BC
  8
0
  6
CONTINUOUS
 62
     7
 10
2026.349642080242
 20
1415.789355090142
 30
0.0
  0
VERTEX
  5
2BD
  8
0
  6
CONTINUOUS
 62
     7
 10
2026.349341955411
 20
1415.792508495017
 30
0.0
  0
VERTEX
  5
2BE
  8
0
  6
CONTINUOUS
 62
     7
 10
2026.348983872785
 20
1415.795721361332
 30
0.0
  0
VERTEX
  5
2BF
  8
0
  6
CONTINUOUS
 62
     7
 10
2026.348564801569
 20
1415.798991711893
 30
0.0
  0
VERTEX
  5
2C0
  8
0
  6
CONTINUOUS
 62
     7
 10
2026.348081710972
 20
1415.802317569504
 30
0.0
  0
VERTEX
  5
2C1
  8
0
  6
CONTINUOUS
 62
     7
 10
2026.347531570198
 20
1415.805696956971
 30
0.0
  0
VERTEX
  5
2C2
  8
0
  6
CONTINUOUS
 62
     7
 10
2026.346911348455
 20
1415.809127897099
 30
0.0
  0
VERTEX
  5
2C3
  8
0
  6
CONTINUOUS
 62
     7
 10
2026.346218014947
 20
1415.812608412692
 30
0.0
  0
VERTEX
  5
2C4
  8
0
  6
CONTINUOUS
 62
     7
 10
2026.345448538881
 20
1415.816136526557
 30
0.0
  0
VERTEX
  5
2C5
  8
0
  6
CONTINUOUS
 62
     7
 10
2026.344599889464
 20
1415.819710261498
 30
0.0
  0
VERTEX
  5
2C6
  8
0
  6
CONTINUOUS
 62
     7
 10
2026.343669035901
 20
1415.823327640319
 30
0.0
  0
VERTEX
  5
2C7
  8
0
  6
CONTINUOUS
 62
     7
 10
2026.342652947399
 20
1415.826986685827
 30
0.0
  0
VERTEX
  5
2C8
  8
0
  6
CONTINUOUS
 62
     7
 10
2026.341548593164
 20
1415.830685420825
 30
0.0
  0
VERTEX
  5
2C9
  8
0
  6
CONTINUOUS
 62
     7
 10
2026.340352942403
 20
1415.83442186812
 30
0.0
  0
VERTEX
  5
2CA
  8
0
  6
CONTINUOUS
 62
     7
 10
2026.33906296432
 20
1415.838194050516
 30
0.0
  0
VERTEX
  5
2CB
  8
0
  6
CONTINUOUS
 62
     7
 10
2026.337675628124
 20
1415.841999990819
 30
0.0
  0
VERTEX
  5
2CC
  8
0
  6
CONTINUOUS
 62
     7
 10
2026.336187903019
 20
1415.845837711833
 30
0.0
  0
VERTEX
  5
2CD
  8
0
  6
CONTINUOUS
 62
     7
 10
2026.334596758211
 20
1415.849705236363
 30
0.0
  0
VERTEX
  5
2CE
  8
0
  6
CONTINUOUS
 62
     7
 10
2026.332899162908
 20
1415.853600587215
 30
0.0
  0
VERTEX
  5
2CF
  8
0
  6
CONTINUOUS
 62
     7
 10
2026.331092073759
 20
1415.85752170937
 30
0.0
  0
VERTEX
  5
2D0
  8
0
  6
CONTINUOUS
 62
     7
 10
2026.329172224851
 20
1415.861465168409
 30
0.0
  0
VERTEX
  5
2D1
  8
0
  6
CONTINUOUS
 62
     7
 10
2026.327136159269
 20
1415.865426346116
 30
0.0
  0
VERTEX
  5
2D2
  8
0
  6
CONTINUOUS
 62
     7
 10
2026.324980413904
 20
1415.869400585862
 30
0.0
  0
VERTEX
  5
2D3
  8
0
  6
CONTINUOUS
 62
     7
 10
2026.32270152564
 20
1415.873383231015
 30
0.0
  0
VERTEX
  5
2D4
  8
0
  6
CONTINUOUS
 62
     7
 10
2026.320296031367
 20
1415.877369624946
 30
0.0
  0
VERTEX
  5
2D5
  8
0
  6
CONTINUOUS
 62
     7
 10
2026.317760467971
 20
1415.881355111024
 30
0.0
  0
VERTEX
  5
2D6
  8
0
  6
CONTINUOUS
 62
     7
 10
2026.315091372342
 20
1415.885335032619
 30
0.0
  0
VERTEX
  5
2D7
  8
0
  6
CONTINUOUS
 62
     7
 10
2026.312285281365
 20
1415.889304733102
 30
0.0
  0
VERTEX
  5
2D8
  8
0
  6
CONTINUOUS
 62
     7
 10
2026.30933873193
 20
1415.893259555841
 30
0.0
  0
VERTEX
  5
2D9
  8
0
  6
CONTINUOUS
 62
     7
 10
2026.306248260923
 20
1415.897194844207
 30
0.0
  0
VERTEX
  5
2DA
  8
0
  6
CONTINUOUS
 62
     7
 10
2026.303010405233
 20
1415.901105941569
 30
0.0
  0
VERTEX
  5
2DB
  8
0
  6
CONTINUOUS
 62
     7
 10
2026.299621701747
 20
1415.904988191298
 30
0.0
  0
VERTEX
  5
2DC
  8
0
  6
CONTINUOUS
 62
     7
 10
2026.296078687353
 20
1415.908836936762
 30
0.0
  0
VERTEX
  5
2DD
  8
0
  6
CONTINUOUS
 62
     7
 10
2026.292377900546
 20
1415.912647520019
 30
0.0
  0
VERTEX
  5
2DE
  8
0
  6
CONTINUOUS
 62
     7
 10
2026.288516574675
 20
1415.916414715839
 30
0.0
  0
VERTEX
  5
2DF
  8
0
  6
CONTINUOUS
 62
     7
 10
2026.284493719814
 20
1415.92013184845
 30
0.0
  0
VERTEX
  5
2E0
  8
0
  6
CONTINUOUS
 62
     7
 10
2026.280308625966
 20
1415.92379201354
 30
0.0
  0
VERTEX
  5
2E1
  8
0
  6
CONTINUOUS
 62
     7
 10
2026.275960583133
 20
1415.927388306802
 30
0.0
  0
VERTEX
  5
2E2
  8
0
  6
CONTINUOUS
 62
     7
 10
2026.271448881317
 20
1415.930913823925
 30
0.0
  0
VERTEX
  5
2E3
  8
0
  6
CONTINUOUS
 62
     7
 10
2026.26677281052
 20
1415.934361660599
 30
0.0
  0
VERTEX
  5
2E4
  8
0
  6
CONTINUOUS
 62
     7
 10
2026.261931660744
 20
1415.937724912515
 30
0.0
  0
VERTEX
  5
2E5
  8
0
  6
CONTINUOUS
 62
     7
 10
2026.256924721992
 20
1415.940996675363
 30
0.0
  0
VERTEX
  5
2E6
  8
0
  6
CONTINUOUS
 62
     7
 10
2026.251751284266
 20
1415.944170044834
 30
0.0
  0
VERTEX
  5
2E7
  8
0
  6
CONTINUOUS
 62
     7
 10
2026.246410637573
 20
1415.947238116608
 30
0.0
  0
VERTEX
  5
2E8
  8
0
  6
CONTINUOUS
 62
     7
 10
2026.240903295424
 20
1415.950191434767
 30
0.0
  0
VERTEX
  5
2E9
  8
0
  6
CONTINUOUS
 62
     7
 10
2026.235234437768
 20
1415.953010811625
 30
0.0
  0
VERTEX
  5
2EA
  8
0
  6
CONTINUOUS
 62
     7
 10
2026.229410356883
 20
1415.955674739744
 30
0.0
  0
VERTEX
  5
2EB
  8
0
  6
CONTINUOUS
 62
     7
 10
2026.22343734505
 20
1415.958161711684
 30
0.0
  0
VERTEX
  5
2EC
  8
0
  6
CONTINUOUS
 62
     7
 10
2026.21732169455
 20
1415.960450220008
 30
0.0
  0
VERTEX
  5
2ED
  8
0
  6
CONTINUOUS
 62
     7
 10
2026.211069697664
 20
1415.962518757275
 30
0.0
  0
VERTEX
  5
2EE
  8
0
  6
CONTINUOUS
 62
     7
 10
2026.204687646672
 20
1415.964345816049
 30
0.0
  0
VERTEX
  5
2EF
  8
0
  6
CONTINUOUS
 62
     7
 10
2026.19818206594
 20
1415.965911264031
 30
0.0
  0
VERTEX
  5
2F0
  8
0
  6
CONTINUOUS
 62
     7
 10
2026.191564292869
 20
1415.967223486858
 30
0.0
  0
VERTEX
  5
2F1
  8
0
  6
CONTINUOUS
 62
     7
 10
2026.184850203154
 20
1415.968317760226
 30
0.0
  0
VERTEX
  5
2F2
  8
0
  6
CONTINUOUS
 62
     7
 10
2026.178055849571
 20
1415.969230409044
 30
0.0
  0
VERTEX
  5
2F3
  8
0
  6
CONTINUOUS
 62
     7
 10
2026.171197284892
 20
1415.969997758223
 30
0.0
  0
VERTEX
  5
2F4
  8
0
  6
CONTINUOUS
 62
     7
 10
2026.164290561891
 20
1415.970656132673
 30
0.0
  0
VERTEX
  5
2F5
  8
0
  6
CONTINUOUS
 62
     7
 10
2026.157351733342
 20
1415.971241857303
 30
0.0
  0
VERTEX
  5
2F6
  8
0
  6
CONTINUOUS
 62
     7
 10
2026.15039685202
 20
1415.971791257023
 30
0.0
  0
SEQEND
  5
3BC
  8
0
  6
CONTINUOUS
 62
     7
  0
LINE
  5
D9
  8
0
  6
CONTINUOUS
 62
     7
 10
2025.350396852019
 20
1415.485727159207
 30
0.0
 11
2026.15039685202
 21
1415.485727159207
 31
0.0
  0
LINE
  5
DA
  8
0
  6
CONTINUOUS
 62
     7
 10
2026.350396852019
 20
1415.68293997877
 30
0.0
 11
2026.350396852019
 21
1415.671791257023
 31
0.0
  0
LINE
  5
DB
  8
0
  6
CONTINUOUS
 62
     7
 10
2026.350396852019
 20
1415.971791257022
 30
0.0
 11
2026.350396852019
 21
1415.771791257022
 31
0.0
  0
LINE
  5
DC
  8
0
  6
CONTINUOUS
 62
     7
 10
2274.850396852019
 20
1415.77179125702
 30
0.0
 11
2274.850396852019
 21
1415.682939978767
 31
0.0
  0
ARC
  5
DD
  8
0
  6
CONTINUOUS
 62
     7
 10
2274.651780731769
 20
1415.684343416691
 30
0.0
 40
0.1986210785926328
 50
269.6007920654595
 51
359.595150023733
  0
LINE
  5
DE
  8
0
  6
CONTINUOUS
 62
     7
 10
2274.650396852019
 20
1415.485727159204
 30
0.0
 11
2274.650396852019
 21
1415.97179125702
 31
0.0
  0
POLYLINE
  5
DF
  8
0
  6
CONTINUOUS
 62
     7
 66
     1
 10
0.0
 20
0.0
 30
0.0
  0
VERTEX
  5
2F7
  8
0
  6
CONTINUOUS
 62
     7
 10
2274.850396852019
 20
1415.77179125702
 30
0.0
  0
VERTEX
  5
2F8
  8
0
  6
CONTINUOUS
 62
     7
 10
2274.850379415258
 20
1415.774549189198
 30
0.0
  0
VERTEX
  5
2F9
  8
0
  6
CONTINUOUS
 62
     7
 10
2274.850323617494
 20
1415.777375628945
 30
0.0
  0
VERTEX
  5
2FA
  8
0
  6
CONTINUOUS
 62
     7
 10
2274.850225015904
 20
1415.780271416109
 30
0.0
  0
VERTEX
  5
2FB
  8
0
  6
CONTINUOUS
 62
     7
 10
2274.850080579694
 20
1415.783234573492
 30
0.0
  0
VERTEX
  5
2FC
  8
0
  6
CONTINUOUS
 62
     7
 10
2274.849887278071
 20
1415.7862631239
 30
0.0
  0
VERTEX
  5
2FD
  8
0
  6
CONTINUOUS
 62
     7
 10
2274.849642080241
 20
1415.78935509014
 30
0.0
  0
VERTEX
  5
2FE
  8
0
  6
CONTINUOUS
 62
     7
 10
2274.84934195541
 20
1415.792508495014
 30
0.0
  0
VERTEX
  5
2FF
  8
0
  6
CONTINUOUS
 62
     7
 10
2274.848983872784
 20
1415.795721361329
 30
0.0
  0
VERTEX
  5
300
  8
0
  6
CONTINUOUS
 62
     7
 10
2274.848564801569
 20
1415.79899171189
 30
0.0
  0
VERTEX
  5
301
  8
0
  6
CONTINUOUS
 62
     7
 10
2274.848081710972
 20
1415.802317569501
 30
0.0
  0
VERTEX
  5
302
  8
0
  6
CONTINUOUS
 62
     7
 10
2274.847531570198
 20
1415.805696956968
 30
0.0
  0
VERTEX
  5
303
  8
0
  6
CONTINUOUS
 62
     7
 10
2274.846911348454
 20
1415.809127897096
 30
0.0
  0
VERTEX
  5
304
  8
0
  6
CONTINUOUS
 62
     7
 10
2274.846218014946
 20
1415.81260841269
 30
0.0
  0
VERTEX
  5
305
  8
0
  6
CONTINUOUS
 62
     7
 10
2274.845448538881
 20
1415.816136526555
 30
0.0
  0
VERTEX
  5
306
  8
0
  6
CONTINUOUS
 62
     7
 10
2274.844599889464
 20
1415.819710261495
 30
0.0
  0
VERTEX
  5
307
  8
0
  6
CONTINUOUS
 62
     7
 10
2274.843669035901
 20
1415.823327640317
 30
0.0
  0
VERTEX
  5
308
  8
0
  6
CONTINUOUS
 62
     7
 10
2274.842652947399
 20
1415.826986685824
 30
0.0
  0
VERTEX
  5
309
  8
0
  6
CONTINUOUS
 62
     7
 10
2274.841548593164
 20
1415.830685420823
 30
0.0
  0
VERTEX
  5
30A
  8
0
  6
CONTINUOUS
 62
     7
 10
2274.840352942403
 20
1415.834421868117
 30
0.0
  0
VERTEX
  5
30B
  8
0
  6
CONTINUOUS
 62
     7
 10
2274.83906296432
 20
1415.838194050514
 30
0.0
  0
VERTEX
  5
30C
  8
0
  6
CONTINUOUS
 62
     7
 10
2274.837675628124
 20
1415.841999990816
 30
0.0
  0
VERTEX
  5
30D
  8
0
  6
CONTINUOUS
 62
     7
 10
2274.836187903018
 20
1415.84583771183
 30
0.0
  0
VERTEX
  5
30E
  8
0
  6
CONTINUOUS
 62
     7
 10
2274.834596758211
 20
1415.84970523636
 30
0.0
  0
VERTEX
  5
30F
  8
0
  6
CONTINUOUS
 62
     7
 10
2274.832899162908
 20
1415.853600587212
 30
0.0
  0
VERTEX
  5
310
  8
0
  6
CONTINUOUS
 62
     7
 10
2274.831092073759
 20
1415.857521709367
 30
0.0
  0
VERTEX
  5
311
  8
0
  6
CONTINUOUS
 62
     7
 10
2274.82917222485
 20
1415.861465168406
 30
0.0
  0
VERTEX
  5
312
  8
0
  6
CONTINUOUS
 62
     7
 10
2274.827136159269
 20
1415.865426346114
 30
0.0
  0
VERTEX
  5
313
  8
0
  6
CONTINUOUS
 62
     7
 10
2274.824980413904
 20
1415.869400585859
 30
0.0
  0
VERTEX
  5
314
  8
0
  6
CONTINUOUS
 62
     7
 10
2274.82270152564
 20
1415.873383231012
 30
0.0
  0
VERTEX
  5
315
  8
0
  6
CONTINUOUS
 62
     7
 10
2274.820296031367
 20
1415.877369624943
 30
0.0
  0
VERTEX
  5
316
  8
0
  6
CONTINUOUS
 62
     7
 10
2274.817760467971
 20
1415.881355111021
 30
0.0
  0
VERTEX
  5
317
  8
0
  6
CONTINUOUS
 62
     7
 10
2274.815091372341
 20
1415.885335032617
 30
0.0
  0
VERTEX
  5
318
  8
0
  6
CONTINUOUS
 62
     7
 10
2274.812285281364
 20
1415.889304733099
 30
0.0
  0
VERTEX
  5
319
  8
0
  6
CONTINUOUS
 62
     7
 10
2274.80933873193
 20
1415.893259555839
 30
0.0
  0
VERTEX
  5
31A
  8
0
  6
CONTINUOUS
 62
     7
 10
2274.806248260923
 20
1415.897194844204
 30
0.0
  0
VERTEX
  5
31B
  8
0
  6
CONTINUOUS
 62
     7
 10
2274.803010405233
 20
1415.901105941567
 30
0.0
  0
VERTEX
  5
31C
  8
0
  6
CONTINUOUS
 62
     7
 10
2274.799621701747
 20
1415.904988191295
 30
0.0
  0
VERTEX
  5
31D
  8
0
  6
CONTINUOUS
 62
     7
 10
2274.796078687352
 20
1415.908836936759
 30
0.0
  0
VERTEX
  5
31E
  8
0
  6
CONTINUOUS
 62
     7
 10
2274.792377900545
 20
1415.912647520016
 30
0.0
  0
VERTEX
  5
31F
  8
0
  6
CONTINUOUS
 62
     7
 10
2274.788516574674
 20
1415.916414715837
 30
0.0
  0
VERTEX
  5
320
  8
0
  6
CONTINUOUS
 62
     7
 10
2274.784493719814
 20
1415.920131848447
 30
0.0
  0
VERTEX
  5
321
  8
0
  6
CONTINUOUS
 62
     7
 10
2274.780308625966
 20
1415.923792013537
 30
0.0
  0
VERTEX
  5
322
  8
0
  6
CONTINUOUS
 62
     7
 10
2274.775960583132
 20
1415.927388306799
 30
0.0
  0
VERTEX
  5
323
  8
0
  6
CONTINUOUS
 62
     7
 10
2274.771448881317
 20
1415.930913823922
 30
0.0
  0
VERTEX
  5
324
  8
0
  6
CONTINUOUS
 62
     7
 10
2274.76677281052
 20
1415.934361660596
 30
0.0
  0
VERTEX
  5
325
  8
0
  6
CONTINUOUS
 62
     7
 10
2274.761931660744
 20
1415.937724912512
 30
0.0
  0
VERTEX
  5
326
  8
0
  6
CONTINUOUS
 62
     7
 10
2274.756924721992
 20
1415.94099667536
 30
0.0
  0
VERTEX
  5
327
  8
0
  6
CONTINUOUS
 62
     7
 10
2274.751751284266
 20
1415.944170044831
 30
0.0
  0
VERTEX
  5
328
  8
0
  6
CONTINUOUS
 62
     7
 10
2274.746410637573
 20
1415.947238116605
 30
0.0
  0
VERTEX
  5
329
  8
0
  6
CONTINUOUS
 62
     7
 10
2274.740903295424
 20
1415.950191434764
 30
0.0
  0
VERTEX
  5
32A
  8
0
  6
CONTINUOUS
 62
     7
 10
2274.735234437767
 20
1415.953010811623
 30
0.0
  0
VERTEX
  5
32B
  8
0
  6
CONTINUOUS
 62
     7
 10
2274.729410356883
 20
1415.955674739741
 30
0.0
  0
VERTEX
  5
32C
  8
0
  6
CONTINUOUS
 62
     7
 10
2274.72343734505
 20
1415.958161711682
 30
0.0
  0
VERTEX
  5
32D
  8
0
  6
CONTINUOUS
 62
     7
 10
2274.71732169455
 20
1415.960450220005
 30
0.0
  0
VERTEX
  5
32E
  8
0
  6
CONTINUOUS
 62
     7
 10
2274.711069697664
 20
1415.962518757273
 30
0.0
  0
VERTEX
  5
32F
  8
0
  6
CONTINUOUS
 62
     7
 10
2274.704687646672
 20
1415.964345816046
 30
0.0
  0
VERTEX
  5
330
  8
0
  6
CONTINUOUS
 62
     7
 10
2274.69818206594
 20
1415.965911264028
 30
0.0
  0
VERTEX
  5
331
  8
0
  6
CONTINUOUS
 62
     7
 10
2274.691564292869
 20
1415.967223486855
 30
0.0
  0
VERTEX
  5
332
  8
0
  6
CONTINUOUS
 62
     7
 10
2274.684850203154
 20
1415.968317760223
 30
0.0
  0
VERTEX
  5
333
  8
0
  6
CONTINUOUS
 62
     7
 10
2274.67805584957
 20
1415.969230409042
 30
0.0
  0
VERTEX
  5
334
  8
0
  6
CONTINUOUS
 62
     7
 10
2274.671197284891
 20
1415.969997758221
 30
0.0
  0
VERTEX
  5
335
  8
0
  6
CONTINUOUS
 62
     7
 10
2274.66429056189
 20
1415.97065613267
 30
0.0
  0
VERTEX
  5
336
  8
0
  6
CONTINUOUS
 62
     7
 10
2274.657351733342
 20
1415.9712418573
 30
0.0
  0
VERTEX
  5
337
  8
0
  6
CONTINUOUS
 62
     7
 10
2274.650396852019
 20
1415.97179125702
 30
0.0
  0
SEQEND
  5
3BD
  8
0
  6
CONTINUOUS
 62
     7
  0
LINE
  5
E0
  8
0
  6
CONTINUOUS
 62
     7
 10
2273.850396852019
 20
1415.485727159205
 30
0.0
 11
2274.650396852019
 21
1415.485727159204
 31
0.0
  0
LINE
  5
E1
  8
0
  6
CONTINUOUS
 62
     7
 10
2274.850396852019
 20
1415.682939978767
 30
0.0
 11
2274.850396852019
 21
1415.67179125702
 31
0.0
  0
LINE
  5
E2
  8
0
  6
CONTINUOUS
 62
     7
 10
2274.850396852019
 20
1415.97179125702
 30
0.0
 11
2274.850396852019
 21
1415.77179125702
 31
0.0
  0
LINE
  5
E3
  8
0
  6
CONTINUOUS
 62
     7
 10
2026.35039685202
 20
1863.971791257022
 30
0.0
 11
2028.850396852019
 21
1863.971791257022
 31
0.0
  0
LINE
  5
E4
  8
0
  6
CONTINUOUS
 62
     7
 10
2259.35039685202
 20
1880.971791257022
 30
0.0
 11
1795.85039685202
 21
1880.971791257022
 31
0.0
  0
LINE
  5
E5
  8
0
  6
CONTINUOUS
 62
     7
 10
1795.85039685202
 20
1000.471791257022
 30
0.0
 11
1795.85039685202
 21
983.4717912570223
 31
0.0
  0
LINE
  5
E6
  8
0
  6
CONTINUOUS
 62
     7
 10
2259.35039685202
 20
1000.471791257022
 30
0.0
 11
1795.85039685202
 21
1000.471791257022
 31
0.0
  0
LINE
  5
E7
  8
0
  6
CONTINUOUS
 62
     7
 10
2259.35039685202
 20
983.4717912570226
 30
0.0
 11
2259.35039685202
 21
1000.471791257022
 31
0.0
  0
LINE
  5
E8
  8
0
  6
CONTINUOUS
 62
     7
 10
1795.85039685202
 20
983.4717912570223
 30
0.0
 11
2259.35039685202
 21
983.4717912570226
 31
0.0
  0
LINE
  5
E9
  8
0
  6
CONTINUOUS
 62
     7
 10
2026.35039685202
 20
1423.971791257022
 30
0.0
 11
2028.850396852019
 21
1423.971791257022
 31
0.0
  0
LINE
  5
EA
  8
0
  6
CONTINUOUS
 62
     7
 10
2028.85039685202
 20
1440.971791257022
 30
0.0
 11
2026.35039685202
 21
1440.971791257022
 31
0.0
  0
LINE
  5
EB
  8
0
  6
CONTINUOUS
 62
     7
 10
1795.85039685202
 20
1881.471791257022
 30
0.0
 11
1795.85039685202
 21
1879.971791257022
 31
0.0
  0
LINE
  5
EC
  8
0
  6
CONTINUOUS
 62
     7
 10
1795.85039685202
 20
1415.471791257023
 30
0.0
 11
1795.85039685202
 21
982.4717912570278
 31
0.0
  0
LINE
  5
ED
  8
0
  6
CONTINUOUS
 62
     7
 10
1795.85039685202
 20
982.4717912570278
 30
0.0
 11
1778.35039685202
 21
982.4717912570278
 31
0.0
  0
LINE
  5
EE
  8
0
  6
CONTINUOUS
 62
     7
 10
1778.35039685202
 20
1881.471791257022
 30
0.0
 11
1795.85039685202
 21
1881.471791257022
 31
0.0
  0
LINE
  5
EF
  8
0
  6
CONTINUOUS
 62
     7
 10
1778.35039685202
 20
982.4717912570278
 30
0.0
 11
1778.35039685202
 21
1881.471791257022
 31
0.0
  0
LINE
  5
F0
  8
0
  6
CONTINUOUS
 62
     7
 10
2276.85039685202
 20
982.4717912570225
 30
0.0
 11
2259.35039685202
 21
982.4717912570225
 31
0.0
  0
LINE
  5
F1
  8
0
  6
CONTINUOUS
 62
     7
 10
2276.85039685202
 20
1881.471791257017
 30
0.0
 11
2276.85039685202
 21
982.4717912570225
 31
0.0
  0
LINE
  5
F2
  8
0
  6
CONTINUOUS
 62
     7
 10
2259.35039685202
 20
982.4717912570225
 30
0.0
 11
2259.35039685202
 21
1415.47179125702
 31
0.0
  0
LINE
  5
F3
  8
0
  6
CONTINUOUS
 62
     7
 10
2259.35039685202
 20
1879.97179125702
 30
0.0
 11
2259.35039685202
 21
1881.471791257017
 31
0.0
  0
LINE
  5
F4
  8
0
  6
CONTINUOUS
 62
     7
 10
2259.35039685202
 20
1881.471791257017
 30
0.0
 11
2276.85039685202
 21
1881.471791257017
 31
0.0
  0
LINE
  5
F5
  8
0
  6
CONTINUOUS
 62
     8
 10
2029.050396852019
 20
1415.485727159205
 30
0.0
 11
2029.050396852019
 21
1415.471791257021
 31
0.0
  0
LINE
  5
F6
  8
0
  6
CONTINUOUS
 62
     8
 10
1780.550396852019
 20
1415.485727159207
 30
0.0
 11
1780.550396852019
 21
1415.471791257023
 31
0.0
  0
LINE
  5
F7
  8
0
  6
CONTINUOUS
 62
     8
 10
2026.15039685202
 20
1415.471791257023
 30
0.0
 11
2026.15039685202
 21
1415.485727159207
 31
0.0
  0
LINE
  5
F8
  8
0
  6
CONTINUOUS
 62
     8
 10
2274.650396852019
 20
1415.47179125702
 30
0.0
 11
2274.650396852019
 21
1415.485727159204
 31
0.0
  0
LINE
  5
F9
  8
0
  6
CONTINUOUS
 62
     7
 10
839.4268541733909
 20
1415.971791257022
 30
0.0
 11
839.4268541733909
 21
1879.971791257022
 31
0.0
  0
LINE
  5
FA
  8
0
  6
CONTINUOUS
 62
     7
 10
835.4268541733909
 20
1415.971791257022
 30
0.0
 11
839.4268541733909
 21
1415.971791257022
 31
0.0
  0
LINE
  5
FB
  8
0
  6
CONTINUOUS
 62
     7
 10
835.4268541733909
 20
1415.971791257022
 30
0.0
 11
835.4268541733909
 21
1428.971791257022
 31
0.0
  0
LINE
  5
FC
  8
0
  6
CONTINUOUS
 62
     7
 10
835.4268541733909
 20
1428.971791257022
 30
0.0
 11
822.926854173391
 21
1428.971791257022
 31
0.0
  0
LINE
  5
FD
  8
0
  6
CONTINUOUS
 62
     7
 10
822.926854173391
 20
1428.971791257022
 30
0.0
 11
822.926854173391
 21
1449.471791257022
 31
0.0
  0
LINE
  5
FE
  8
0
  6
CONTINUOUS
 62
     7
 10
822.926854173391
 20
1449.471791257022
 30
0.0
 11
821.4268541733909
 21
1449.471791257022
 31
0.0
  0
LINE
  5
FF
  8
0
  6
CONTINUOUS
 62
     7
 10
821.4268541733909
 20
1879.971791257022
 30
0.0
 11
821.4268541733909
 21
1449.471791257022
 31
0.0
  0
LINE
  5
100
  8
0
  6
CONTINUOUS
 62
     7
 10
839.4268541733909
 20
1879.971791257022
 30
0.0
 11
821.4268541733909
 21
1879.971791257022
 31
0.0
  0
LINE
  5
101
  8
0
  6
CONTINUOUS
 62
     7
 10
841.4268541733909
 20
1416.971791257022
 30
0.0
 11
841.4268541733909
 21
1878.971791257022
 31
0.0
  0
LINE
  5
102
  8
0
  6
CONTINUOUS
 62
     7
 10
841.4268541733909
 20
1416.971791257022
 30
0.0
 11
839.4268541733909
 21
1416.971791257022
 31
0.0
  0
LINE
  5
103
  8
0
  6
CONTINUOUS
 62
     7
 10
841.4268541733909
 20
1878.971791257022
 30
0.0
 11
839.4268541733909
 21
1878.971791257022
 31
0.0
  0
LINE
  5
104
  8
0
  6
CONTINUOUS
 62
     7
 10
841.4268541733909
 20
1878.971791257022
 30
0.0
 11
842.4268541733909
 21
1877.971791257022
 31
0.0
  0
LINE
  5
105
  8
0
  6
CONTINUOUS
 62
     7
 10
842.4268541733909
 20
1877.971791257022
 30
0.0
 11
842.4268541733909
 21
1417.971791257022
 31
0.0
  0
LINE
  5
106
  8
0
  6
CONTINUOUS
 62
     7
 10
841.4268541733909
 20
1416.971791257022
 30
0.0
 11
842.4268541733909
 21
1417.971791257022
 31
0.0
  0
LINE
  5
107
  8
0
  6
CONTINUOUS
 62
     7
 10
821.1268541733909
 20
1448.771791257023
 30
0.0
 11
821.3268541733909
 21
1448.771791257023
 31
0.0
  0
LINE
  5
108
  8
0
  6
CONTINUOUS
 62
     7
 10
821.3268541733909
 20
1448.771791257023
 30
0.0
 11
821.3268541733909
 21
1427.971791257023
 31
0.0
  0
LINE
  5
109
  8
0
  6
CONTINUOUS
 62
     7
 10
821.1268541733909
 20
1427.971791257023
 30
0.0
 11
821.3268541733909
 21
1427.971791257023
 31
0.0
  0
ARC
  5
10A
  8
0
  6
CONTINUOUS
 62
     7
 10
822.1268541733908
 20
1427.971791257023
 30
0.0
 40
1.000000000000227
 50
180.0
 51
270.0000000000008
  0
ARC
  5
10B
  8
0
  6
CONTINUOUS
 62
     7
 10
822.1268541733908
 20
1427.971791257023
 30
0.0
 40
0.7999999999999545
 50
180.0
 51
270.0000000000008
  0
LINE
  5
10C
  8
0
  6
CONTINUOUS
 62
     7
 10
822.1268541733908
 20
1426.971791257023
 30
0.0
 11
822.1268541733908
 21
1427.171791257023
 31
0.0
  0
LINE
  5
10D
  8
0
  6
CONTINUOUS
 62
     7
 10
832.5100404034102
 20
1426.971791257023
 30
0.0
 11
822.1268541733908
 21
1426.971791257023
 31
0.0
  0
LINE
  5
10E
  8
0
  6
CONTINUOUS
 62
     7
 10
822.1268541733908
 20
1427.171791257023
 30
0.0
 11
832.5100404034102
 21
1427.171791257023
 31
0.0
  0
LINE
  5
10F
  8
0
  6
CONTINUOUS
 62
     7
 10
832.5100404034102
 20
1426.971791257023
 30
0.0
 11
832.5100404034102
 21
1427.171791257023
 31
0.0
  0
LINE
  5
110
  8
0
  6
CONTINUOUS
 62
     7
 10
835.226854173391
 20
1415.771791257023
 30
0.0
 11
835.226854173391
 21
1428.771791257023
 31
0.0
  0
LINE
  5
111
  8
0
  6
CONTINUOUS
 62
     7
 10
835.6440658568489
 20
1415.771791257023
 30
0.0
 11
835.226854173391
 21
1415.771791257023
 31
0.0
  0
ARC
  5
112
  8
0
  6
CONTINUOUS
 62
     7
 10
835.426892499319
 20
1415.978759208115
 30
0.0
 40
0.2999999999999504
 50
279.5765884810634
 51
316.3783470327297
  0
ARC
  5
113
  8
0
  6
CONTINUOUS
 62
     7
 10
835.3437095758942
 20
1416.471791257023
 30
0.0
 40
0.7999999999999607
 50
184.9699465946793
 51
279.5765884810652
  0
LINE
  5
114
  8
0
  6
CONTINUOUS
 62
     7
 10
833.70552873572
 20
1426.075751092111
 30
0.0
 11
834.5467173543544
 21
1416.402484700298
 31
0.0
  0
ARC
  5
115
  8
0
  6
CONTINUOUS
 62
     7
 10
832.5100404034102
 20
1425.971791257023
 30
0.0
 40
1.200000000000074
 50
4.969946594688837
 51
90.0
  0
LINE
  5
116
  8
0
  6
CONTINUOUS
 62
     7
 10
822.7268541733908
 20
1448.771791257023
 30
0.0
 11
821.3268541733909
 21
1448.771791257023
 31
0.0
  0
LINE
  5
117
  8
0
  6
CONTINUOUS
 62
     7
 10
822.7268541733908
 20
1428.771791257023
 30
0.0
 11
822.7268541733908
 21
1448.771791257023
 31
0.0
  0
LINE
  5
118
  8
0
  6
CONTINUOUS
 62
     7
 10
835.226854173391
 20
1428.771791257023
 30
0.0
 11
822.7268541733908
 21
1428.771791257023
 31
0.0
  0
ARC
  5
119
  8
0
  6
CONTINUOUS
 62
     7
 10
832.5100404034102
 20
1425.971791257023
 30
0.0
 40
1.000000000000084
 50
4.969946594690906
 51
90.0
  0
LINE
  5
11A
  8
0
  6
CONTINUOUS
 62
     7
 10
833.5062806803351
 20
1426.058424452929
 30
0.0
 11
833.70552873572
 21
1426.075751092111
 31
0.0
  0
LINE
  5
11B
  8
0
  6
CONTINUOUS
 62
     7
 10
834.3474692989695
 20
1416.385158061117
 30
0.0
 11
833.5062806803351
 21
1426.058424452929
 31
0.0
  0
LINE
  5
11C
  8
0
  6
CONTINUOUS
 62
     7
 10
834.5467173543544
 20
1416.402484700298
 30
0.0
 11
834.3474692989695
 21
1416.385158061117
 31
0.0
  0
LINE
  5
11D
  8
0
  6
CONTINUOUS
 62
     7
 10
835.4768022533739
 20
1415.68293997877
 30
0.0
 11
835.5100754227439
 21
1415.485727159207
 31
0.0
  0
ARC
  5
11E
  8
0
  6
CONTINUOUS
 62
     7
 10
835.3437095758942
 20
1416.471791257023
 30
0.0
 40
0.9999999999999509
 50
184.9699465946793
 51
279.5765884810684
  0
LINE
  5
11F
  8
0
  6
CONTINUOUS
 62
     7
 10
835.226854173391
 20
1415.771791257023
 30
0.0
 11
835.4268541733909
 21
1415.971791257023
 31
0.0
  0
POLYLINE
  5
120
  8
0
  6
CONTINUOUS
 62
     7
 66
     1
 10
0.0
 20
0.0
 30
0.0
  0
VERTEX
  5
338
  8
0
  6
CONTINUOUS
 62
     7
 10
835.6440658568489
 20
1415.771791257023
 30
0.0
  0
VERTEX
  5
339
  8
0
  6
CONTINUOUS
 62
     7
 10
835.6504173167629
 20
1415.7745491892
 30
0.0
  0
VERTEX
  5
33A
  8
0
  6
CONTINUOUS
 62
     7
 10
835.6567453780887
 20
1415.777375628948
 30
0.0
  0
VERTEX
  5
33B
  8
0
  6
CONTINUOUS
 62
     7
 10
835.6630480566571
 20
1415.780271416112
 30
0.0
  0
VERTEX
  5
33C
  8
0
  6
CONTINUOUS
 62
     7
 10
835.6693242597921
 20
1415.783234573495
 30
0.0
  0
VERTEX
  5
33D
  8
0
  6
CONTINUOUS
 62
     7
 10
835.6755728948169
 20
1415.786263123903
 30
0.0
  0
VERTEX
  5
33E
  8
0
  6
CONTINUOUS
 62
     7
 10
835.6817928690552
 20
1415.789355090143
 30
0.0
  0
VERTEX
  5
33F
  8
0
  6
CONTINUOUS
 62
     7
 10
835.6879830898304
 20
1415.792508495017
 30
0.0
  0
VERTEX
  5
340
  8
0
  6
CONTINUOUS
 62
     7
 10
835.6941424644659
 20
1415.795721361332
 30
0.0
  0
VERTEX
  5
341
  8
0
  6
CONTINUOUS
 62
     7
 10
835.7002699002859
 20
1415.798991711893
 30
0.0
  0
VERTEX
  5
342
  8
0
  6
CONTINUOUS
 62
     7
 10
835.7063643046132
 20
1415.802317569505
 30
0.0
  0
VERTEX
  5
343
  8
0
  6
CONTINUOUS
 62
     7
 10
835.712424584772
 20
1415.805696956972
 30
0.0
  0
VERTEX
  5
344
  8
0
  6
CONTINUOUS
 62
     7
 10
835.718449648085
 20
1415.8091278971
 30
0.0
  0
VERTEX
  5
345
  8
0
  6
CONTINUOUS
 62
     7
 10
835.7244384018762
 20
1415.812608412693
 30
0.0
  0
VERTEX
  5
346
  8
0
  6
CONTINUOUS
 62
     7
 10
835.7303897534695
 20
1415.816136526558
 30
0.0
  0
VERTEX
  5
347
  8
0
  6
CONTINUOUS
 62
     7
 10
835.7363026101881
 20
1415.819710261498
 30
0.0
  0
VERTEX
  5
348
  8
0
  6
CONTINUOUS
 62
     7
 10
835.7421758793553
 20
1415.82332764032
 30
0.0
  0
VERTEX
  5
349
  8
0
  6
CONTINUOUS
 62
     7
 10
835.7480084682952
 20
1415.826986685827
 30
0.0
  0
VERTEX
  5
34A
  8
0
  6
CONTINUOUS
 62
     7
 10
835.7537992843307
 20
1415.830685420826
 30
0.0
  0
VERTEX
  5
34B
  8
0
  6
CONTINUOUS
 62
     7
 10
835.7595472347857
 20
1415.834421868121
 30
0.0
  0
VERTEX
  5
34C
  8
0
  6
CONTINUOUS
 62
     7
 10
835.7652512269838
 20
1415.838194050517
 30
0.0
  0
VERTEX
  5
34D
  8
0
  6
CONTINUOUS
 62
     7
 10
835.7709101682486
 20
1415.841999990819
 30
0.0
  0
VERTEX
  5
34E
  8
0
  6
CONTINUOUS
 62
     7
 10
835.7765229659034
 20
1415.845837711833
 30
0.0
  0
VERTEX
  5
34F
  8
0
  6
CONTINUOUS
 62
     7
 10
835.7820885272718
 20
1415.849705236363
 30
0.0
  0
VERTEX
  5
350
  8
0
  6
CONTINUOUS
 62
     7
 10
835.7876057596773
 20
1415.853600587215
 30
0.0
  0
VERTEX
  5
351
  8
0
  6
CONTINUOUS
 62
     7
 10
835.7930735106967
 20
1415.857521709371
 30
0.0
  0
VERTEX
  5
352
  8
0
  6
CONTINUOUS
 62
     7
 10
835.7984895688959
 20
1415.861465168409
 30
0.0
  0
VERTEX
  5
353
  8
0
  6
CONTINUOUS
 62
     7
 10
835.8038508140061
 20
1415.865426346116
 30
0.0
  0
VERTEX
  5
354
  8
0
  6
CONTINUOUS
 62
     7
 10
835.8091540962648
 20
1415.869400585862
 30
0.0
  0
VERTEX
  5
355
  8
0
  6
CONTINUOUS
 62
     7
 10
835.8143962659099
 20
1415.873383231015
 30
0.0
  0
VERTEX
  5
356
  8
0
  6
CONTINUOUS
 62
     7
 10
835.8195741731795
 20
1415.877369624946
 30
0.0
  0
VERTEX
  5
357
  8
0
  6
CONTINUOUS
 62
     7
 10
835.8246846683115
 20
1415.881355111025
 30
0.0
  0
VERTEX
  5
358
  8
0
  6
CONTINUOUS
 62
     7
 10
835.829724601544
 20
1415.88533503262
 30
0.0
  0
VERTEX
  5
359
  8
0
  6
CONTINUOUS
 62
     7
 10
835.8346908231148
 20
1415.889304733103
 30
0.0
  0
VERTEX
  5
35A
  8
0
  6
CONTINUOUS
 62
     7
 10
835.8395801832617
 20
1415.893259555842
 30
0.0
  0
VERTEX
  5
35B
  8
0
  6
CONTINUOUS
 62
     7
 10
835.844389532223
 20
1415.897194844208
 30
0.0
  0
VERTEX
  5
35C
  8
0
  6
CONTINUOUS
 62
     7
 10
835.8491157202366
 20
1415.90110594157
 30
0.0
  0
VERTEX
  5
35D
  8
0
  6
CONTINUOUS
 62
     7
 10
835.8537555975404
 20
1415.904988191298
 30
0.0
  0
VERTEX
  5
35E
  8
0
  6
CONTINUOUS
 62
     7
 10
835.8583060143725
 20
1415.908836936762
 30
0.0
  0
VERTEX
  5
35F
  8
0
  6
CONTINUOUS
 62
     7
 10
835.8627638200928
 20
1415.91264752002
 30
0.0
  0
VERTEX
  5
360
  8
0
  6
CONTINUOUS
 62
     7
 10
835.8671254847186
 20
1415.91641471584
 30
0.0
  0
VERTEX
  5
361
  8
0
  6
CONTINUOUS
 62
     7
 10
835.8713865082943
 20
1415.92013184845
 30
0.0
  0
VERTEX
  5
362
  8
0
  6
CONTINUOUS
 62
     7
 10
835.8755422380422
 20
1415.923792013541
 30
0.0
  0
VERTEX
  5
363
  8
0
  6
CONTINUOUS
 62
     7
 10
835.8795880211844
 20
1415.927388306802
 30
0.0
  0
VERTEX
  5
364
  8
0
  6
CONTINUOUS
 62
     7
 10
835.8835192049438
 20
1415.930913823925
 30
0.0
  0
VERTEX
  5
365
  8
0
  6
CONTINUOUS
 62
     7
 10
835.8873311365429
 20
1415.934361660599
 30
0.0
  0
VERTEX
  5
366
  8
0
  6
CONTINUOUS
 62
     7
 10
835.891019163204
 20
1415.937724912515
 30
0.0
  0
VERTEX
  5
367
  8
0
  6
CONTINUOUS
 62
     7
 10
835.8945786321492
 20
1415.940996675364
 30
0.0
  0
VERTEX
  5
368
  8
0
  6
CONTINUOUS
 62
     7
 10
835.8980048906012
 20
1415.944170044834
 30
0.0
  0
VERTEX
  5
369
  8
0
  6
CONTINUOUS
 62
     7
 10
835.9012932857735
 20
1415.947238116608
 30
0.0
  0
VERTEX
  5
36A
  8
0
  6
CONTINUOUS
 62
     7
 10
835.9044366554942
 20
1415.950191434768
 30
0.0
  0
VERTEX
  5
36B
  8
0
  6
CONTINUOUS
 62
     7
 10
835.9074182668352
 20
1415.953010811626
 30
0.0
  0
VERTEX
  5
36C
  8
0
  6
CONTINUOUS
 62
     7
 10
835.9102191054941
 20
1415.955674739744
 30
0.0
  0
VERTEX
  5
36D
  8
0
  6
CONTINUOUS
 62
     7
 10
835.9128201571687
 20
1415.958161711685
 30
0.0
  0
VERTEX
  5
36E
  8
0
  6
CONTINUOUS
 62
     7
 10
835.9152024075564
 20
1415.960450220008
 30
0.0
  0
VERTEX
  5
36F
  8
0
  6
CONTINUOUS
 62
     7
 10
835.9173468423546
 20
1415.962518757276
 30
0.0
  0
VERTEX
  5
370
  8
0
  6
CONTINUOUS
 62
     7
 10
835.9192344472616
 20
1415.964345816049
 30
0.0
  0
VERTEX
  5
371
  8
0
  6
CONTINUOUS
 62
     7
 10
835.9208475607154
 20
1415.965911264031
 30
0.0
  0
VERTEX
  5
372
  8
0
  6
CONTINUOUS
 62
     7
 10
835.9221965745354
 20
1415.967223486858
 30
0.0
  0
VERTEX
  5
373
  8
0
  6
CONTINUOUS
 62
     7
 10
835.9233183325637
 20
1415.968317760226
 30
0.0
  0
VERTEX
  5
374
  8
0
  6
CONTINUOUS
 62
     7
 10
835.9242507107665
 20
1415.969230409045
 30
0.0
  0
VERTEX
  5
375
  8
0
  6
CONTINUOUS
 62
     7
 10
835.925031585108
 20
1415.969997758224
 30
0.0
  0
VERTEX
  5
376
  8
0
  6
CONTINUOUS
 62
     7
 10
835.9256988315536
 20
1415.970656132673
 30
0.0
  0
VERTEX
  5
377
  8
0
  6
CONTINUOUS
 62
     7
 10
835.926290326069
 20
1415.971241857303
 30
0.0
  0
VERTEX
  5
378
  8
0
  6
CONTINUOUS
 62
     7
 10
835.926843944619
 20
1415.971791257023
 30
0.0
  0
SEQEND
  5
3BE
  8
0
  6
CONTINUOUS
 62
     7
  0
LINE
  5
121
  8
0
  6
CONTINUOUS
 62
     7
 10
835.226854173391
 20
1428.771791257023
 30
0.0
 11
835.4268541733909
 21
1428.971791257023
 31
0.0
  0
ARC
  5
122
  8
0
  6
CONTINUOUS
 62
     7
 10
835.426892499319
 20
1415.978759208115
 30
0.0
 40
0.4999999999999618
 50
279.5765884810706
 51
359.2015057739033
  0
LINE
  5
123
  8
0
  6
CONTINUOUS
 62
     7
 10
822.9268541733909
 20
1448.971791257023
 30
0.0
 11
822.7268541733908
 21
1448.771791257023
 31
0.0
  0
LINE
  5
124
  8
0
  6
CONTINUOUS
 62
     7
 10
822.7268541733908
 20
1428.771791257023
 30
0.0
 11
822.9268541733909
 21
1428.971791257023
 31
0.0
  0
LINE
  5
125
  8
0
  6
CONTINUOUS
 62
     7
 10
821.3268541733909
 20
1448.971791257023
 30
0.0
 11
821.3268541733909
 21
1448.771791257023
 31
0.0
  0
ARC
  5
126
  8
0
  6
CONTINUOUS
 62
     7
 10
821.3268541733909
 20
1448.771791257023
 30
0.0
 40
0.1999999999999318
 50
90.0
 51
180.0
  0
LINE
  5
127
  8
0
  6
CONTINUOUS
 62
     7
 10
821.3268541733909
 20
1448.971791257023
 30
0.0
 11
822.9268541733909
 21
1448.971791257023
 31
0.0
  0
LINE
  5
128
  8
0
  6
CONTINUOUS
 62
     7
 10
541.1268541733909
 20
1880.971791257022
 30
0.0
 11
820.1268541733908
 21
1880.971791257022
 31
0.0
  0
LINE
  5
129
  8
0
  6
CONTINUOUS
 62
     7
 10
820.1268541733908
 20
982.9717912570276
 30
0.0
 11
820.1268541733908
 21
1880.971791257022
 31
0.0
  0
LINE
  5
12A
  8
0
  6
CONTINUOUS
 62
     7
 10
541.1268541733909
 20
982.9717912570276
 30
0.0
 11
820.1268541733908
 21
982.9717912570276
 31
0.0
  0
LINE
  5
12B
  8
0
  6
CONTINUOUS
 62
     7
 10
541.1268541733909
 20
982.9717912570276
 30
0.0
 11
541.1268541733909
 21
1880.971791257022
 31
0.0
  0
LINE
  5
12C
  8
0
  6
CONTINUOUS
 62
     7
 10
820.1268541733908
 20
982.4717912570275
 30
0.0
 11
820.1268541733908
 21
982.9717912570273
 31
0.0
  0
LINE
  5
12D
  8
0
  6
CONTINUOUS
 62
     7
 10
541.1268541733909
 20
982.4717912570275
 30
0.0
 11
541.1268541733909
 21
982.9717912570273
 31
0.0
  0
LINE
  5
12E
  8
0
  6
CONTINUOUS
 62
     7
 10
820.1268541733908
 20
982.4717912570275
 30
0.0
 11
541.1268541733909
 21
982.4717912570275
 31
0.0
  0
LINE
  5
12F
  8
0
  6
CONTINUOUS
 62
     7
 10
821.1268541733909
 20
982.4717912570275
 30
0.0
 11
821.1268541733909
 21
1881.471791257022
 31
0.0
  0
LINE
  5
130
  8
0
  6
CONTINUOUS
 62
     7
 10
820.1268541733908
 20
1881.471791257022
 30
0.0
 11
820.1268541733908
 21
982.4717912570275
 31
0.0
  0
LINE
  5
131
  8
0
  6
CONTINUOUS
 62
     7
 10
821.1268541733909
 20
1881.471791257022
 30
0.0
 11
820.1268541733908
 21
1881.471791257022
 31
0.0
  0
LINE
  5
132
  8
0
  6
CONTINUOUS
 62
     7
 10
821.1268541733909
 20
982.4717912570275
 30
0.0
 11
820.1268541733908
 21
982.4717912570275
 31
0.0
  0
LINE
  5
133
  8
0
  6
CONTINUOUS
 62
     7
 10
820.1268541733908
 20
1881.471791257022
 30
0.0
 11
541.1268541733909
 21
1881.471791257022
 31
0.0
  0
LINE
  5
134
  8
0
  6
CONTINUOUS
 62
     7
 10
820.1268541733908
 20
1881.471791257022
 30
0.0
 11
820.1268541733908
 21
1880.971791257022
 31
0.0
  0
LINE
  5
135
  8
0
  6
CONTINUOUS
 62
     7
 10
541.1268541733909
 20
1881.471791257022
 30
0.0
 11
541.1268541733909
 21
1880.971791257022
 31
0.0
  0
LINE
  5
136
  8
0
  6
CONTINUOUS
 62
     7
 10
3117.801248401817
 20
1428.97179125702
 30
0.0
 11
3117.801248401817
 21
1449.47179125702
 31
0.0
  0
LINE
  5
137
  8
0
  6
CONTINUOUS
 62
     7
 10
3105.301248401817
 20
1428.97179125702
 30
0.0
 11
3117.801248401817
 21
1428.97179125702
 31
0.0
  0
LINE
  5
138
  8
0
  6
CONTINUOUS
 62
     7
 10
3105.301248401817
 20
1415.97179125702
 30
0.0
 11
3105.301248401817
 21
1428.97179125702
 31
0.0
  0
LINE
  5
139
  8
0
  6
CONTINUOUS
 62
     7
 10
3101.301248401817
 20
1415.97179125702
 30
0.0
 11
3105.301248401817
 21
1415.97179125702
 31
0.0
  0
LINE
  5
13A
  8
0
  6
CONTINUOUS
 62
     7
 10
3101.301248401817
 20
1879.97179125702
 30
0.0
 11
3101.301248401817
 21
1415.97179125702
 31
0.0
  0
LINE
  5
13B
  8
0
  6
CONTINUOUS
 62
     7
 10
3119.301248401817
 20
1879.97179125702
 30
0.0
 11
3101.301248401817
 21
1879.97179125702
 31
0.0
  0
LINE
  5
13C
  8
0
  6
CONTINUOUS
 62
     7
 10
3119.301248401817
 20
1449.47179125702
 30
0.0
 11
3119.301248401817
 21
1879.97179125702
 31
0.0
  0
LINE
  5
13D
  8
0
  6
CONTINUOUS
 62
     7
 10
3117.801248401817
 20
1449.47179125702
 30
0.0
 11
3119.301248401817
 21
1449.47179125702
 31
0.0
  0
LINE
  5
13E
  8
0
  6
CONTINUOUS
 62
     7
 10
3098.301248401818
 20
1417.97179125702
 30
0.0
 11
3098.301248401818
 21
1877.97179125702
 31
0.0
  0
LINE
  5
13F
  8
0
  6
CONTINUOUS
 62
     7
 10
3098.301248401818
 20
1877.97179125702
 30
0.0
 11
3099.301248401817
 21
1878.97179125702
 31
0.0
  0
LINE
  5
140
  8
0
  6
CONTINUOUS
 62
     7
 10
3099.301248401817
 20
1878.97179125702
 30
0.0
 11
3099.301248401817
 21
1416.97179125702
 31
0.0
  0
LINE
  5
141
  8
0
  6
CONTINUOUS
 62
     7
 10
3098.301248401818
 20
1417.97179125702
 30
0.0
 11
3099.301248401817
 21
1416.97179125702
 31
0.0
  0
LINE
  5
142
  8
0
  6
CONTINUOUS
 62
     7
 10
3099.301248401817
 20
1878.97179125702
 30
0.0
 11
3101.301248401817
 21
1878.97179125702
 31
0.0
  0
LINE
  5
143
  8
0
  6
CONTINUOUS
 62
     7
 10
3099.301248401817
 20
1416.97179125702
 30
0.0
 11
3101.301248401817
 21
1416.97179125702
 31
0.0
  0
LINE
  5
144
  8
0
  6
CONTINUOUS
 62
     7
 10
3119.601248401817
 20
1448.77179125702
 30
0.0
 11
3119.401248401818
 21
1448.77179125702
 31
0.0
  0
LINE
  5
145
  8
0
  6
CONTINUOUS
 62
     7
 10
3119.401248401818
 20
1448.97179125702
 30
0.0
 11
3119.401248401818
 21
1448.77179125702
 31
0.0
  0
ARC
  5
146
  8
0
  6
CONTINUOUS
 62
     7
 10
3119.401248401818
 20
1448.77179125702
 30
0.0
 40
0.2000000000000455
 50
0.0
 51
90.0
  0
LINE
  5
147
  8
0
  6
CONTINUOUS
 62
     7
 10
3119.601248401817
 20
1427.97179125702
 30
0.0
 11
3119.401248401817
 21
1427.97179125702
 31
0.0
  0
LINE
  5
148
  8
0
  6
CONTINUOUS
 62
     7
 10
3119.401248401817
 20
1427.97179125702
 30
0.0
 11
3119.401248401818
 21
1448.77179125702
 31
0.0
  0
LINE
  5
149
  8
0
  6
CONTINUOUS
 62
     7
 10
3117.801248401818
 20
1448.97179125702
 30
0.0
 11
3118.001248401818
 21
1448.77179125702
 31
0.0
  0
LINE
  5
14A
  8
0
  6
CONTINUOUS
 62
     7
 10
3118.001248401818
 20
1448.77179125702
 30
0.0
 11
3118.001248401818
 21
1428.77179125702
 31
0.0
  0
LINE
  5
14B
  8
0
  6
CONTINUOUS
 62
     7
 10
3117.801248401817
 20
1428.97179125702
 30
0.0
 11
3118.001248401818
 21
1428.77179125702
 31
0.0
  0
LINE
  5
14C
  8
0
  6
CONTINUOUS
 62
     7
 10
3117.801248401818
 20
1448.97179125702
 30
0.0
 11
3119.401248401818
 21
1448.97179125702
 31
0.0
  0
LINE
  5
14D
  8
0
  6
CONTINUOUS
 62
     7
 10
3119.401248401818
 20
1448.77179125702
 30
0.0
 11
3118.001248401818
 21
1448.77179125702
 31
0.0
  0
ARC
  5
14E
  8
0
  6
CONTINUOUS
 62
     7
 10
3108.218062171798
 20
1425.97179125702
 30
0.0
 40
1.200000000000414
 50
90.0
 51
175.0300534053126
  0
LINE
  5
14F
  8
0
  6
CONTINUOUS
 62
     7
 10
3106.181385220854
 20
1416.402484700295
 30
0.0
 11
3107.022573839488
 21
1426.075751092107
 31
0.0
  0
ARC
  5
150
  8
0
  6
CONTINUOUS
 62
     7
 10
3105.384392999314
 20
1416.47179125702
 30
0.0
 40
0.7999999999999607
 50
260.4234115189525
 51
355.0300534053223
  0
ARC
  5
151
  8
0
  6
CONTINUOUS
 62
     7
 10
3105.301210075889
 20
1415.978759208112
 30
0.0
 40
0.2999999999997858
 50
223.6216529673018
 51
260.4234115190666
  0
LINE
  5
152
  8
0
  6
CONTINUOUS
 62
     7
 10
3105.501248401817
 20
1415.77179125702
 30
0.0
 11
3105.084036718359
 21
1415.77179125702
 31
0.0
  0
LINE
  5
153
  8
0
  6
CONTINUOUS
 62
     7
 10
3105.501248401817
 20
1428.77179125702
 30
0.0
 11
3105.501248401817
 21
1415.77179125702
 31
0.0
  0
LINE
  5
154
  8
0
  6
CONTINUOUS
 62
     7
 10
3118.001248401818
 20
1428.77179125702
 30
0.0
 11
3105.501248401817
 21
1428.77179125702
 31
0.0
  0
ARC
  5
155
  8
0
  6
CONTINUOUS
 62
     7
 10
3118.601248401817
 20
1427.97179125702
 30
0.0
 40
0.7999999999999545
 50
270.0000000000008
 51
0.0
  0
LINE
  5
156
  8
0
  6
CONTINUOUS
 62
     7
 10
3108.218062171798
 20
1427.17179125702
 30
0.0
 11
3118.601248401817
 21
1427.17179125702
 31
0.0
  0
LINE
  5
157
  8
0
  6
CONTINUOUS
 62
     7
 10
3105.301248401817
 20
1428.97179125702
 30
0.0
 11
3105.501248401817
 21
1428.77179125702
 31
0.0
  0
LINE
  5
158
  8
0
  6
CONTINUOUS
 62
     7
 10
3105.301248401817
 20
1415.97179125702
 30
0.0
 11
3105.501248401817
 21
1415.77179125702
 31
0.0
  0
POLYLINE
  5
159
  8
0
  6
CONTINUOUS
 62
     7
 66
     1
 10
0.0
 20
0.0
 30
0.0
  0
VERTEX
  5
379
  8
0
  6
CONTINUOUS
 62
     7
 10
3105.08403671836
 20
1415.77179125702
 30
0.0
  0
VERTEX
  5
37A
  8
0
  6
CONTINUOUS
 62
     7
 10
3105.077685258445
 20
1415.774549189198
 30
0.0
  0
VERTEX
  5
37B
  8
0
  6
CONTINUOUS
 62
     7
 10
3105.07135719712
 20
1415.777375628945
 30
0.0
  0
VERTEX
  5
37C
  8
0
  6
CONTINUOUS
 62
     7
 10
3105.065054518552
 20
1415.780271416109
 30
0.0
  0
VERTEX
  5
37D
  8
0
  6
CONTINUOUS
 62
     7
 10
3105.058778315416
 20
1415.783234573492
 30
0.0
  0
VERTEX
  5
37E
  8
0
  6
CONTINUOUS
 62
     7
 10
3105.052529680392
 20
1415.7862631239
 30
0.0
  0
VERTEX
  5
37F
  8
0
  6
CONTINUOUS
 62
     7
 10
3105.046309706154
 20
1415.78935509014
 30
0.0
  0
VERTEX
  5
380
  8
0
  6
CONTINUOUS
 62
     7
 10
3105.040119485378
 20
1415.792508495014
 30
0.0
  0
VERTEX
  5
381
  8
0
  6
CONTINUOUS
 62
     7
 10
3105.033960110743
 20
1415.795721361329
 30
0.0
  0
VERTEX
  5
382
  8
0
  6
CONTINUOUS
 62
     7
 10
3105.027832674923
 20
1415.79899171189
 30
0.0
  0
VERTEX
  5
383
  8
0
  6
CONTINUOUS
 62
     7
 10
3105.021738270596
 20
1415.802317569501
 30
0.0
  0
VERTEX
  5
384
  8
0
  6
CONTINUOUS
 62
     7
 10
3105.015677990438
 20
1415.805696956968
 30
0.0
  0
VERTEX
  5
385
  8
0
  6
CONTINUOUS
 62
     7
 10
3105.009652927124
 20
1415.809127897096
 30
0.0
  0
VERTEX
  5
386
  8
0
  6
CONTINUOUS
 62
     7
 10
3105.003664173332
 20
1415.81260841269
 30
0.0
  0
VERTEX
  5
387
  8
0
  6
CONTINUOUS
 62
     7
 10
3104.99771282174
 20
1415.816136526555
 30
0.0
  0
VERTEX
  5
388
  8
0
  6
CONTINUOUS
 62
     7
 10
3104.991799965021
 20
1415.819710261495
 30
0.0
  0
VERTEX
  5
389
  8
0
  6
CONTINUOUS
 62
     7
 10
3104.985926695853
 20
1415.823327640317
 30
0.0
  0
VERTEX
  5
38A
  8
0
  6
CONTINUOUS
 62
     7
 10
3104.980094106913
 20
1415.826986685824
 30
0.0
  0
VERTEX
  5
38B
  8
0
  6
CONTINUOUS
 62
     7
 10
3104.974303290877
 20
1415.830685420823
 30
0.0
  0
VERTEX
  5
38C
  8
0
  6
CONTINUOUS
 62
     7
 10
3104.968555340422
 20
1415.834421868117
 30
0.0
  0
VERTEX
  5
38D
  8
0
  6
CONTINUOUS
 62
     7
 10
3104.962851348224
 20
1415.838194050514
 30
0.0
  0
VERTEX
  5
38E
  8
0
  6
CONTINUOUS
 62
     7
 10
3104.95719240696
 20
1415.841999990816
 30
0.0
  0
VERTEX
  5
38F
  8
0
  6
CONTINUOUS
 62
     7
 10
3104.951579609305
 20
1415.84583771183
 30
0.0
  0
VERTEX
  5
390
  8
0
  6
CONTINUOUS
 62
     7
 10
3104.946014047936
 20
1415.84970523636
 30
0.0
  0
VERTEX
  5
391
  8
0
  6
CONTINUOUS
 62
     7
 10
3104.940496815531
 20
1415.853600587212
 30
0.0
  0
VERTEX
  5
392
  8
0
  6
CONTINUOUS
 62
     7
 10
3104.935029064512
 20
1415.857521709367
 30
0.0
  0
VERTEX
  5
393
  8
0
  6
CONTINUOUS
 62
     7
 10
3104.929613006312
 20
1415.861465168406
 30
0.0
  0
VERTEX
  5
394
  8
0
  6
CONTINUOUS
 62
     7
 10
3104.924251761202
 20
1415.865426346114
 30
0.0
  0
VERTEX
  5
395
  8
0
  6
CONTINUOUS
 62
     7
 10
3104.918948478944
 20
1415.869400585859
 30
0.0
  0
VERTEX
  5
396
  8
0
  6
CONTINUOUS
 62
     7
 10
3104.913706309299
 20
1415.873383231012
 30
0.0
  0
VERTEX
  5
397
  8
0
  6
CONTINUOUS
 62
     7
 10
3104.908528402029
 20
1415.877369624943
 30
0.0
  0
VERTEX
  5
398
  8
0
  6
CONTINUOUS
 62
     7
 10
3104.903417906896
 20
1415.881355111021
 30
0.0
  0
VERTEX
  5
399
  8
0
  6
CONTINUOUS
 62
     7
 10
3104.898377973665
 20
1415.885335032617
 30
0.0
  0
VERTEX
  5
39A
  8
0
  6
CONTINUOUS
 62
     7
 10
3104.893411752093
 20
1415.889304733099
 30
0.0
  0
VERTEX
  5
39B
  8
0
  6
CONTINUOUS
 62
     7
 10
3104.888522391946
 20
1415.893259555839
 30
0.0
  0
VERTEX
  5
39C
  8
0
  6
CONTINUOUS
 62
     7
 10
3104.883713042986
 20
1415.897194844204
 30
0.0
  0
VERTEX
  5
39D
  8
0
  6
CONTINUOUS
 62
     7
 10
3104.878986854972
 20
1415.901105941567
 30
0.0
  0
VERTEX
  5
39E
  8
0
  6
CONTINUOUS
 62
     7
 10
3104.874346977668
 20
1415.904988191295
 30
0.0
  0
VERTEX
  5
39F
  8
0
  6
CONTINUOUS
 62
     7
 10
3104.869796560836
 20
1415.908836936759
 30
0.0
  0
VERTEX
  5
3A0
  8
0
  6
CONTINUOUS
 62
     7
 10
3104.865338755116
 20
1415.912647520016
 30
0.0
  0
VERTEX
  5
3A1
  8
0
  6
CONTINUOUS
 62
     7
 10
3104.86097709049
 20
1415.916414715837
 30
0.0
  0
VERTEX
  5
3A2
  8
0
  6
CONTINUOUS
 62
     7
 10
3104.856716066914
 20
1415.920131848447
 30
0.0
  0
VERTEX
  5
3A3
  8
0
  6
CONTINUOUS
 62
     7
 10
3104.852560337165
 20
1415.923792013537
 30
0.0
  0
VERTEX
  5
3A4
  8
0
  6
CONTINUOUS
 62
     7
 10
3104.848514554023
 20
1415.927388306799
 30
0.0
  0
VERTEX
  5
3A5
  8
0
  6
CONTINUOUS
 62
     7
 10
3104.844583370265
 20
1415.930913823922
 30
0.0
  0
VERTEX
  5
3A6
  8
0
  6
CONTINUOUS
 62
     7
 10
3104.840771438666
 20
1415.934361660596
 30
0.0
  0
VERTEX
  5
3A7
  8
0
  6
CONTINUOUS
 62
     7
 10
3104.837083412005
 20
1415.937724912512
 30
0.0
  0
VERTEX
  5
3A8
  8
0
  6
CONTINUOUS
 62
     7
 10
3104.833523943059
 20
1415.94099667536
 30
0.0
  0
VERTEX
  5
3A9
  8
0
  6
CONTINUOUS
 62
     7
 10
3104.830097684607
 20
1415.944170044831
 30
0.0
  0
VERTEX
  5
3AA
  8
0
  6
CONTINUOUS
 62
     7
 10
3104.826809289435
 20
1415.947238116605
 30
0.0
  0
VERTEX
  5
3AB
  8
0
  6
CONTINUOUS
 62
     7
 10
3104.823665919715
 20
1415.950191434764
 30
0.0
  0
VERTEX
  5
3AC
  8
0
  6
CONTINUOUS
 62
     7
 10
3104.820684308374
 20
1415.953010811623
 30
0.0
  0
VERTEX
  5
3AD
  8
0
  6
CONTINUOUS
 62
     7
 10
3104.817883469715
 20
1415.955674739741
 30
0.0
  0
VERTEX
  5
3AE
  8
0
  6
CONTINUOUS
 62
     7
 10
3104.81528241804
 20
1415.958161711682
 30
0.0
  0
VERTEX
  5
3AF
  8
0
  6
CONTINUOUS
 62
     7
 10
3104.812900167653
 20
1415.960450220005
 30
0.0
  0
VERTEX
  5
3B0
  8
0
  6
CONTINUOUS
 62
     7
 10
3104.810755732854
 20
1415.962518757273
 30
0.0
  0
VERTEX
  5
3B1
  8
0
  6
CONTINUOUS
 62
     7
 10
3104.808868127947
 20
1415.964345816046
 30
0.0
  0
VERTEX
  5
3B2
  8
0
  6
CONTINUOUS
 62
     7
 10
3104.807255014493
 20
1415.965911264028
 30
0.0
  0
VERTEX
  5
3B3
  8
0
  6
CONTINUOUS
 62
     7
 10
3104.805906000673
 20
1415.967223486855
 30
0.0
  0
VERTEX
  5
3B4
  8
0
  6
CONTINUOUS
 62
     7
 10
3104.804784242644
 20
1415.968317760223
 30
0.0
  0
VERTEX
  5
3B5
  8
0
  6
CONTINUOUS
 62
     7
 10
3104.803851864443
 20
1415.969230409042
 30
0.0
  0
VERTEX
  5
3B6
  8
0
  6
CONTINUOUS
 62
     7
 10
3104.803070990101
 20
1415.969997758221
 30
0.0
  0
VERTEX
  5
3B7
  8
0
  6
CONTINUOUS
 62
     7
 10
3104.802403743654
 20
1415.97065613267
 30
0.0
  0
VERTEX
  5
3B8
  8
0
  6
CONTINUOUS
 62
     7
 10
3104.801812249139
 20
1415.9712418573
 30
0.0
  0
VERTEX
  5
3B9
  8
0
  6
CONTINUOUS
 62
     7
 10
3104.801258630589
 20
1415.97179125702
 30
0.0
  0
SEQEND
  5
3BF
  8
0
  6
CONTINUOUS
 62
     7
  0
LINE
  5
15A
  8
0
  6
CONTINUOUS
 62
     7
 10
3107.022573839488
 20
1426.075751092107
 30
0.0
 11
3107.221821894873
 21
1426.058424452926
 31
0.0
  0
LINE
  5
15B
  8
0
  6
CONTINUOUS
 62
     7
 10
3107.221821894873
 20
1426.058424452926
 30
0.0
 11
3106.380633276239
 21
1416.385158061114
 31
0.0
  0
LINE
  5
15C
  8
0
  6
CONTINUOUS
 62
     7
 10
3106.181385220854
 20
1416.402484700295
 30
0.0
 11
3106.380633276239
 21
1416.385158061114
 31
0.0
  0
ARC
  5
15D
  8
0
  6
CONTINUOUS
 62
     7
 10
3105.384392999314
 20
1416.47179125702
 30
0.0
 40
0.9999999999999509
 50
260.4234115189333
 51
355.0300534053223
  0
LINE
  5
15E
  8
0
  6
CONTINUOUS
 62
     7
 10
3105.251300321835
 20
1415.682939978767
 30
0.0
 11
3105.218027152464
 21
1415.485727159204
 31
0.0
  0
ARC
  5
15F
  8
0
  6
CONTINUOUS
 62
     7
 10
3118.601248401817
 20
1427.97179125702
 30
0.0
 40
1.0
 50
270.0000000000008
 51
0.0
  0
LINE
  5
160
  8
0
  6
CONTINUOUS
 62
     7
 10
3118.601248401817
 20
1427.17179125702
 30
0.0
 11
3118.601248401817
 21
1426.97179125702
 31
0.0
  0
LINE
  5
161
  8
0
  6
CONTINUOUS
 62
     7
 10
3118.601248401817
 20
1426.97179125702
 30
0.0
 11
3108.218062171798
 21
1426.97179125702
 31
0.0
  0
LINE
  5
162
  8
0
  6
CONTINUOUS
 62
     7
 10
3108.218062171798
 20
1427.17179125702
 30
0.0
 11
3108.218062171798
 21
1426.97179125702
 31
0.0
  0
ARC
  5
163
  8
0
  6
CONTINUOUS
 62
     7
 10
3105.301210075889
 20
1415.978759208112
 30
0.0
 40
0.4999999999997816
 50
180.7984942260987
 51
260.4234115189824
  0
ARC
  5
164
  8
0
  6
CONTINUOUS
 62
     7
 10
3108.218062171798
 20
1425.97179125702
 30
0.0
 40
1.000000000000424
 50
90.0
 51
175.0300534053108
  0
LINE
  5
165
  8
0
  6
CONTINUOUS
 62
     7
 10
3399.601248401817
 20
982.9717912570223
 30
0.0
 11
3120.601248401817
 21
982.9717912570223
 31
0.0
  0
LINE
  5
166
  8
0
  6
CONTINUOUS
 62
     7
 10
3120.601248401817
 20
1880.971791257017
 30
0.0
 11
3120.601248401817
 21
982.9717912570223
 31
0.0
  0
LINE
  5
167
  8
0
  6
CONTINUOUS
 62
     7
 10
3399.601248401817
 20
1880.971791257017
 30
0.0
 11
3120.601248401817
 21
1880.971791257017
 31
0.0
  0
LINE
  5
168
  8
0
  6
CONTINUOUS
 62
     7
 10
3399.601248401817
 20
1880.971791257017
 30
0.0
 11
3399.601248401817
 21
982.9717912570223
 31
0.0
  0
LINE
  5
169
  8
0
  6
CONTINUOUS
 62
     7
 10
3120.601248401817
 20
1881.471791257018
 30
0.0
 11
3120.601248401817
 21
1880.971791257018
 31
0.0
  0
LINE
  5
16A
  8
0
  6
CONTINUOUS
 62
     7
 10
3120.601248401817
 20
1881.471791257018
 30
0.0
 11
3399.601248401817
 21
1881.471791257018
 31
0.0
  0
LINE
  5
16B
  8
0
  6
CONTINUOUS
 62
     7
 10
3399.601248401817
 20
1881.471791257018
 30
0.0
 11
3399.601248401817
 21
1880.971791257018
 31
0.0
  0
LINE
  5
16C
  8
0
  6
CONTINUOUS
 62
     7
 10
3119.601248401817
 20
1881.471791257018
 30
0.0
 11
3120.601248401817
 21
1881.471791257018
 31
0.0
  0
LINE
  5
16D
  8
0
  6
CONTINUOUS
 62
     7
 10
3120.601248401817
 20
982.4717912570225
 30
0.0
 11
3120.601248401817
 21
1881.471791257018
 31
0.0
  0
LINE
  5
16E
  8
0
  6
CONTINUOUS
 62
     7
 10
3119.601248401817
 20
982.4717912570225
 30
0.0
 11
3120.601248401817
 21
982.4717912570225
 31
0.0
  0
LINE
  5
16F
  8
0
  6
CONTINUOUS
 62
     7
 10
3119.601248401817
 20
1881.471791257018
 30
0.0
 11
3119.601248401817
 21
982.4717912570225
 31
0.0
  0
LINE
  5
170
  8
0
  6
CONTINUOUS
 62
     7
 10
3120.601248401817
 20
982.4717912570225
 30
0.0
 11
3120.601248401817
 21
982.9717912570223
 31
0.0
  0
LINE
  5
171
  8
0
  6
CONTINUOUS
 62
     7
 10
3399.601248401817
 20
982.4717912570225
 30
0.0
 11
3399.601248401817
 21
982.9717912570223
 31
0.0
  0
LINE
  5
172
  8
0
  6
CONTINUOUS
 62
     7
 10
3120.601248401817
 20
982.4717912570225
 30
0.0
 11
3399.601248401817
 21
982.4717912570225
 31
0.0
  0
LINE
  5
173
  8
0
  6
CONTINUOUS
 62
     7
 10
2026.35039685202
 20
2688.145333935656
 30
0.0
 11
2025.35039685202
 21
2688.145333935656
 31
0.0
  0
LINE
  5
174
  8
0
  6
CONTINUOUS
 62
     7
 10
2026.35039685202
 20
2688.145333935656
 30
0.0
 11
2026.35039685202
 21
2670.145333935656
 31
0.0
  0
LINE
  5
175
  8
0
  6
CONTINUOUS
 62
     7
 10
2026.35039685202
 20
2670.145333935656
 30
0.0
 11
2025.35039685202
 21
2670.145333935656
 31
0.0
  0
LINE
  5
176
  8
0
  6
CONTINUOUS
 62
     7
 10
2025.35039685202
 20
2688.145333935656
 30
0.0
 11
2025.35039685202
 21
2670.145333935656
 31
0.0
  0
LINE
  5
177
  8
0
  6
CONTINUOUS
 62
     7
 10
2274.850396852019
 20
2688.145333935656
 30
0.0
 11
2273.850396852019
 21
2688.145333935656
 31
0.0
  0
LINE
  5
178
  8
0
  6
CONTINUOUS
 62
     7
 10
2274.850396852019
 20
2670.145333935656
 30
0.0
 11
2273.850396852019
 21
2670.145333935656
 31
0.0
  0
LINE
  5
179
  8
0
  6
CONTINUOUS
 62
     7
 10
2274.850396852019
 20
2688.145333935656
 30
0.0
 11
2274.850396852019
 21
2670.145333935656
 31
0.0
  0
LINE
  5
17A
  8
0
  6
CONTINUOUS
 62
     7
 10
2273.850396852019
 20
2688.145333935656
 30
0.0
 11
2273.850396852019
 21
2670.145333935656
 31
0.0
  0
LINE
  5
17B
  8
0
  6
CONTINUOUS
 62
     7
 10
2028.850396852019
 20
2670.145333935656
 30
0.0
 11
2028.850396852019
 21
2688.145333935656
 31
0.0
  0
LINE
  5
17C
  8
0
  6
CONTINUOUS
 62
     7
 10
2028.850396852019
 20
2688.145333935656
 30
0.0
 11
2029.850396852019
 21
2688.145333935656
 31
0.0
  0
LINE
  5
17D
  8
0
  6
CONTINUOUS
 62
     7
 10
2029.850396852019
 20
2670.145333935656
 30
0.0
 11
2029.850396852019
 21
2688.145333935656
 31
0.0
  0
LINE
  5
17E
  8
0
  6
CONTINUOUS
 62
     7
 10
2028.850396852019
 20
2670.145333935656
 30
0.0
 11
2029.850396852019
 21
2670.145333935656
 31
0.0
  0
LINE
  5
17F
  8
0
  6
CONTINUOUS
 62
     7
 10
1780.35039685202
 20
2670.145333935656
 30
0.0
 11
1780.35039685202
 21
2688.145333935656
 31
0.0
  0
LINE
  5
180
  8
0
  6
CONTINUOUS
 62
     7
 10
1780.35039685202
 20
2688.145333935656
 30
0.0
 11
1781.35039685202
 21
2688.145333935656
 31
0.0
  0
LINE
  5
181
  8
0
  6
CONTINUOUS
 62
     7
 10
1780.35039685202
 20
2670.145333935656
 30
0.0
 11
1781.35039685202
 21
2670.145333935656
 31
0.0
  0
LINE
  5
182
  8
0
  6
CONTINUOUS
 62
     7
 10
1781.35039685202
 20
2670.145333935656
 30
0.0
 11
1781.35039685202
 21
2688.145333935656
 31
0.0
  0
LINE
  5
183
  8
0
  6
CONTINUOUS
 62
     7
 10
1781.35039685202
 20
2670.145333935656
 30
0.0
 11
2025.35039685202
 21
2670.145333935656
 31
0.0
  0
LINE
  5
184
  8
0
  6
CONTINUOUS
 62
     7
 10
2025.35039685202
 20
2688.145333935656
 30
0.0
 11
1781.35039685202
 21
2688.145333935656
 31
0.0
  0
LINE
  5
185
  8
0
  6
CONTINUOUS
 62
     7
 10
2273.850396852019
 20
2688.145333935656
 30
0.0
 11
2029.850396852019
 21
2688.145333935656
 31
0.0
  0
LINE
  5
186
  8
0
  6
CONTINUOUS
 62
     7
 10
2029.850396852019
 20
2670.145333935656
 30
0.0
 11
2273.850396852019
 21
2670.145333935656
 31
0.0
  0
LINE
  5
187
  8
0
  6
CONTINUOUS
 62
     7
 10
2273.850396852019
 20
2668.145333935655
 30
0.0
 11
2273.850396852019
 21
2670.145333935656
 31
0.0
  0
LINE
  5
188
  8
0
  6
CONTINUOUS
 62
     7
 10
2029.850396852019
 20
2668.145333935655
 30
0.0
 11
2273.850396852019
 21
2668.145333935655
 31
0.0
  0
LINE
  5
189
  8
0
  6
CONTINUOUS
 62
     7
 10
2029.850396852019
 20
2668.145333935655
 30
0.0
 11
2029.850396852019
 21
2670.145333935656
 31
0.0
  0
LINE
  5
18A
  8
0
  6
CONTINUOUS
 62
     7
 10
2272.850396852019
 20
2667.145333935656
 30
0.0
 11
2030.85039685202
 21
2667.145333935656
 31
0.0
  0
LINE
  5
18B
  8
0
  6
CONTINUOUS
 62
     7
 10
2029.850396852019
 20
2668.145333935655
 30
0.0
 11
2030.85039685202
 21
2667.145333935656
 31
0.0
  0
LINE
  5
18C
  8
0
  6
CONTINUOUS
 62
     7
 10
2272.850396852019
 20
2667.145333935656
 30
0.0
 11
2273.850396852019
 21
2668.145333935655
 31
0.0
  0
LINE
  5
18D
  8
0
  6
CONTINUOUS
 62
     7
 10
2025.35039685202
 20
2668.145333935655
 30
0.0
 11
2025.35039685202
 21
2670.145333935656
 31
0.0
  0
LINE
  5
18E
  8
0
  6
CONTINUOUS
 62
     7
 10
1781.35039685202
 20
2668.145333935655
 30
0.0
 11
2025.35039685202
 21
2668.145333935655
 31
0.0
  0
LINE
  5
18F
  8
0
  6
CONTINUOUS
 62
     7
 10
1781.35039685202
 20
2668.145333935655
 30
0.0
 11
1781.35039685202
 21
2670.145333935656
 31
0.0
  0
LINE
  5
190
  8
0
  6
CONTINUOUS
 62
     7
 10
2024.35039685202
 20
2667.145333935656
 30
0.0
 11
1782.35039685202
 21
2667.145333935656
 31
0.0
  0
LINE
  5
191
  8
0
  6
CONTINUOUS
 62
     7
 10
1781.35039685202
 20
2668.145333935655
 30
0.0
 11
1782.35039685202
 21
2667.145333935656
 31
0.0
  0
LINE
  5
192
  8
0
  6
CONTINUOUS
 62
     7
 10
2024.35039685202
 20
2667.145333935656
 30
0.0
 11
2025.35039685202
 21
2668.145333935655
 31
0.0
  0
LINE
  5
193
  8
0
  6
CONTINUOUS
 62
     7
 10
2028.85039685202
 20
2688.145333935654
 30
0.0
 11
2028.85039685202
 21
2688.245333935656
 31
0.0
  0
LINE
  5
194
  8
0
  6
CONTINUOUS
 62
     7
 10
2029.05039685202
 20
2688.245333935656
 30
0.0
 11
2028.85039685202
 21
2688.245333935656
 31
0.0
  0
LINE
  5
195
  8
0
  6
CONTINUOUS
 62
     7
 10
2029.85039685202
 20
2688.145333935654
 30
0.0
 11
2029.85039685202
 21
2688.245333935656
 31
0.0
  0
LINE
  5
196
  8
0
  6
CONTINUOUS
 62
     7
 10
2029.85039685202
 20
2688.245333935656
 30
0.0
 11
2029.05039685202
 21
2688.245333935656
 31
0.0
  0
LINE
  5
197
  8
0
  6
CONTINUOUS
 62
     7
 10
2029.85039685202
 20
2688.445333935656
 30
0.0
 11
2029.85039685202
 21
2688.245333935656
 31
0.0
  0
LINE
  5
198
  8
0
  6
CONTINUOUS
 62
     7
 10
2029.05039685202
 20
2688.445333935656
 30
0.0
 11
2029.05039685202
 21
2688.245333935656
 31
0.0
  0
LINE
  5
199
  8
0
  6
CONTINUOUS
 62
     7
 10
2029.05039685202
 20
2688.445333935656
 30
0.0
 11
2029.85039685202
 21
2688.445333935656
 31
0.0
  0
ARC
  5
19A
  8
0
  6
CONTINUOUS
 62
     7
 10
2029.05039685202
 20
2688.245333935656
 30
0.0
 40
0.2000000000005002
 50
90.0
 51
180.0
  0
LINE
  5
19B
  8
0
  6
CONTINUOUS
 62
     7
 10
1780.35039685202
 20
2688.145333935654
 30
0.0
 11
1780.35039685202
 21
2688.245333935656
 31
0.0
  0
LINE
  5
19C
  8
0
  6
CONTINUOUS
 62
     7
 10
1780.55039685202
 20
2688.245333935656
 30
0.0
 11
1780.35039685202
 21
2688.245333935656
 31
0.0
  0
ARC
  5
19D
  8
0
  6
CONTINUOUS
 62
     7
 10
1780.55039685202
 20
2688.245333935656
 30
0.0
 40
0.2000000000002728
 50
90.0
 51
180.0
  0
LINE
  5
19E
  8
0
  6
CONTINUOUS
 62
     7
 10
1780.55039685202
 20
2688.445333935656
 30
0.0
 11
1780.55039685202
 21
2688.245333935656
 31
0.0
  0
LINE
  5
19F
  8
0
  6
CONTINUOUS
 62
     7
 10
1781.35039685202
 20
2688.245333935656
 30
0.0
 11
1780.55039685202
 21
2688.245333935656
 31
0.0
  0
LINE
  5
1A0
  8
0
  6
CONTINUOUS
 62
     7
 10
1781.35039685202
 20
2688.145333935654
 30
0.0
 11
1781.35039685202
 21
2688.245333935656
 31
0.0
  0
LINE
  5
1A1
  8
0
  6
CONTINUOUS
 62
     7
 10
1781.35039685202
 20
2688.445333935656
 30
0.0
 11
1781.35039685202
 21
2688.245333935656
 31
0.0
  0
LINE
  5
1A2
  8
0
  6
CONTINUOUS
 62
     7
 10
2273.85039685202
 20
2688.245333935656
 30
0.0
 11
2029.85039685202
 21
2688.245333935656
 31
0.0
  0
LINE
  5
1A3
  8
0
  6
CONTINUOUS
 62
     7
 10
2273.85039685202
 20
2688.245333935656
 30
0.0
 11
2273.85039685202
 21
2688.145333935654
 31
0.0
  0
LINE
  5
1A4
  8
0
  6
CONTINUOUS
 62
     7
 10
2029.85039685202
 20
2688.445333935656
 30
0.0
 11
2259.35039685202
 21
2688.445333935656
 31
0.0
  0
LINE
  5
1A5
  8
0
  6
CONTINUOUS
 62
     7
 10
2273.85039685202
 20
2688.245333935656
 30
0.0
 11
2273.85039685202
 21
2688.445333935656
 31
0.0
  0
LINE
  5
1A6
  8
0
  6
CONTINUOUS
 62
     7
 10
2025.350396852021
 20
2688.245333935656
 30
0.0
 11
1781.35039685202
 21
2688.245333935656
 31
0.0
  0
LINE
  5
1A7
  8
0
  6
CONTINUOUS
 62
     7
 10
2025.350396852021
 20
2688.245333935656
 30
0.0
 11
2025.350396852021
 21
2688.145333935654
 31
0.0
  0
LINE
  5
1A8
  8
0
  6
CONTINUOUS
 62
     7
 10
1795.85039685202
 20
2688.445333935656
 30
0.0
 11
2025.350396852021
 21
2688.445333935656
 31
0.0
  0
LINE
  5
1A9
  8
0
  6
CONTINUOUS
 62
     7
 10
2025.350396852021
 20
2688.245333935656
 30
0.0
 11
2025.350396852021
 21
2688.445333935656
 31
0.0
  0
LINE
  5
1AA
  8
0
  6
CONTINUOUS
 62
     7
 10
2026.150396852021
 20
2688.245333935656
 30
0.0
 11
2025.350396852021
 21
2688.245333935656
 31
0.0
  0
LINE
  5
1AB
  8
0
  6
CONTINUOUS
 62
     7
 10
2025.350396852021
 20
2688.445333935656
 30
0.0
 11
2026.150396852021
 21
2688.445333935656
 31
0.0
  0
LINE
  5
1AC
  8
0
  6
CONTINUOUS
 62
     7
 10
2026.150396852021
 20
2688.245333935656
 30
0.0
 11
2026.150396852021
 21
2688.445333935656
 31
0.0
  0
ARC
  5
1AD
  8
0
  6
CONTINUOUS
 62
     7
 10
2026.150396852021
 20
2688.245333935656
 30
0.0
 40
0.2000000000002728
 50
0.0
 51
90.0
  0
LINE
  5
1AE
  8
0
  6
CONTINUOUS
 62
     7
 10
2026.150396852021
 20
2688.245333935656
 30
0.0
 11
2026.35039685202
 21
2688.245333935656
 31
0.0
  0
LINE
  5
1AF
  8
0
  6
CONTINUOUS
 62
     7
 10
2026.35039685202
 20
2688.245333935656
 30
0.0
 11
2026.35039685202
 21
2688.145333935654
 31
0.0
  0
LINE
  5
1B0
  8
0
  6
CONTINUOUS
 62
     7
 10
2274.65039685202
 20
2688.245333935656
 30
0.0
 11
2273.85039685202
 21
2688.245333935656
 31
0.0
  0
LINE
  5
1B1
  8
0
  6
CONTINUOUS
 62
     7
 10
2274.65039685202
 20
2688.245333935656
 30
0.0
 11
2274.65039685202
 21
2688.445333935656
 31
0.0
  0
ARC
  5
1B2
  8
0
  6
CONTINUOUS
 62
     7
 10
2274.65039685202
 20
2688.245333935656
 30
0.0
 40
0.2000000000002728
 50
0.0
 51
90.0
  0
LINE
  5
1B3
  8
0
  6
CONTINUOUS
 62
     7
 10
2274.65039685202
 20
2688.245333935656
 30
0.0
 11
2274.85039685202
 21
2688.245333935656
 31
0.0
  0
LINE
  5
1B4
  8
0
  6
CONTINUOUS
 62
     7
 10
2274.85039685202
 20
2688.245333935656
 30
0.0
 11
2274.85039685202
 21
2688.145333935654
 31
0.0
  0
LINE
  5
1B5
  8
0
  6
CONTINUOUS
 62
     7
 10
2259.35039685202
 20
2689.945333935656
 30
0.0
 11
1795.85039685202
 21
2689.945333935656
 31
0.0
  0
LINE
  5
1B6
  8
0
  6
CONTINUOUS
 62
     7
 10
2259.35039685202
 20
2968.445333935656
 30
0.0
 11
1795.85039685202
 21
2968.445333935656
 31
0.0
  0
LINE
  5
1B7
  8
0
  6
CONTINUOUS
 62
     7
 10
2259.35039685202
 20
2688.945333935656
 30
0.0
 11
1795.85039685202
 21
2688.945333935656
 31
0.0
  0
LINE
  5
1B8
  8
0
  6
CONTINUOUS
 62
     7
 10
2029.05039685202
 20
2688.445333935656
 30
0.0
 11
2026.150396852021
 21
2688.445333935656
 31
0.0
  0
LINE
  5
1B9
  8
0
  6
CONTINUOUS
 62
     7
 10
2259.35039685202
 20
2689.445333935656
 30
0.0
 11
2276.85039685202
 21
2689.445333935656
 31
0.0
  0
LINE
  5
1BA
  8
0
  6
CONTINUOUS
 62
     7
 10
2259.35039685202
 20
2968.445333935656
 30
0.0
 11
2259.35039685202
 21
2689.445333935656
 31
0.0
  0
LINE
  5
1BB
  8
0
  6
CONTINUOUS
 62
     7
 10
2276.85039685202
 20
2968.445333935656
 30
0.0
 11
2259.35039685202
 21
2968.445333935656
 31
0.0
  0
LINE
  5
1BC
  8
0
  6
CONTINUOUS
 62
     7
 10
2276.85039685202
 20
2689.445333935656
 30
0.0
 11
2276.85039685202
 21
2968.445333935656
 31
0.0
  0
LINE
  5
1BD
  8
0
  6
CONTINUOUS
 62
     7
 10
1778.35039685202
 20
2688.445333935656
 30
0.0
 11
1778.35039685202
 21
2689.445333935656
 31
0.0
  0
LINE
  5
1BE
  8
0
  6
CONTINUOUS
 62
     7
 10
1795.85039685202
 20
2688.445333935656
 30
0.0
 11
1795.85039685202
 21
2689.445333935656
 31
0.0
  0
LINE
  5
1BF
  8
0
  6
CONTINUOUS
 62
     7
 10
1795.85039685202
 20
2689.445333935656
 30
0.0
 11
1778.35039685202
 21
2689.445333935656
 31
0.0
  0
LINE
  5
1C0
  8
0
  6
CONTINUOUS
 62
     7
 10
1778.35039685202
 20
2688.445333935656
 30
0.0
 11
1795.85039685202
 21
2688.445333935656
 31
0.0
  0
LINE
  5
1C1
  8
0
  6
CONTINUOUS
 62
     7
 10
2276.85039685202
 20
2688.445333935656
 30
0.0
 11
2276.85039685202
 21
2689.445333935656
 31
0.0
  0
LINE
  5
1C2
  8
0
  6
CONTINUOUS
 62
     7
 10
2259.35039685202
 20
2688.445333935656
 30
0.0
 11
2259.35039685202
 21
2689.445333935656
 31
0.0
  0
LINE
  5
1C3
  8
0
  6
CONTINUOUS
 62
     7
 10
2259.35039685202
 20
2688.445333935656
 30
0.0
 11
2276.85039685202
 21
2688.445333935656
 31
0.0
  0
LINE
  5
1C4
  8
0
  6
CONTINUOUS
 62
     7
 10
1778.35039685202
 20
2689.445333935656
 30
0.0
 11
1778.35039685202
 21
2968.445333935656
 31
0.0
  0
LINE
  5
1C5
  8
0
  6
CONTINUOUS
 62
     7
 10
1778.35039685202
 20
2968.445333935656
 30
0.0
 11
1795.85039685202
 21
2968.445333935656
 31
0.0
  0
LINE
  5
1C6
  8
0
  6
CONTINUOUS
 62
     7
 10
1795.85039685202
 20
2968.445333935656
 30
0.0
 11
1795.85039685202
 21
2689.445333935656
 31
0.0
  0
LINE
  5
1C7
  8
0
  6
CONTINUOUS
 62
     8
 10
2029.05039685202
 20
2688.245333935656
 30
0.0
 11
2029.05039685202
 21
2688.145333935654
 31
0.0
  0
LINE
  5
1C8
  8
0
  6
CONTINUOUS
 62
     8
 10
1780.55039685202
 20
2688.245333935656
 30
0.0
 11
1780.55039685202
 21
2688.145333935654
 31
0.0
  0
LINE
  5
1C9
  8
0
  6
CONTINUOUS
 62
     8
 10
2026.150396852021
 20
2688.145333935654
 30
0.0
 11
2026.150396852021
 21
2688.245333935656
 31
0.0
  0
LINE
  5
1CA
  8
0
  6
CONTINUOUS
 62
     8
 10
2274.65039685202
 20
2688.145333935654
 30
0.0
 11
2274.65039685202
 21
2688.245333935656
 31
0.0
  0
LINE
  5
1CB
  8
0
  6
CONTINUOUS
 62
     7
 10
4057.075207457976
 20
1033.471791257022
 30
0.0
 11
4520.575207457976
 21
1033.471791257022
 31
0.0
  0
LINE
  5
1CC
  8
0
  6
CONTINUOUS
 62
     7
 10
4057.075207457976
 20
983.4717912570225
 30
0.0
 11
4520.575207457976
 21
983.4717912570225
 31
0.0
  0
LINE
  5
1CD
  8
0
  6
CONTINUOUS
 62
     7
 10
4057.075207457976
 20
1866.471791257022
 30
0.0
 11
4520.575207457976
 21
1866.471791257022
 31
0.0
  0
LINE
  5
1CE
  8
0
  6
CONTINUOUS
 62
     7
 10
4057.075207457976
 20
1863.971791257022
 30
0.0
 11
4057.075207457976
 21
1866.471791257022
 31
0.0
  0
LINE
  5
1CF
  8
0
  6
CONTINUOUS
 62
     7
 10
4057.075207457976
 20
1863.971791257022
 30
0.0
 11
4520.575207457976
 21
1863.971791257022
 31
0.0
  0
LINE
  5
1D0
  8
0
  6
CONTINUOUS
 62
     7
 10
4520.575207457976
 20
1863.971791257022
 30
0.0
 11
4520.575207457976
 21
1866.471791257022
 31
0.0
  0
LINE
  5
1D1
  8
0
  6
CONTINUOUS
 62
     7
 10
4057.075207457976
 20
1880.971791257022
 30
0.0
 11
4520.575207457976
 21
1880.971791257022
 31
0.0
  0
LINE
  5
1D2
  8
0
  6
CONTINUOUS
 62
     7
 10
4057.075207457976
 20
1878.471791257022
 30
0.0
 11
4057.075207457976
 21
1880.971791257022
 31
0.0
  0
LINE
  5
1D3
  8
0
  6
CONTINUOUS
 62
     7
 10
4057.075207457976
 20
1878.471791257022
 30
0.0
 11
4520.575207457976
 21
1878.471791257022
 31
0.0
  0
LINE
  5
1D4
  8
0
  6
CONTINUOUS
 62
     7
 10
4520.575207457976
 20
1878.471791257022
 30
0.0
 11
4520.575207457976
 21
1880.971791257022
 31
0.0
  0
LINE
  5
1D5
  8
0
  6
CONTINUOUS
 62
     7
 10
4057.075207457976
 20
1878.471791257022
 30
0.0
 11
4057.075207457976
 21
1866.471791257022
 31
0.0
  0
LINE
  5
1D6
  8
0
  6
CONTINUOUS
 62
     7
 10
4520.575207457976
 20
1878.471791257022
 30
0.0
 11
4520.575207457976
 21
1866.471791257022
 31
0.0
  0
LINE
  5
1D7
  8
0
  6
CONTINUOUS
 62
     7
 10
4042.075207457977
 20
1880.971791257017
 30
0.0
 11
4039.575207457976
 21
1880.971791257017
 31
0.0
  0
LINE
  5
1D8
  8
0
  6
CONTINUOUS
 62
     7
 10
4042.075207457977
 20
982.9717912570223
 30
0.0
 11
4042.075207457977
 21
1880.971791257017
 31
0.0
  0
LINE
  5
1D9
  8
0
  6
CONTINUOUS
 62
     7
 10
4039.575207457976
 20
982.9717912570223
 30
0.0
 11
4042.075207457977
 21
982.9717912570223
 31
0.0
  0
LINE
  5
1DA
  8
0
  6
CONTINUOUS
 62
     7
 10
4039.575207457976
 20
1880.971791257017
 30
0.0
 11
4039.575207457976
 21
982.9717912570223
 31
0.0
  0
LINE
  5
1DB
  8
0
  6
CONTINUOUS
 62
     7
 10
4535.575207457976
 20
982.9717912570275
 30
0.0
 11
4538.075207457976
 21
982.9717912570277
 31
0.0
  0
LINE
  5
1DC
  8
0
  6
CONTINUOUS
 62
     7
 10
4535.575207457976
 20
1880.971791257022
 30
0.0
 11
4535.575207457976
 21
982.9717912570275
 31
0.0
  0
LINE
  5
1DD
  8
0
  6
CONTINUOUS
 62
     7
 10
4538.075207457976
 20
1880.971791257022
 30
0.0
 11
4535.575207457976
 21
1880.971791257022
 31
0.0
  0
LINE
  5
1DE
  8
0
  6
CONTINUOUS
 62
     7
 10
4538.075207457976
 20
982.9717912570277
 30
0.0
 11
4538.075207457976
 21
1880.971791257022
 31
0.0
  0
LINE
  5
1DF
  8
0
  6
CONTINUOUS
 62
     7
 10
4057.075207457976
 20
1880.971791257017
 30
0.0
 11
4054.575207457976
 21
1880.971791257017
 31
0.0
  0
LINE
  5
1E0
  8
0
  6
CONTINUOUS
 62
     7
 10
4057.075207457976
 20
982.9717912570225
 30
0.0
 11
4057.075207457976
 21
1880.971791257017
 31
0.0
  0
LINE
  5
1E1
  8
0
  6
CONTINUOUS
 62
     7
 10
4054.575207457976
 20
982.9717912570225
 30
0.0
 11
4057.075207457976
 21
982.9717912570225
 31
0.0
  0
LINE
  5
1E2
  8
0
  6
CONTINUOUS
 62
     7
 10
4054.575207457976
 20
1880.971791257017
 30
0.0
 11
4054.575207457976
 21
982.9717912570225
 31
0.0
  0
LINE
  5
1E3
  8
0
  6
CONTINUOUS
 62
     7
 10
4520.575207457976
 20
982.9717912570275
 30
0.0
 11
4523.075207457977
 21
982.9717912570275
 31
0.0
  0
LINE
  5
1E4
  8
0
  6
CONTINUOUS
 62
     7
 10
4520.575207457976
 20
1880.971791257022
 30
0.0
 11
4520.575207457976
 21
982.9717912570275
 31
0.0
  0
LINE
  5
1E5
  8
0
  6
CONTINUOUS
 62
     7
 10
4523.075207457977
 20
1880.971791257022
 30
0.0
 11
4520.575207457976
 21
1880.971791257022
 31
0.0
  0
LINE
  5
1E6
  8
0
  6
CONTINUOUS
 62
     7
 10
4523.075207457977
 20
982.9717912570275
 30
0.0
 11
4523.075207457977
 21
1880.971791257022
 31
0.0
  0
LINE
  5
1E7
  8
0
  6
CONTINUOUS
 62
     7
 10
4523.075207457977
 20
1049.971791257027
 30
0.0
 11
4535.575207457976
 21
1049.971791257027
 31
0.0
  0
LINE
  5
1E8
  8
0
  6
CONTINUOUS
 62
     7
 10
4523.075207457977
 20
982.9717912570275
 30
0.0
 11
4523.075207457977
 21
1049.971791257027
 31
0.0
  0
LINE
  5
1E9
  8
0
  6
CONTINUOUS
 62
     7
 10
4523.075207457977
 20
982.9717912570275
 30
0.0
 11
4535.575207457976
 21
982.9717912570275
 31
0.0
  0
LINE
  5
1EA
  8
0
  6
CONTINUOUS
 62
     7
 10
4535.575207457976
 20
982.9717912570275
 30
0.0
 11
4535.575207457976
 21
1049.971791257027
 31
0.0
  0
LINE
  5
1EB
  8
0
  6
CONTINUOUS
 62
     7
 10
4042.075207457977
 20
1880.971791257017
 30
0.0
 11
4042.075207457977
 21
1813.971791257017
 31
0.0
  0
LINE
  5
1EC
  8
0
  6
CONTINUOUS
 62
     7
 10
4054.575207457976
 20
1880.971791257017
 30
0.0
 11
4042.075207457977
 21
1880.971791257017
 31
0.0
  0
LINE
  5
1ED
  8
0
  6
CONTINUOUS
 62
     7
 10
4054.575207457976
 20
1813.971791257017
 30
0.0
 11
4042.075207457977
 21
1813.971791257017
 31
0.0
  0
LINE
  5
1EE
  8
0
  6
CONTINUOUS
 62
     7
 10
4054.575207457976
 20
1880.971791257017
 30
0.0
 11
4054.575207457976
 21
1813.971791257017
 31
0.0
  0
LINE
  5
1EF
  8
0
  6
CONTINUOUS
 62
     7
 10
4535.575207457976
 20
1813.971791257022
 30
0.0
 11
4535.575207457976
 21
1049.971791257027
 31
0.0
  0
LINE
  5
1F0
  8
0
  6
CONTINUOUS
 62
     7
 10
4523.075207457977
 20
1813.971791257022
 30
0.0
 11
4523.075207457977
 21
1049.971791257027
 31
0.0
  0
LINE
  5
1F1
  8
0
  6
CONTINUOUS
 62
     7
 10
4523.075207457977
 20
1813.971791257022
 30
0.0
 11
4535.575207457976
 21
1813.971791257022
 31
0.0
  0
LINE
  5
1F2
  8
0
  6
CONTINUOUS
 62
     7
 10
4042.075207457977
 20
1049.971791257022
 30
0.0
 11
4042.075207457977
 21
1813.971791257017
 31
0.0
  0
LINE
  5
1F3
  8
0
  6
CONTINUOUS
 62
     7
 10
4054.575207457976
 20
1049.971791257022
 30
0.0
 11
4054.575207457976
 21
1813.971791257017
 31
0.0
  0
LINE
  5
1F4
  8
0
  6
CONTINUOUS
 62
     7
 10
4054.575207457976
 20
1049.971791257022
 30
0.0
 11
4042.075207457977
 21
1049.971791257022
 31
0.0
  0
LINE
  5
1F5
  8
0
  6
CONTINUOUS
 62
     7
 10
4523.075207457977
 20
1813.971791257022
 30
0.0
 11
4523.075207457977
 21
1880.971791257022
 31
0.0
  0
LINE
  5
1F6
  8
0
  6
CONTINUOUS
 62
     7
 10
4535.575207457976
 20
1813.971791257022
 30
0.0
 11
4535.575207457976
 21
1880.971791257022
 31
0.0
  0
LINE
  5
1F7
  8
0
  6
CONTINUOUS
 62
     7
 10
4523.075207457977
 20
1880.971791257022
 30
0.0
 11
4535.575207457976
 21
1880.971791257022
 31
0.0
  0
LINE
  5
1F8
  8
0
  6
CONTINUOUS
 62
     7
 10
4054.575207457976
 20
982.9717912570223
 30
0.0
 11
4042.075207457977
 21
982.9717912570223
 31
0.0
  0
LINE
  5
1F9
  8
0
  6
CONTINUOUS
 62
     7
 10
4042.075207457977
 20
1049.971791257022
 30
0.0
 11
4042.075207457977
 21
982.9717912570223
 31
0.0
  0
LINE
  5
1FA
  8
0
  6
CONTINUOUS
 62
     7
 10
4054.575207457976
 20
1049.971791257022
 30
0.0
 11
4054.575207457976
 21
982.9717912570223
 31
0.0
  0
LINE
  5
1FB
  8
0
  6
CONTINUOUS
 62
     7
 10
4520.575207457976
 20
982.4717912570276
 30
0.0
 11
4520.575207457976
 21
982.9717912570275
 31
0.0
  0
LINE
  5
1FC
  8
0
  6
CONTINUOUS
 62
     7
 10
4538.075207457976
 20
982.9717912570275
 30
0.0
 11
4520.575207457976
 21
982.9717912570275
 31
0.0
  0
LINE
  5
1FD
  8
0
  6
CONTINUOUS
 62
     7
 10
4538.075207457976
 20
982.4717912570276
 30
0.0
 11
4538.075207457976
 21
982.9717912570275
 31
0.0
  0
LINE
  5
1FE
  8
0
  6
CONTINUOUS
 62
     7
 10
4538.075207457976
 20
982.4717912570276
 30
0.0
 11
4520.575207457976
 21
982.4717912570276
 31
0.0
  0
LINE
  5
1FF
  8
0
  6
CONTINUOUS
 62
     7
 10
4039.575207457976
 20
1881.471791257017
 30
0.0
 11
4039.575207457976
 21
1880.971791257017
 31
0.0
  0
LINE
  5
200
  8
0
  6
CONTINUOUS
 62
     7
 10
4039.575207457976
 20
1881.471791257017
 30
0.0
 11
4057.075207457976
 21
1881.471791257017
 31
0.0
  0
LINE
  5
201
  8
0
  6
CONTINUOUS
 62
     7
 10
4039.575207457976
 20
1880.971791257017
 30
0.0
 11
4057.075207457976
 21
1880.971791257017
 31
0.0
  0
LINE
  5
202
  8
0
  6
CONTINUOUS
 62
     7
 10
4057.075207457976
 20
1881.471791257017
 30
0.0
 11
4057.075207457976
 21
1880.971791257017
 31
0.0
  0
LINE
  5
203
  8
0
  6
CONTINUOUS
 62
     7
 10
4057.075207457976
 20
982.9717912570225
 30
0.0
 11
4039.575207457976
 21
982.9717912570223
 31
0.0
  0
LINE
  5
204
  8
0
  6
CONTINUOUS
 62
     7
 10
4039.575207457976
 20
982.4717912570225
 30
0.0
 11
4039.575207457976
 21
982.9717912570223
 31
0.0
  0
LINE
  5
205
  8
0
  6
CONTINUOUS
 62
     7
 10
4057.075207457976
 20
982.4717912570225
 30
0.0
 11
4057.075207457976
 21
982.9717912570225
 31
0.0
  0
LINE
  5
206
  8
0
  6
CONTINUOUS
 62
     7
 10
4039.575207457976
 20
982.4717912570225
 30
0.0
 11
4057.075207457976
 21
982.4717912570225
 31
0.0
  0
LINE
  5
207
  8
0
  6
CONTINUOUS
 62
     7
 10
4520.575207457976
 20
1880.971791257022
 30
0.0
 11
4538.075207457976
 21
1880.971791257022
 31
0.0
  0
LINE
  5
208
  8
0
  6
CONTINUOUS
 62
     7
 10
4520.575207457976
 20
1881.471791257022
 30
0.0
 11
4520.575207457976
 21
1880.971791257022
 31
0.0
  0
LINE
  5
209
  8
0
  6
CONTINUOUS
 62
     7
 10
4538.075207457976
 20
1881.471791257022
 30
0.0
 11
4538.075207457976
 21
1880.971791257022
 31
0.0
  0
LINE
  5
20A
  8
0
  6
CONTINUOUS
 62
     7
 10
4538.075207457976
 20
1881.471791257022
 30
0.0
 11
4520.575207457976
 21
1881.471791257022
 31
0.0
  0
ENDSEC
  0
EOF
