  0
SECTION
  2
HEADER
  9
$ACADVER
  1
AC1006
  9
$DWGCODEPAGE
  3
dos932
  9
$INSBASE
 10
0.0
 20
0.0
 30
0.0
  9
$EXTMIN
 10
0.0
 20
0.0
  9
$EXTMAX
 10
5000.0
 20
3500.0
  9
$LIMMIN
 10
0.0
 20
0.0
  9
$LIMMAX
 10
5000.0
 20
3500.0
  9
$ORTHOMODE
 70
     0
  9
$REGENMODE
 70
     1
  9
$FILLMODE
 70
     1
  9
$QTEXTMODE
 70
     0
  9
$MIRRTEXT
 70
     1
  9
$DRAGMODE
 70
     2
  9
$LTSCALE
 40
1.0
  9
$OSMODE
 70
    37
  9
$ATTMODE
 70
     1
  9
$TEXTSIZE
 40
3.5
  9
$TRACEWID
 40
1.0
  9
$TEXTSTYLE
  7
STANDARD
  9
$CLAYER
  8
0
  9
$CELTYPE
  6
BYLAYER
  9
$CECOLOR
 62
   256
  9
$DIMSCALE
 40
1.0
  9
$DIMASZ
 40
3.302
  9
$DIMEXO
 40
1.0
  9
$DIMDLI
 40
3.75
  9
$DIMRND
 40
0.0
  9
$DIMDLE
 40
0.0
  9
$DIMEXE
 40
1.0
  9
$DIMTP
 40
0.0
  9
$DIMTM
 40
0.0
  9
$DIMTXT
 40
3.5
  9
$DIMCEN
 40
2.5
  9
$DIMTSZ
 40
0.0
  9
$DIMTOL
 70
     0
  9
$DIMLIM
 70
     0
  9
$DIMTIH
 70
     1
  9
$DIMTOH
 70
     1
  9
$DIMSE1
 70
     0
  9
$DIMSE2
 70
     0
  9
$DIMTAD
 70
     1
  9
$DIMZIN
 70
     0
  9
$DIMBLK
  1

  9
$DIMASO
 70
     1
  9
$DIMSHO
 70
     1
  9
$DIMPOST
  1

  9
$DIMAPOST
  1

  9
$DIMALT
 70
     0
  9
$DIMALTD
 70
     3
  9
$DIMALTF
 40
0.0393700787401575
  9
$DIMLFAC
 40
1.0
  9
$DIMTOFL
 70
     1
  9
$DIMTVP
 40
0.0
  9
$DIMTIX
 70
     0
  9
$DIMSOXD
 70
     0
  9
$DIMSAH
 70
     0
  9
$DIMBLK1
  1

  9
$DIMBLK2
  1

  9
$LUNITS
 70
     2
  9
$LUPREC
 70
     3
  9
$SKETCHINC
 40
1.0
  9
$FILLETRAD
 40
10.0
  9
$AUNITS
 70
     0
  9
$AUPREC
 70
     2
  9
$MENU
  1
.
  9
$ELEVATION
 40
0.0
  9
$THICKNESS
 40
0.0
  9
$LIMCHECK
 70
     0
  9
$CHAMFERA
 40
0.0
  9
$CHAMFERB
 40
0.0
  9
$SKPOLY
 70
     0
  9
$TDCREATE
 40
2459796.265477072
  9
$TDUPDATE
 40
2460140.175625
  9
$TDINDWG
 40
0.0000000116
  9
$TDUSRTIMER
 40
0.0000000116
  9
$USRTIMER
 70
     1
  9
$ANGBASE
 50
0.0
  9
$ANGDIR
 70
     0
  9
$PDMODE
 70
     0
  9
$PDSIZE
 40
-1.0
  9
$PLINEWID
 40
0.0
  9
$COORDS
 70
     1
  9
$SPLFRAME
 70
     0
  9
$SPLINETYPE
 70
     6
  9
$SPLINESEGS
 70
     8
  9
$ATTDIA
 70
     0
  9
$ATTREQ
 70
     1
  9
$HANDLING
 70
     1
  9
$HANDSEED
  5
3C6
  9
$SURFTAB1
 70
     6
  9
$SURFTAB2
 70
     6
  9
$SURFTYPE
 70
     6
  9
$SURFU
 70
     6
  9
$SURFV
 70
     6
  9
$UCSNAME
  2

  9
$UCSORG
 10
0.0
 20
0.0
 30
0.0
  9
$UCSXDIR
 10
1.0
 20
0.0
 30
0.0
  9
$UCSYDIR
 10
0.0
 20
1.0
 30
0.0
  9
$USERI1
 70
     0
  9
$USERI2
 70
     0
  9
$USERI3
 70
     0
  9
$USERI4
 70
     0
  9
$USERI5
 70
     0
  9
$USERR1
 40
0.0
  9
$USERR2
 40
0.0
  9
$USERR3
 40
0.0
  9
$USERR4
 40
0.0
  9
$USERR5
 40
0.0
  9
$WORLDVIEW
 70
     1
  0
ENDSEC
  0
SECTION
  2
TABLES
  0
TABLE
  2
VPORT
 70
     1
  0
VPORT
  2
*ACTIVE
 70
     0
 10
0.0
 20
0.0
 11
1.0
 21
1.0
 12
2500.0
 22
1750.0
 13
0.0
 23
0.0
 14
10.0
 24
10.0
 15
10.0
 25
10.0
 16
0.0
 26
0.0
 36
1.0
 17
0.0
 27
0.0
 37
0.0
 40
3500.0
 41
1.428571428571429
 42
50.0
 43
0.0
 44
0.0
 50
0.0
 51
0.0
 71
     0
 72
  2000
 73
     1
 74
     3
 75
     0
 76
     0
 77
     0
 78
     0
  0
ENDTAB
  0
TABLE
  2
LTYPE
 70
     6
  0
LTYPE
  2
CONTINUOUS
 70
     0
  3
Solid line
 72
    65
 73
     0
 40
0.0
  0
LTYPE
  2
HIDDEN
 70
     0
  3
Hidden __ __ __ __ __ __ __ __ __ __ __ __ __ __
 72
    65
 73
     2
 40
1.905
 49
1.27
 49
-0.635
  0
LTYPE
  2
PHANTOM
 70
     0
  3
Phantom ______  __  __  ______  __  __  ______
 72
    65
 73
     6
 40
12.7
 49
6.35
 49
-1.27
 49
1.27
 49
-1.27
 49
1.27
 49
-1.27
  0
LTYPE
  2
CENTER
 70
     0
  3
Center ____ _ ____ _ ____ _ ____ _ ____ _ ____
 72
    65
 73
     4
 40
10.16
 49
6.35
 49
-1.27
 49
1.27
 49
-1.27
  0
LTYPE
  2
CENTERX2
 70
     0
  3
Center (2x) ________  __  ________  __  _____
 72
    65
 73
     4
 40
20.32
 49
12.7
 49
-2.54
 49
2.54
 49
-2.54
  0
LTYPE
  2
DOT2
 70
     0
  3
Dot (.5x) ........................................
 72
    65
 73
     2
 40
0.635
 49
0.0
 49
-0.635
  0
ENDTAB
  0
TABLE
  2
LAYER
 70
     3
  0
LAYER
  2
0
 70
     0
 62
     7
  6
CONTINUOUS
  0
LAYER
  2
SLD-0
 70
     0
 62
   179
  6
CONTINUOUS
  0
LAYER
  2
寸法
 70
     0
 62
   179
  6
CONTINUOUS
  0
ENDTAB
  0
TABLE
  2
STYLE
 70
     2
  0
STYLE
  2
STANDARD
 70
     0
 40
0.0
 41
1.0
 50
0.0
 71
     0
 42
3.5
  3
txt
  4
bigfont
  0
STYLE
  2
SLDTEXTSTYLE0
 70
     0
 40
0.0
 41
0.75
 50
0.0
 71
     0
 42
3.5
  3
TXT
  4
bigfont
  0
ENDTAB
  0
TABLE
  2
VIEW
 70
     0
  0
ENDTAB
  0
TABLE
  2
UCS
 70
     0
  0
ENDTAB
  0
ENDSEC
  0
SECTION
  2
BLOCKS
  0
ENDSEC
  0
SECTION
  2
ENTITIES
  0
LINE
  5
75
  8
0
  6
CONTINUOUS
 62
     7
 10
4839.484712179223
 20
258.5233124172521
 30
0.0
 11
3312.374599790194
 21
258.5233124172519
 31
0.0
  0
TEXT
  5
77
  8
0
  6
CONTINUOUS
 62
     7
 10
1706.521152560513
 20
3134.115941119229
 30
0.0
 40
52.91666666666666
  1
＜上面＞
 41
0.75
  7
SLDTEXTSTYLE0
  0
TEXT
  5
78
  8
0
  6
CONTINUOUS
 62
     7
 10
493.3091089290138
 20
2134.090186691168
 30
0.0
 40
52.91666666666666
  1
＜左側面＞
 41
0.75
  7
SLDTEXTSTYLE0
  0
TEXT
  5
79
  8
0
  6
CONTINUOUS
 62
     7
 10
1730.774067737716
 20
2130.593767889337
 30
0.0
 40
52.91666666666666
  1
＜正面＞
 41
0.75
  7
SLDTEXTSTYLE0
  0
TEXT
  5
7A
  8
0
  6
CONTINUOUS
 62
     7
 10
3377.814243189123
 20
326.489054196763
 30
0.0
 40
52.91666666666666
  1
品名：
 41
0.75
  7
SLDTEXTSTYLE0
  0
TEXT
  5
7B
  8
0
  6
CONTINUOUS
 62
     7
 10
4446.663437481703
 20
332.3177187478654
 30
0.0
 40
52.91666666666666
  1
Pamouna
 41
0.75
  7
SLDTEXTSTYLE0
  0
TEXT
  5
7C
  8
寸法
  6
CONTINUOUS
 62
     7
 10
4688.007304885427
 20
165.7088516276312
 30
0.0
 40
52.91666666666666
  1
1/1
 41
0.75
  7
SLDTEXTSTYLE0
  0
TEXT
  5
7D
  8
寸法
  6
CONTINUOUS
 62
     7
 10
4198.79693921183
 20
165.7088544215994
 30
0.0
 40
52.91666666666666
  1
2022/08/04
 41
0.75
  7
SLDTEXTSTYLE0
  0
TEXT
  5
7E
  8
寸法
  6
CONTINUOUS
 62
     7
 10
4017.190732011612
 20
2122.266812003092
 30
0.0
 40
52.91666666666666
  1
＜背面＞
 41
0.75
  7
SLDTEXTSTYLE0
  0
TEXT
  5
7F
  8
寸法
  6
CONTINUOUS
 62
     7
 10
3611.283129349215
 20
326.4179237671586
 30
0.0
 40
66.14583333333331
  1
MA-S501E（-T）
 41
0.75
  7
SLDTEXTSTYLE0
  0
TEXT
  5
80
  8
寸法
  6
CONTINUOUS
 62
     7
 10
2965.851847914189
 20
2131.94141651502
 30
0.0
 40
52.91666666666666
  1
＜右側面＞
 41
0.75
  7
SLDTEXTSTYLE0
  0
ARC
  5
81
  8
0
  6
CONTINUOUS
 62
     7
 10
2018.05179730695
 20
1426.920390802088
 30
0.0
 40
0.1999999999998181
 50
180.0
 51
270.0000000000008
  0
LINE
  5
82
  8
0
  6
CONTINUOUS
 62
     7
 10
2018.05179730695
 20
1426.720390802088
 30
0.0
 11
2018.85179730695
 21
1426.720390802088
 31
0.0
  0
ARC
  5
83
  8
0
  6
CONTINUOUS
 62
     7
 10
1769.55179730695
 20
1426.920390802088
 30
0.0
 40
0.1999999999998181
 50
180.0
 51
270.0000000000008
  0
LINE
  5
84
  8
0
  6
CONTINUOUS
 62
     7
 10
1769.55179730695
 20
1426.720390802089
 30
0.0
 11
1770.35179730695
 21
1426.720390802089
 31
0.0
  0
LINE
  5
85
  8
0
  6
CONTINUOUS
 62
     7
 10
2018.85179730695
 20
1426.720390802088
 30
0.0
 11
2262.85179730695
 21
1426.720390802088
 31
0.0
  0
LINE
  5
86
  8
0
  6
CONTINUOUS
 62
     7
 10
1770.35179730695
 20
1426.720390802089
 30
0.0
 11
2014.351797306951
 21
1426.720390802089
 31
0.0
  0
LINE
  5
87
  8
0
  6
CONTINUOUS
 62
     7
 10
2014.351797306951
 20
1426.720390802089
 30
0.0
 11
2015.151797306951
 21
1426.720390802089
 31
0.0
  0
ARC
  5
88
  8
0
  6
CONTINUOUS
 62
     7
 10
2015.151797306951
 20
1426.920390802088
 30
0.0
 40
0.2000000000000455
 50
270.0000000000008
 51
0.0
  0
LINE
  5
89
  8
0
  6
CONTINUOUS
 62
     7
 10
2262.85179730695
 20
1426.720390802088
 30
0.0
 11
2263.65179730695
 21
1426.720390802088
 31
0.0
  0
ARC
  5
8A
  8
0
  6
CONTINUOUS
 62
     7
 10
2263.65179730695
 20
1426.920390802088
 30
0.0
 40
0.2000000000002728
 50
270.0000000000008
 51
0.0
  0
LINE
  5
8B
  8
0
  6
CONTINUOUS
 62
     7
 10
2017.85179730695
 20
1427.220390802088
 30
0.0
 11
2017.85179730695
 21
1427.720390802088
 31
0.0
  0
LINE
  5
8C
  8
0
  6
CONTINUOUS
 62
     7
 10
2017.85179730695
 20
1427.720390802088
 30
0.0
 11
2020.85179730695
 21
1427.720390802088
 31
0.0
  0
LINE
  5
8D
  8
0
  6
CONTINUOUS
 62
     7
 10
2020.85179730695
 20
1427.720390802088
 30
0.0
 11
2020.85179730695
 21
1427.220390802088
 31
0.0
  0
LINE
  5
8E
  8
0
  6
CONTINUOUS
 62
     7
 10
2020.85179730695
 20
1427.220390802088
 30
0.0
 11
2017.85179730695
 21
1427.220390802088
 31
0.0
  0
LINE
  5
8F
  8
0
  6
CONTINUOUS
 62
     7
 10
2260.851797306951
 20
1427.220390802088
 30
0.0
 11
2260.851797306951
 21
1427.720390802088
 31
0.0
  0
LINE
  5
90
  8
0
  6
CONTINUOUS
 62
     7
 10
2020.85179730695
 20
1427.220390802088
 30
0.0
 11
2260.851797306951
 21
1427.220390802088
 31
0.0
  0
LINE
  5
91
  8
0
  6
CONTINUOUS
 62
     7
 10
2260.851797306951
 20
1427.720390802088
 30
0.0
 11
2020.85179730695
 21
1427.720390802088
 31
0.0
  0
LINE
  5
92
  8
0
  6
CONTINUOUS
 62
     7
 10
2260.851797306951
 20
1427.720390802088
 30
0.0
 11
2263.851797306951
 21
1427.720390802088
 31
0.0
  0
LINE
  5
93
  8
0
  6
CONTINUOUS
 62
     7
 10
2263.851797306951
 20
1427.720390802088
 30
0.0
 11
2263.851797306951
 21
1427.220390802088
 31
0.0
  0
LINE
  5
94
  8
0
  6
CONTINUOUS
 62
     7
 10
2263.851797306951
 20
1427.220390802088
 30
0.0
 11
2260.851797306951
 21
1427.220390802088
 31
0.0
  0
LINE
  5
95
  8
0
  6
CONTINUOUS
 62
     7
 10
2012.351797306951
 20
1427.220390802088
 30
0.0
 11
2012.351797306951
 21
1427.720390802088
 31
0.0
  0
LINE
  5
96
  8
0
  6
CONTINUOUS
 62
     7
 10
1772.35179730695
 20
1427.220390802089
 30
0.0
 11
2012.351797306951
 21
1427.220390802088
 31
0.0
  0
LINE
  5
97
  8
0
  6
CONTINUOUS
 62
     7
 10
1772.35179730695
 20
1427.720390802089
 30
0.0
 11
1772.35179730695
 21
1427.220390802089
 31
0.0
  0
LINE
  5
98
  8
0
  6
CONTINUOUS
 62
     7
 10
2012.351797306951
 20
1427.720390802088
 30
0.0
 11
1772.35179730695
 21
1427.720390802089
 31
0.0
  0
LINE
  5
99
  8
0
  6
CONTINUOUS
 62
     7
 10
1769.35179730695
 20
1427.220390802089
 30
0.0
 11
1769.35179730695
 21
1427.720390802089
 31
0.0
  0
LINE
  5
9A
  8
0
  6
CONTINUOUS
 62
     7
 10
1769.35179730695
 20
1427.720390802089
 30
0.0
 11
1772.35179730695
 21
1427.720390802089
 31
0.0
  0
LINE
  5
9B
  8
0
  6
CONTINUOUS
 62
     7
 10
1772.35179730695
 20
1427.220390802089
 30
0.0
 11
1769.35179730695
 21
1427.220390802089
 31
0.0
  0
LINE
  5
9C
  8
0
  6
CONTINUOUS
 62
     7
 10
2015.351797306951
 20
1427.720390802088
 30
0.0
 11
2015.351797306951
 21
1427.220390802088
 31
0.0
  0
LINE
  5
9D
  8
0
  6
CONTINUOUS
 62
     7
 10
2012.351797306951
 20
1427.720390802088
 30
0.0
 11
2015.351797306951
 21
1427.720390802088
 31
0.0
  0
LINE
  5
9E
  8
0
  6
CONTINUOUS
 62
     7
 10
2015.351797306951
 20
1427.220390802088
 30
0.0
 11
2012.351797306951
 21
1427.220390802088
 31
0.0
  0
LINE
  5
9F
  8
0
  6
CONTINUOUS
 62
     7
 10
1772.35179730695
 20
1890.720390802089
 30
0.0
 11
1772.35179730695
 21
1427.720390802089
 31
0.0
  0
LINE
  5
A0
  8
0
  6
CONTINUOUS
 62
     7
 10
2012.351797306951
 20
1427.720390802088
 30
0.0
 11
2012.35179730695
 21
1890.720390802089
 31
0.0
  0
LINE
  5
A1
  8
0
  6
CONTINUOUS
 62
     7
 10
1772.35179730695
 20
1890.720390802089
 30
0.0
 11
2012.35179730695
 21
1890.720390802089
 31
0.0
  0
LINE
  5
A2
  8
0
  6
CONTINUOUS
 62
     7
 10
2015.351797306951
 20
1890.720390802089
 30
0.0
 11
2015.351797306951
 21
1427.720390802088
 31
0.0
  0
LINE
  5
A3
  8
0
  6
CONTINUOUS
 62
     7
 10
2012.35179730695
 20
1890.720390802089
 30
0.0
 11
2015.351797306951
 21
1890.720390802089
 31
0.0
  0
LINE
  5
A4
  8
0
  6
CONTINUOUS
 62
     7
 10
1769.35179730695
 20
1427.720390802089
 30
0.0
 11
1769.35179730695
 21
1890.720390802089
 31
0.0
  0
LINE
  5
A5
  8
0
  6
CONTINUOUS
 62
     7
 10
1769.35179730695
 20
1890.720390802089
 30
0.0
 11
1772.35179730695
 21
1890.720390802089
 31
0.0
  0
LINE
  5
A6
  8
0
  6
CONTINUOUS
 62
     7
 10
2260.851797306951
 20
1427.720390802088
 30
0.0
 11
2260.851797306951
 21
1890.720390802089
 31
0.0
  0
LINE
  5
A7
  8
0
  6
CONTINUOUS
 62
     7
 10
2260.851797306951
 20
1890.720390802089
 30
0.0
 11
2263.85179730695
 21
1890.720390802089
 31
0.0
  0
LINE
  5
A8
  8
0
  6
CONTINUOUS
 62
     7
 10
2263.85179730695
 20
1890.720390802089
 30
0.0
 11
2263.851797306951
 21
1427.720390802088
 31
0.0
  0
LINE
  5
A9
  8
0
  6
CONTINUOUS
 62
     7
 10
2017.85179730695
 20
1427.720390802088
 30
0.0
 11
2017.85179730695
 21
1890.720390802089
 31
0.0
  0
LINE
  5
AA
  8
0
  6
CONTINUOUS
 62
     7
 10
2017.85179730695
 20
1890.720390802089
 30
0.0
 11
2020.85179730695
 21
1890.720390802089
 31
0.0
  0
LINE
  5
AB
  8
0
  6
CONTINUOUS
 62
     7
 10
2020.85179730695
 20
1890.720390802089
 30
0.0
 11
2020.85179730695
 21
1427.720390802088
 31
0.0
  0
LINE
  5
AC
  8
0
  6
CONTINUOUS
 62
     7
 10
2020.85179730695
 20
1890.720390802089
 30
0.0
 11
2260.851797306951
 21
1890.720390802089
 31
0.0
  0
LINE
  5
AD
  8
0
  6
CONTINUOUS
 62
     7
 10
2012.35179730695
 20
1890.720390802089
 30
0.0
 11
2012.35179730695
 21
1891.220390802089
 31
0.0
  0
LINE
  5
AE
  8
0
  6
CONTINUOUS
 62
     7
 10
2015.351797306951
 20
1891.220390802089
 30
0.0
 11
2015.351797306951
 21
1890.720390802089
 31
0.0
  0
LINE
  5
AF
  8
0
  6
CONTINUOUS
 62
     7
 10
2012.35179730695
 20
1891.220390802089
 30
0.0
 11
2015.351797306951
 21
1891.220390802089
 31
0.0
  0
LINE
  5
B0
  8
0
  6
CONTINUOUS
 62
     7
 10
1772.35179730695
 20
1891.220390802089
 30
0.0
 11
1772.35179730695
 21
1890.720390802089
 31
0.0
  0
LINE
  5
B1
  8
0
  6
CONTINUOUS
 62
     7
 10
1772.35179730695
 20
1891.220390802089
 30
0.0
 11
2012.35179730695
 21
1891.220390802089
 31
0.0
  0
LINE
  5
B2
  8
0
  6
CONTINUOUS
 62
     7
 10
1769.35179730695
 20
1890.720390802089
 30
0.0
 11
1769.35179730695
 21
1891.220390802089
 31
0.0
  0
LINE
  5
B3
  8
0
  6
CONTINUOUS
 62
     7
 10
1769.35179730695
 20
1891.220390802089
 30
0.0
 11
1772.35179730695
 21
1891.220390802089
 31
0.0
  0
LINE
  5
B4
  8
0
  6
CONTINUOUS
 62
     7
 10
2260.851797306951
 20
1890.720390802089
 30
0.0
 11
2260.851797306951
 21
1891.220390802089
 31
0.0
  0
LINE
  5
B5
  8
0
  6
CONTINUOUS
 62
     7
 10
2263.85179730695
 20
1891.220390802089
 30
0.0
 11
2263.85179730695
 21
1890.720390802089
 31
0.0
  0
LINE
  5
B6
  8
0
  6
CONTINUOUS
 62
     7
 10
2260.851797306951
 20
1891.220390802089
 30
0.0
 11
2263.85179730695
 21
1891.220390802089
 31
0.0
  0
LINE
  5
B7
  8
0
  6
CONTINUOUS
 62
     7
 10
2017.85179730695
 20
1890.720390802089
 30
0.0
 11
2017.85179730695
 21
1891.220390802089
 31
0.0
  0
LINE
  5
B8
  8
0
  6
CONTINUOUS
 62
     7
 10
2020.85179730695
 20
1891.220390802089
 30
0.0
 11
2020.85179730695
 21
1890.720390802089
 31
0.0
  0
LINE
  5
B9
  8
0
  6
CONTINUOUS
 62
     7
 10
2017.85179730695
 20
1891.220390802089
 30
0.0
 11
2020.85179730695
 21
1891.220390802089
 31
0.0
  0
LINE
  5
BA
  8
0
  6
CONTINUOUS
 62
     7
 10
2020.85179730695
 20
1891.220390802089
 30
0.0
 11
2260.851797306951
 21
1891.220390802089
 31
0.0
  0
LINE
  5
BB
  8
0
  6
CONTINUOUS
 62
     7
 10
2017.85179730695
 20
1649.220390802091
 30
0.0
 11
2015.351797306951
 21
1649.220390802091
 31
0.0
  0
LINE
  5
BC
  8
0
  6
CONTINUOUS
 62
     7
 10
2015.351797306951
 20
1632.220390802091
 30
0.0
 11
2017.85179730695
 21
1632.220390802091
 31
0.0
  0
LINE
  5
BD
  8
0
  6
CONTINUOUS
 62
     7
 10
2017.85179730695
 20
1426.931539523835
 30
0.0
 11
2017.85179730695
 21
1427.020390802088
 31
0.0
  0
LINE
  5
BE
  8
0
  6
CONTINUOUS
 62
     7
 10
2018.05179730695
 20
1427.220390802088
 30
0.0
 11
2018.05179730695
 21
1426.734326704272
 31
0.0
  0
ARC
  5
BF
  8
0
  6
CONTINUOUS
 62
     7
 10
2018.050413427201
 20
1426.932942961759
 30
0.0
 40
0.1986210785928132
 50
180.4048499763998
 51
270.3992079345413
  0
POLYLINE
  5
C0
  8
0
  6
CONTINUOUS
 62
     7
 66
     1
 10
0.0
 20
0.0
 30
0.0
  0
VERTEX
  5
23A
  8
0
  6
CONTINUOUS
 62
     7
 10
2017.85179730695
 20
1427.020390802088
 30
0.0
  0
VERTEX
  5
23B
  8
0
  6
CONTINUOUS
 62
     7
 10
2017.851814743712
 20
1427.023148734266
 30
0.0
  0
VERTEX
  5
23C
  8
0
  6
CONTINUOUS
 62
     7
 10
2017.851870541476
 20
1427.025975174014
 30
0.0
  0
VERTEX
  5
23D
  8
0
  6
CONTINUOUS
 62
     7
 10
2017.851969143065
 20
1427.028870961177
 30
0.0
  0
VERTEX
  5
23E
  8
0
  6
CONTINUOUS
 62
     7
 10
2017.852113579275
 20
1427.03183411856
 30
0.0
  0
VERTEX
  5
23F
  8
0
  6
CONTINUOUS
 62
     7
 10
2017.852306880898
 20
1427.034862668969
 30
0.0
  0
VERTEX
  5
240
  8
0
  6
CONTINUOUS
 62
     7
 10
2017.852552078728
 20
1427.037954635209
 30
0.0
  0
VERTEX
  5
241
  8
0
  6
CONTINUOUS
 62
     7
 10
2017.852852203559
 20
1427.041108040083
 30
0.0
  0
VERTEX
  5
242
  8
0
  6
CONTINUOUS
 62
     7
 10
2017.853210286185
 20
1427.044320906398
 30
0.0
  0
VERTEX
  5
243
  8
0
  6
CONTINUOUS
 62
     7
 10
2017.8536293574
 20
1427.047591256959
 30
0.0
  0
VERTEX
  5
244
  8
0
  6
CONTINUOUS
 62
     7
 10
2017.854112447997
 20
1427.05091711457
 30
0.0
  0
VERTEX
  5
245
  8
0
  6
CONTINUOUS
 62
     7
 10
2017.854662588771
 20
1427.054296502037
 30
0.0
  0
VERTEX
  5
246
  8
0
  6
CONTINUOUS
 62
     7
 10
2017.855282810515
 20
1427.057727442165
 30
0.0
  0
VERTEX
  5
247
  8
0
  6
CONTINUOUS
 62
     7
 10
2017.855976144023
 20
1427.061207957758
 30
0.0
  0
VERTEX
  5
248
  8
0
  6
CONTINUOUS
 62
     7
 10
2017.856745620088
 20
1427.064736071623
 30
0.0
  0
VERTEX
  5
249
  8
0
  6
CONTINUOUS
 62
     7
 10
2017.857594269506
 20
1427.068309806564
 30
0.0
  0
VERTEX
  5
24A
  8
0
  6
CONTINUOUS
 62
     7
 10
2017.858525123068
 20
1427.071927185385
 30
0.0
  0
VERTEX
  5
24B
  8
0
  6
CONTINUOUS
 62
     7
 10
2017.85954121157
 20
1427.075586230892
 30
0.0
  0
VERTEX
  5
24C
  8
0
  6
CONTINUOUS
 62
     7
 10
2017.860645565805
 20
1427.079284965891
 30
0.0
  0
VERTEX
  5
24D
  8
0
  6
CONTINUOUS
 62
     7
 10
2017.861841216567
 20
1427.083021413186
 30
0.0
  0
VERTEX
  5
24E
  8
0
  6
CONTINUOUS
 62
     7
 10
2017.863131194649
 20
1427.086793595582
 30
0.0
  0
VERTEX
  5
24F
  8
0
  6
CONTINUOUS
 62
     7
 10
2017.864518530846
 20
1427.090599535885
 30
0.0
  0
VERTEX
  5
250
  8
0
  6
CONTINUOUS
 62
     7
 10
2017.866006255951
 20
1427.094437256898
 30
0.0
  0
VERTEX
  5
251
  8
0
  6
CONTINUOUS
 62
     7
 10
2017.867597400758
 20
1427.098304781428
 30
0.0
  0
VERTEX
  5
252
  8
0
  6
CONTINUOUS
 62
     7
 10
2017.869294996061
 20
1427.10220013228
 30
0.0
  0
VERTEX
  5
253
  8
0
  6
CONTINUOUS
 62
     7
 10
2017.871102085211
 20
1427.106121254435
 30
0.0
  0
VERTEX
  5
254
  8
0
  6
CONTINUOUS
 62
     7
 10
2017.873021934118
 20
1427.110064713474
 30
0.0
  0
VERTEX
  5
255
  8
0
  6
CONTINUOUS
 62
     7
 10
2017.8750579997
 20
1427.114025891182
 30
0.0
  0
VERTEX
  5
256
  8
0
  6
CONTINUOUS
 62
     7
 10
2017.877213745066
 20
1427.118000130927
 30
0.0
  0
VERTEX
  5
257
  8
0
  6
CONTINUOUS
 62
     7
 10
2017.879492633329
 20
1427.12198277608
 30
0.0
  0
VERTEX
  5
258
  8
0
  6
CONTINUOUS
 62
     7
 10
2017.881898127603
 20
1427.125969170011
 30
0.0
  0
VERTEX
  5
259
  8
0
  6
CONTINUOUS
 62
     7
 10
2017.884433690998
 20
1427.129954656089
 30
0.0
  0
VERTEX
  5
25A
  8
0
  6
CONTINUOUS
 62
     7
 10
2017.887102786628
 20
1427.133934577685
 30
0.0
  0
VERTEX
  5
25B
  8
0
  6
CONTINUOUS
 62
     7
 10
2017.889908877605
 20
1427.137904278168
 30
0.0
  0
VERTEX
  5
25C
  8
0
  6
CONTINUOUS
 62
     7
 10
2017.89285542704
 20
1427.141859100907
 30
0.0
  0
VERTEX
  5
25D
  8
0
  6
CONTINUOUS
 62
     7
 10
2017.895945898046
 20
1427.145794389273
 30
0.0
  0
VERTEX
  5
25E
  8
0
  6
CONTINUOUS
 62
     7
 10
2017.899183753737
 20
1427.149705486635
 30
0.0
  0
VERTEX
  5
25F
  8
0
  6
CONTINUOUS
 62
     7
 10
2017.902572457223
 20
1427.153587736363
 30
0.0
  0
VERTEX
  5
260
  8
0
  6
CONTINUOUS
 62
     7
 10
2017.906115471617
 20
1427.157436481827
 30
0.0
  0
VERTEX
  5
261
  8
0
  6
CONTINUOUS
 62
     7
 10
2017.909816258423
 20
1427.161247065085
 30
0.0
  0
VERTEX
  5
262
  8
0
  6
CONTINUOUS
 62
     7
 10
2017.913677584295
 20
1427.165014260905
 30
0.0
  0
VERTEX
  5
263
  8
0
  6
CONTINUOUS
 62
     7
 10
2017.917700439155
 20
1427.168731393516
 30
0.0
  0
VERTEX
  5
264
  8
0
  6
CONTINUOUS
 62
     7
 10
2017.921885533003
 20
1427.172391558606
 30
0.0
  0
VERTEX
  5
265
  8
0
  6
CONTINUOUS
 62
     7
 10
2017.926233575836
 20
1427.175987851867
 30
0.0
  0
VERTEX
  5
266
  8
0
  6
CONTINUOUS
 62
     7
 10
2017.930745277652
 20
1427.17951336899
 30
0.0
  0
VERTEX
  5
267
  8
0
  6
CONTINUOUS
 62
     7
 10
2017.93542134845
 20
1427.182961205664
 30
0.0
  0
VERTEX
  5
268
  8
0
  6
CONTINUOUS
 62
     7
 10
2017.940262498226
 20
1427.18632445758
 30
0.0
  0
VERTEX
  5
269
  8
0
  6
CONTINUOUS
 62
     7
 10
2017.945269436977
 20
1427.189596220428
 30
0.0
  0
VERTEX
  5
26A
  8
0
  6
CONTINUOUS
 62
     7
 10
2017.950442874704
 20
1427.192769589899
 30
0.0
  0
VERTEX
  5
26B
  8
0
  6
CONTINUOUS
 62
     7
 10
2017.955783521397
 20
1427.195837661674
 30
0.0
  0
VERTEX
  5
26C
  8
0
  6
CONTINUOUS
 62
     7
 10
2017.961290863546
 20
1427.198790979832
 30
0.0
  0
VERTEX
  5
26D
  8
0
  6
CONTINUOUS
 62
     7
 10
2017.966959721203
 20
1427.201610356691
 30
0.0
  0
VERTEX
  5
26E
  8
0
  6
CONTINUOUS
 62
     7
 10
2017.972783802087
 20
1427.204274284809
 30
0.0
  0
VERTEX
  5
26F
  8
0
  6
CONTINUOUS
 62
     7
 10
2017.97875681392
 20
1427.20676125675
 30
0.0
  0
VERTEX
  5
270
  8
0
  6
CONTINUOUS
 62
     7
 10
2017.98487246442
 20
1427.209049765073
 30
0.0
  0
VERTEX
  5
271
  8
0
  6
CONTINUOUS
 62
     7
 10
2017.991124461305
 20
1427.211118302341
 30
0.0
  0
VERTEX
  5
272
  8
0
  6
CONTINUOUS
 62
     7
 10
2017.997506512298
 20
1427.212945361114
 30
0.0
  0
VERTEX
  5
273
  8
0
  6
CONTINUOUS
 62
     7
 10
2018.00401209303
 20
1427.214510809096
 30
0.0
  0
VERTEX
  5
274
  8
0
  6
CONTINUOUS
 62
     7
 10
2018.010629866101
 20
1427.215823031923
 30
0.0
  0
VERTEX
  5
275
  8
0
  6
CONTINUOUS
 62
     7
 10
2018.017343955815
 20
1427.216917305291
 30
0.0
  0
VERTEX
  5
276
  8
0
  6
CONTINUOUS
 62
     7
 10
2018.024138309399
 20
1427.21782995411
 30
0.0
  0
VERTEX
  5
277
  8
0
  6
CONTINUOUS
 62
     7
 10
2018.030996874078
 20
1427.218597303289
 30
0.0
  0
VERTEX
  5
278
  8
0
  6
CONTINUOUS
 62
     7
 10
2018.037903597079
 20
1427.219255677738
 30
0.0
  0
VERTEX
  5
279
  8
0
  6
CONTINUOUS
 62
     7
 10
2018.044842425628
 20
1427.219841402368
 30
0.0
  0
VERTEX
  5
27A
  8
0
  6
CONTINUOUS
 62
     7
 10
2018.05179730695
 20
1427.220390802088
 30
0.0
  0
SEQEND
  5
3C0
  8
0
  6
CONTINUOUS
 62
     7
  0
LINE
  5
C1
  8
0
  6
CONTINUOUS
 62
     7
 10
2018.05179730695
 20
1426.734326704272
 30
0.0
 11
2018.85179730695
 21
1426.734326704272
 31
0.0
  0
LINE
  5
C2
  8
0
  6
CONTINUOUS
 62
     7
 10
2018.85179730695
 20
1426.734326704272
 30
0.0
 11
2018.85179730695
 21
1427.220390802088
 31
0.0
  0
LINE
  5
C3
  8
0
  6
CONTINUOUS
 62
     7
 10
2017.85179730695
 20
1426.920390802088
 30
0.0
 11
2017.85179730695
 21
1426.931539523835
 31
0.0
  0
LINE
  5
C4
  8
0
  6
CONTINUOUS
 62
     7
 10
2018.85179730695
 20
1426.720390802088
 30
0.0
 11
2018.85179730695
 21
1426.734326704272
 31
0.0
  0
LINE
  5
C5
  8
0
  6
CONTINUOUS
 62
     7
 10
2017.85179730695
 20
1427.020390802088
 30
0.0
 11
2017.85179730695
 21
1427.220390802088
 31
0.0
  0
LINE
  5
C6
  8
0
  6
CONTINUOUS
 62
     7
 10
1769.351797306951
 20
1426.931539523835
 30
0.0
 11
1769.351797306951
 21
1427.020390802089
 31
0.0
  0
POLYLINE
  5
C7
  8
0
  6
CONTINUOUS
 62
     7
 66
     1
 10
0.0
 20
0.0
 30
0.0
  0
VERTEX
  5
27B
  8
0
  6
CONTINUOUS
 62
     7
 10
1769.351797306951
 20
1427.020390802089
 30
0.0
  0
VERTEX
  5
27C
  8
0
  6
CONTINUOUS
 62
     7
 10
1769.351814743712
 20
1427.023148734266
 30
0.0
  0
VERTEX
  5
27D
  8
0
  6
CONTINUOUS
 62
     7
 10
1769.351870541476
 20
1427.025975174014
 30
0.0
  0
VERTEX
  5
27E
  8
0
  6
CONTINUOUS
 62
     7
 10
1769.351969143066
 20
1427.028870961177
 30
0.0
  0
VERTEX
  5
27F
  8
0
  6
CONTINUOUS
 62
     7
 10
1769.352113579275
 20
1427.03183411856
 30
0.0
  0
VERTEX
  5
280
  8
0
  6
CONTINUOUS
 62
     7
 10
1769.352306880898
 20
1427.034862668969
 30
0.0
  0
VERTEX
  5
281
  8
0
  6
CONTINUOUS
 62
     7
 10
1769.352552078728
 20
1427.037954635209
 30
0.0
  0
VERTEX
  5
282
  8
0
  6
CONTINUOUS
 62
     7
 10
1769.352852203559
 20
1427.041108040083
 30
0.0
  0
VERTEX
  5
283
  8
0
  6
CONTINUOUS
 62
     7
 10
1769.353210286185
 20
1427.044320906398
 30
0.0
  0
VERTEX
  5
284
  8
0
  6
CONTINUOUS
 62
     7
 10
1769.353629357401
 20
1427.047591256959
 30
0.0
  0
VERTEX
  5
285
  8
0
  6
CONTINUOUS
 62
     7
 10
1769.354112447998
 20
1427.05091711457
 30
0.0
  0
VERTEX
  5
286
  8
0
  6
CONTINUOUS
 62
     7
 10
1769.354662588772
 20
1427.054296502037
 30
0.0
  0
VERTEX
  5
287
  8
0
  6
CONTINUOUS
 62
     7
 10
1769.355282810516
 20
1427.057727442165
 30
0.0
  0
VERTEX
  5
288
  8
0
  6
CONTINUOUS
 62
     7
 10
1769.355976144023
 20
1427.061207957759
 30
0.0
  0
VERTEX
  5
289
  8
0
  6
CONTINUOUS
 62
     7
 10
1769.356745620089
 20
1427.064736071623
 30
0.0
  0
VERTEX
  5
28A
  8
0
  6
CONTINUOUS
 62
     7
 10
1769.357594269507
 20
1427.068309806564
 30
0.0
  0
VERTEX
  5
28B
  8
0
  6
CONTINUOUS
 62
     7
 10
1769.358525123069
 20
1427.071927185385
 30
0.0
  0
VERTEX
  5
28C
  8
0
  6
CONTINUOUS
 62
     7
 10
1769.359541211571
 20
1427.075586230893
 30
0.0
  0
VERTEX
  5
28D
  8
0
  6
CONTINUOUS
 62
     7
 10
1769.360645565806
 20
1427.079284965891
 30
0.0
  0
VERTEX
  5
28E
  8
0
  6
CONTINUOUS
 62
     7
 10
1769.361841216567
 20
1427.083021413186
 30
0.0
  0
VERTEX
  5
28F
  8
0
  6
CONTINUOUS
 62
     7
 10
1769.36313119465
 20
1427.086793595582
 30
0.0
  0
VERTEX
  5
290
  8
0
  6
CONTINUOUS
 62
     7
 10
1769.364518530846
 20
1427.090599535885
 30
0.0
  0
VERTEX
  5
291
  8
0
  6
CONTINUOUS
 62
     7
 10
1769.366006255952
 20
1427.094437256898
 30
0.0
  0
VERTEX
  5
292
  8
0
  6
CONTINUOUS
 62
     7
 10
1769.367597400759
 20
1427.098304781429
 30
0.0
  0
VERTEX
  5
293
  8
0
  6
CONTINUOUS
 62
     7
 10
1769.369294996062
 20
1427.10220013228
 30
0.0
  0
VERTEX
  5
294
  8
0
  6
CONTINUOUS
 62
     7
 10
1769.371102085212
 20
1427.106121254436
 30
0.0
  0
VERTEX
  5
295
  8
0
  6
CONTINUOUS
 62
     7
 10
1769.373021934119
 20
1427.110064713475
 30
0.0
  0
VERTEX
  5
296
  8
0
  6
CONTINUOUS
 62
     7
 10
1769.3750579997
 20
1427.114025891182
 30
0.0
  0
VERTEX
  5
297
  8
0
  6
CONTINUOUS
 62
     7
 10
1769.377213745066
 20
1427.118000130927
 30
0.0
  0
VERTEX
  5
298
  8
0
  6
CONTINUOUS
 62
     7
 10
1769.37949263333
 20
1427.12198277608
 30
0.0
  0
VERTEX
  5
299
  8
0
  6
CONTINUOUS
 62
     7
 10
1769.381898127603
 20
1427.125969170011
 30
0.0
  0
VERTEX
  5
29A
  8
0
  6
CONTINUOUS
 62
     7
 10
1769.384433690999
 20
1427.12995465609
 30
0.0
  0
VERTEX
  5
29B
  8
0
  6
CONTINUOUS
 62
     7
 10
1769.387102786628
 20
1427.133934577686
 30
0.0
  0
VERTEX
  5
29C
  8
0
  6
CONTINUOUS
 62
     7
 10
1769.389908877605
 20
1427.137904278168
 30
0.0
  0
VERTEX
  5
29D
  8
0
  6
CONTINUOUS
 62
     7
 10
1769.39285542704
 20
1427.141859100907
 30
0.0
  0
VERTEX
  5
29E
  8
0
  6
CONTINUOUS
 62
     7
 10
1769.395945898047
 20
1427.145794389273
 30
0.0
  0
VERTEX
  5
29F
  8
0
  6
CONTINUOUS
 62
     7
 10
1769.399183753737
 20
1427.149705486635
 30
0.0
  0
VERTEX
  5
2A0
  8
0
  6
CONTINUOUS
 62
     7
 10
1769.402572457223
 20
1427.153587736364
 30
0.0
  0
VERTEX
  5
2A1
  8
0
  6
CONTINUOUS
 62
     7
 10
1769.406115471617
 20
1427.157436481828
 30
0.0
  0
VERTEX
  5
2A2
  8
0
  6
CONTINUOUS
 62
     7
 10
1769.409816258424
 20
1427.161247065085
 30
0.0
  0
VERTEX
  5
2A3
  8
0
  6
CONTINUOUS
 62
     7
 10
1769.413677584295
 20
1427.165014260905
 30
0.0
  0
VERTEX
  5
2A4
  8
0
  6
CONTINUOUS
 62
     7
 10
1769.417700439155
 20
1427.168731393516
 30
0.0
  0
VERTEX
  5
2A5
  8
0
  6
CONTINUOUS
 62
     7
 10
1769.421885533003
 20
1427.172391558606
 30
0.0
  0
VERTEX
  5
2A6
  8
0
  6
CONTINUOUS
 62
     7
 10
1769.426233575837
 20
1427.175987851868
 30
0.0
  0
VERTEX
  5
2A7
  8
0
  6
CONTINUOUS
 62
     7
 10
1769.430745277653
 20
1427.17951336899
 30
0.0
  0
VERTEX
  5
2A8
  8
0
  6
CONTINUOUS
 62
     7
 10
1769.43542134845
 20
1427.182961205664
 30
0.0
  0
VERTEX
  5
2A9
  8
0
  6
CONTINUOUS
 62
     7
 10
1769.440262498226
 20
1427.186324457581
 30
0.0
  0
VERTEX
  5
2AA
  8
0
  6
CONTINUOUS
 62
     7
 10
1769.445269436978
 20
1427.189596220429
 30
0.0
  0
VERTEX
  5
2AB
  8
0
  6
CONTINUOUS
 62
     7
 10
1769.450442874704
 20
1427.1927695899
 30
0.0
  0
VERTEX
  5
2AC
  8
0
  6
CONTINUOUS
 62
     7
 10
1769.455783521397
 20
1427.195837661674
 30
0.0
  0
VERTEX
  5
2AD
  8
0
  6
CONTINUOUS
 62
     7
 10
1769.461290863546
 20
1427.198790979833
 30
0.0
  0
VERTEX
  5
2AE
  8
0
  6
CONTINUOUS
 62
     7
 10
1769.466959721203
 20
1427.201610356691
 30
0.0
  0
VERTEX
  5
2AF
  8
0
  6
CONTINUOUS
 62
     7
 10
1769.472783802087
 20
1427.20427428481
 30
0.0
  0
VERTEX
  5
2B0
  8
0
  6
CONTINUOUS
 62
     7
 10
1769.47875681392
 20
1427.20676125675
 30
0.0
  0
VERTEX
  5
2B1
  8
0
  6
CONTINUOUS
 62
     7
 10
1769.48487246442
 20
1427.209049765074
 30
0.0
  0
VERTEX
  5
2B2
  8
0
  6
CONTINUOUS
 62
     7
 10
1769.491124461306
 20
1427.211118302341
 30
0.0
  0
VERTEX
  5
2B3
  8
0
  6
CONTINUOUS
 62
     7
 10
1769.497506512298
 20
1427.212945361115
 30
0.0
  0
VERTEX
  5
2B4
  8
0
  6
CONTINUOUS
 62
     7
 10
1769.50401209303
 20
1427.214510809097
 30
0.0
  0
VERTEX
  5
2B5
  8
0
  6
CONTINUOUS
 62
     7
 10
1769.510629866101
 20
1427.215823031923
 30
0.0
  0
VERTEX
  5
2B6
  8
0
  6
CONTINUOUS
 62
     7
 10
1769.517343955815
 20
1427.216917305291
 30
0.0
  0
VERTEX
  5
2B7
  8
0
  6
CONTINUOUS
 62
     7
 10
1769.524138309399
 20
1427.21782995411
 30
0.0
  0
VERTEX
  5
2B8
  8
0
  6
CONTINUOUS
 62
     7
 10
1769.530996874079
 20
1427.218597303289
 30
0.0
  0
VERTEX
  5
2B9
  8
0
  6
CONTINUOUS
 62
     7
 10
1769.53790359708
 20
1427.219255677739
 30
0.0
  0
VERTEX
  5
2BA
  8
0
  6
CONTINUOUS
 62
     7
 10
1769.544842425628
 20
1427.219841402369
 30
0.0
  0
VERTEX
  5
2BB
  8
0
  6
CONTINUOUS
 62
     7
 10
1769.55179730695
 20
1427.220390802089
 30
0.0
  0
SEQEND
  5
3C1
  8
0
  6
CONTINUOUS
 62
     7
  0
LINE
  5
C8
  8
0
  6
CONTINUOUS
 62
     7
 10
1769.55179730695
 20
1427.220390802089
 30
0.0
 11
1769.55179730695
 21
1426.734326704272
 31
0.0
  0
ARC
  5
C9
  8
0
  6
CONTINUOUS
 62
     7
 10
1769.550413427201
 20
1426.932942961759
 30
0.0
 40
0.1986210785926344
 50
180.4048499763342
 51
270.3992079345417
  0
LINE
  5
CA
  8
0
  6
CONTINUOUS
 62
     7
 10
1770.35179730695
 20
1426.734326704272
 30
0.0
 11
1770.35179730695
 21
1427.220390802089
 31
0.0
  0
LINE
  5
CB
  8
0
  6
CONTINUOUS
 62
     7
 10
1769.55179730695
 20
1426.734326704272
 30
0.0
 11
1770.35179730695
 21
1426.734326704272
 31
0.0
  0
LINE
  5
CC
  8
0
  6
CONTINUOUS
 62
     7
 10
1769.351797306951
 20
1426.920390802088
 30
0.0
 11
1769.351797306951
 21
1426.931539523835
 31
0.0
  0
LINE
  5
CD
  8
0
  6
CONTINUOUS
 62
     7
 10
1770.35179730695
 20
1426.720390802089
 30
0.0
 11
1770.35179730695
 21
1426.734326704272
 31
0.0
  0
LINE
  5
CE
  8
0
  6
CONTINUOUS
 62
     7
 10
1769.351797306951
 20
1427.020390802089
 30
0.0
 11
1769.351797306951
 21
1427.220390802089
 31
0.0
  0
LINE
  5
CF
  8
0
  6
CONTINUOUS
 62
     7
 10
2018.85179730695
 20
1426.734326704272
 30
0.0
 11
2262.85179730695
 21
1426.734326704272
 31
0.0
  0
LINE
  5
D0
  8
0
  6
CONTINUOUS
 62
     7
 10
2262.85179730695
 20
1427.220390802088
 30
0.0
 11
2262.85179730695
 21
1426.734326704272
 31
0.0
  0
LINE
  5
D1
  8
0
  6
CONTINUOUS
 62
     7
 10
2262.85179730695
 20
1426.734326704272
 30
0.0
 11
2262.85179730695
 21
1426.720390802089
 31
0.0
  0
LINE
  5
D2
  8
0
  6
CONTINUOUS
 62
     7
 10
1770.35179730695
 20
1426.734326704272
 30
0.0
 11
2014.351797306951
 21
1426.734326704272
 31
0.0
  0
LINE
  5
D3
  8
0
  6
CONTINUOUS
 62
     7
 10
2014.351797306951
 20
1427.220390802089
 30
0.0
 11
2014.351797306951
 21
1426.734326704272
 31
0.0
  0
LINE
  5
D4
  8
0
  6
CONTINUOUS
 62
     7
 10
2014.351797306951
 20
1426.734326704272
 30
0.0
 11
2014.351797306951
 21
1426.720390802089
 31
0.0
  0
LINE
  5
D5
  8
0
  6
CONTINUOUS
 62
     7
 10
2015.351797306951
 20
1427.020390802089
 30
0.0
 11
2015.351797306951
 21
1426.931539523835
 31
0.0
  0
ARC
  5
D6
  8
0
  6
CONTINUOUS
 62
     7
 10
2015.1531811867
 20
1426.932942961759
 30
0.0
 40
0.1986210785928617
 50
269.60079206546
 51
359.5951500236678
  0
LINE
  5
D7
  8
0
  6
CONTINUOUS
 62
     7
 10
2015.151797306951
 20
1426.734326704272
 30
0.0
 11
2015.151797306951
 21
1427.220390802088
 31
0.0
  0
POLYLINE
  5
D8
  8
0
  6
CONTINUOUS
 62
     7
 66
     1
 10
0.0
 20
0.0
 30
0.0
  0
VERTEX
  5
2BC
  8
0
  6
CONTINUOUS
 62
     7
 10
2015.351797306951
 20
1427.020390802089
 30
0.0
  0
VERTEX
  5
2BD
  8
0
  6
CONTINUOUS
 62
     7
 10
2015.351779870189
 20
1427.023148734266
 30
0.0
  0
VERTEX
  5
2BE
  8
0
  6
CONTINUOUS
 62
     7
 10
2015.351724072425
 20
1427.025975174014
 30
0.0
  0
VERTEX
  5
2BF
  8
0
  6
CONTINUOUS
 62
     7
 10
2015.351625470836
 20
1427.028870961177
 30
0.0
  0
VERTEX
  5
2C0
  8
0
  6
CONTINUOUS
 62
     7
 10
2015.351481034626
 20
1427.03183411856
 30
0.0
  0
VERTEX
  5
2C1
  8
0
  6
CONTINUOUS
 62
     7
 10
2015.351287733003
 20
1427.034862668969
 30
0.0
  0
VERTEX
  5
2C2
  8
0
  6
CONTINUOUS
 62
     7
 10
2015.351042535173
 20
1427.037954635208
 30
0.0
  0
VERTEX
  5
2C3
  8
0
  6
CONTINUOUS
 62
     7
 10
2015.350742410342
 20
1427.041108040083
 30
0.0
  0
VERTEX
  5
2C4
  8
0
  6
CONTINUOUS
 62
     7
 10
2015.350384327716
 20
1427.044320906398
 30
0.0
  0
VERTEX
  5
2C5
  8
0
  6
CONTINUOUS
 62
     7
 10
2015.349965256501
 20
1427.047591256959
 30
0.0
  0
VERTEX
  5
2C6
  8
0
  6
CONTINUOUS
 62
     7
 10
2015.349482165904
 20
1427.05091711457
 30
0.0
  0
VERTEX
  5
2C7
  8
0
  6
CONTINUOUS
 62
     7
 10
2015.34893202513
 20
1427.054296502037
 30
0.0
  0
VERTEX
  5
2C8
  8
0
  6
CONTINUOUS
 62
     7
 10
2015.348311803386
 20
1427.057727442165
 30
0.0
  0
VERTEX
  5
2C9
  8
0
  6
CONTINUOUS
 62
     7
 10
2015.347618469878
 20
1427.061207957759
 30
0.0
  0
VERTEX
  5
2CA
  8
0
  6
CONTINUOUS
 62
     7
 10
2015.346848993813
 20
1427.064736071623
 30
0.0
  0
VERTEX
  5
2CB
  8
0
  6
CONTINUOUS
 62
     7
 10
2015.346000344395
 20
1427.068309806564
 30
0.0
  0
VERTEX
  5
2CC
  8
0
  6
CONTINUOUS
 62
     7
 10
2015.345069490833
 20
1427.071927185385
 30
0.0
  0
VERTEX
  5
2CD
  8
0
  6
CONTINUOUS
 62
     7
 10
2015.34405340233
 20
1427.075586230892
 30
0.0
  0
VERTEX
  5
2CE
  8
0
  6
CONTINUOUS
 62
     7
 10
2015.342949048096
 20
1427.079284965891
 30
0.0
  0
VERTEX
  5
2CF
  8
0
  6
CONTINUOUS
 62
     7
 10
2015.341753397334
 20
1427.083021413186
 30
0.0
  0
VERTEX
  5
2D0
  8
0
  6
CONTINUOUS
 62
     7
 10
2015.340463419252
 20
1427.086793595582
 30
0.0
  0
VERTEX
  5
2D1
  8
0
  6
CONTINUOUS
 62
     7
 10
2015.339076083055
 20
1427.090599535885
 30
0.0
  0
VERTEX
  5
2D2
  8
0
  6
CONTINUOUS
 62
     7
 10
2015.337588357949
 20
1427.094437256898
 30
0.0
  0
VERTEX
  5
2D3
  8
0
  6
CONTINUOUS
 62
     7
 10
2015.335997213142
 20
1427.098304781429
 30
0.0
  0
VERTEX
  5
2D4
  8
0
  6
CONTINUOUS
 62
     7
 10
2015.334299617839
 20
1427.10220013228
 30
0.0
  0
VERTEX
  5
2D5
  8
0
  6
CONTINUOUS
 62
     7
 10
2015.33249252869
 20
1427.106121254436
 30
0.0
  0
VERTEX
  5
2D6
  8
0
  6
CONTINUOUS
 62
     7
 10
2015.330572679781
 20
1427.110064713475
 30
0.0
  0
VERTEX
  5
2D7
  8
0
  6
CONTINUOUS
 62
     7
 10
2015.3285366142
 20
1427.114025891182
 30
0.0
  0
VERTEX
  5
2D8
  8
0
  6
CONTINUOUS
 62
     7
 10
2015.326380868835
 20
1427.118000130927
 30
0.0
  0
VERTEX
  5
2D9
  8
0
  6
CONTINUOUS
 62
     7
 10
2015.324101980571
 20
1427.121982776081
 30
0.0
  0
VERTEX
  5
2DA
  8
0
  6
CONTINUOUS
 62
     7
 10
2015.321696486298
 20
1427.125969170011
 30
0.0
  0
VERTEX
  5
2DB
  8
0
  6
CONTINUOUS
 62
     7
 10
2015.319160922902
 20
1427.12995465609
 30
0.0
  0
VERTEX
  5
2DC
  8
0
  6
CONTINUOUS
 62
     7
 10
2015.316491827273
 20
1427.133934577685
 30
0.0
  0
VERTEX
  5
2DD
  8
0
  6
CONTINUOUS
 62
     7
 10
2015.313685736296
 20
1427.137904278168
 30
0.0
  0
VERTEX
  5
2DE
  8
0
  6
CONTINUOUS
 62
     7
 10
2015.310739186861
 20
1427.141859100907
 30
0.0
  0
VERTEX
  5
2DF
  8
0
  6
CONTINUOUS
 62
     7
 10
2015.307648715854
 20
1427.145794389273
 30
0.0
  0
VERTEX
  5
2E0
  8
0
  6
CONTINUOUS
 62
     7
 10
2015.304410860164
 20
1427.149705486635
 30
0.0
  0
VERTEX
  5
2E1
  8
0
  6
CONTINUOUS
 62
     7
 10
2015.301022156678
 20
1427.153587736363
 30
0.0
  0
VERTEX
  5
2E2
  8
0
  6
CONTINUOUS
 62
     7
 10
2015.297479142284
 20
1427.157436481827
 30
0.0
  0
VERTEX
  5
2E3
  8
0
  6
CONTINUOUS
 62
     7
 10
2015.293778355477
 20
1427.161247065085
 30
0.0
  0
VERTEX
  5
2E4
  8
0
  6
CONTINUOUS
 62
     7
 10
2015.289917029606
 20
1427.165014260905
 30
0.0
  0
VERTEX
  5
2E5
  8
0
  6
CONTINUOUS
 62
     7
 10
2015.285894174745
 20
1427.168731393515
 30
0.0
  0
VERTEX
  5
2E6
  8
0
  6
CONTINUOUS
 62
     7
 10
2015.281709080897
 20
1427.172391558606
 30
0.0
  0
VERTEX
  5
2E7
  8
0
  6
CONTINUOUS
 62
     7
 10
2015.277361038064
 20
1427.175987851867
 30
0.0
  0
VERTEX
  5
2E8
  8
0
  6
CONTINUOUS
 62
     7
 10
2015.272849336248
 20
1427.17951336899
 30
0.0
  0
VERTEX
  5
2E9
  8
0
  6
CONTINUOUS
 62
     7
 10
2015.268173265451
 20
1427.182961205664
 30
0.0
  0
VERTEX
  5
2EA
  8
0
  6
CONTINUOUS
 62
     7
 10
2015.263332115675
 20
1427.18632445758
 30
0.0
  0
VERTEX
  5
2EB
  8
0
  6
CONTINUOUS
 62
     7
 10
2015.258325176923
 20
1427.189596220429
 30
0.0
  0
VERTEX
  5
2EC
  8
0
  6
CONTINUOUS
 62
     7
 10
2015.253151739197
 20
1427.1927695899
 30
0.0
  0
VERTEX
  5
2ED
  8
0
  6
CONTINUOUS
 62
     7
 10
2015.247811092504
 20
1427.195837661674
 30
0.0
  0
VERTEX
  5
2EE
  8
0
  6
CONTINUOUS
 62
     7
 10
2015.242303750356
 20
1427.198790979833
 30
0.0
  0
VERTEX
  5
2EF
  8
0
  6
CONTINUOUS
 62
     7
 10
2015.236634892699
 20
1427.201610356691
 30
0.0
  0
VERTEX
  5
2F0
  8
0
  6
CONTINUOUS
 62
     7
 10
2015.230810811814
 20
1427.20427428481
 30
0.0
  0
VERTEX
  5
2F1
  8
0
  6
CONTINUOUS
 62
     7
 10
2015.224837799981
 20
1427.20676125675
 30
0.0
  0
VERTEX
  5
2F2
  8
0
  6
CONTINUOUS
 62
     7
 10
2015.218722149481
 20
1427.209049765074
 30
0.0
  0
VERTEX
  5
2F3
  8
0
  6
CONTINUOUS
 62
     7
 10
2015.212470152595
 20
1427.211118302341
 30
0.0
  0
VERTEX
  5
2F4
  8
0
  6
CONTINUOUS
 62
     7
 10
2015.206088101603
 20
1427.212945361115
 30
0.0
  0
VERTEX
  5
2F5
  8
0
  6
CONTINUOUS
 62
     7
 10
2015.199582520871
 20
1427.214510809097
 30
0.0
  0
VERTEX
  5
2F6
  8
0
  6
CONTINUOUS
 62
     7
 10
2015.1929647478
 20
1427.215823031923
 30
0.0
  0
VERTEX
  5
2F7
  8
0
  6
CONTINUOUS
 62
     7
 10
2015.186250658086
 20
1427.216917305291
 30
0.0
  0
VERTEX
  5
2F8
  8
0
  6
CONTINUOUS
 62
     7
 10
2015.179456304502
 20
1427.21782995411
 30
0.0
  0
VERTEX
  5
2F9
  8
0
  6
CONTINUOUS
 62
     7
 10
2015.172597739823
 20
1427.218597303289
 30
0.0
  0
VERTEX
  5
2FA
  8
0
  6
CONTINUOUS
 62
     7
 10
2015.165691016822
 20
1427.219255677739
 30
0.0
  0
VERTEX
  5
2FB
  8
0
  6
CONTINUOUS
 62
     7
 10
2015.158752188273
 20
1427.219841402368
 30
0.0
  0
VERTEX
  5
2FC
  8
0
  6
CONTINUOUS
 62
     7
 10
2015.151797306951
 20
1427.220390802088
 30
0.0
  0
SEQEND
  5
3C2
  8
0
  6
CONTINUOUS
 62
     7
  0
LINE
  5
D9
  8
0
  6
CONTINUOUS
 62
     7
 10
2014.351797306951
 20
1426.734326704272
 30
0.0
 11
2015.151797306951
 21
1426.734326704272
 31
0.0
  0
LINE
  5
DA
  8
0
  6
CONTINUOUS
 62
     7
 10
2015.351797306951
 20
1426.931539523835
 30
0.0
 11
2015.351797306951
 21
1426.920390802088
 31
0.0
  0
LINE
  5
DB
  8
0
  6
CONTINUOUS
 62
     7
 10
2015.351797306951
 20
1427.220390802088
 30
0.0
 11
2015.351797306951
 21
1427.020390802089
 31
0.0
  0
LINE
  5
DC
  8
0
  6
CONTINUOUS
 62
     7
 10
2263.85179730695
 20
1427.020390802088
 30
0.0
 11
2263.85179730695
 21
1426.931539523835
 31
0.0
  0
ARC
  5
DD
  8
0
  6
CONTINUOUS
 62
     7
 10
2263.653181186699
 20
1426.932942961759
 30
0.0
 40
0.198621078593268
 50
269.6007920654613
 51
359.5951500234715
  0
LINE
  5
DE
  8
0
  6
CONTINUOUS
 62
     7
 10
2263.65179730695
 20
1426.734326704272
 30
0.0
 11
2263.65179730695
 21
1427.220390802088
 31
0.0
  0
POLYLINE
  5
DF
  8
0
  6
CONTINUOUS
 62
     7
 66
     1
 10
0.0
 20
0.0
 30
0.0
  0
VERTEX
  5
2FD
  8
0
  6
CONTINUOUS
 62
     7
 10
2263.85179730695
 20
1427.020390802088
 30
0.0
  0
VERTEX
  5
2FE
  8
0
  6
CONTINUOUS
 62
     7
 10
2263.851779870189
 20
1427.023148734266
 30
0.0
  0
VERTEX
  5
2FF
  8
0
  6
CONTINUOUS
 62
     7
 10
2263.851724072424
 20
1427.025975174014
 30
0.0
  0
VERTEX
  5
300
  8
0
  6
CONTINUOUS
 62
     7
 10
2263.851625470835
 20
1427.028870961177
 30
0.0
  0
VERTEX
  5
301
  8
0
  6
CONTINUOUS
 62
     7
 10
2263.851481034625
 20
1427.03183411856
 30
0.0
  0
VERTEX
  5
302
  8
0
  6
CONTINUOUS
 62
     7
 10
2263.851287733002
 20
1427.034862668968
 30
0.0
  0
VERTEX
  5
303
  8
0
  6
CONTINUOUS
 62
     7
 10
2263.851042535172
 20
1427.037954635208
 30
0.0
  0
VERTEX
  5
304
  8
0
  6
CONTINUOUS
 62
     7
 10
2263.850742410341
 20
1427.041108040083
 30
0.0
  0
VERTEX
  5
305
  8
0
  6
CONTINUOUS
 62
     7
 10
2263.850384327715
 20
1427.044320906398
 30
0.0
  0
VERTEX
  5
306
  8
0
  6
CONTINUOUS
 62
     7
 10
2263.8499652565
 20
1427.047591256958
 30
0.0
  0
VERTEX
  5
307
  8
0
  6
CONTINUOUS
 62
     7
 10
2263.849482165903
 20
1427.05091711457
 30
0.0
  0
VERTEX
  5
308
  8
0
  6
CONTINUOUS
 62
     7
 10
2263.848932025129
 20
1427.054296502037
 30
0.0
  0
VERTEX
  5
309
  8
0
  6
CONTINUOUS
 62
     7
 10
2263.848311803385
 20
1427.057727442165
 30
0.0
  0
VERTEX
  5
30A
  8
0
  6
CONTINUOUS
 62
     7
 10
2263.847618469877
 20
1427.061207957758
 30
0.0
  0
VERTEX
  5
30B
  8
0
  6
CONTINUOUS
 62
     7
 10
2263.846848993812
 20
1427.064736071623
 30
0.0
  0
VERTEX
  5
30C
  8
0
  6
CONTINUOUS
 62
     7
 10
2263.846000344395
 20
1427.068309806563
 30
0.0
  0
VERTEX
  5
30D
  8
0
  6
CONTINUOUS
 62
     7
 10
2263.845069490832
 20
1427.071927185385
 30
0.0
  0
VERTEX
  5
30E
  8
0
  6
CONTINUOUS
 62
     7
 10
2263.84405340233
 20
1427.075586230892
 30
0.0
  0
VERTEX
  5
30F
  8
0
  6
CONTINUOUS
 62
     7
 10
2263.842949048095
 20
1427.079284965891
 30
0.0
  0
VERTEX
  5
310
  8
0
  6
CONTINUOUS
 62
     7
 10
2263.841753397333
 20
1427.083021413186
 30
0.0
  0
VERTEX
  5
311
  8
0
  6
CONTINUOUS
 62
     7
 10
2263.840463419251
 20
1427.086793595582
 30
0.0
  0
VERTEX
  5
312
  8
0
  6
CONTINUOUS
 62
     7
 10
2263.839076083055
 20
1427.090599535884
 30
0.0
  0
VERTEX
  5
313
  8
0
  6
CONTINUOUS
 62
     7
 10
2263.837588357949
 20
1427.094437256898
 30
0.0
  0
VERTEX
  5
314
  8
0
  6
CONTINUOUS
 62
     7
 10
2263.835997213142
 20
1427.098304781428
 30
0.0
  0
VERTEX
  5
315
  8
0
  6
CONTINUOUS
 62
     7
 10
2263.834299617839
 20
1427.10220013228
 30
0.0
  0
VERTEX
  5
316
  8
0
  6
CONTINUOUS
 62
     7
 10
2263.832492528689
 20
1427.106121254435
 30
0.0
  0
VERTEX
  5
317
  8
0
  6
CONTINUOUS
 62
     7
 10
2263.830572679781
 20
1427.110064713474
 30
0.0
  0
VERTEX
  5
318
  8
0
  6
CONTINUOUS
 62
     7
 10
2263.8285366142
 20
1427.114025891181
 30
0.0
  0
VERTEX
  5
319
  8
0
  6
CONTINUOUS
 62
     7
 10
2263.826380868835
 20
1427.118000130927
 30
0.0
  0
VERTEX
  5
31A
  8
0
  6
CONTINUOUS
 62
     7
 10
2263.824101980571
 20
1427.12198277608
 30
0.0
  0
VERTEX
  5
31B
  8
0
  6
CONTINUOUS
 62
     7
 10
2263.821696486298
 20
1427.125969170011
 30
0.0
  0
VERTEX
  5
31C
  8
0
  6
CONTINUOUS
 62
     7
 10
2263.819160922902
 20
1427.129954656089
 30
0.0
  0
VERTEX
  5
31D
  8
0
  6
CONTINUOUS
 62
     7
 10
2263.816491827273
 20
1427.133934577685
 30
0.0
  0
VERTEX
  5
31E
  8
0
  6
CONTINUOUS
 62
     7
 10
2263.813685736296
 20
1427.137904278167
 30
0.0
  0
VERTEX
  5
31F
  8
0
  6
CONTINUOUS
 62
     7
 10
2263.810739186861
 20
1427.141859100906
 30
0.0
  0
VERTEX
  5
320
  8
0
  6
CONTINUOUS
 62
     7
 10
2263.807648715854
 20
1427.145794389272
 30
0.0
  0
VERTEX
  5
321
  8
0
  6
CONTINUOUS
 62
     7
 10
2263.804410860164
 20
1427.149705486635
 30
0.0
  0
VERTEX
  5
322
  8
0
  6
CONTINUOUS
 62
     7
 10
2263.801022156678
 20
1427.153587736363
 30
0.0
  0
VERTEX
  5
323
  8
0
  6
CONTINUOUS
 62
     7
 10
2263.797479142283
 20
1427.157436481827
 30
0.0
  0
VERTEX
  5
324
  8
0
  6
CONTINUOUS
 62
     7
 10
2263.793778355477
 20
1427.161247065085
 30
0.0
  0
VERTEX
  5
325
  8
0
  6
CONTINUOUS
 62
     7
 10
2263.789917029606
 20
1427.165014260905
 30
0.0
  0
VERTEX
  5
326
  8
0
  6
CONTINUOUS
 62
     7
 10
2263.785894174745
 20
1427.168731393515
 30
0.0
  0
VERTEX
  5
327
  8
0
  6
CONTINUOUS
 62
     7
 10
2263.781709080897
 20
1427.172391558606
 30
0.0
  0
VERTEX
  5
328
  8
0
  6
CONTINUOUS
 62
     7
 10
2263.777361038064
 20
1427.175987851867
 30
0.0
  0
VERTEX
  5
329
  8
0
  6
CONTINUOUS
 62
     7
 10
2263.772849336248
 20
1427.17951336899
 30
0.0
  0
VERTEX
  5
32A
  8
0
  6
CONTINUOUS
 62
     7
 10
2263.768173265451
 20
1427.182961205664
 30
0.0
  0
VERTEX
  5
32B
  8
0
  6
CONTINUOUS
 62
     7
 10
2263.763332115675
 20
1427.18632445758
 30
0.0
  0
VERTEX
  5
32C
  8
0
  6
CONTINUOUS
 62
     7
 10
2263.758325176923
 20
1427.189596220429
 30
0.0
  0
VERTEX
  5
32D
  8
0
  6
CONTINUOUS
 62
     7
 10
2263.753151739197
 20
1427.1927695899
 30
0.0
  0
VERTEX
  5
32E
  8
0
  6
CONTINUOUS
 62
     7
 10
2263.747811092504
 20
1427.195837661674
 30
0.0
  0
VERTEX
  5
32F
  8
0
  6
CONTINUOUS
 62
     7
 10
2263.742303750355
 20
1427.198790979833
 30
0.0
  0
VERTEX
  5
330
  8
0
  6
CONTINUOUS
 62
     7
 10
2263.736634892698
 20
1427.201610356691
 30
0.0
  0
VERTEX
  5
331
  8
0
  6
CONTINUOUS
 62
     7
 10
2263.730810811813
 20
1427.20427428481
 30
0.0
  0
VERTEX
  5
332
  8
0
  6
CONTINUOUS
 62
     7
 10
2263.724837799981
 20
1427.20676125675
 30
0.0
  0
VERTEX
  5
333
  8
0
  6
CONTINUOUS
 62
     7
 10
2263.718722149481
 20
1427.209049765073
 30
0.0
  0
VERTEX
  5
334
  8
0
  6
CONTINUOUS
 62
     7
 10
2263.712470152595
 20
1427.211118302341
 30
0.0
  0
VERTEX
  5
335
  8
0
  6
CONTINUOUS
 62
     7
 10
2263.706088101603
 20
1427.212945361114
 30
0.0
  0
VERTEX
  5
336
  8
0
  6
CONTINUOUS
 62
     7
 10
2263.699582520871
 20
1427.214510809097
 30
0.0
  0
VERTEX
  5
337
  8
0
  6
CONTINUOUS
 62
     7
 10
2263.6929647478
 20
1427.215823031923
 30
0.0
  0
VERTEX
  5
338
  8
0
  6
CONTINUOUS
 62
     7
 10
2263.686250658085
 20
1427.216917305291
 30
0.0
  0
VERTEX
  5
339
  8
0
  6
CONTINUOUS
 62
     7
 10
2263.679456304501
 20
1427.217829954109
 30
0.0
  0
VERTEX
  5
33A
  8
0
  6
CONTINUOUS
 62
     7
 10
2263.672597739822
 20
1427.218597303289
 30
0.0
  0
VERTEX
  5
33B
  8
0
  6
CONTINUOUS
 62
     7
 10
2263.665691016821
 20
1427.219255677738
 30
0.0
  0
VERTEX
  5
33C
  8
0
  6
CONTINUOUS
 62
     7
 10
2263.658752188273
 20
1427.219841402368
 30
0.0
  0
VERTEX
  5
33D
  8
0
  6
CONTINUOUS
 62
     7
 10
2263.65179730695
 20
1427.220390802088
 30
0.0
  0
SEQEND
  5
3C3
  8
0
  6
CONTINUOUS
 62
     7
  0
LINE
  5
E0
  8
0
  6
CONTINUOUS
 62
     7
 10
2262.85179730695
 20
1426.734326704272
 30
0.0
 11
2263.65179730695
 21
1426.734326704272
 31
0.0
  0
LINE
  5
E1
  8
0
  6
CONTINUOUS
 62
     7
 10
2263.85179730695
 20
1426.931539523835
 30
0.0
 11
2263.85179730695
 21
1426.920390802088
 31
0.0
  0
LINE
  5
E2
  8
0
  6
CONTINUOUS
 62
     7
 10
2263.85179730695
 20
1427.220390802088
 30
0.0
 11
2263.85179730695
 21
1427.020390802088
 31
0.0
  0
LINE
  5
E3
  8
0
  6
CONTINUOUS
 62
     7
 10
2015.351797306951
 20
1875.220390802091
 30
0.0
 11
2017.85179730695
 21
1875.220390802091
 31
0.0
  0
LINE
  5
E4
  8
0
  6
CONTINUOUS
 62
     7
 10
2248.351797306951
 20
1892.220390802091
 30
0.0
 11
1784.851797306951
 21
1892.220390802091
 31
0.0
  0
LINE
  5
E5
  8
0
  6
CONTINUOUS
 62
     7
 10
2017.851797306951
 20
1452.220390802091
 30
0.0
 11
2015.351797306951
 21
1452.220390802091
 31
0.0
  0
LINE
  5
E6
  8
0
  6
CONTINUOUS
 62
     7
 10
2015.351797306951
 20
1435.220390802091
 30
0.0
 11
2017.85179730695
 21
1435.220390802091
 31
0.0
  0
LINE
  5
E7
  8
0
  6
CONTINUOUS
 62
     7
 10
1784.85179730695
 20
1011.720390802091
 30
0.0
 11
1784.85179730695
 21
994.7203908020908
 31
0.0
  0
LINE
  5
E8
  8
0
  6
CONTINUOUS
 62
     7
 10
2248.351797306951
 20
1011.720390802091
 30
0.0
 11
1784.85179730695
 21
1011.720390802091
 31
0.0
  0
LINE
  5
E9
  8
0
  6
CONTINUOUS
 62
     7
 10
2248.351797306951
 20
994.720390802091
 30
0.0
 11
2248.351797306951
 21
1011.720390802091
 31
0.0
  0
LINE
  5
EA
  8
0
  6
CONTINUOUS
 62
     7
 10
1784.85179730695
 20
994.7203908020908
 30
0.0
 11
2248.351797306951
 21
994.720390802091
 31
0.0
  0
LINE
  5
EB
  8
0
  6
CONTINUOUS
 62
     7
 10
2265.851797306951
 20
993.220390802091
 30
0.0
 11
2248.351797306951
 21
993.220390802091
 31
0.0
  0
LINE
  5
EC
  8
0
  6
CONTINUOUS
 62
     7
 10
2248.351797306951
 20
1892.220390802088
 30
0.0
 11
2265.85179730695
 21
1892.220390802088
 31
0.0
  0
LINE
  5
ED
  8
0
  6
CONTINUOUS
 62
     7
 10
2248.351797306951
 20
993.220390802091
 30
0.0
 11
2248.351797306951
 21
1426.720390802088
 31
0.0
  0
LINE
  5
EE
  8
0
  6
CONTINUOUS
 62
     7
 10
2248.351797306951
 20
1891.220390802089
 30
0.0
 11
2248.351797306951
 21
1892.220390802088
 31
0.0
  0
LINE
  5
EF
  8
0
  6
CONTINUOUS
 62
     7
 10
2265.85179730695
 20
1892.220390802088
 30
0.0
 11
2265.851797306951
 21
993.220390802091
 31
0.0
  0
LINE
  5
F0
  8
0
  6
CONTINUOUS
 62
     7
 10
1767.351797306951
 20
993.720390802094
 30
0.0
 11
1767.351797306951
 21
1892.720390802091
 31
0.0
  0
LINE
  5
F1
  8
0
  6
CONTINUOUS
 62
     7
 10
1784.851797306951
 20
1892.720390802091
 30
0.0
 11
1784.851797306951
 21
1891.220390802089
 31
0.0
  0
LINE
  5
F2
  8
0
  6
CONTINUOUS
 62
     7
 10
1784.851797306951
 20
1426.720390802089
 30
0.0
 11
1784.851797306951
 21
993.720390802094
 31
0.0
  0
LINE
  5
F3
  8
0
  6
CONTINUOUS
 62
     7
 10
1784.851797306951
 20
993.720390802094
 30
0.0
 11
1767.351797306951
 21
993.720390802094
 31
0.0
  0
LINE
  5
F4
  8
0
  6
CONTINUOUS
 62
     7
 10
1767.351797306951
 20
1892.720390802091
 30
0.0
 11
1784.851797306951
 21
1892.720390802091
 31
0.0
  0
LINE
  5
F5
  8
0
  6
CONTINUOUS
 62
     8
 10
2018.05179730695
 20
1426.734326704272
 30
0.0
 11
2018.05179730695
 21
1426.720390802088
 31
0.0
  0
LINE
  5
F6
  8
0
  6
CONTINUOUS
 62
     8
 10
1769.55179730695
 20
1426.734326704272
 30
0.0
 11
1769.55179730695
 21
1426.720390802089
 31
0.0
  0
LINE
  5
F7
  8
0
  6
CONTINUOUS
 62
     8
 10
2015.151797306951
 20
1426.720390802089
 30
0.0
 11
2015.151797306951
 21
1426.734326704272
 31
0.0
  0
LINE
  5
F8
  8
0
  6
CONTINUOUS
 62
     8
 10
2263.65179730695
 20
1426.720390802088
 30
0.0
 11
2263.65179730695
 21
1426.734326704272
 31
0.0
  0
LINE
  5
F9
  8
0
  6
CONTINUOUS
 62
     7
 10
914.9170509888706
 20
1427.220390802088
 30
0.0
 11
914.9170509888706
 21
1427.720390802088
 31
0.0
  0
LINE
  5
FA
  8
0
  6
CONTINUOUS
 62
     7
 10
913.9170509888705
 20
1427.220390802088
 30
0.0
 11
914.9170509888706
 21
1427.220390802088
 31
0.0
  0
LINE
  5
FB
  8
0
  6
CONTINUOUS
 62
     7
 10
913.9170509888705
 20
1427.220390802088
 30
0.0
 11
913.9170509888705
 21
1427.720390802088
 31
0.0
  0
LINE
  5
FC
  8
0
  6
CONTINUOUS
 62
     7
 10
914.9170509888706
 20
1427.720390802088
 30
0.0
 11
913.9170509888705
 21
1427.720390802088
 31
0.0
  0
LINE
  5
FD
  8
0
  6
CONTINUOUS
 62
     7
 10
917.9170509888705
 20
1427.720390802088
 30
0.0
 11
917.9170509888705
 21
1427.220390802088
 31
0.0
  0
LINE
  5
FE
  8
0
  6
CONTINUOUS
 62
     7
 10
917.9170509888705
 20
1427.220390802088
 30
0.0
 11
914.9170509888706
 21
1427.220390802088
 31
0.0
  0
LINE
  5
FF
  8
0
  6
CONTINUOUS
 62
     7
 10
914.9170509888706
 20
1427.720390802088
 30
0.0
 11
917.9170509888705
 21
1427.720390802088
 31
0.0
  0
LINE
  5
100
  8
0
  6
CONTINUOUS
 62
     7
 10
899.9170509888705
 20
1890.720390802088
 30
0.0
 11
914.9170509888706
 21
1890.720390802088
 31
0.0
  0
LINE
  5
101
  8
0
  6
CONTINUOUS
 62
     7
 10
914.9170509888706
 20
1427.720390802088
 30
0.0
 11
914.9170509888706
 21
1890.720390802088
 31
0.0
  0
LINE
  5
102
  8
0
  6
CONTINUOUS
 62
     7
 10
913.9170509888705
 20
1427.720390802088
 30
0.0
 11
913.9170509888705
 21
1440.220390802088
 31
0.0
  0
LINE
  5
103
  8
0
  6
CONTINUOUS
 62
     7
 10
913.9170509888705
 20
1440.220390802088
 30
0.0
 11
901.4170509888706
 21
1440.220390802088
 31
0.0
  0
LINE
  5
104
  8
0
  6
CONTINUOUS
 62
     7
 10
901.4170509888706
 20
1440.220390802088
 30
0.0
 11
901.4170509888706
 21
1460.720390802088
 31
0.0
  0
LINE
  5
105
  8
0
  6
CONTINUOUS
 62
     7
 10
901.4170509888706
 20
1460.720390802088
 30
0.0
 11
899.9170509888705
 21
1460.720390802088
 31
0.0
  0
LINE
  5
106
  8
0
  6
CONTINUOUS
 62
     7
 10
899.9170509888705
 20
1890.720390802088
 30
0.0
 11
899.9170509888705
 21
1460.720390802088
 31
0.0
  0
LINE
  5
107
  8
0
  6
CONTINUOUS
 62
     7
 10
917.9170509888705
 20
1890.720390802088
 30
0.0
 11
917.9170509888705
 21
1427.720390802088
 31
0.0
  0
LINE
  5
108
  8
0
  6
CONTINUOUS
 62
     7
 10
914.9170509888706
 20
1890.720390802088
 30
0.0
 11
917.9170509888705
 21
1890.720390802088
 31
0.0
  0
LINE
  5
109
  8
0
  6
CONTINUOUS
 62
     7
 10
914.9170509888706
 20
1891.220390802089
 30
0.0
 11
899.9170509888705
 21
1891.220390802089
 31
0.0
  0
LINE
  5
10A
  8
0
  6
CONTINUOUS
 62
     7
 10
914.9170509888706
 20
1890.720390802088
 30
0.0
 11
914.9170509888706
 21
1891.220390802089
 31
0.0
  0
LINE
  5
10B
  8
0
  6
CONTINUOUS
 62
     7
 10
899.9170509888705
 20
1891.220390802089
 30
0.0
 11
899.9170509888705
 21
1890.720390802088
 31
0.0
  0
LINE
  5
10C
  8
0
  6
CONTINUOUS
 62
     7
 10
917.9170509888705
 20
1891.220390802089
 30
0.0
 11
917.9170509888705
 21
1890.720390802088
 31
0.0
  0
LINE
  5
10D
  8
0
  6
CONTINUOUS
 62
     7
 10
914.9170509888706
 20
1891.220390802089
 30
0.0
 11
917.9170509888705
 21
1891.220390802089
 31
0.0
  0
ARC
  5
10E
  8
0
  6
CONTINUOUS
 62
     7
 10
900.6170509888706
 20
1439.220390802088
 30
0.0
 40
1.0
 50
180.0
 51
270.0000000000008
  0
LINE
  5
10F
  8
0
  6
CONTINUOUS
 62
     7
 10
899.6170509888706
 20
1439.220390802088
 30
0.0
 11
899.8170509888705
 21
1439.220390802088
 31
0.0
  0
ARC
  5
110
  8
0
  6
CONTINUOUS
 62
     7
 10
900.6170509888706
 20
1439.220390802088
 30
0.0
 40
0.8000000000000682
 50
180.0
 51
270.0000000000008
  0
LINE
  5
111
  8
0
  6
CONTINUOUS
 62
     7
 10
900.6170509888706
 20
1438.220390802088
 30
0.0
 11
900.6170509888706
 21
1438.420390802089
 31
0.0
  0
LINE
  5
112
  8
0
  6
CONTINUOUS
 62
     7
 10
899.6170509888706
 20
1460.020390802088
 30
0.0
 11
899.8170509888705
 21
1460.020390802088
 31
0.0
  0
LINE
  5
113
  8
0
  6
CONTINUOUS
 62
     7
 10
899.8170509888705
 20
1460.020390802088
 30
0.0
 11
899.8170509888705
 21
1439.220390802088
 31
0.0
  0
LINE
  5
114
  8
0
  6
CONTINUOUS
 62
     7
 10
911.00023721889
 20
1438.220390802088
 30
0.0
 11
900.6170509888706
 21
1438.220390802088
 31
0.0
  0
LINE
  5
115
  8
0
  6
CONTINUOUS
 62
     7
 10
900.6170509888706
 20
1438.420390802089
 30
0.0
 11
911.00023721889
 21
1438.420390802088
 31
0.0
  0
LINE
  5
116
  8
0
  6
CONTINUOUS
 62
     7
 10
911.00023721889
 20
1438.220390802088
 30
0.0
 11
911.00023721889
 21
1438.420390802088
 31
0.0
  0
LINE
  5
117
  8
0
  6
CONTINUOUS
 62
     7
 10
913.7170509888706
 20
1427.020390802089
 30
0.0
 11
913.7170509888706
 21
1440.020390802088
 31
0.0
  0
LINE
  5
118
  8
0
  6
CONTINUOUS
 62
     7
 10
914.1342626723285
 20
1427.020390802089
 30
0.0
 11
913.7170509888706
 21
1427.020390802089
 31
0.0
  0
ARC
  5
119
  8
0
  6
CONTINUOUS
 62
     7
 10
913.9170893147988
 20
1427.22735875318
 30
0.0
 40
0.3000000000000862
 50
279.5765884810562
 51
316.3783470327148
  0
ARC
  5
11A
  8
0
  6
CONTINUOUS
 62
     7
 10
913.833906391374
 20
1427.720390802088
 30
0.0
 40
0.7999999999999434
 50
184.96994659468
 51
279.5765884810652
  0
LINE
  5
11B
  8
0
  6
CONTINUOUS
 62
     7
 10
912.1957255511996
 20
1437.324350637176
 30
0.0
 11
913.0369141698343
 21
1427.651084245364
 31
0.0
  0
ARC
  5
11C
  8
0
  6
CONTINUOUS
 62
     7
 10
911.00023721889
 20
1437.220390802088
 30
0.0
 40
1.200000000000045
 50
4.969946594689308
 51
90.0
  0
LINE
  5
11D
  8
0
  6
CONTINUOUS
 62
     7
 10
901.2170509888706
 20
1460.020390802088
 30
0.0
 11
899.8170509888705
 21
1460.020390802088
 31
0.0
  0
LINE
  5
11E
  8
0
  6
CONTINUOUS
 62
     7
 10
901.2170509888706
 20
1440.020390802089
 30
0.0
 11
901.2170509888706
 21
1460.020390802088
 31
0.0
  0
LINE
  5
11F
  8
0
  6
CONTINUOUS
 62
     7
 10
913.7170509888706
 20
1440.020390802088
 30
0.0
 11
901.2170509888706
 21
1440.020390802089
 31
0.0
  0
ARC
  5
120
  8
0
  6
CONTINUOUS
 62
     7
 10
911.00023721889
 20
1437.220390802088
 30
0.0
 40
1.0
 50
4.96994659469147
 51
90.0
  0
LINE
  5
121
  8
0
  6
CONTINUOUS
 62
     7
 10
911.9964774958147
 20
1437.307023997995
 30
0.0
 11
912.1957255511996
 21
1437.324350637176
 31
0.0
  0
LINE
  5
122
  8
0
  6
CONTINUOUS
 62
     7
 10
912.8376661144492
 20
1427.633757606182
 30
0.0
 11
911.9964774958147
 21
1437.307023997995
 31
0.0
  0
LINE
  5
123
  8
0
  6
CONTINUOUS
 62
     7
 10
913.0369141698343
 20
1427.651084245364
 30
0.0
 11
912.8376661144492
 21
1427.633757606182
 31
0.0
  0
LINE
  5
124
  8
0
  6
CONTINUOUS
 62
     7
 10
913.9669990688536
 20
1426.931539523835
 30
0.0
 11
914.0002722382235
 21
1426.734326704272
 31
0.0
  0
ARC
  5
125
  8
0
  6
CONTINUOUS
 62
     7
 10
913.833906391374
 20
1427.720390802088
 30
0.0
 40
0.9999999999999509
 50
184.9699465946793
 51
279.5765884810619
  0
LINE
  5
126
  8
0
  6
CONTINUOUS
 62
     7
 10
913.7170509888706
 20
1440.020390802088
 30
0.0
 11
913.9170509888705
 21
1440.220390802088
 31
0.0
  0
LINE
  5
127
  8
0
  6
CONTINUOUS
 62
     7
 10
913.7170509888706
 20
1427.020390802089
 30
0.0
 11
913.9170509888705
 21
1427.220390802088
 31
0.0
  0
POLYLINE
  5
128
  8
0
  6
CONTINUOUS
 62
     7
 66
     1
 10
0.0
 20
0.0
 30
0.0
  0
VERTEX
  5
33E
  8
0
  6
CONTINUOUS
 62
     7
 10
914.1342626723285
 20
1427.020390802089
 30
0.0
  0
VERTEX
  5
33F
  8
0
  6
CONTINUOUS
 62
     7
 10
914.1406141322425
 20
1427.023148734266
 30
0.0
  0
VERTEX
  5
340
  8
0
  6
CONTINUOUS
 62
     7
 10
914.1469421935684
 20
1427.025975174013
 30
0.0
  0
VERTEX
  5
341
  8
0
  6
CONTINUOUS
 62
     7
 10
914.1532448721371
 20
1427.028870961177
 30
0.0
  0
VERTEX
  5
342
  8
0
  6
CONTINUOUS
 62
     7
 10
914.1595210752718
 20
1427.03183411856
 30
0.0
  0
VERTEX
  5
343
  8
0
  6
CONTINUOUS
 62
     7
 10
914.1657697102967
 20
1427.034862668969
 30
0.0
  0
VERTEX
  5
344
  8
0
  6
CONTINUOUS
 62
     7
 10
914.171989684535
 20
1427.037954635208
 30
0.0
  0
VERTEX
  5
345
  8
0
  6
CONTINUOUS
 62
     7
 10
914.1781799053101
 20
1427.041108040082
 30
0.0
  0
VERTEX
  5
346
  8
0
  6
CONTINUOUS
 62
     7
 10
914.1843392799458
 20
1427.044320906398
 30
0.0
  0
VERTEX
  5
347
  8
0
  6
CONTINUOUS
 62
     7
 10
914.1904667157656
 20
1427.047591256958
 30
0.0
  0
VERTEX
  5
348
  8
0
  6
CONTINUOUS
 62
     7
 10
914.1965611200928
 20
1427.05091711457
 30
0.0
  0
VERTEX
  5
349
  8
0
  6
CONTINUOUS
 62
     7
 10
914.2026214002517
 20
1427.054296502037
 30
0.0
  0
VERTEX
  5
34A
  8
0
  6
CONTINUOUS
 62
     7
 10
914.2086464635647
 20
1427.057727442165
 30
0.0
  0
VERTEX
  5
34B
  8
0
  6
CONTINUOUS
 62
     7
 10
914.2146352173561
 20
1427.061207957758
 30
0.0
  0
VERTEX
  5
34C
  8
0
  6
CONTINUOUS
 62
     7
 10
914.2205865689492
 20
1427.064736071623
 30
0.0
  0
VERTEX
  5
34D
  8
0
  6
CONTINUOUS
 62
     7
 10
914.2264994256677
 20
1427.068309806564
 30
0.0
  0
VERTEX
  5
34E
  8
0
  6
CONTINUOUS
 62
     7
 10
914.2323726948349
 20
1427.071927185385
 30
0.0
  0
VERTEX
  5
34F
  8
0
  6
CONTINUOUS
 62
     7
 10
914.2382052837746
 20
1427.075586230892
 30
0.0
  0
VERTEX
  5
350
  8
0
  6
CONTINUOUS
 62
     7
 10
914.2439960998104
 20
1427.079284965891
 30
0.0
  0
VERTEX
  5
351
  8
0
  6
CONTINUOUS
 62
     7
 10
914.2497440502656
 20
1427.083021413186
 30
0.0
  0
VERTEX
  5
352
  8
0
  6
CONTINUOUS
 62
     7
 10
914.2554480424636
 20
1427.086793595582
 30
0.0
  0
VERTEX
  5
353
  8
0
  6
CONTINUOUS
 62
     7
 10
914.2611069837284
 20
1427.090599535885
 30
0.0
  0
VERTEX
  5
354
  8
0
  6
CONTINUOUS
 62
     7
 10
914.266719781383
 20
1427.094437256898
 30
0.0
  0
VERTEX
  5
355
  8
0
  6
CONTINUOUS
 62
     7
 10
914.2722853427515
 20
1427.098304781428
 30
0.0
  0
VERTEX
  5
356
  8
0
  6
CONTINUOUS
 62
     7
 10
914.2778025751571
 20
1427.10220013228
 30
0.0
  0
VERTEX
  5
357
  8
0
  6
CONTINUOUS
 62
     7
 10
914.2832703261763
 20
1427.106121254436
 30
0.0
  0
VERTEX
  5
358
  8
0
  6
CONTINUOUS
 62
     7
 10
914.2886863843755
 20
1427.110064713474
 30
0.0
  0
VERTEX
  5
359
  8
0
  6
CONTINUOUS
 62
     7
 10
914.2940476294857
 20
1427.114025891182
 30
0.0
  0
VERTEX
  5
35A
  8
0
  6
CONTINUOUS
 62
     7
 10
914.2993509117445
 20
1427.118000130927
 30
0.0
  0
VERTEX
  5
35B
  8
0
  6
CONTINUOUS
 62
     7
 10
914.3045930813896
 20
1427.12198277608
 30
0.0
  0
VERTEX
  5
35C
  8
0
  6
CONTINUOUS
 62
     7
 10
914.309770988659
 20
1427.125969170011
 30
0.0
  0
VERTEX
  5
35D
  8
0
  6
CONTINUOUS
 62
     7
 10
914.3148814837912
 20
1427.12995465609
 30
0.0
  0
VERTEX
  5
35E
  8
0
  6
CONTINUOUS
 62
     7
 10
914.3199214170236
 20
1427.133934577685
 30
0.0
  0
VERTEX
  5
35F
  8
0
  6
CONTINUOUS
 62
     7
 10
914.3248876385944
 20
1427.137904278168
 30
0.0
  0
VERTEX
  5
360
  8
0
  6
CONTINUOUS
 62
     7
 10
914.3297769987414
 20
1427.141859100907
 30
0.0
  0
VERTEX
  5
361
  8
0
  6
CONTINUOUS
 62
     7
 10
914.334586347703
 20
1427.145794389273
 30
0.0
  0
VERTEX
  5
362
  8
0
  6
CONTINUOUS
 62
     7
 10
914.3393125357162
 20
1427.149705486635
 30
0.0
  0
VERTEX
  5
363
  8
0
  6
CONTINUOUS
 62
     7
 10
914.3439524130201
 20
1427.153587736364
 30
0.0
  0
VERTEX
  5
364
  8
0
  6
CONTINUOUS
 62
     7
 10
914.3485028298522
 20
1427.157436481828
 30
0.0
  0
VERTEX
  5
365
  8
0
  6
CONTINUOUS
 62
     7
 10
914.3529606355726
 20
1427.161247065085
 30
0.0
  0
VERTEX
  5
366
  8
0
  6
CONTINUOUS
 62
     7
 10
914.3573223001983
 20
1427.165014260905
 30
0.0
  0
VERTEX
  5
367
  8
0
  6
CONTINUOUS
 62
     7
 10
914.3615833237741
 20
1427.168731393516
 30
0.0
  0
VERTEX
  5
368
  8
0
  6
CONTINUOUS
 62
     7
 10
914.3657390535217
 20
1427.172391558606
 30
0.0
  0
VERTEX
  5
369
  8
0
  6
CONTINUOUS
 62
     7
 10
914.3697848366642
 20
1427.175987851868
 30
0.0
  0
VERTEX
  5
36A
  8
0
  6
CONTINUOUS
 62
     7
 10
914.3737160204234
 20
1427.17951336899
 30
0.0
  0
VERTEX
  5
36B
  8
0
  6
CONTINUOUS
 62
     7
 10
914.3775279520227
 20
1427.182961205664
 30
0.0
  0
VERTEX
  5
36C
  8
0
  6
CONTINUOUS
 62
     7
 10
914.3812159786836
 20
1427.186324457581
 30
0.0
  0
VERTEX
  5
36D
  8
0
  6
CONTINUOUS
 62
     7
 10
914.384775447629
 20
1427.189596220429
 30
0.0
  0
VERTEX
  5
36E
  8
0
  6
CONTINUOUS
 62
     7
 10
914.388201706081
 20
1427.1927695899
 30
0.0
  0
VERTEX
  5
36F
  8
0
  6
CONTINUOUS
 62
     7
 10
914.391490101253
 20
1427.195837661674
 30
0.0
  0
VERTEX
  5
370
  8
0
  6
CONTINUOUS
 62
     7
 10
914.394633470974
 20
1427.198790979833
 30
0.0
  0
VERTEX
  5
371
  8
0
  6
CONTINUOUS
 62
     7
 10
914.3976150823152
 20
1427.201610356691
 30
0.0
  0
VERTEX
  5
372
  8
0
  6
CONTINUOUS
 62
     7
 10
914.4004159209738
 20
1427.20427428481
 30
0.0
  0
VERTEX
  5
373
  8
0
  6
CONTINUOUS
 62
     7
 10
914.4030169726483
 20
1427.20676125675
 30
0.0
  0
VERTEX
  5
374
  8
0
  6
CONTINUOUS
 62
     7
 10
914.405399223036
 20
1427.209049765074
 30
0.0
  0
VERTEX
  5
375
  8
0
  6
CONTINUOUS
 62
     7
 10
914.4075436578343
 20
1427.211118302341
 30
0.0
  0
VERTEX
  5
376
  8
0
  6
CONTINUOUS
 62
     7
 10
914.4094312627414
 20
1427.212945361115
 30
0.0
  0
VERTEX
  5
377
  8
0
  6
CONTINUOUS
 62
     7
 10
914.4110443761953
 20
1427.214510809097
 30
0.0
  0
VERTEX
  5
378
  8
0
  6
CONTINUOUS
 62
     7
 10
914.412393390015
 20
1427.215823031923
 30
0.0
  0
VERTEX
  5
379
  8
0
  6
CONTINUOUS
 62
     7
 10
914.4135151480434
 20
1427.216917305291
 30
0.0
  0
VERTEX
  5
37A
  8
0
  6
CONTINUOUS
 62
     7
 10
914.4144475262461
 20
1427.21782995411
 30
0.0
  0
VERTEX
  5
37B
  8
0
  6
CONTINUOUS
 62
     7
 10
914.4152284005877
 20
1427.218597303289
 30
0.0
  0
VERTEX
  5
37C
  8
0
  6
CONTINUOUS
 62
     7
 10
914.4158956470333
 20
1427.219255677739
 30
0.0
  0
VERTEX
  5
37D
  8
0
  6
CONTINUOUS
 62
     7
 10
914.4164871415485
 20
1427.219841402368
 30
0.0
  0
VERTEX
  5
37E
  8
0
  6
CONTINUOUS
 62
     7
 10
914.4170407600986
 20
1427.220390802088
 30
0.0
  0
SEQEND
  5
3C4
  8
0
  6
CONTINUOUS
 62
     7
  0
ARC
  5
129
  8
0
  6
CONTINUOUS
 62
     7
 10
913.9170893147988
 20
1427.22735875318
 30
0.0
 40
0.5000000000000626
 50
279.5765884810534
 51
359.201505773877
  0
LINE
  5
12A
  8
0
  6
CONTINUOUS
 62
     7
 10
901.4170509888706
 20
1460.220390802088
 30
0.0
 11
901.2170509888706
 21
1460.020390802088
 31
0.0
  0
LINE
  5
12B
  8
0
  6
CONTINUOUS
 62
     7
 10
901.2170509888706
 20
1440.020390802089
 30
0.0
 11
901.4170509888706
 21
1440.220390802089
 31
0.0
  0
LINE
  5
12C
  8
0
  6
CONTINUOUS
 62
     7
 10
899.8170509888705
 20
1460.220390802088
 30
0.0
 11
899.8170509888705
 21
1460.020390802088
 31
0.0
  0
ARC
  5
12D
  8
0
  6
CONTINUOUS
 62
     7
 10
899.8170509888705
 20
1460.020390802088
 30
0.0
 40
0.2000000000000455
 50
90.0
 51
180.0
  0
LINE
  5
12E
  8
0
  6
CONTINUOUS
 62
     7
 10
899.8170509888705
 20
1460.220390802088
 30
0.0
 11
901.4170509888706
 21
1460.220390802088
 31
0.0
  0
LINE
  5
12F
  8
0
  6
CONTINUOUS
 62
     7
 10
619.6170509888706
 20
1892.220390802091
 30
0.0
 11
898.6170509888706
 21
1892.220390802091
 31
0.0
  0
LINE
  5
130
  8
0
  6
CONTINUOUS
 62
     7
 10
898.6170509888706
 20
994.2203908020939
 30
0.0
 11
898.6170509888706
 21
1892.220390802091
 31
0.0
  0
LINE
  5
131
  8
0
  6
CONTINUOUS
 62
     7
 10
619.6170509888706
 20
994.2203908020939
 30
0.0
 11
619.6170509888706
 21
1892.220390802091
 31
0.0
  0
LINE
  5
132
  8
0
  6
CONTINUOUS
 62
     7
 10
619.6170509888706
 20
994.2203908020939
 30
0.0
 11
898.6170509888706
 21
994.2203908020939
 31
0.0
  0
LINE
  5
133
  8
0
  6
CONTINUOUS
 62
     7
 10
898.6170509888706
 20
993.7203908020938
 30
0.0
 11
898.6170509888706
 21
994.2203908020937
 31
0.0
  0
LINE
  5
134
  8
0
  6
CONTINUOUS
 62
     7
 10
898.6170509888706
 20
993.7203908020938
 30
0.0
 11
619.6170509888706
 21
993.7203908020938
 31
0.0
  0
LINE
  5
135
  8
0
  6
CONTINUOUS
 62
     7
 10
619.6170509888706
 20
993.7203908020938
 30
0.0
 11
619.6170509888706
 21
994.2203908020937
 31
0.0
  0
LINE
  5
136
  8
0
  6
CONTINUOUS
 62
     7
 10
898.6170509888706
 20
993.7203908020938
 30
0.0
 11
898.6170509888706
 21
993.220390802091
 31
0.0
  0
LINE
  5
137
  8
0
  6
CONTINUOUS
 62
     7
 10
899.6170509888706
 20
993.220390802091
 30
0.0
 11
899.6170509888706
 21
993.7203908020938
 31
0.0
  0
LINE
  5
138
  8
0
  6
CONTINUOUS
 62
     7
 10
899.6170509888706
 20
993.220390802091
 30
0.0
 11
898.6170509888706
 21
993.220390802091
 31
0.0
  0
LINE
  5
139
  8
0
  6
CONTINUOUS
 62
     7
 10
898.6170509888706
 20
1892.720390802091
 30
0.0
 11
898.6170509888706
 21
993.7203908020938
 31
0.0
  0
LINE
  5
13A
  8
0
  6
CONTINUOUS
 62
     7
 10
899.6170509888706
 20
1892.720390802091
 30
0.0
 11
898.6170509888706
 21
1892.720390802091
 31
0.0
  0
LINE
  5
13B
  8
0
  6
CONTINUOUS
 62
     7
 10
899.6170509888706
 20
993.7203908020938
 30
0.0
 11
899.6170509888706
 21
1892.720390802091
 31
0.0
  0
LINE
  5
13C
  8
0
  6
CONTINUOUS
 62
     7
 10
899.6170509888706
 20
993.7203908020938
 30
0.0
 11
898.6170509888706
 21
993.7203908020938
 31
0.0
  0
LINE
  5
13D
  8
0
  6
CONTINUOUS
 62
     7
 10
619.6170509888706
 20
1892.720390802091
 30
0.0
 11
619.6170509888706
 21
1892.220390802091
 31
0.0
  0
LINE
  5
13E
  8
0
  6
CONTINUOUS
 62
     7
 10
898.6170509888706
 20
1892.720390802091
 30
0.0
 11
619.6170509888706
 21
1892.720390802091
 31
0.0
  0
LINE
  5
13F
  8
0
  6
CONTINUOUS
 62
     7
 10
898.6170509888706
 20
1892.720390802091
 30
0.0
 11
898.6170509888706
 21
1892.220390802091
 31
0.0
  0
LINE
  5
140
  8
0
  6
CONTINUOUS
 62
     7
 10
619.6170509888706
 20
993.220390802091
 30
0.0
 11
619.6170509888706
 21
993.7203908020911
 31
0.0
  0
LINE
  5
141
  8
0
  6
CONTINUOUS
 62
     7
 10
619.6170509888706
 20
993.220390802091
 30
0.0
 11
898.6170509888706
 21
993.220390802091
 31
0.0
  0
LINE
  5
142
  8
0
  6
CONTINUOUS
 62
     7
 10
3094.301948629283
 20
1427.220390802088
 30
0.0
 11
3094.301948629283
 21
1427.720390802088
 31
0.0
  0
LINE
  5
143
  8
0
  6
CONTINUOUS
 62
     7
 10
3097.301948629282
 20
1427.720390802088
 30
0.0
 11
3097.301948629282
 21
1427.220390802088
 31
0.0
  0
LINE
  5
144
  8
0
  6
CONTINUOUS
 62
     7
 10
3097.301948629282
 20
1427.220390802088
 30
0.0
 11
3094.301948629283
 21
1427.220390802088
 31
0.0
  0
LINE
  5
145
  8
0
  6
CONTINUOUS
 62
     7
 10
3094.301948629283
 20
1427.720390802088
 30
0.0
 11
3097.301948629282
 21
1427.720390802088
 31
0.0
  0
LINE
  5
146
  8
0
  6
CONTINUOUS
 62
     7
 10
3098.301948629283
 20
1427.220390802088
 30
0.0
 11
3098.301948629283
 21
1427.720390802088
 31
0.0
  0
LINE
  5
147
  8
0
  6
CONTINUOUS
 62
     7
 10
3098.301948629283
 20
1427.220390802088
 30
0.0
 11
3097.301948629282
 21
1427.220390802088
 31
0.0
  0
LINE
  5
148
  8
0
  6
CONTINUOUS
 62
     7
 10
3098.301948629283
 20
1427.720390802088
 30
0.0
 11
3097.301948629282
 21
1427.720390802088
 31
0.0
  0
LINE
  5
149
  8
0
  6
CONTINUOUS
 62
     7
 10
3098.301948629283
 20
1440.220390802088
 30
0.0
 11
3110.801948629283
 21
1440.220390802088
 31
0.0
  0
LINE
  5
14A
  8
0
  6
CONTINUOUS
 62
     7
 10
3098.301948629283
 20
1427.720390802088
 30
0.0
 11
3098.301948629283
 21
1440.220390802088
 31
0.0
  0
LINE
  5
14B
  8
0
  6
CONTINUOUS
 62
     7
 10
3097.301948629282
 20
1890.720390802088
 30
0.0
 11
3097.301948629282
 21
1427.720390802088
 31
0.0
  0
LINE
  5
14C
  8
0
  6
CONTINUOUS
 62
     7
 10
3097.301948629282
 20
1890.720390802088
 30
0.0
 11
3112.301948629283
 21
1890.720390802088
 31
0.0
  0
LINE
  5
14D
  8
0
  6
CONTINUOUS
 62
     7
 10
3112.301948629283
 20
1890.720390802088
 30
0.0
 11
3112.301948629283
 21
1460.720390802088
 31
0.0
  0
LINE
  5
14E
  8
0
  6
CONTINUOUS
 62
     7
 10
3110.801948629283
 20
1440.220390802088
 30
0.0
 11
3110.801948629283
 21
1460.720390802088
 31
0.0
  0
LINE
  5
14F
  8
0
  6
CONTINUOUS
 62
     7
 10
3110.801948629283
 20
1460.720390802088
 30
0.0
 11
3112.301948629283
 21
1460.720390802088
 31
0.0
  0
LINE
  5
150
  8
0
  6
CONTINUOUS
 62
     7
 10
3094.301948629283
 20
1427.720390802088
 30
0.0
 11
3094.301948629283
 21
1890.720390802088
 31
0.0
  0
LINE
  5
151
  8
0
  6
CONTINUOUS
 62
     7
 10
3094.301948629283
 20
1890.720390802088
 30
0.0
 11
3097.301948629282
 21
1890.720390802088
 31
0.0
  0
LINE
  5
152
  8
0
  6
CONTINUOUS
 62
     7
 10
3112.301948629283
 20
1891.220390802088
 30
0.0
 11
3112.301948629283
 21
1890.720390802088
 31
0.0
  0
LINE
  5
153
  8
0
  6
CONTINUOUS
 62
     7
 10
3097.301948629282
 20
1891.220390802088
 30
0.0
 11
3097.301948629282
 21
1890.720390802088
 31
0.0
  0
LINE
  5
154
  8
0
  6
CONTINUOUS
 62
     7
 10
3097.301948629282
 20
1891.220390802088
 30
0.0
 11
3112.301948629283
 21
1891.220390802088
 31
0.0
  0
LINE
  5
155
  8
0
  6
CONTINUOUS
 62
     7
 10
3094.301948629283
 20
1890.720390802088
 30
0.0
 11
3094.301948629283
 21
1891.220390802088
 31
0.0
  0
LINE
  5
156
  8
0
  6
CONTINUOUS
 62
     7
 10
3094.301948629283
 20
1891.220390802088
 30
0.0
 11
3097.301948629282
 21
1891.220390802088
 31
0.0
  0
LINE
  5
157
  8
0
  6
CONTINUOUS
 62
     7
 10
3112.601948629283
 20
1460.020390802088
 30
0.0
 11
3112.401948629283
 21
1460.020390802088
 31
0.0
  0
LINE
  5
158
  8
0
  6
CONTINUOUS
 62
     7
 10
3112.401948629283
 20
1460.220390802088
 30
0.0
 11
3112.401948629283
 21
1460.020390802088
 31
0.0
  0
ARC
  5
159
  8
0
  6
CONTINUOUS
 62
     7
 10
3112.401948629283
 20
1460.020390802088
 30
0.0
 40
0.2000000000002728
 50
0.0
 51
90.0
  0
LINE
  5
15A
  8
0
  6
CONTINUOUS
 62
     7
 10
3110.801948629283
 20
1460.220390802088
 30
0.0
 11
3111.001948629283
 21
1460.020390802088
 31
0.0
  0
LINE
  5
15B
  8
0
  6
CONTINUOUS
 62
     7
 10
3111.001948629283
 20
1460.020390802088
 30
0.0
 11
3111.001948629283
 21
1440.020390802088
 31
0.0
  0
LINE
  5
15C
  8
0
  6
CONTINUOUS
 62
     7
 10
3110.801948629283
 20
1440.220390802088
 30
0.0
 11
3111.001948629283
 21
1440.020390802088
 31
0.0
  0
LINE
  5
15D
  8
0
  6
CONTINUOUS
 62
     7
 10
3110.801948629283
 20
1460.220390802088
 30
0.0
 11
3112.401948629283
 21
1460.220390802088
 31
0.0
  0
LINE
  5
15E
  8
0
  6
CONTINUOUS
 62
     7
 10
3112.401948629283
 20
1460.020390802088
 30
0.0
 11
3111.001948629283
 21
1460.020390802088
 31
0.0
  0
LINE
  5
15F
  8
0
  6
CONTINUOUS
 62
     7
 10
3112.601948629283
 20
1439.220390802088
 30
0.0
 11
3112.401948629283
 21
1439.220390802088
 31
0.0
  0
LINE
  5
160
  8
0
  6
CONTINUOUS
 62
     7
 10
3112.401948629283
 20
1439.220390802088
 30
0.0
 11
3112.401948629283
 21
1460.020390802088
 31
0.0
  0
ARC
  5
161
  8
0
  6
CONTINUOUS
 62
     7
 10
3101.218762399263
 20
1437.220390802088
 30
0.0
 40
1.200000000000273
 50
90.0
 51
175.0300534052999
  0
LINE
  5
162
  8
0
  6
CONTINUOUS
 62
     7
 10
3099.182085448319
 20
1427.651084245363
 30
0.0
 11
3100.023274066953
 21
1437.324350637175
 31
0.0
  0
ARC
  5
163
  8
0
  6
CONTINUOUS
 62
     7
 10
3098.385093226779
 20
1427.720390802088
 30
0.0
 40
0.8000000000001298
 50
260.4234115189552
 51
355.0300534053061
  0
ARC
  5
164
  8
0
  6
CONTINUOUS
 62
     7
 10
3098.301910303355
 20
1427.22735875318
 30
0.0
 40
0.3000000000004442
 50
223.621652967182
 51
260.4234115189098
  0
LINE
  5
165
  8
0
  6
CONTINUOUS
 62
     7
 10
3098.501948629283
 20
1427.020390802088
 30
0.0
 11
3098.084736945824
 21
1427.020390802088
 31
0.0
  0
LINE
  5
166
  8
0
  6
CONTINUOUS
 62
     7
 10
3098.501948629283
 20
1440.020390802088
 30
0.0
 11
3098.501948629283
 21
1427.020390802088
 31
0.0
  0
LINE
  5
167
  8
0
  6
CONTINUOUS
 62
     7
 10
3111.001948629283
 20
1440.020390802088
 30
0.0
 11
3098.501948629283
 21
1440.020390802088
 31
0.0
  0
ARC
  5
168
  8
0
  6
CONTINUOUS
 62
     7
 10
3111.601948629283
 20
1439.220390802088
 30
0.0
 40
0.8000000000001819
 50
270.0000000000008
 51
0.0
  0
LINE
  5
169
  8
0
  6
CONTINUOUS
 62
     7
 10
3101.218762399263
 20
1438.420390802088
 30
0.0
 11
3111.601948629283
 21
1438.420390802088
 31
0.0
  0
LINE
  5
16A
  8
0
  6
CONTINUOUS
 62
     7
 10
3100.023274066953
 20
1437.324350637175
 30
0.0
 11
3100.222522122339
 21
1437.307023997994
 31
0.0
  0
LINE
  5
16B
  8
0
  6
CONTINUOUS
 62
     7
 10
3100.222522122339
 20
1437.307023997994
 30
0.0
 11
3099.381333503704
 21
1427.633757606182
 31
0.0
  0
LINE
  5
16C
  8
0
  6
CONTINUOUS
 62
     7
 10
3099.182085448319
 20
1427.651084245363
 30
0.0
 11
3099.381333503704
 21
1427.633757606182
 31
0.0
  0
ARC
  5
16D
  8
0
  6
CONTINUOUS
 62
     7
 10
3098.385093226779
 20
1427.720390802088
 30
0.0
 40
1.000000000000087
 50
260.4234115189611
 51
355.0300534053093
  0
LINE
  5
16E
  8
0
  6
CONTINUOUS
 62
     7
 10
3098.2520005493
 20
1426.931539523835
 30
0.0
 11
3098.21872737993
 21
1426.734326704272
 31
0.0
  0
LINE
  5
16F
  8
0
  6
CONTINUOUS
 62
     7
 10
3098.301948629283
 20
1440.220390802088
 30
0.0
 11
3098.501948629283
 21
1440.020390802088
 31
0.0
  0
LINE
  5
170
  8
0
  6
CONTINUOUS
 62
     7
 10
3098.301948629283
 20
1427.220390802088
 30
0.0
 11
3098.501948629283
 21
1427.020390802088
 31
0.0
  0
POLYLINE
  5
171
  8
0
  6
CONTINUOUS
 62
     7
 66
     1
 10
0.0
 20
0.0
 30
0.0
  0
VERTEX
  5
37F
  8
0
  6
CONTINUOUS
 62
     7
 10
3098.084736945825
 20
1427.020390802088
 30
0.0
  0
VERTEX
  5
380
  8
0
  6
CONTINUOUS
 62
     7
 10
3098.078385485911
 20
1427.023148734266
 30
0.0
  0
VERTEX
  5
381
  8
0
  6
CONTINUOUS
 62
     7
 10
3098.072057424585
 20
1427.025975174014
 30
0.0
  0
VERTEX
  5
382
  8
0
  6
CONTINUOUS
 62
     7
 10
3098.065754746017
 20
1427.028870961177
 30
0.0
  0
VERTEX
  5
383
  8
0
  6
CONTINUOUS
 62
     7
 10
3098.059478542881
 20
1427.03183411856
 30
0.0
  0
VERTEX
  5
384
  8
0
  6
CONTINUOUS
 62
     7
 10
3098.053229907856
 20
1427.034862668968
 30
0.0
  0
VERTEX
  5
385
  8
0
  6
CONTINUOUS
 62
     7
 10
3098.047009933619
 20
1427.037954635208
 30
0.0
  0
VERTEX
  5
386
  8
0
  6
CONTINUOUS
 62
     7
 10
3098.040819712844
 20
1427.041108040083
 30
0.0
  0
VERTEX
  5
387
  8
0
  6
CONTINUOUS
 62
     7
 10
3098.034660338208
 20
1427.044320906398
 30
0.0
  0
VERTEX
  5
388
  8
0
  6
CONTINUOUS
 62
     7
 10
3098.028532902388
 20
1427.047591256958
 30
0.0
  0
VERTEX
  5
389
  8
0
  6
CONTINUOUS
 62
     7
 10
3098.022438498061
 20
1427.05091711457
 30
0.0
  0
VERTEX
  5
38A
  8
0
  6
CONTINUOUS
 62
     7
 10
3098.016378217903
 20
1427.054296502037
 30
0.0
  0
VERTEX
  5
38B
  8
0
  6
CONTINUOUS
 62
     7
 10
3098.010353154589
 20
1427.057727442165
 30
0.0
  0
VERTEX
  5
38C
  8
0
  6
CONTINUOUS
 62
     7
 10
3098.004364400797
 20
1427.061207957758
 30
0.0
  0
VERTEX
  5
38D
  8
0
  6
CONTINUOUS
 62
     7
 10
3097.998413049205
 20
1427.064736071623
 30
0.0
  0
VERTEX
  5
38E
  8
0
  6
CONTINUOUS
 62
     7
 10
3097.992500192486
 20
1427.068309806563
 30
0.0
  0
VERTEX
  5
38F
  8
0
  6
CONTINUOUS
 62
     7
 10
3097.986626923319
 20
1427.071927185385
 30
0.0
  0
VERTEX
  5
390
  8
0
  6
CONTINUOUS
 62
     7
 10
3097.980794334378
 20
1427.075586230892
 30
0.0
  0
VERTEX
  5
391
  8
0
  6
CONTINUOUS
 62
     7
 10
3097.975003518342
 20
1427.079284965891
 30
0.0
  0
VERTEX
  5
392
  8
0
  6
CONTINUOUS
 62
     7
 10
3097.969255567888
 20
1427.083021413186
 30
0.0
  0
VERTEX
  5
393
  8
0
  6
CONTINUOUS
 62
     7
 10
3097.96355157569
 20
1427.086793595582
 30
0.0
  0
VERTEX
  5
394
  8
0
  6
CONTINUOUS
 62
     7
 10
3097.957892634425
 20
1427.090599535884
 30
0.0
  0
VERTEX
  5
395
  8
0
  6
CONTINUOUS
 62
     7
 10
3097.95227983677
 20
1427.094437256898
 30
0.0
  0
VERTEX
  5
396
  8
0
  6
CONTINUOUS
 62
     7
 10
3097.946714275402
 20
1427.098304781428
 30
0.0
  0
VERTEX
  5
397
  8
0
  6
CONTINUOUS
 62
     7
 10
3097.941197042996
 20
1427.10220013228
 30
0.0
  0
VERTEX
  5
398
  8
0
  6
CONTINUOUS
 62
     7
 10
3097.935729291977
 20
1427.106121254435
 30
0.0
  0
VERTEX
  5
399
  8
0
  6
CONTINUOUS
 62
     7
 10
3097.930313233777
 20
1427.110064713474
 30
0.0
  0
VERTEX
  5
39A
  8
0
  6
CONTINUOUS
 62
     7
 10
3097.924951988668
 20
1427.114025891181
 30
0.0
  0
VERTEX
  5
39B
  8
0
  6
CONTINUOUS
 62
     7
 10
3097.919648706409
 20
1427.118000130927
 30
0.0
  0
VERTEX
  5
39C
  8
0
  6
CONTINUOUS
 62
     7
 10
3097.914406536763
 20
1427.12198277608
 30
0.0
  0
VERTEX
  5
39D
  8
0
  6
CONTINUOUS
 62
     7
 10
3097.909228629494
 20
1427.125969170011
 30
0.0
  0
VERTEX
  5
39E
  8
0
  6
CONTINUOUS
 62
     7
 10
3097.904118134361
 20
1427.129954656089
 30
0.0
  0
VERTEX
  5
39F
  8
0
  6
CONTINUOUS
 62
     7
 10
3097.89907820113
 20
1427.133934577685
 30
0.0
  0
VERTEX
  5
3A0
  8
0
  6
CONTINUOUS
 62
     7
 10
3097.894111979559
 20
1427.137904278167
 30
0.0
  0
VERTEX
  5
3A1
  8
0
  6
CONTINUOUS
 62
     7
 10
3097.889222619412
 20
1427.141859100906
 30
0.0
  0
VERTEX
  5
3A2
  8
0
  6
CONTINUOUS
 62
     7
 10
3097.884413270451
 20
1427.145794389272
 30
0.0
  0
VERTEX
  5
3A3
  8
0
  6
CONTINUOUS
 62
     7
 10
3097.879687082437
 20
1427.149705486635
 30
0.0
  0
VERTEX
  5
3A4
  8
0
  6
CONTINUOUS
 62
     7
 10
3097.875047205133
 20
1427.153587736363
 30
0.0
  0
VERTEX
  5
3A5
  8
0
  6
CONTINUOUS
 62
     7
 10
3097.870496788301
 20
1427.157436481827
 30
0.0
  0
VERTEX
  5
3A6
  8
0
  6
CONTINUOUS
 62
     7
 10
3097.866038982581
 20
1427.161247065085
 30
0.0
  0
VERTEX
  5
3A7
  8
0
  6
CONTINUOUS
 62
     7
 10
3097.861677317955
 20
1427.165014260905
 30
0.0
  0
VERTEX
  5
3A8
  8
0
  6
CONTINUOUS
 62
     7
 10
3097.85741629438
 20
1427.168731393515
 30
0.0
  0
VERTEX
  5
3A9
  8
0
  6
CONTINUOUS
 62
     7
 10
3097.853260564631
 20
1427.172391558606
 30
0.0
  0
VERTEX
  5
3AA
  8
0
  6
CONTINUOUS
 62
     7
 10
3097.849214781488
 20
1427.175987851867
 30
0.0
  0
VERTEX
  5
3AB
  8
0
  6
CONTINUOUS
 62
     7
 10
3097.84528359773
 20
1427.17951336899
 30
0.0
  0
VERTEX
  5
3AC
  8
0
  6
CONTINUOUS
 62
     7
 10
3097.841471666131
 20
1427.182961205664
 30
0.0
  0
VERTEX
  5
3AD
  8
0
  6
CONTINUOUS
 62
     7
 10
3097.83778363947
 20
1427.18632445758
 30
0.0
  0
VERTEX
  5
3AE
  8
0
  6
CONTINUOUS
 62
     7
 10
3097.834224170524
 20
1427.189596220429
 30
0.0
  0
VERTEX
  5
3AF
  8
0
  6
CONTINUOUS
 62
     7
 10
3097.830797912072
 20
1427.1927695899
 30
0.0
  0
VERTEX
  5
3B0
  8
0
  6
CONTINUOUS
 62
     7
 10
3097.8275095169
 20
1427.195837661674
 30
0.0
  0
VERTEX
  5
3B1
  8
0
  6
CONTINUOUS
 62
     7
 10
3097.82436614718
 20
1427.198790979833
 30
0.0
  0
VERTEX
  5
3B2
  8
0
  6
CONTINUOUS
 62
     7
 10
3097.821384535839
 20
1427.201610356691
 30
0.0
  0
VERTEX
  5
3B3
  8
0
  6
CONTINUOUS
 62
     7
 10
3097.81858369718
 20
1427.20427428481
 30
0.0
  0
VERTEX
  5
3B4
  8
0
  6
CONTINUOUS
 62
     7
 10
3097.815982645505
 20
1427.20676125675
 30
0.0
  0
VERTEX
  5
3B5
  8
0
  6
CONTINUOUS
 62
     7
 10
3097.813600395118
 20
1427.209049765073
 30
0.0
  0
VERTEX
  5
3B6
  8
0
  6
CONTINUOUS
 62
     7
 10
3097.811455960319
 20
1427.211118302341
 30
0.0
  0
VERTEX
  5
3B7
  8
0
  6
CONTINUOUS
 62
     7
 10
3097.809568355413
 20
1427.212945361114
 30
0.0
  0
VERTEX
  5
3B8
  8
0
  6
CONTINUOUS
 62
     7
 10
3097.807955241959
 20
1427.214510809097
 30
0.0
  0
VERTEX
  5
3B9
  8
0
  6
CONTINUOUS
 62
     7
 10
3097.806606228139
 20
1427.215823031923
 30
0.0
  0
VERTEX
  5
3BA
  8
0
  6
CONTINUOUS
 62
     7
 10
3097.80548447011
 20
1427.216917305291
 30
0.0
  0
VERTEX
  5
3BB
  8
0
  6
CONTINUOUS
 62
     7
 10
3097.804552091908
 20
1427.217829954109
 30
0.0
  0
VERTEX
  5
3BC
  8
0
  6
CONTINUOUS
 62
     7
 10
3097.803771217566
 20
1427.218597303289
 30
0.0
  0
VERTEX
  5
3BD
  8
0
  6
CONTINUOUS
 62
     7
 10
3097.80310397112
 20
1427.219255677738
 30
0.0
  0
VERTEX
  5
3BE
  8
0
  6
CONTINUOUS
 62
     7
 10
3097.802512476605
 20
1427.219841402368
 30
0.0
  0
VERTEX
  5
3BF
  8
0
  6
CONTINUOUS
 62
     7
 10
3097.801958858055
 20
1427.220390802088
 30
0.0
  0
SEQEND
  5
3C5
  8
0
  6
CONTINUOUS
 62
     7
  0
ARC
  5
172
  8
0
  6
CONTINUOUS
 62
     7
 10
3098.301910303355
 20
1427.22735875318
 30
0.0
 40
0.5000000000003056
 50
180.798494226124
 51
260.4234115189398
  0
LINE
  5
173
  8
0
  6
CONTINUOUS
 62
     7
 10
3111.601948629283
 20
1438.420390802088
 30
0.0
 11
3111.601948629283
 21
1438.220390802088
 31
0.0
  0
LINE
  5
174
  8
0
  6
CONTINUOUS
 62
     7
 10
3111.601948629283
 20
1438.220390802088
 30
0.0
 11
3101.218762399263
 21
1438.220390802088
 31
0.0
  0
LINE
  5
175
  8
0
  6
CONTINUOUS
 62
     7
 10
3101.218762399263
 20
1438.420390802088
 30
0.0
 11
3101.218762399263
 21
1438.220390802088
 31
0.0
  0
ARC
  5
176
  8
0
  6
CONTINUOUS
 62
     7
 10
3101.218762399263
 20
1437.220390802088
 30
0.0
 40
1.000000000000227
 50
90.0
 51
175.0300534052933
  0
ARC
  5
177
  8
0
  6
CONTINUOUS
 62
     7
 10
3111.601948629283
 20
1439.220390802088
 30
0.0
 40
1.000000000000455
 50
270.0000000000008
 51
0.0
  0
LINE
  5
178
  8
0
  6
CONTINUOUS
 62
     7
 10
3392.601948629283
 20
993.7203908020908
 30
0.0
 11
3113.601948629283
 21
993.7203908020908
 31
0.0
  0
LINE
  5
179
  8
0
  6
CONTINUOUS
 62
     7
 10
3113.601948629283
 20
1891.720390802088
 30
0.0
 11
3113.601948629283
 21
993.7203908020908
 31
0.0
  0
LINE
  5
17A
  8
0
  6
CONTINUOUS
 62
     7
 10
3392.601948629283
 20
1891.720390802088
 30
0.0
 11
3113.601948629283
 21
1891.720390802088
 31
0.0
  0
LINE
  5
17B
  8
0
  6
CONTINUOUS
 62
     7
 10
3392.601948629283
 20
1891.720390802088
 30
0.0
 11
3392.601948629283
 21
993.7203908020908
 31
0.0
  0
LINE
  5
17C
  8
0
  6
CONTINUOUS
 62
     7
 10
3392.601948629283
 20
1892.220390802089
 30
0.0
 11
3392.601948629283
 21
1891.720390802088
 31
0.0
  0
LINE
  5
17D
  8
0
  6
CONTINUOUS
 62
     7
 10
3113.601948629283
 20
1892.220390802089
 30
0.0
 11
3113.601948629283
 21
1891.720390802088
 31
0.0
  0
LINE
  5
17E
  8
0
  6
CONTINUOUS
 62
     7
 10
3113.601948629283
 20
1892.220390802089
 30
0.0
 11
3392.601948629283
 21
1892.220390802089
 31
0.0
  0
LINE
  5
17F
  8
0
  6
CONTINUOUS
 62
     7
 10
3113.601948629283
 20
993.220390802091
 30
0.0
 11
3113.601948629283
 21
1892.220390802089
 31
0.0
  0
LINE
  5
180
  8
0
  6
CONTINUOUS
 62
     7
 10
3112.601948629283
 20
1892.220390802089
 30
0.0
 11
3113.601948629283
 21
1892.220390802089
 31
0.0
  0
LINE
  5
181
  8
0
  6
CONTINUOUS
 62
     7
 10
3112.601948629283
 20
993.220390802091
 30
0.0
 11
3113.601948629283
 21
993.220390802091
 31
0.0
  0
LINE
  5
182
  8
0
  6
CONTINUOUS
 62
     7
 10
3112.601948629283
 20
1892.220390802089
 30
0.0
 11
3112.601948629283
 21
993.220390802091
 31
0.0
  0
LINE
  5
183
  8
0
  6
CONTINUOUS
 62
     7
 10
3112.601948629283
 20
1892.720390802091
 30
0.0
 11
3112.601948629283
 21
1892.220390802089
 31
0.0
  0
LINE
  5
184
  8
0
  6
CONTINUOUS
 62
     7
 10
3113.601948629283
 20
1892.220390802091
 30
0.0
 11
3113.601948629283
 21
1892.720390802091
 31
0.0
  0
LINE
  5
185
  8
0
  6
CONTINUOUS
 62
     7
 10
3112.601948629283
 20
1892.720390802091
 30
0.0
 11
3113.601948629283
 21
1892.720390802091
 31
0.0
  0
LINE
  5
186
  8
0
  6
CONTINUOUS
 62
     7
 10
3392.601948629283
 20
1892.720390802091
 30
0.0
 11
3113.601948629283
 21
1892.720390802091
 31
0.0
  0
LINE
  5
187
  8
0
  6
CONTINUOUS
 62
     7
 10
3392.601948629283
 20
1892.720390802091
 30
0.0
 11
3392.601948629283
 21
1892.220390802091
 31
0.0
  0
LINE
  5
188
  8
0
  6
CONTINUOUS
 62
     7
 10
3113.601948629283
 20
993.220390802091
 30
0.0
 11
3113.601948629283
 21
993.7203908020908
 31
0.0
  0
LINE
  5
189
  8
0
  6
CONTINUOUS
 62
     7
 10
3392.601948629283
 20
993.220390802091
 30
0.0
 11
3392.601948629283
 21
993.7203908020908
 31
0.0
  0
LINE
  5
18A
  8
0
  6
CONTINUOUS
 62
     7
 10
3113.601948629283
 20
993.220390802091
 30
0.0
 11
3392.601948629283
 21
993.220390802091
 31
0.0
  0
LINE
  5
18B
  8
0
  6
CONTINUOUS
 62
     7
 10
1769.351797306951
 20
2653.64953530045
 30
0.0
 11
2015.351797306951
 21
2653.64953530045
 31
0.0
  0
LINE
  5
18C
  8
0
  6
CONTINUOUS
 62
     7
 10
2015.351797306951
 20
2638.64953530045
 30
0.0
 11
2015.351797306951
 21
2653.64953530045
 31
0.0
  0
ARC
  5
18D
  8
0
  6
CONTINUOUS
 62
     7
 10
2012.351797306951
 20
2638.64953530045
 30
0.0
 40
3.0
 50
270.0000000000008
 51
0.0
  0
LINE
  5
18E
  8
0
  6
CONTINUOUS
 62
     7
 10
1772.35179730695
 20
2635.64953530045
 30
0.0
 11
2012.351797306951
 21
2635.64953530045
 31
0.0
  0
ARC
  5
18F
  8
0
  6
CONTINUOUS
 62
     7
 10
1772.35179730695
 20
2638.64953530045
 30
0.0
 40
3.0
 50
180.0
 51
270.0000000000008
  0
LINE
  5
190
  8
0
  6
CONTINUOUS
 62
     7
 10
1769.351797306951
 20
2638.64953530045
 30
0.0
 11
1769.351797306951
 21
2653.64953530045
 31
0.0
  0
LINE
  5
191
  8
0
  6
CONTINUOUS
 62
     7
 10
2263.85179730695
 20
2638.64953530045
 30
0.0
 11
2263.85179730695
 21
2653.64953530045
 31
0.0
  0
ARC
  5
192
  8
0
  6
CONTINUOUS
 62
     7
 10
2260.851797306951
 20
2638.64953530045
 30
0.0
 40
3.0
 50
270.0000000000008
 51
0.0
  0
LINE
  5
193
  8
0
  6
CONTINUOUS
 62
     7
 10
2017.85179730695
 20
2653.64953530045
 30
0.0
 11
2263.85179730695
 21
2653.64953530045
 31
0.0
  0
LINE
  5
194
  8
0
  6
CONTINUOUS
 62
     7
 10
2017.85179730695
 20
2638.64953530045
 30
0.0
 11
2017.85179730695
 21
2653.64953530045
 31
0.0
  0
ARC
  5
195
  8
0
  6
CONTINUOUS
 62
     7
 10
2020.85179730695
 20
2638.64953530045
 30
0.0
 40
3.0
 50
180.0
 51
270.0000000000008
  0
LINE
  5
196
  8
0
  6
CONTINUOUS
 62
     7
 10
2020.85179730695
 20
2635.64953530045
 30
0.0
 11
2260.851797306951
 21
2635.64953530045
 31
0.0
  0
LINE
  5
197
  8
0
  6
CONTINUOUS
 62
     7
 10
2018.851797306951
 20
2653.94953530045
 30
0.0
 11
2018.851797306951
 21
2653.74953530045
 31
0.0
  0
LINE
  5
198
  8
0
  6
CONTINUOUS
 62
     7
 10
2018.851797306951
 20
2653.74953530045
 30
0.0
 11
2018.05179730695
 21
2653.74953530045
 31
0.0
  0
LINE
  5
199
  8
0
  6
CONTINUOUS
 62
     7
 10
2018.05179730695
 20
2653.94953530045
 30
0.0
 11
2018.05179730695
 21
2653.74953530045
 31
0.0
  0
LINE
  5
19A
  8
0
  6
CONTINUOUS
 62
     7
 10
2018.05179730695
 20
2653.94953530045
 30
0.0
 11
2018.851797306951
 21
2653.94953530045
 31
0.0
  0
LINE
  5
19B
  8
0
  6
CONTINUOUS
 62
     7
 10
2017.851797306951
 20
2653.649535300448
 30
0.0
 11
2017.851797306951
 21
2653.74953530045
 31
0.0
  0
LINE
  5
19C
  8
0
  6
CONTINUOUS
 62
     7
 10
2018.05179730695
 20
2653.74953530045
 30
0.0
 11
2017.851797306951
 21
2653.74953530045
 31
0.0
  0
LINE
  5
19D
  8
0
  6
CONTINUOUS
 62
     7
 10
2018.851797306951
 20
2653.649535300448
 30
0.0
 11
2018.851797306951
 21
2653.74953530045
 31
0.0
  0
ARC
  5
19E
  8
0
  6
CONTINUOUS
 62
     7
 10
2018.05179730695
 20
2653.74953530045
 30
0.0
 40
0.1999999999998181
 50
90.0
 51
180.0
  0
LINE
  5
19F
  8
0
  6
CONTINUOUS
 62
     7
 10
1770.351797306951
 20
2653.649535300448
 30
0.0
 11
1770.351797306951
 21
2653.74953530045
 31
0.0
  0
LINE
  5
1A0
  8
0
  6
CONTINUOUS
 62
     7
 10
1770.351797306951
 20
2653.74953530045
 30
0.0
 11
1769.551797306951
 21
2653.74953530045
 31
0.0
  0
LINE
  5
1A1
  8
0
  6
CONTINUOUS
 62
     7
 10
1769.551797306951
 20
2653.74953530045
 30
0.0
 11
1769.351797306951
 21
2653.74953530045
 31
0.0
  0
ARC
  5
1A2
  8
0
  6
CONTINUOUS
 62
     7
 10
1769.551797306951
 20
2653.74953530045
 30
0.0
 40
0.1999999999998181
 50
90.0
 51
180.0
  0
LINE
  5
1A3
  8
0
  6
CONTINUOUS
 62
     7
 10
1769.551797306951
 20
2653.94953530045
 30
0.0
 11
1769.551797306951
 21
2653.74953530045
 31
0.0
  0
LINE
  5
1A4
  8
0
  6
CONTINUOUS
 62
     7
 10
1769.351797306951
 20
2653.649535300448
 30
0.0
 11
1769.351797306951
 21
2653.74953530045
 31
0.0
  0
LINE
  5
1A5
  8
0
  6
CONTINUOUS
 62
     7
 10
1770.351797306951
 20
2653.94953530045
 30
0.0
 11
1770.351797306951
 21
2653.74953530045
 31
0.0
  0
LINE
  5
1A6
  8
0
  6
CONTINUOUS
 62
     7
 10
2018.851797306951
 20
2653.94953530045
 30
0.0
 11
2248.351797306951
 21
2653.94953530045
 31
0.0
  0
LINE
  5
1A7
  8
0
  6
CONTINUOUS
 62
     7
 10
2262.851797306951
 20
2653.74953530045
 30
0.0
 11
2262.851797306951
 21
2653.94953530045
 31
0.0
  0
LINE
  5
1A8
  8
0
  6
CONTINUOUS
 62
     7
 10
2262.851797306951
 20
2653.74953530045
 30
0.0
 11
2018.851797306951
 21
2653.74953530045
 31
0.0
  0
LINE
  5
1A9
  8
0
  6
CONTINUOUS
 62
     7
 10
2262.851797306951
 20
2653.74953530045
 30
0.0
 11
2262.851797306951
 21
2653.649535300448
 31
0.0
  0
LINE
  5
1AA
  8
0
  6
CONTINUOUS
 62
     7
 10
2014.351797306951
 20
2653.749535300451
 30
0.0
 11
1770.351797306951
 21
2653.74953530045
 31
0.0
  0
LINE
  5
1AB
  8
0
  6
CONTINUOUS
 62
     7
 10
2014.351797306951
 20
2653.749535300451
 30
0.0
 11
2014.351797306951
 21
2653.649535300448
 31
0.0
  0
LINE
  5
1AC
  8
0
  6
CONTINUOUS
 62
     7
 10
1784.851797306951
 20
2653.94953530045
 30
0.0
 11
2014.351797306951
 21
2653.94953530045
 31
0.0
  0
LINE
  5
1AD
  8
0
  6
CONTINUOUS
 62
     7
 10
2014.351797306951
 20
2653.749535300451
 30
0.0
 11
2014.351797306951
 21
2653.94953530045
 31
0.0
  0
LINE
  5
1AE
  8
0
  6
CONTINUOUS
 62
     7
 10
2015.151797306951
 20
2653.749535300451
 30
0.0
 11
2014.351797306951
 21
2653.749535300451
 31
0.0
  0
LINE
  5
1AF
  8
0
  6
CONTINUOUS
 62
     7
 10
2014.351797306951
 20
2653.94953530045
 30
0.0
 11
2015.151797306951
 21
2653.94953530045
 31
0.0
  0
LINE
  5
1B0
  8
0
  6
CONTINUOUS
 62
     7
 10
2015.151797306951
 20
2653.749535300451
 30
0.0
 11
2015.151797306951
 21
2653.94953530045
 31
0.0
  0
LINE
  5
1B1
  8
0
  6
CONTINUOUS
 62
     7
 10
2015.151797306951
 20
2653.749535300451
 30
0.0
 11
2015.351797306951
 21
2653.749535300451
 31
0.0
  0
LINE
  5
1B2
  8
0
  6
CONTINUOUS
 62
     7
 10
2015.351797306951
 20
2653.749535300451
 30
0.0
 11
2015.351797306951
 21
2653.649535300448
 31
0.0
  0
ARC
  5
1B3
  8
0
  6
CONTINUOUS
 62
     7
 10
2015.151797306951
 20
2653.749535300451
 30
0.0
 40
0.2000000000000455
 50
0.0
 51
90.0
  0
LINE
  5
1B4
  8
0
  6
CONTINUOUS
 62
     7
 10
2263.65179730695
 20
2653.74953530045
 30
0.0
 11
2263.65179730695
 21
2653.94953530045
 31
0.0
  0
LINE
  5
1B5
  8
0
  6
CONTINUOUS
 62
     7
 10
2263.65179730695
 20
2653.74953530045
 30
0.0
 11
2262.851797306951
 21
2653.74953530045
 31
0.0
  0
ARC
  5
1B6
  8
0
  6
CONTINUOUS
 62
     7
 10
2263.65179730695
 20
2653.74953530045
 30
0.0
 40
0.2000000000002728
 50
0.0
 51
90.0
  0
LINE
  5
1B7
  8
0
  6
CONTINUOUS
 62
     7
 10
2263.65179730695
 20
2653.74953530045
 30
0.0
 11
2263.851797306951
 21
2653.74953530045
 31
0.0
  0
LINE
  5
1B8
  8
0
  6
CONTINUOUS
 62
     7
 10
2263.851797306951
 20
2653.74953530045
 30
0.0
 11
2263.851797306951
 21
2653.649535300448
 31
0.0
  0
LINE
  5
1B9
  8
0
  6
CONTINUOUS
 62
     7
 10
2248.351797306951
 20
2655.44953530045
 30
0.0
 11
1784.851797306951
 21
2655.44953530045
 31
0.0
  0
LINE
  5
1BA
  8
0
  6
CONTINUOUS
 62
     7
 10
2248.351797306951
 20
2933.94953530045
 30
0.0
 11
1784.851797306951
 21
2933.94953530045
 31
0.0
  0
LINE
  5
1BB
  8
0
  6
CONTINUOUS
 62
     7
 10
2248.351797306951
 20
2933.94953530045
 30
0.0
 11
2248.351797306951
 21
2655.44953530045
 31
0.0
  0
LINE
  5
1BC
  8
0
  6
CONTINUOUS
 62
     7
 10
2248.351797306951
 20
2654.44953530045
 30
0.0
 11
2248.351797306951
 21
2655.44953530045
 31
0.0
  0
LINE
  5
1BD
  8
0
  6
CONTINUOUS
 62
     7
 10
2248.351797306951
 20
2654.44953530045
 30
0.0
 11
1784.851797306951
 21
2654.44953530045
 31
0.0
  0
LINE
  5
1BE
  8
0
  6
CONTINUOUS
 62
     7
 10
2018.05179730695
 20
2653.94953530045
 30
0.0
 11
2015.151797306951
 21
2653.94953530045
 31
0.0
  0
LINE
  5
1BF
  8
0
  6
CONTINUOUS
 62
     7
 10
2248.351797306951
 20
2654.94953530045
 30
0.0
 11
2265.85179730695
 21
2654.94953530045
 31
0.0
  0
LINE
  5
1C0
  8
0
  6
CONTINUOUS
 62
     7
 10
2248.351797306951
 20
2933.94953530045
 30
0.0
 11
2248.351797306951
 21
2654.94953530045
 31
0.0
  0
LINE
  5
1C1
  8
0
  6
CONTINUOUS
 62
     7
 10
2265.85179730695
 20
2933.94953530045
 30
0.0
 11
2248.351797306951
 21
2933.94953530045
 31
0.0
  0
LINE
  5
1C2
  8
0
  6
CONTINUOUS
 62
     7
 10
2265.85179730695
 20
2654.94953530045
 30
0.0
 11
2265.85179730695
 21
2933.94953530045
 31
0.0
  0
LINE
  5
1C3
  8
0
  6
CONTINUOUS
 62
     7
 10
2265.85179730695
 20
2653.94953530045
 30
0.0
 11
2265.85179730695
 21
2654.94953530045
 31
0.0
  0
LINE
  5
1C4
  8
0
  6
CONTINUOUS
 62
     7
 10
2248.351797306951
 20
2653.94953530045
 30
0.0
 11
2265.85179730695
 21
2653.94953530045
 31
0.0
  0
LINE
  5
1C5
  8
0
  6
CONTINUOUS
 62
     7
 10
2248.351797306951
 20
2653.94953530045
 30
0.0
 11
2248.351797306951
 21
2654.94953530045
 31
0.0
  0
LINE
  5
1C6
  8
0
  6
CONTINUOUS
 62
     7
 10
1784.851797306951
 20
2653.94953530045
 30
0.0
 11
1784.851797306951
 21
2654.94953530045
 31
0.0
  0
LINE
  5
1C7
  8
0
  6
CONTINUOUS
 62
     7
 10
1784.851797306951
 20
2654.94953530045
 30
0.0
 11
1767.351797306951
 21
2654.94953530045
 31
0.0
  0
LINE
  5
1C8
  8
0
  6
CONTINUOUS
 62
     7
 10
1767.351797306951
 20
2653.94953530045
 30
0.0
 11
1784.851797306951
 21
2653.94953530045
 31
0.0
  0
LINE
  5
1C9
  8
0
  6
CONTINUOUS
 62
     7
 10
1767.351797306951
 20
2653.94953530045
 30
0.0
 11
1767.351797306951
 21
2654.94953530045
 31
0.0
  0
LINE
  5
1CA
  8
0
  6
CONTINUOUS
 62
     7
 10
1767.351797306951
 20
2654.94953530045
 30
0.0
 11
1767.351797306951
 21
2933.94953530045
 31
0.0
  0
LINE
  5
1CB
  8
0
  6
CONTINUOUS
 62
     7
 10
1767.351797306951
 20
2933.94953530045
 30
0.0
 11
1784.851797306951
 21
2933.94953530045
 31
0.0
  0
LINE
  5
1CC
  8
0
  6
CONTINUOUS
 62
     7
 10
1784.851797306951
 20
2933.94953530045
 30
0.0
 11
1784.851797306951
 21
2654.94953530045
 31
0.0
  0
LINE
  5
1CD
  8
0
  6
CONTINUOUS
 62
     8
 10
2018.05179730695
 20
2653.74953530045
 30
0.0
 11
2018.05179730695
 21
2653.649535300448
 31
0.0
  0
LINE
  5
1CE
  8
0
  6
CONTINUOUS
 62
     8
 10
1769.551797306951
 20
2653.74953530045
 30
0.0
 11
1769.551797306951
 21
2653.649535300448
 31
0.0
  0
LINE
  5
1CF
  8
0
  6
CONTINUOUS
 62
     8
 10
2015.151797306951
 20
2653.649535300448
 30
0.0
 11
2015.151797306951
 21
2653.749535300451
 31
0.0
  0
LINE
  5
1D0
  8
0
  6
CONTINUOUS
 62
     8
 10
2263.65179730695
 20
2653.649535300448
 30
0.0
 11
2263.65179730695
 21
2653.74953530045
 31
0.0
  0
LINE
  5
1D1
  8
0
  6
CONTINUOUS
 62
     7
 10
4145.064003818527
 20
1044.720390802091
 30
0.0
 11
4608.564003818527
 21
1044.720390802091
 31
0.0
  0
LINE
  5
1D2
  8
0
  6
CONTINUOUS
 62
     7
 10
4145.064003818527
 20
994.720390802091
 30
0.0
 11
4608.564003818527
 21
994.720390802091
 31
0.0
  0
LINE
  5
1D3
  8
0
  6
CONTINUOUS
 62
     7
 10
4145.064003818527
 20
1877.720390802091
 30
0.0
 11
4608.564003818527
 21
1877.720390802091
 31
0.0
  0
LINE
  5
1D4
  8
0
  6
CONTINUOUS
 62
     7
 10
4608.564003818527
 20
1875.220390802091
 30
0.0
 11
4608.564003818527
 21
1877.720390802091
 31
0.0
  0
LINE
  5
1D5
  8
0
  6
CONTINUOUS
 62
     7
 10
4145.064003818527
 20
1875.220390802091
 30
0.0
 11
4145.064003818527
 21
1877.720390802091
 31
0.0
  0
LINE
  5
1D6
  8
0
  6
CONTINUOUS
 62
     7
 10
4145.064003818527
 20
1875.220390802091
 30
0.0
 11
4608.564003818527
 21
1875.220390802091
 31
0.0
  0
LINE
  5
1D7
  8
0
  6
CONTINUOUS
 62
     7
 10
4145.064003818527
 20
1892.220390802091
 30
0.0
 11
4608.564003818527
 21
1892.220390802091
 31
0.0
  0
LINE
  5
1D8
  8
0
  6
CONTINUOUS
 62
     7
 10
4608.564003818527
 20
1889.720390802091
 30
0.0
 11
4608.564003818527
 21
1892.220390802091
 31
0.0
  0
LINE
  5
1D9
  8
0
  6
CONTINUOUS
 62
     7
 10
4145.064003818527
 20
1889.720390802091
 30
0.0
 11
4145.064003818527
 21
1892.220390802091
 31
0.0
  0
LINE
  5
1DA
  8
0
  6
CONTINUOUS
 62
     7
 10
4145.064003818527
 20
1889.720390802091
 30
0.0
 11
4608.564003818527
 21
1889.720390802091
 31
0.0
  0
LINE
  5
1DB
  8
0
  6
CONTINUOUS
 62
     7
 10
4145.064003818527
 20
1889.720390802091
 30
0.0
 11
4145.064003818527
 21
1877.720390802091
 31
0.0
  0
LINE
  5
1DC
  8
0
  6
CONTINUOUS
 62
     7
 10
4608.564003818527
 20
1889.720390802091
 30
0.0
 11
4608.564003818527
 21
1877.720390802091
 31
0.0
  0
LINE
  5
1DD
  8
0
  6
CONTINUOUS
 62
     7
 10
4623.564003818526
 20
1892.220390802091
 30
0.0
 11
4623.564003818526
 21
994.2203908020939
 31
0.0
  0
LINE
  5
1DE
  8
0
  6
CONTINUOUS
 62
     7
 10
4626.064003818527
 20
1892.220390802091
 30
0.0
 11
4623.564003818526
 21
1892.220390802091
 31
0.0
  0
LINE
  5
1DF
  8
0
  6
CONTINUOUS
 62
     7
 10
4623.564003818526
 20
994.2203908020939
 30
0.0
 11
4626.064003818527
 21
994.2203908020941
 31
0.0
  0
LINE
  5
1E0
  8
0
  6
CONTINUOUS
 62
     7
 10
4626.064003818527
 20
994.2203908020941
 30
0.0
 11
4626.064003818527
 21
1892.220390802091
 31
0.0
  0
LINE
  5
1E1
  8
0
  6
CONTINUOUS
 62
     7
 10
4130.064003818527
 20
1891.720390802088
 30
0.0
 11
4127.564003818527
 21
1891.720390802088
 31
0.0
  0
LINE
  5
1E2
  8
0
  6
CONTINUOUS
 62
     7
 10
4130.064003818527
 20
993.7203908020908
 30
0.0
 11
4130.064003818527
 21
1891.720390802088
 31
0.0
  0
LINE
  5
1E3
  8
0
  6
CONTINUOUS
 62
     7
 10
4127.564003818527
 20
993.7203908020908
 30
0.0
 11
4130.064003818527
 21
993.7203908020908
 31
0.0
  0
LINE
  5
1E4
  8
0
  6
CONTINUOUS
 62
     7
 10
4127.564003818527
 20
1891.720390802088
 30
0.0
 11
4127.564003818527
 21
993.7203908020908
 31
0.0
  0
LINE
  5
1E5
  8
0
  6
CONTINUOUS
 62
     7
 10
4608.564003818527
 20
1892.220390802091
 30
0.0
 11
4608.564003818527
 21
994.2203908020939
 31
0.0
  0
LINE
  5
1E6
  8
0
  6
CONTINUOUS
 62
     7
 10
4611.064003818527
 20
1892.220390802091
 30
0.0
 11
4608.564003818527
 21
1892.220390802091
 31
0.0
  0
LINE
  5
1E7
  8
0
  6
CONTINUOUS
 62
     7
 10
4608.564003818527
 20
994.2203908020939
 30
0.0
 11
4611.064003818527
 21
994.2203908020939
 31
0.0
  0
LINE
  5
1E8
  8
0
  6
CONTINUOUS
 62
     7
 10
4611.064003818527
 20
994.2203908020939
 30
0.0
 11
4611.064003818527
 21
1892.220390802091
 31
0.0
  0
LINE
  5
1E9
  8
0
  6
CONTINUOUS
 62
     7
 10
4145.064003818527
 20
1891.720390802088
 30
0.0
 11
4142.564003818526
 21
1891.720390802088
 31
0.0
  0
LINE
  5
1EA
  8
0
  6
CONTINUOUS
 62
     7
 10
4142.564003818526
 20
1891.720390802088
 30
0.0
 11
4142.564003818526
 21
993.7203908020911
 31
0.0
  0
LINE
  5
1EB
  8
0
  6
CONTINUOUS
 62
     7
 10
4142.564003818526
 20
993.7203908020911
 30
0.0
 11
4145.064003818527
 21
993.7203908020911
 31
0.0
  0
LINE
  5
1EC
  8
0
  6
CONTINUOUS
 62
     7
 10
4145.064003818527
 20
993.7203908020911
 30
0.0
 11
4145.064003818527
 21
1891.720390802088
 31
0.0
  0
LINE
  5
1ED
  8
0
  6
CONTINUOUS
 62
     7
 10
4611.064003818527
 20
1061.220390802094
 30
0.0
 11
4623.564003818526
 21
1061.220390802094
 31
0.0
  0
LINE
  5
1EE
  8
0
  6
CONTINUOUS
 62
     7
 10
4623.564003818526
 20
994.2203908020939
 30
0.0
 11
4623.564003818526
 21
1061.220390802094
 31
0.0
  0
LINE
  5
1EF
  8
0
  6
CONTINUOUS
 62
     7
 10
4611.064003818527
 20
994.2203908020939
 30
0.0
 11
4623.564003818526
 21
994.2203908020939
 31
0.0
  0
LINE
  5
1F0
  8
0
  6
CONTINUOUS
 62
     7
 10
4611.064003818527
 20
994.2203908020939
 30
0.0
 11
4611.064003818527
 21
1061.220390802094
 31
0.0
  0
LINE
  5
1F1
  8
0
  6
CONTINUOUS
 62
     7
 10
4142.564003818526
 20
1824.720390802088
 30
0.0
 11
4130.064003818527
 21
1824.720390802088
 31
0.0
  0
LINE
  5
1F2
  8
0
  6
CONTINUOUS
 62
     7
 10
4130.064003818527
 20
1891.720390802088
 30
0.0
 11
4130.064003818527
 21
1824.720390802088
 31
0.0
  0
LINE
  5
1F3
  8
0
  6
CONTINUOUS
 62
     7
 10
4142.564003818526
 20
1891.720390802088
 30
0.0
 11
4130.064003818527
 21
1891.720390802088
 31
0.0
  0
LINE
  5
1F4
  8
0
  6
CONTINUOUS
 62
     7
 10
4142.564003818526
 20
1891.720390802088
 30
0.0
 11
4142.564003818526
 21
1824.720390802088
 31
0.0
  0
LINE
  5
1F5
  8
0
  6
CONTINUOUS
 62
     7
 10
4623.564003818526
 20
1825.220390802091
 30
0.0
 11
4623.564003818526
 21
1061.220390802094
 31
0.0
  0
LINE
  5
1F6
  8
0
  6
CONTINUOUS
 62
     7
 10
4611.064003818527
 20
1825.220390802091
 30
0.0
 11
4611.064003818527
 21
1061.220390802094
 31
0.0
  0
LINE
  5
1F7
  8
0
  6
CONTINUOUS
 62
     7
 10
4611.064003818527
 20
1825.220390802091
 30
0.0
 11
4623.564003818526
 21
1825.220390802091
 31
0.0
  0
LINE
  5
1F8
  8
0
  6
CONTINUOUS
 62
     7
 10
4130.064003818527
 20
1060.720390802091
 30
0.0
 11
4130.064003818527
 21
1824.720390802088
 31
0.0
  0
LINE
  5
1F9
  8
0
  6
CONTINUOUS
 62
     7
 10
4142.564003818526
 20
1060.720390802091
 30
0.0
 11
4142.564003818526
 21
1824.720390802088
 31
0.0
  0
LINE
  5
1FA
  8
0
  6
CONTINUOUS
 62
     7
 10
4142.564003818526
 20
1060.720390802091
 30
0.0
 11
4130.064003818527
 21
1060.720390802091
 31
0.0
  0
LINE
  5
1FB
  8
0
  6
CONTINUOUS
 62
     7
 10
4142.564003818526
 20
993.7203908020908
 30
0.0
 11
4130.064003818527
 21
993.7203908020908
 31
0.0
  0
LINE
  5
1FC
  8
0
  6
CONTINUOUS
 62
     7
 10
4130.064003818527
 20
1060.720390802091
 30
0.0
 11
4130.064003818527
 21
993.7203908020908
 31
0.0
  0
LINE
  5
1FD
  8
0
  6
CONTINUOUS
 62
     7
 10
4142.564003818526
 20
1060.720390802091
 30
0.0
 11
4142.564003818526
 21
993.7203908020908
 31
0.0
  0
LINE
  5
1FE
  8
0
  6
CONTINUOUS
 62
     7
 10
4611.064003818527
 20
1892.220390802091
 30
0.0
 11
4623.564003818526
 21
1892.220390802091
 31
0.0
  0
LINE
  5
1FF
  8
0
  6
CONTINUOUS
 62
     7
 10
4623.564003818526
 20
1825.220390802091
 30
0.0
 11
4623.564003818526
 21
1892.220390802091
 31
0.0
  0
LINE
  5
200
  8
0
  6
CONTINUOUS
 62
     7
 10
4611.064003818527
 20
1825.220390802091
 30
0.0
 11
4611.064003818527
 21
1892.220390802091
 31
0.0
  0
LINE
  5
201
  8
0
  6
CONTINUOUS
 62
     7
 10
4127.564003818527
 20
1892.220390802088
 30
0.0
 11
4127.564003818527
 21
1891.720390802088
 31
0.0
  0
LINE
  5
202
  8
0
  6
CONTINUOUS
 62
     7
 10
4145.064003818527
 20
1892.220390802088
 30
0.0
 11
4145.064003818527
 21
1891.720390802088
 31
0.0
  0
LINE
  5
203
  8
0
  6
CONTINUOUS
 62
     7
 10
4127.564003818527
 20
1891.720390802088
 30
0.0
 11
4145.064003818527
 21
1891.720390802088
 31
0.0
  0
LINE
  5
204
  8
0
  6
CONTINUOUS
 62
     7
 10
4127.564003818527
 20
1892.220390802088
 30
0.0
 11
4145.064003818527
 21
1892.220390802088
 31
0.0
  0
LINE
  5
205
  8
0
  6
CONTINUOUS
 62
     7
 10
4608.564003818527
 20
993.7203908020939
 30
0.0
 11
4608.564003818527
 21
994.2203908020939
 31
0.0
  0
LINE
  5
206
  8
0
  6
CONTINUOUS
 62
     7
 10
4626.064003818527
 20
993.7203908020939
 30
0.0
 11
4626.064003818527
 21
994.2203908020939
 31
0.0
  0
LINE
  5
207
  8
0
  6
CONTINUOUS
 62
     7
 10
4626.064003818527
 20
993.7203908020939
 30
0.0
 11
4608.564003818527
 21
993.7203908020939
 31
0.0
  0
LINE
  5
208
  8
0
  6
CONTINUOUS
 62
     7
 10
4626.064003818527
 20
994.2203908020939
 30
0.0
 11
4608.564003818527
 21
994.2203908020939
 31
0.0
  0
LINE
  5
209
  8
0
  6
CONTINUOUS
 62
     7
 10
4608.564003818527
 20
1892.720390802091
 30
0.0
 11
4608.564003818527
 21
1892.220390802091
 31
0.0
  0
LINE
  5
20A
  8
0
  6
CONTINUOUS
 62
     7
 10
4626.064003818527
 20
1892.720390802091
 30
0.0
 11
4626.064003818527
 21
1892.220390802091
 31
0.0
  0
LINE
  5
20B
  8
0
  6
CONTINUOUS
 62
     7
 10
4608.564003818527
 20
1892.220390802091
 30
0.0
 11
4626.064003818527
 21
1892.220390802091
 31
0.0
  0
LINE
  5
20C
  8
0
  6
CONTINUOUS
 62
     7
 10
4626.064003818527
 20
1892.720390802091
 30
0.0
 11
4608.564003818527
 21
1892.720390802091
 31
0.0
  0
LINE
  5
20D
  8
0
  6
CONTINUOUS
 62
     7
 10
4145.064003818527
 20
993.7203908020911
 30
0.0
 11
4127.564003818527
 21
993.7203908020908
 31
0.0
  0
LINE
  5
20E
  8
0
  6
CONTINUOUS
 62
     7
 10
4145.064003818527
 20
993.220390802091
 30
0.0
 11
4145.064003818527
 21
993.7203908020911
 31
0.0
  0
LINE
  5
20F
  8
0
  6
CONTINUOUS
 62
     7
 10
4127.564003818527
 20
993.220390802091
 30
0.0
 11
4145.064003818527
 21
993.220390802091
 31
0.0
  0
LINE
  5
210
  8
0
  6
CONTINUOUS
 62
     7
 10
4127.564003818527
 20
993.220390802091
 30
0.0
 11
4127.564003818527
 21
993.7203908020908
 31
0.0
  0
ENDSEC
  0
EOF
