  0
SECTION
  2
HEADER
  9
$ACADVER
  1
AC1006
  9
$DWGCODEPAGE
  3
dos932
  9
$INSBASE
 10
0.0
 20
0.0
 30
0.0
  9
$EXTMIN
 10
0.0
 20
0.0
  9
$EXTMAX
 10
5000.0
 20
3500.0
  9
$LIMMIN
 10
0.0
 20
0.0
  9
$LIMMAX
 10
5000.0
 20
3500.0
  9
$ORTHOMODE
 70
     0
  9
$REGENMODE
 70
     1
  9
$FILLMODE
 70
     1
  9
$QTEXTMODE
 70
     0
  9
$MIRRTEXT
 70
     1
  9
$DRAGMODE
 70
     2
  9
$LTSCALE
 40
1.0
  9
$OSMODE
 70
    37
  9
$ATTMODE
 70
     1
  9
$TEXTSIZE
 40
3.5
  9
$TRACEWID
 40
1.0
  9
$TEXTSTYLE
  7
STANDARD
  9
$CLAYER
  8
0
  9
$CELTYPE
  6
BYLAYER
  9
$CECOLOR
 62
   256
  9
$DIMSCALE
 40
1.0
  9
$DIMASZ
 40
3.302
  9
$DIMEXO
 40
1.0
  9
$DIMDLI
 40
3.75
  9
$DIMRND
 40
0.0
  9
$DIMDLE
 40
0.0
  9
$DIMEXE
 40
1.0
  9
$DIMTP
 40
0.0
  9
$DIMTM
 40
0.0
  9
$DIMTXT
 40
3.5
  9
$DIMCEN
 40
2.5
  9
$DIMTSZ
 40
0.0
  9
$DIMTOL
 70
     0
  9
$DIMLIM
 70
     0
  9
$DIMTIH
 70
     1
  9
$DIMTOH
 70
     1
  9
$DIMSE1
 70
     0
  9
$DIMSE2
 70
     0
  9
$DIMTAD
 70
     1
  9
$DIMZIN
 70
     0
  9
$DIMBLK
  1

  9
$DIMASO
 70
     1
  9
$DIMSHO
 70
     1
  9
$DIMPOST
  1

  9
$DIMAPOST
  1

  9
$DIMALT
 70
     0
  9
$DIMALTD
 70
     3
  9
$DIMALTF
 40
0.0393700787401575
  9
$DIMLFAC
 40
1.0
  9
$DIMTOFL
 70
     1
  9
$DIMTVP
 40
0.0
  9
$DIMTIX
 70
     0
  9
$DIMSOXD
 70
     0
  9
$DIMSAH
 70
     0
  9
$DIMBLK1
  1

  9
$DIMBLK2
  1

  9
$LUNITS
 70
     2
  9
$LUPREC
 70
     3
  9
$SKETCHINC
 40
1.0
  9
$FILLETRAD
 40
10.0
  9
$AUNITS
 70
     0
  9
$AUPREC
 70
     2
  9
$MENU
  1
.
  9
$ELEVATION
 40
0.0
  9
$THICKNESS
 40
0.0
  9
$LIMCHECK
 70
     0
  9
$CHAMFERA
 40
0.0
  9
$CHAMFERB
 40
0.0
  9
$SKPOLY
 70
     0
  9
$TDCREATE
 40
2459796.381667315
  9
$TDUPDATE
 40
2460139.358596887
  9
$TDINDWG
 40
0.0000000116
  9
$TDUSRTIMER
 40
0.0000000116
  9
$USRTIMER
 70
     1
  9
$ANGBASE
 50
0.0
  9
$ANGDIR
 70
     0
  9
$PDMODE
 70
     0
  9
$PDSIZE
 40
-1.0
  9
$PLINEWID
 40
0.0
  9
$COORDS
 70
     1
  9
$SPLFRAME
 70
     0
  9
$SPLINETYPE
 70
     6
  9
$SPLINESEGS
 70
     8
  9
$ATTDIA
 70
     0
  9
$ATTREQ
 70
     1
  9
$HANDLING
 70
     1
  9
$HANDSEED
  5
3BC
  9
$SURFTAB1
 70
     6
  9
$SURFTAB2
 70
     6
  9
$SURFTYPE
 70
     6
  9
$SURFU
 70
     6
  9
$SURFV
 70
     6
  9
$UCSNAME
  2

  9
$UCSORG
 10
0.0
 20
0.0
 30
0.0
  9
$UCSXDIR
 10
1.0
 20
0.0
 30
0.0
  9
$UCSYDIR
 10
0.0
 20
1.0
 30
0.0
  9
$USERI1
 70
     0
  9
$USERI2
 70
     0
  9
$USERI3
 70
     0
  9
$USERI4
 70
     0
  9
$USERI5
 70
     0
  9
$USERR1
 40
0.0
  9
$USERR2
 40
0.0
  9
$USERR3
 40
0.0
  9
$USERR4
 40
0.0
  9
$USERR5
 40
0.0
  9
$WORLDVIEW
 70
     1
  0
ENDSEC
  0
SECTION
  2
TABLES
  0
TABLE
  2
VPORT
 70
     1
  0
VPORT
  2
*ACTIVE
 70
     0
 10
0.0
 20
0.0
 11
1.0
 21
1.0
 12
2500.0
 22
1750.0
 13
0.0
 23
0.0
 14
10.0
 24
10.0
 15
10.0
 25
10.0
 16
0.0
 26
0.0
 36
1.0
 17
0.0
 27
0.0
 37
0.0
 40
3500.0
 41
1.428571428571429
 42
50.0
 43
0.0
 44
0.0
 50
0.0
 51
0.0
 71
     0
 72
  2000
 73
     1
 74
     3
 75
     0
 76
     0
 77
     0
 78
     0
  0
ENDTAB
  0
TABLE
  2
LTYPE
 70
     6
  0
LTYPE
  2
CONTINUOUS
 70
     0
  3
Solid line
 72
    65
 73
     0
 40
0.0
  0
LTYPE
  2
HIDDEN
 70
     0
  3
Hidden __ __ __ __ __ __ __ __ __ __ __ __ __ __
 72
    65
 73
     2
 40
1.905
 49
1.27
 49
-0.635
  0
LTYPE
  2
PHANTOM
 70
     0
  3
Phantom ______  __  __  ______  __  __  ______
 72
    65
 73
     6
 40
12.7
 49
6.35
 49
-1.27
 49
1.27
 49
-1.27
 49
1.27
 49
-1.27
  0
LTYPE
  2
CENTER
 70
     0
  3
Center ____ _ ____ _ ____ _ ____ _ ____ _ ____
 72
    65
 73
     4
 40
10.16
 49
6.35
 49
-1.27
 49
1.27
 49
-1.27
  0
LTYPE
  2
CENTERX2
 70
     0
  3
Center (2x) ________  __  ________  __  _____
 72
    65
 73
     4
 40
20.32
 49
12.7
 49
-2.54
 49
2.54
 49
-2.54
  0
LTYPE
  2
DOT2
 70
     0
  3
Dot (.5x) ........................................
 72
    65
 73
     2
 40
0.635
 49
0.0
 49
-0.635
  0
ENDTAB
  0
TABLE
  2
LAYER
 70
     3
  0
LAYER
  2
0
 70
     0
 62
     7
  6
CONTINUOUS
  0
LAYER
  2
SLD-0
 70
     0
 62
   179
  6
CONTINUOUS
  0
LAYER
  2
寸法
 70
     0
 62
   179
  6
CONTINUOUS
  0
ENDTAB
  0
TABLE
  2
STYLE
 70
     2
  0
STYLE
  2
STANDARD
 70
     0
 40
0.0
 41
1.0
 50
0.0
 71
     0
 42
3.5
  3
txt
  4
bigfont
  0
STYLE
  2
SLDTEXTSTYLE0
 70
     0
 40
0.0
 41
0.75
 50
0.0
 71
     0
 42
3.5
  3
TXT
  4
bigfont
  0
ENDTAB
  0
TABLE
  2
VIEW
 70
     0
  0
ENDTAB
  0
TABLE
  2
UCS
 70
     0
  0
ENDTAB
  0
ENDSEC
  0
SECTION
  2
BLOCKS
  0
ENDSEC
  0
SECTION
  2
ENTITIES
  0
LINE
  5
75
  8
0
  6
CONTINUOUS
 62
     7
 10
4839.484712179223
 20
258.5233124172521
 30
0.0
 11
3312.374599790194
 21
258.5233124172519
 31
0.0
  0
TEXT
  5
77
  8
0
  6
CONTINUOUS
 62
     7
 10
1464.551962569007
 20
3112.118742029093
 30
0.0
 40
52.91666666666666
  1
＜上面＞
 41
0.75
  7
SLDTEXTSTYLE0
  0
TEXT
  5
78
  8
0
  6
CONTINUOUS
 62
     7
 10
355.8266146156561
 20
2059.10287084639
 30
0.0
 40
52.91666666666666
  1
＜左側面＞
 41
0.75
  7
SLDTEXTSTYLE0
  0
TEXT
  5
79
  8
0
  6
CONTINUOUS
 62
     7
 10
1464.551962569006
 20
2059.102870846391
 30
0.0
 40
52.91666666666666
  1
＜正面＞
 41
0.75
  7
SLDTEXTSTYLE0
  0
TEXT
  5
7A
  8
0
  6
CONTINUOUS
 62
     7
 10
3377.814243189123
 20
326.489054196763
 30
0.0
 40
52.91666666666666
  1
品名：
 41
0.75
  7
SLDTEXTSTYLE0
  0
TEXT
  5
7B
  8
0
  6
CONTINUOUS
 62
     7
 10
4446.663437481703
 20
332.3177187478654
 30
0.0
 40
52.91666666666666
  1
Pamouna
 41
0.75
  7
SLDTEXTSTYLE0
  0
TEXT
  5
7C
  8
寸法
  6
CONTINUOUS
 62
     7
 10
4688.007304885427
 20
165.7088516276312
 30
0.0
 40
52.91666666666666
  1
1/1
 41
0.75
  7
SLDTEXTSTYLE0
  0
TEXT
  5
7D
  8
寸法
  6
CONTINUOUS
 62
     7
 10
4198.79693921183
 20
165.7088544215994
 30
0.0
 40
52.91666666666666
  1
2022/08/04
 41
0.75
  7
SLDTEXTSTYLE0
  0
TEXT
  5
7E
  8
寸法
  6
CONTINUOUS
 62
     7
 10
1460.016337783187
 20
1137.89215271946
 30
0.0
 40
52.91666666666666
  1
＜背面＞
 41
0.75
  7
SLDTEXTSTYLE0
  0
TEXT
  5
7F
  8
寸法
  6
CONTINUOUS
 62
     7
 10
3611.283129349215
 20
326.4179237671586
 30
0.0
 40
66.14583333333331
  1
MA-S100A（-T）
 41
0.75
  7
SLDTEXTSTYLE0
  0
TEXT
  5
80
  8
寸法
  6
CONTINUOUS
 62
     7
 10
3900.732809245012
 20
2048.104271301321
 30
0.0
 40
52.91666666666666
  1
＜右側面＞
 41
0.75
  7
SLDTEXTSTYLE0
  0
ARC
  5
81
  8
0
  6
CONTINUOUS
 62
     7
 10
1885.86586697238
 20
1648.637922087092
 30
0.0
 40
0.2000000000000455
 50
180.0
 51
270.0000000000008
  0
LINE
  5
82
  8
0
  6
CONTINUOUS
 62
     7
 10
1885.86586697238
 20
1648.437922087092
 30
0.0
 11
1886.66586697238
 21
1648.437922087092
 31
0.0
  0
ARC
  5
83
  8
0
  6
CONTINUOUS
 62
     7
 10
2385.865866972374
 20
1648.63792208708
 30
0.0
 40
0.2000000000000455
 50
180.0
 51
270.0000000000008
  0
LINE
  5
84
  8
0
  6
CONTINUOUS
 62
     7
 10
2385.865866972374
 20
1648.43792208708
 30
0.0
 11
2386.665866972374
 21
1648.43792208708
 31
0.0
  0
LINE
  5
85
  8
0
  6
CONTINUOUS
 62
     7
 10
1886.66586697238
 20
1648.437922087092
 30
0.0
 11
2380.66586697238
 21
1648.437922087093
 31
0.0
  0
LINE
  5
86
  8
0
  6
CONTINUOUS
 62
     7
 10
2386.665866972374
 20
1648.43792208708
 30
0.0
 11
2880.665866972374
 21
1648.43792208708
 31
0.0
  0
ARC
  5
87
  8
0
  6
CONTINUOUS
 62
     7
 10
2381.46586697238
 20
1648.637922087093
 30
0.0
 40
0.2000000000002728
 50
270.0000000000008
 51
0.0
  0
LINE
  5
88
  8
0
  6
CONTINUOUS
 62
     7
 10
2380.66586697238
 20
1648.437922087093
 30
0.0
 11
2381.46586697238
 21
1648.437922087093
 31
0.0
  0
LINE
  5
89
  8
0
  6
CONTINUOUS
 62
     7
 10
2880.665866972374
 20
1648.43792208708
 30
0.0
 11
2881.465866972374
 21
1648.43792208708
 31
0.0
  0
ARC
  5
8A
  8
0
  6
CONTINUOUS
 62
     7
 10
2881.465866972374
 20
1648.63792208708
 30
0.0
 40
0.2000000000000455
 50
270.0000000000008
 51
0.0
  0
LINE
  5
8B
  8
0
  6
CONTINUOUS
 62
     7
 10
2381.665866972378
 20
1879.937922087092
 30
0.0
 11
2385.665866972373
 21
1879.937922087092
 31
0.0
  0
LINE
  5
8C
  8
0
  6
CONTINUOUS
 62
     7
 10
2866.66586697238
 20
1896.937922087093
 30
0.0
 11
1900.66586697238
 21
1896.937922087092
 31
0.0
  0
LINE
  5
8D
  8
0
  6
CONTINUOUS
 62
     7
 10
1900.66586697238
 20
1647.937922087092
 30
0.0
 11
2866.66586697238
 21
1647.937922087093
 31
0.0
  0
LINE
  5
8E
  8
0
  6
CONTINUOUS
 62
     7
 10
2385.665866972374
 20
1664.937922087092
 30
0.0
 11
2381.66586697238
 21
1664.937922087092
 31
0.0
  0
LINE
  5
8F
  8
0
  6
CONTINUOUS
 62
     7
 10
2385.665866972372
 20
1881.937922087093
 30
0.0
 11
2381.665866972378
 21
1881.937922087093
 31
0.0
  0
LINE
  5
90
  8
0
  6
CONTINUOUS
 62
     7
 10
2878.665866972374
 20
1648.937922087079
 30
0.0
 11
2878.665866972374
 21
1649.437922087079
 31
0.0
  0
LINE
  5
91
  8
0
  6
CONTINUOUS
 62
     7
 10
2388.665866972374
 20
1648.937922087083
 30
0.0
 11
2878.665866972374
 21
1648.937922087079
 31
0.0
  0
LINE
  5
92
  8
0
  6
CONTINUOUS
 62
     7
 10
2388.665866972374
 20
1649.437922087083
 30
0.0
 11
2388.665866972374
 21
1648.937922087083
 31
0.0
  0
LINE
  5
93
  8
0
  6
CONTINUOUS
 62
     7
 10
2878.665866972374
 20
1649.437922087079
 30
0.0
 11
2388.665866972374
 21
1649.437922087083
 31
0.0
  0
LINE
  5
94
  8
0
  6
CONTINUOUS
 62
     7
 10
2385.665866972374
 20
1648.937922087083
 30
0.0
 11
2385.665866972374
 21
1649.437922087083
 31
0.0
  0
LINE
  5
95
  8
0
  6
CONTINUOUS
 62
     7
 10
2385.665866972374
 20
1649.437922087083
 30
0.0
 11
2388.665866972374
 21
1649.437922087083
 31
0.0
  0
LINE
  5
96
  8
0
  6
CONTINUOUS
 62
     7
 10
2388.665866972374
 20
1648.937922087083
 30
0.0
 11
2385.665866972374
 21
1648.937922087083
 31
0.0
  0
LINE
  5
97
  8
0
  6
CONTINUOUS
 62
     7
 10
2881.665866972374
 20
1649.437922087079
 30
0.0
 11
2881.665866972374
 21
1648.937922087079
 31
0.0
  0
LINE
  5
98
  8
0
  6
CONTINUOUS
 62
     7
 10
2878.665866972374
 20
1649.437922087079
 30
0.0
 11
2881.665866972374
 21
1649.437922087079
 31
0.0
  0
LINE
  5
99
  8
0
  6
CONTINUOUS
 62
     7
 10
2881.665866972374
 20
1648.937922087079
 30
0.0
 11
2878.665866972374
 21
1648.937922087079
 31
0.0
  0
LINE
  5
9A
  8
0
  6
CONTINUOUS
 62
     7
 10
1885.66586697238
 20
1648.937922087092
 30
0.0
 11
1885.66586697238
 21
1649.437922087093
 31
0.0
  0
LINE
  5
9B
  8
0
  6
CONTINUOUS
 62
     7
 10
1885.66586697238
 20
1649.437922087093
 30
0.0
 11
1888.66586697238
 21
1649.437922087092
 31
0.0
  0
LINE
  5
9C
  8
0
  6
CONTINUOUS
 62
     7
 10
1888.66586697238
 20
1649.437922087092
 30
0.0
 11
1888.66586697238
 21
1648.937922087092
 31
0.0
  0
LINE
  5
9D
  8
0
  6
CONTINUOUS
 62
     7
 10
1888.66586697238
 20
1648.937922087092
 30
0.0
 11
1885.66586697238
 21
1648.937922087092
 31
0.0
  0
LINE
  5
9E
  8
0
  6
CONTINUOUS
 62
     7
 10
2378.66586697238
 20
1648.937922087089
 30
0.0
 11
2378.66586697238
 21
1649.437922087089
 31
0.0
  0
LINE
  5
9F
  8
0
  6
CONTINUOUS
 62
     7
 10
2378.66586697238
 20
1649.437922087089
 30
0.0
 11
1888.66586697238
 21
1649.437922087092
 31
0.0
  0
LINE
  5
A0
  8
0
  6
CONTINUOUS
 62
     7
 10
1888.66586697238
 20
1648.937922087092
 30
0.0
 11
2378.66586697238
 21
1648.937922087089
 31
0.0
  0
LINE
  5
A1
  8
0
  6
CONTINUOUS
 62
     7
 10
2381.66586697238
 20
1649.437922087089
 30
0.0
 11
2381.66586697238
 21
1648.937922087089
 31
0.0
  0
LINE
  5
A2
  8
0
  6
CONTINUOUS
 62
     7
 10
2378.66586697238
 20
1649.437922087089
 30
0.0
 11
2381.66586697238
 21
1649.437922087089
 31
0.0
  0
LINE
  5
A3
  8
0
  6
CONTINUOUS
 62
     7
 10
2381.66586697238
 20
1648.937922087089
 30
0.0
 11
2378.66586697238
 21
1648.937922087089
 31
0.0
  0
LINE
  5
A4
  8
0
  6
CONTINUOUS
 62
     7
 10
2385.665866972374
 20
1649.437922087083
 30
0.0
 11
2385.665866972372
 21
1895.437922087083
 31
0.0
  0
LINE
  5
A5
  8
0
  6
CONTINUOUS
 62
     7
 10
2388.665866972372
 20
1895.437922087083
 30
0.0
 11
2388.665866972374
 21
1649.437922087083
 31
0.0
  0
LINE
  5
A6
  8
0
  6
CONTINUOUS
 62
     7
 10
2385.665866972372
 20
1895.437922087083
 30
0.0
 11
2388.665866972372
 21
1895.437922087083
 31
0.0
  0
LINE
  5
A7
  8
0
  6
CONTINUOUS
 62
     7
 10
2878.665866972374
 20
1649.437922087079
 30
0.0
 11
2878.665866972372
 21
1895.43792208708
 31
0.0
  0
LINE
  5
A8
  8
0
  6
CONTINUOUS
 62
     7
 10
2388.665866972372
 20
1895.437922087083
 30
0.0
 11
2878.665866972372
 21
1895.43792208708
 31
0.0
  0
LINE
  5
A9
  8
0
  6
CONTINUOUS
 62
     7
 10
2881.665866972372
 20
1895.43792208708
 30
0.0
 11
2881.665866972374
 21
1649.437922087079
 31
0.0
  0
LINE
  5
AA
  8
0
  6
CONTINUOUS
 62
     7
 10
2878.665866972372
 20
1895.43792208708
 30
0.0
 11
2881.665866972372
 21
1895.43792208708
 31
0.0
  0
LINE
  5
AB
  8
0
  6
CONTINUOUS
 62
     7
 10
1885.66586697238
 20
1649.437922087093
 30
0.0
 11
1885.665866972379
 21
1895.437922087093
 31
0.0
  0
LINE
  5
AC
  8
0
  6
CONTINUOUS
 62
     7
 10
1885.665866972379
 20
1895.437922087093
 30
0.0
 11
1888.665866972378
 21
1895.437922087093
 31
0.0
  0
LINE
  5
AD
  8
0
  6
CONTINUOUS
 62
     7
 10
1888.665866972378
 20
1895.437922087093
 30
0.0
 11
1888.66586697238
 21
1649.437922087092
 31
0.0
  0
LINE
  5
AE
  8
0
  6
CONTINUOUS
 62
     7
 10
2378.66586697238
 20
1649.437922087089
 30
0.0
 11
2378.665866972378
 21
1895.437922087089
 31
0.0
  0
LINE
  5
AF
  8
0
  6
CONTINUOUS
 62
     7
 10
1888.665866972378
 20
1895.437922087093
 30
0.0
 11
2378.665866972378
 21
1895.437922087089
 31
0.0
  0
LINE
  5
B0
  8
0
  6
CONTINUOUS
 62
     7
 10
2381.665866972378
 20
1895.437922087089
 30
0.0
 11
2381.66586697238
 21
1649.437922087089
 31
0.0
  0
LINE
  5
B1
  8
0
  6
CONTINUOUS
 62
     7
 10
2378.665866972378
 20
1895.437922087089
 30
0.0
 11
2381.665866972378
 21
1895.437922087089
 31
0.0
  0
LINE
  5
B2
  8
0
  6
CONTINUOUS
 62
     7
 10
1885.665866972379
 20
1895.437922087093
 30
0.0
 11
1885.665866972379
 21
1895.937922087093
 31
0.0
  0
LINE
  5
B3
  8
0
  6
CONTINUOUS
 62
     7
 10
1888.665866972378
 20
1895.937922087093
 30
0.0
 11
1888.665866972378
 21
1895.437922087093
 31
0.0
  0
LINE
  5
B4
  8
0
  6
CONTINUOUS
 62
     7
 10
1885.665866972379
 20
1895.937922087093
 30
0.0
 11
1888.665866972378
 21
1895.937922087093
 31
0.0
  0
LINE
  5
B5
  8
0
  6
CONTINUOUS
 62
     7
 10
2378.665866972378
 20
1895.437922087089
 30
0.0
 11
2378.665866972378
 21
1895.937922087089
 31
0.0
  0
LINE
  5
B6
  8
0
  6
CONTINUOUS
 62
     7
 10
1888.665866972378
 20
1895.937922087093
 30
0.0
 11
2378.665866972378
 21
1895.937922087089
 31
0.0
  0
LINE
  5
B7
  8
0
  6
CONTINUOUS
 62
     7
 10
2381.665866972378
 20
1895.937922087089
 30
0.0
 11
2381.665866972378
 21
1895.437922087089
 31
0.0
  0
LINE
  5
B8
  8
0
  6
CONTINUOUS
 62
     7
 10
2378.665866972378
 20
1895.937922087089
 30
0.0
 11
2381.665866972378
 21
1895.937922087089
 31
0.0
  0
LINE
  5
B9
  8
0
  6
CONTINUOUS
 62
     7
 10
2385.665866972372
 20
1895.437922087083
 30
0.0
 11
2385.665866972372
 21
1895.937922087083
 31
0.0
  0
LINE
  5
BA
  8
0
  6
CONTINUOUS
 62
     7
 10
2385.665866972372
 20
1895.937922087083
 30
0.0
 11
2388.665866972372
 21
1895.937922087083
 31
0.0
  0
LINE
  5
BB
  8
0
  6
CONTINUOUS
 62
     7
 10
2388.665866972372
 20
1895.937922087083
 30
0.0
 11
2388.665866972372
 21
1895.437922087083
 31
0.0
  0
LINE
  5
BC
  8
0
  6
CONTINUOUS
 62
     7
 10
2878.665866972372
 20
1895.43792208708
 30
0.0
 11
2878.665866972372
 21
1895.93792208708
 31
0.0
  0
LINE
  5
BD
  8
0
  6
CONTINUOUS
 62
     7
 10
2388.665866972372
 20
1895.937922087083
 30
0.0
 11
2878.665866972372
 21
1895.93792208708
 31
0.0
  0
LINE
  5
BE
  8
0
  6
CONTINUOUS
 62
     7
 10
2881.665866972372
 20
1895.93792208708
 30
0.0
 11
2881.665866972372
 21
1895.43792208708
 31
0.0
  0
LINE
  5
BF
  8
0
  6
CONTINUOUS
 62
     7
 10
2878.665866972372
 20
1895.93792208708
 30
0.0
 11
2881.665866972372
 21
1895.93792208708
 31
0.0
  0
LINE
  5
C0
  8
0
  6
CONTINUOUS
 62
     7
 10
1885.66586697238
 20
1648.649070808839
 30
0.0
 11
1885.66586697238
 21
1648.737922087092
 31
0.0
  0
POLYLINE
  5
C1
  8
0
  6
CONTINUOUS
 62
     7
 66
     1
 10
0.0
 20
0.0
 30
0.0
  0
VERTEX
  5
230
  8
0
  6
CONTINUOUS
 62
     7
 10
1885.66586697238
 20
1648.737922087093
 30
0.0
  0
VERTEX
  5
231
  8
0
  6
CONTINUOUS
 62
     7
 10
1885.665884409142
 20
1648.74068001927
 30
0.0
  0
VERTEX
  5
232
  8
0
  6
CONTINUOUS
 62
     7
 10
1885.665940206906
 20
1648.743506459018
 30
0.0
  0
VERTEX
  5
233
  8
0
  6
CONTINUOUS
 62
     7
 10
1885.666038808495
 20
1648.746402246181
 30
0.0
  0
VERTEX
  5
234
  8
0
  6
CONTINUOUS
 62
     7
 10
1885.666183244705
 20
1648.749365403565
 30
0.0
  0
VERTEX
  5
235
  8
0
  6
CONTINUOUS
 62
     7
 10
1885.666376546327
 20
1648.752393953973
 30
0.0
  0
VERTEX
  5
236
  8
0
  6
CONTINUOUS
 62
     7
 10
1885.666621744158
 20
1648.755485920213
 30
0.0
  0
VERTEX
  5
237
  8
0
  6
CONTINUOUS
 62
     7
 10
1885.666921868989
 20
1648.758639325088
 30
0.0
  0
VERTEX
  5
238
  8
0
  6
CONTINUOUS
 62
     7
 10
1885.667279951615
 20
1648.761852191403
 30
0.0
  0
VERTEX
  5
239
  8
0
  6
CONTINUOUS
 62
     7
 10
1885.66769902283
 20
1648.765122541963
 30
0.0
  0
VERTEX
  5
23A
  8
0
  6
CONTINUOUS
 62
     7
 10
1885.668182113427
 20
1648.768448399574
 30
0.0
  0
VERTEX
  5
23B
  8
0
  6
CONTINUOUS
 62
     7
 10
1885.668732254201
 20
1648.771827787041
 30
0.0
  0
VERTEX
  5
23C
  8
0
  6
CONTINUOUS
 62
     7
 10
1885.669352475945
 20
1648.775258727169
 30
0.0
  0
VERTEX
  5
23D
  8
0
  6
CONTINUOUS
 62
     7
 10
1885.670045809453
 20
1648.778739242763
 30
0.0
  0
VERTEX
  5
23E
  8
0
  6
CONTINUOUS
 62
     7
 10
1885.670815285519
 20
1648.782267356627
 30
0.0
  0
VERTEX
  5
23F
  8
0
  6
CONTINUOUS
 62
     7
 10
1885.671663934936
 20
1648.785841091568
 30
0.0
  0
VERTEX
  5
240
  8
0
  6
CONTINUOUS
 62
     7
 10
1885.672594788499
 20
1648.78945847039
 30
0.0
  0
VERTEX
  5
241
  8
0
  6
CONTINUOUS
 62
     7
 10
1885.673610877
 20
1648.793117515896
 30
0.0
  0
VERTEX
  5
242
  8
0
  6
CONTINUOUS
 62
     7
 10
1885.674715231235
 20
1648.796816250896
 30
0.0
  0
VERTEX
  5
243
  8
0
  6
CONTINUOUS
 62
     7
 10
1885.675910881997
 20
1648.80055269819
 30
0.0
  0
VERTEX
  5
244
  8
0
  6
CONTINUOUS
 62
     7
 10
1885.677200860079
 20
1648.804324880586
 30
0.0
  0
VERTEX
  5
245
  8
0
  6
CONTINUOUS
 62
     7
 10
1885.678588196276
 20
1648.808130820889
 30
0.0
  0
VERTEX
  5
246
  8
0
  6
CONTINUOUS
 62
     7
 10
1885.680075921381
 20
1648.811968541902
 30
0.0
  0
VERTEX
  5
247
  8
0
  6
CONTINUOUS
 62
     7
 10
1885.681667066189
 20
1648.815836066433
 30
0.0
  0
VERTEX
  5
248
  8
0
  6
CONTINUOUS
 62
     7
 10
1885.683364661492
 20
1648.819731417285
 30
0.0
  0
VERTEX
  5
249
  8
0
  6
CONTINUOUS
 62
     7
 10
1885.685171750641
 20
1648.82365253944
 30
0.0
  0
VERTEX
  5
24A
  8
0
  6
CONTINUOUS
 62
     7
 10
1885.687091599549
 20
1648.827595998479
 30
0.0
  0
VERTEX
  5
24B
  8
0
  6
CONTINUOUS
 62
     7
 10
1885.68912766513
 20
1648.831557176186
 30
0.0
  0
VERTEX
  5
24C
  8
0
  6
CONTINUOUS
 62
     7
 10
1885.691283410496
 20
1648.835531415931
 30
0.0
  0
VERTEX
  5
24D
  8
0
  6
CONTINUOUS
 62
     7
 10
1885.69356229876
 20
1648.839514061085
 30
0.0
  0
VERTEX
  5
24E
  8
0
  6
CONTINUOUS
 62
     7
 10
1885.695967793033
 20
1648.843500455016
 30
0.0
  0
VERTEX
  5
24F
  8
0
  6
CONTINUOUS
 62
     7
 10
1885.698503356428
 20
1648.847485941094
 30
0.0
  0
VERTEX
  5
250
  8
0
  6
CONTINUOUS
 62
     7
 10
1885.701172452058
 20
1648.85146586269
 30
0.0
  0
VERTEX
  5
251
  8
0
  6
CONTINUOUS
 62
     7
 10
1885.703978543035
 20
1648.855435563172
 30
0.0
  0
VERTEX
  5
252
  8
0
  6
CONTINUOUS
 62
     7
 10
1885.70692509247
 20
1648.859390385911
 30
0.0
  0
VERTEX
  5
253
  8
0
  6
CONTINUOUS
 62
     7
 10
1885.710015563476
 20
1648.863325674277
 30
0.0
  0
VERTEX
  5
254
  8
0
  6
CONTINUOUS
 62
     7
 10
1885.713253419167
 20
1648.867236771639
 30
0.0
  0
VERTEX
  5
255
  8
0
  6
CONTINUOUS
 62
     7
 10
1885.716642122653
 20
1648.871119021368
 30
0.0
  0
VERTEX
  5
256
  8
0
  6
CONTINUOUS
 62
     7
 10
1885.720185137047
 20
1648.874967766832
 30
0.0
  0
VERTEX
  5
257
  8
0
  6
CONTINUOUS
 62
     7
 10
1885.723885923854
 20
1648.878778350089
 30
0.0
  0
VERTEX
  5
258
  8
0
  6
CONTINUOUS
 62
     7
 10
1885.727747249725
 20
1648.88254554591
 30
0.0
  0
VERTEX
  5
259
  8
0
  6
CONTINUOUS
 62
     7
 10
1885.731770104585
 20
1648.88626267852
 30
0.0
  0
VERTEX
  5
25A
  8
0
  6
CONTINUOUS
 62
     7
 10
1885.735955198433
 20
1648.889922843611
 30
0.0
  0
VERTEX
  5
25B
  8
0
  6
CONTINUOUS
 62
     7
 10
1885.740303241266
 20
1648.893519136872
 30
0.0
  0
VERTEX
  5
25C
  8
0
  6
CONTINUOUS
 62
     7
 10
1885.744814943083
 20
1648.897044653994
 30
0.0
  0
VERTEX
  5
25D
  8
0
  6
CONTINUOUS
 62
     7
 10
1885.74949101388
 20
1648.900492490669
 30
0.0
  0
VERTEX
  5
25E
  8
0
  6
CONTINUOUS
 62
     7
 10
1885.754332163656
 20
1648.903855742585
 30
0.0
  0
VERTEX
  5
25F
  8
0
  6
CONTINUOUS
 62
     7
 10
1885.759339102407
 20
1648.907127505433
 30
0.0
  0
VERTEX
  5
260
  8
0
  6
CONTINUOUS
 62
     7
 10
1885.764512540134
 20
1648.910300874904
 30
0.0
  0
VERTEX
  5
261
  8
0
  6
CONTINUOUS
 62
     7
 10
1885.769853186827
 20
1648.913368946678
 30
0.0
  0
VERTEX
  5
262
  8
0
  6
CONTINUOUS
 62
     7
 10
1885.775360528976
 20
1648.916322264837
 30
0.0
  0
VERTEX
  5
263
  8
0
  6
CONTINUOUS
 62
     7
 10
1885.781029386633
 20
1648.919141641695
 30
0.0
  0
VERTEX
  5
264
  8
0
  6
CONTINUOUS
 62
     7
 10
1885.786853467517
 20
1648.921805569814
 30
0.0
  0
VERTEX
  5
265
  8
0
  6
CONTINUOUS
 62
     7
 10
1885.79282647935
 20
1648.924292541754
 30
0.0
  0
VERTEX
  5
266
  8
0
  6
CONTINUOUS
 62
     7
 10
1885.798942129849
 20
1648.926581050077
 30
0.0
  0
VERTEX
  5
267
  8
0
  6
CONTINUOUS
 62
     7
 10
1885.805194126735
 20
1648.928649587345
 30
0.0
  0
VERTEX
  5
268
  8
0
  6
CONTINUOUS
 62
     7
 10
1885.811576177728
 20
1648.930476646119
 30
0.0
  0
VERTEX
  5
269
  8
0
  6
CONTINUOUS
 62
     7
 10
1885.818081758459
 20
1648.9320420941
 30
0.0
  0
VERTEX
  5
26A
  8
0
  6
CONTINUOUS
 62
     7
 10
1885.824699531531
 20
1648.933354316928
 30
0.0
  0
VERTEX
  5
26B
  8
0
  6
CONTINUOUS
 62
     7
 10
1885.831413621245
 20
1648.934448590295
 30
0.0
  0
VERTEX
  5
26C
  8
0
  6
CONTINUOUS
 62
     7
 10
1885.838207974829
 20
1648.935361239114
 30
0.0
  0
VERTEX
  5
26D
  8
0
  6
CONTINUOUS
 62
     7
 10
1885.845066539508
 20
1648.936128588293
 30
0.0
  0
VERTEX
  5
26E
  8
0
  6
CONTINUOUS
 62
     7
 10
1885.851973262509
 20
1648.936786962742
 30
0.0
  0
VERTEX
  5
26F
  8
0
  6
CONTINUOUS
 62
     7
 10
1885.858912091058
 20
1648.937372687373
 30
0.0
  0
VERTEX
  5
270
  8
0
  6
CONTINUOUS
 62
     7
 10
1885.86586697238
 20
1648.937922087093
 30
0.0
  0
SEQEND
  5
3B6
  8
0
  6
CONTINUOUS
 62
     7
  0
LINE
  5
C2
  8
0
  6
CONTINUOUS
 62
     7
 10
1885.86586697238
 20
1648.937922087093
 30
0.0
 11
1885.86586697238
 21
1648.451857989276
 31
0.0
  0
ARC
  5
C3
  8
0
  6
CONTINUOUS
 62
     7
 10
1885.864483092631
 20
1648.650474246764
 30
0.0
 40
0.1986210785928649
 50
180.4048499764649
 51
270.3992079345413
  0
LINE
  5
C4
  8
0
  6
CONTINUOUS
 62
     7
 10
1885.86586697238
 20
1648.451857989276
 30
0.0
 11
1886.66586697238
 21
1648.451857989276
 31
0.0
  0
LINE
  5
C5
  8
0
  6
CONTINUOUS
 62
     7
 10
1886.66586697238
 20
1648.451857989276
 30
0.0
 11
1886.66586697238
 21
1648.937922087093
 31
0.0
  0
LINE
  5
C6
  8
0
  6
CONTINUOUS
 62
     7
 10
1885.66586697238
 20
1648.637922087092
 30
0.0
 11
1885.66586697238
 21
1648.649070808839
 31
0.0
  0
LINE
  5
C7
  8
0
  6
CONTINUOUS
 62
     7
 10
1886.66586697238
 20
1648.437922087092
 30
0.0
 11
1886.66586697238
 21
1648.451857989276
 31
0.0
  0
LINE
  5
C8
  8
0
  6
CONTINUOUS
 62
     7
 10
1885.66586697238
 20
1648.737922087092
 30
0.0
 11
1885.66586697238
 21
1648.937922087092
 31
0.0
  0
LINE
  5
C9
  8
0
  6
CONTINUOUS
 62
     7
 10
2385.665866972374
 20
1648.649070808827
 30
0.0
 11
2385.665866972374
 21
1648.73792208708
 31
0.0
  0
LINE
  5
CA
  8
0
  6
CONTINUOUS
 62
     7
 10
2385.865866972374
 20
1648.93792208708
 30
0.0
 11
2385.865866972374
 21
1648.451857989264
 31
0.0
  0
ARC
  5
CB
  8
0
  6
CONTINUOUS
 62
     7
 10
2385.864483092624
 20
1648.65047424675
 30
0.0
 40
0.1986210785919101
 50
180.4048499761393
 51
270.3992079348054
  0
POLYLINE
  5
CC
  8
0
  6
CONTINUOUS
 62
     7
 66
     1
 10
0.0
 20
0.0
 30
0.0
  0
VERTEX
  5
271
  8
0
  6
CONTINUOUS
 62
     7
 10
2385.665866972374
 20
1648.737922087081
 30
0.0
  0
VERTEX
  5
272
  8
0
  6
CONTINUOUS
 62
     7
 10
2385.665884409136
 20
1648.740680019258
 30
0.0
  0
VERTEX
  5
273
  8
0
  6
CONTINUOUS
 62
     7
 10
2385.665940206901
 20
1648.743506459006
 30
0.0
  0
VERTEX
  5
274
  8
0
  6
CONTINUOUS
 62
     7
 10
2385.66603880849
 20
1648.746402246169
 30
0.0
  0
VERTEX
  5
275
  8
0
  6
CONTINUOUS
 62
     7
 10
2385.6661832447
 20
1648.749365403553
 30
0.0
  0
VERTEX
  5
276
  8
0
  6
CONTINUOUS
 62
     7
 10
2385.666376546323
 20
1648.752393953961
 30
0.0
  0
VERTEX
  5
277
  8
0
  6
CONTINUOUS
 62
     7
 10
2385.666621744153
 20
1648.7554859202
 30
0.0
  0
VERTEX
  5
278
  8
0
  6
CONTINUOUS
 62
     7
 10
2385.666921868985
 20
1648.758639325076
 30
0.0
  0
VERTEX
  5
279
  8
0
  6
CONTINUOUS
 62
     7
 10
2385.667279951611
 20
1648.761852191391
 30
0.0
  0
VERTEX
  5
27A
  8
0
  6
CONTINUOUS
 62
     7
 10
2385.667699022826
 20
1648.765122541951
 30
0.0
  0
VERTEX
  5
27B
  8
0
  6
CONTINUOUS
 62
     7
 10
2385.668182113423
 20
1648.768448399562
 30
0.0
  0
VERTEX
  5
27C
  8
0
  6
CONTINUOUS
 62
     7
 10
2385.668732254197
 20
1648.771827787029
 30
0.0
  0
VERTEX
  5
27D
  8
0
  6
CONTINUOUS
 62
     7
 10
2385.669352475941
 20
1648.775258727158
 30
0.0
  0
VERTEX
  5
27E
  8
0
  6
CONTINUOUS
 62
     7
 10
2385.670045809448
 20
1648.778739242751
 30
0.0
  0
VERTEX
  5
27F
  8
0
  6
CONTINUOUS
 62
     7
 10
2385.670815285514
 20
1648.782267356616
 30
0.0
  0
VERTEX
  5
280
  8
0
  6
CONTINUOUS
 62
     7
 10
2385.671663934932
 20
1648.785841091556
 30
0.0
  0
VERTEX
  5
281
  8
0
  6
CONTINUOUS
 62
     7
 10
2385.672594788494
 20
1648.789458470378
 30
0.0
  0
VERTEX
  5
282
  8
0
  6
CONTINUOUS
 62
     7
 10
2385.673610876995
 20
1648.793117515884
 30
0.0
  0
VERTEX
  5
283
  8
0
  6
CONTINUOUS
 62
     7
 10
2385.67471523123
 20
1648.796816250883
 30
0.0
  0
VERTEX
  5
284
  8
0
  6
CONTINUOUS
 62
     7
 10
2385.675910881992
 20
1648.800552698178
 30
0.0
  0
VERTEX
  5
285
  8
0
  6
CONTINUOUS
 62
     7
 10
2385.677200860074
 20
1648.804324880575
 30
0.0
  0
VERTEX
  5
286
  8
0
  6
CONTINUOUS
 62
     7
 10
2385.678588196271
 20
1648.808130820876
 30
0.0
  0
VERTEX
  5
287
  8
0
  6
CONTINUOUS
 62
     7
 10
2385.680075921376
 20
1648.811968541891
 30
0.0
  0
VERTEX
  5
288
  8
0
  6
CONTINUOUS
 62
     7
 10
2385.681667066183
 20
1648.815836066421
 30
0.0
  0
VERTEX
  5
289
  8
0
  6
CONTINUOUS
 62
     7
 10
2385.683364661486
 20
1648.819731417273
 30
0.0
  0
VERTEX
  5
28A
  8
0
  6
CONTINUOUS
 62
     7
 10
2385.685171750636
 20
1648.823652539428
 30
0.0
  0
VERTEX
  5
28B
  8
0
  6
CONTINUOUS
 62
     7
 10
2385.687091599543
 20
1648.827595998466
 30
0.0
  0
VERTEX
  5
28C
  8
0
  6
CONTINUOUS
 62
     7
 10
2385.689127665124
 20
1648.831557176174
 30
0.0
  0
VERTEX
  5
28D
  8
0
  6
CONTINUOUS
 62
     7
 10
2385.69128341049
 20
1648.835531415919
 30
0.0
  0
VERTEX
  5
28E
  8
0
  6
CONTINUOUS
 62
     7
 10
2385.693562298753
 20
1648.839514061073
 30
0.0
  0
VERTEX
  5
28F
  8
0
  6
CONTINUOUS
 62
     7
 10
2385.695967793027
 20
1648.843500455004
 30
0.0
  0
VERTEX
  5
290
  8
0
  6
CONTINUOUS
 62
     7
 10
2385.698503356422
 20
1648.847485941082
 30
0.0
  0
VERTEX
  5
291
  8
0
  6
CONTINUOUS
 62
     7
 10
2385.701172452052
 20
1648.851465862677
 30
0.0
  0
VERTEX
  5
292
  8
0
  6
CONTINUOUS
 62
     7
 10
2385.703978543028
 20
1648.85543556316
 30
0.0
  0
VERTEX
  5
293
  8
0
  6
CONTINUOUS
 62
     7
 10
2385.706925092464
 20
1648.859390385899
 30
0.0
  0
VERTEX
  5
294
  8
0
  6
CONTINUOUS
 62
     7
 10
2385.71001556347
 20
1648.863325674265
 30
0.0
  0
VERTEX
  5
295
  8
0
  6
CONTINUOUS
 62
     7
 10
2385.713253419161
 20
1648.867236771627
 30
0.0
  0
VERTEX
  5
296
  8
0
  6
CONTINUOUS
 62
     7
 10
2385.716642122647
 20
1648.871119021356
 30
0.0
  0
VERTEX
  5
297
  8
0
  6
CONTINUOUS
 62
     7
 10
2385.720185137041
 20
1648.87496776682
 30
0.0
  0
VERTEX
  5
298
  8
0
  6
CONTINUOUS
 62
     7
 10
2385.723885923848
 20
1648.878778350077
 30
0.0
  0
VERTEX
  5
299
  8
0
  6
CONTINUOUS
 62
     7
 10
2385.727747249719
 20
1648.882545545897
 30
0.0
  0
VERTEX
  5
29A
  8
0
  6
CONTINUOUS
 62
     7
 10
2385.731770104579
 20
1648.886262678507
 30
0.0
  0
VERTEX
  5
29B
  8
0
  6
CONTINUOUS
 62
     7
 10
2385.735955198428
 20
1648.889922843598
 30
0.0
  0
VERTEX
  5
29C
  8
0
  6
CONTINUOUS
 62
     7
 10
2385.74030324126
 20
1648.89351913686
 30
0.0
  0
VERTEX
  5
29D
  8
0
  6
CONTINUOUS
 62
     7
 10
2385.744814943077
 20
1648.897044653982
 30
0.0
  0
VERTEX
  5
29E
  8
0
  6
CONTINUOUS
 62
     7
 10
2385.749491013874
 20
1648.900492490656
 30
0.0
  0
VERTEX
  5
29F
  8
0
  6
CONTINUOUS
 62
     7
 10
2385.75433216365
 20
1648.903855742573
 30
0.0
  0
VERTEX
  5
2A0
  8
0
  6
CONTINUOUS
 62
     7
 10
2385.759339102402
 20
1648.90712750542
 30
0.0
  0
VERTEX
  5
2A1
  8
0
  6
CONTINUOUS
 62
     7
 10
2385.764512540128
 20
1648.910300874892
 30
0.0
  0
VERTEX
  5
2A2
  8
0
  6
CONTINUOUS
 62
     7
 10
2385.769853186821
 20
1648.913368946666
 30
0.0
  0
VERTEX
  5
2A3
  8
0
  6
CONTINUOUS
 62
     7
 10
2385.77536052897
 20
1648.916322264825
 30
0.0
  0
VERTEX
  5
2A4
  8
0
  6
CONTINUOUS
 62
     7
 10
2385.781029386627
 20
1648.919141641683
 30
0.0
  0
VERTEX
  5
2A5
  8
0
  6
CONTINUOUS
 62
     7
 10
2385.786853467512
 20
1648.921805569802
 30
0.0
  0
VERTEX
  5
2A6
  8
0
  6
CONTINUOUS
 62
     7
 10
2385.792826479344
 20
1648.924292541742
 30
0.0
  0
VERTEX
  5
2A7
  8
0
  6
CONTINUOUS
 62
     7
 10
2385.798942129843
 20
1648.926581050065
 30
0.0
  0
VERTEX
  5
2A8
  8
0
  6
CONTINUOUS
 62
     7
 10
2385.805194126729
 20
1648.928649587333
 30
0.0
  0
VERTEX
  5
2A9
  8
0
  6
CONTINUOUS
 62
     7
 10
2385.811576177722
 20
1648.930476646106
 30
0.0
  0
VERTEX
  5
2AA
  8
0
  6
CONTINUOUS
 62
     7
 10
2385.818081758454
 20
1648.932042094088
 30
0.0
  0
VERTEX
  5
2AB
  8
0
  6
CONTINUOUS
 62
     7
 10
2385.824699531526
 20
1648.933354316915
 30
0.0
  0
VERTEX
  5
2AC
  8
0
  6
CONTINUOUS
 62
     7
 10
2385.83141362124
 20
1648.934448590283
 30
0.0
  0
VERTEX
  5
2AD
  8
0
  6
CONTINUOUS
 62
     7
 10
2385.838207974823
 20
1648.935361239102
 30
0.0
  0
VERTEX
  5
2AE
  8
0
  6
CONTINUOUS
 62
     7
 10
2385.845066539502
 20
1648.936128588281
 30
0.0
  0
VERTEX
  5
2AF
  8
0
  6
CONTINUOUS
 62
     7
 10
2385.851973262503
 20
1648.93678696273
 30
0.0
  0
VERTEX
  5
2B0
  8
0
  6
CONTINUOUS
 62
     7
 10
2385.858912091052
 20
1648.93737268736
 30
0.0
  0
VERTEX
  5
2B1
  8
0
  6
CONTINUOUS
 62
     7
 10
2385.865866972374
 20
1648.93792208708
 30
0.0
  0
SEQEND
  5
3B7
  8
0
  6
CONTINUOUS
 62
     7
  0
LINE
  5
CD
  8
0
  6
CONTINUOUS
 62
     7
 10
2386.665866972374
 20
1648.451857989264
 30
0.0
 11
2386.665866972374
 21
1648.93792208708
 31
0.0
  0
LINE
  5
CE
  8
0
  6
CONTINUOUS
 62
     7
 10
2385.865866972374
 20
1648.451857989264
 30
0.0
 11
2386.665866972374
 21
1648.451857989264
 31
0.0
  0
LINE
  5
CF
  8
0
  6
CONTINUOUS
 62
     7
 10
2385.665866972374
 20
1648.63792208708
 30
0.0
 11
2385.665866972374
 21
1648.649070808827
 31
0.0
  0
LINE
  5
D0
  8
0
  6
CONTINUOUS
 62
     7
 10
2386.665866972374
 20
1648.43792208708
 30
0.0
 11
2386.665866972374
 21
1648.451857989264
 31
0.0
  0
LINE
  5
D1
  8
0
  6
CONTINUOUS
 62
     7
 10
2385.665866972374
 20
1648.73792208708
 30
0.0
 11
2385.665866972374
 21
1648.937922087083
 31
0.0
  0
LINE
  5
D2
  8
0
  6
CONTINUOUS
 62
     7
 10
1886.66586697238
 20
1648.451857989276
 30
0.0
 11
2380.66586697238
 21
1648.451857989277
 31
0.0
  0
LINE
  5
D3
  8
0
  6
CONTINUOUS
 62
     7
 10
2380.66586697238
 20
1648.937922087093
 30
0.0
 11
2380.66586697238
 21
1648.451857989277
 31
0.0
  0
LINE
  5
D4
  8
0
  6
CONTINUOUS
 62
     7
 10
2380.66586697238
 20
1648.451857989277
 30
0.0
 11
2380.66586697238
 21
1648.437922087093
 31
0.0
  0
LINE
  5
D5
  8
0
  6
CONTINUOUS
 62
     7
 10
2386.665866972374
 20
1648.451857989264
 30
0.0
 11
2880.665866972374
 21
1648.451857989264
 31
0.0
  0
LINE
  5
D6
  8
0
  6
CONTINUOUS
 62
     7
 10
2880.665866972374
 20
1648.93792208708
 30
0.0
 11
2880.665866972374
 21
1648.451857989264
 31
0.0
  0
LINE
  5
D7
  8
0
  6
CONTINUOUS
 62
     7
 10
2880.665866972374
 20
1648.451857989264
 30
0.0
 11
2880.665866972374
 21
1648.43792208708
 31
0.0
  0
LINE
  5
D8
  8
0
  6
CONTINUOUS
 62
     7
 10
2381.66586697238
 20
1648.737922087093
 30
0.0
 11
2381.66586697238
 21
1648.649070808839
 31
0.0
  0
ARC
  5
D9
  8
0
  6
CONTINUOUS
 62
     7
 10
2381.46725085213
 20
1648.650474246763
 30
0.0
 40
0.1986210785923648
 50
269.6007920651971
 51
359.5951500236009
  0
LINE
  5
DA
  8
0
  6
CONTINUOUS
 62
     7
 10
2381.46586697238
 20
1648.451857989277
 30
0.0
 11
2381.46586697238
 21
1648.937922087093
 31
0.0
  0
POLYLINE
  5
DB
  8
0
  6
CONTINUOUS
 62
     7
 66
     1
 10
0.0
 20
0.0
 30
0.0
  0
VERTEX
  5
2B2
  8
0
  6
CONTINUOUS
 62
     7
 10
2381.66586697238
 20
1648.737922087093
 30
0.0
  0
VERTEX
  5
2B3
  8
0
  6
CONTINUOUS
 62
     7
 10
2381.665849535618
 20
1648.74068001927
 30
0.0
  0
VERTEX
  5
2B4
  8
0
  6
CONTINUOUS
 62
     7
 10
2381.665793737854
 20
1648.743506459017
 30
0.0
  0
VERTEX
  5
2B5
  8
0
  6
CONTINUOUS
 62
     7
 10
2381.665695136265
 20
1648.746402246181
 30
0.0
  0
VERTEX
  5
2B6
  8
0
  6
CONTINUOUS
 62
     7
 10
2381.665550700056
 20
1648.749365403565
 30
0.0
  0
VERTEX
  5
2B7
  8
0
  6
CONTINUOUS
 62
     7
 10
2381.665357398433
 20
1648.752393953974
 30
0.0
  0
VERTEX
  5
2B8
  8
0
  6
CONTINUOUS
 62
     7
 10
2381.665112200603
 20
1648.755485920213
 30
0.0
  0
VERTEX
  5
2B9
  8
0
  6
CONTINUOUS
 62
     7
 10
2381.664812075771
 20
1648.758639325087
 30
0.0
  0
VERTEX
  5
2BA
  8
0
  6
CONTINUOUS
 62
     7
 10
2381.664453993145
 20
1648.761852191402
 30
0.0
  0
VERTEX
  5
2BB
  8
0
  6
CONTINUOUS
 62
     7
 10
2381.66403492193
 20
1648.765122541963
 30
0.0
  0
VERTEX
  5
2BC
  8
0
  6
CONTINUOUS
 62
     7
 10
2381.663551831333
 20
1648.768448399575
 30
0.0
  0
VERTEX
  5
2BD
  8
0
  6
CONTINUOUS
 62
     7
 10
2381.663001690559
 20
1648.771827787042
 30
0.0
  0
VERTEX
  5
2BE
  8
0
  6
CONTINUOUS
 62
     7
 10
2381.662381468816
 20
1648.775258727169
 30
0.0
  0
VERTEX
  5
2BF
  8
0
  6
CONTINUOUS
 62
     7
 10
2381.661688135308
 20
1648.778739242763
 30
0.0
  0
VERTEX
  5
2C0
  8
0
  6
CONTINUOUS
 62
     7
 10
2381.660918659242
 20
1648.782267356628
 30
0.0
  0
VERTEX
  5
2C1
  8
0
  6
CONTINUOUS
 62
     7
 10
2381.660070009824
 20
1648.785841091568
 30
0.0
  0
VERTEX
  5
2C2
  8
0
  6
CONTINUOUS
 62
     7
 10
2381.659139156262
 20
1648.78945847039
 30
0.0
  0
VERTEX
  5
2C3
  8
0
  6
CONTINUOUS
 62
     7
 10
2381.65812306776
 20
1648.793117515897
 30
0.0
  0
VERTEX
  5
2C4
  8
0
  6
CONTINUOUS
 62
     7
 10
2381.657018713525
 20
1648.796816250896
 30
0.0
  0
VERTEX
  5
2C5
  8
0
  6
CONTINUOUS
 62
     7
 10
2381.655823062763
 20
1648.80055269819
 30
0.0
  0
VERTEX
  5
2C6
  8
0
  6
CONTINUOUS
 62
     7
 10
2381.654533084681
 20
1648.804324880587
 30
0.0
  0
VERTEX
  5
2C7
  8
0
  6
CONTINUOUS
 62
     7
 10
2381.653145748484
 20
1648.808130820889
 30
0.0
  0
VERTEX
  5
2C8
  8
0
  6
CONTINUOUS
 62
     7
 10
2381.651658023379
 20
1648.811968541903
 30
0.0
  0
VERTEX
  5
2C9
  8
0
  6
CONTINUOUS
 62
     7
 10
2381.650066878572
 20
1648.815836066433
 30
0.0
  0
VERTEX
  5
2CA
  8
0
  6
CONTINUOUS
 62
     7
 10
2381.648369283268
 20
1648.819731417285
 30
0.0
  0
VERTEX
  5
2CB
  8
0
  6
CONTINUOUS
 62
     7
 10
2381.646562194119
 20
1648.82365253944
 30
0.0
  0
VERTEX
  5
2CC
  8
0
  6
CONTINUOUS
 62
     7
 10
2381.644642345211
 20
1648.827595998479
 30
0.0
  0
VERTEX
  5
2CD
  8
0
  6
CONTINUOUS
 62
     7
 10
2381.642606279631
 20
1648.831557176186
 30
0.0
  0
VERTEX
  5
2CE
  8
0
  6
CONTINUOUS
 62
     7
 10
2381.640450534264
 20
1648.835531415931
 30
0.0
  0
VERTEX
  5
2CF
  8
0
  6
CONTINUOUS
 62
     7
 10
2381.638171646001
 20
1648.839514061085
 30
0.0
  0
VERTEX
  5
2D0
  8
0
  6
CONTINUOUS
 62
     7
 10
2381.635766151728
 20
1648.843500455016
 30
0.0
  0
VERTEX
  5
2D1
  8
0
  6
CONTINUOUS
 62
     7
 10
2381.633230588332
 20
1648.847485941094
 30
0.0
  0
VERTEX
  5
2D2
  8
0
  6
CONTINUOUS
 62
     7
 10
2381.630561492702
 20
1648.85146586269
 30
0.0
  0
VERTEX
  5
2D3
  8
0
  6
CONTINUOUS
 62
     7
 10
2381.627755401726
 20
1648.855435563172
 30
0.0
  0
VERTEX
  5
2D4
  8
0
  6
CONTINUOUS
 62
     7
 10
2381.624808852291
 20
1648.859390385911
 30
0.0
  0
VERTEX
  5
2D5
  8
0
  6
CONTINUOUS
 62
     7
 10
2381.621718381284
 20
1648.863325674277
 30
0.0
  0
VERTEX
  5
2D6
  8
0
  6
CONTINUOUS
 62
     7
 10
2381.618480525594
 20
1648.86723677164
 30
0.0
  0
VERTEX
  5
2D7
  8
0
  6
CONTINUOUS
 62
     7
 10
2381.615091822108
 20
1648.871119021368
 30
0.0
  0
VERTEX
  5
2D8
  8
0
  6
CONTINUOUS
 62
     7
 10
2381.611548807713
 20
1648.874967766832
 30
0.0
  0
VERTEX
  5
2D9
  8
0
  6
CONTINUOUS
 62
     7
 10
2381.607848020907
 20
1648.878778350089
 30
0.0
  0
VERTEX
  5
2DA
  8
0
  6
CONTINUOUS
 62
     7
 10
2381.603986695036
 20
1648.88254554591
 30
0.0
  0
VERTEX
  5
2DB
  8
0
  6
CONTINUOUS
 62
     7
 10
2381.599963840175
 20
1648.886262678519
 30
0.0
  0
VERTEX
  5
2DC
  8
0
  6
CONTINUOUS
 62
     7
 10
2381.595778746327
 20
1648.889922843611
 30
0.0
  0
VERTEX
  5
2DD
  8
0
  6
CONTINUOUS
 62
     7
 10
2381.591430703494
 20
1648.893519136872
 30
0.0
  0
VERTEX
  5
2DE
  8
0
  6
CONTINUOUS
 62
     7
 10
2381.586919001677
 20
1648.897044653994
 30
0.0
  0
VERTEX
  5
2DF
  8
0
  6
CONTINUOUS
 62
     7
 10
2381.582242930881
 20
1648.900492490669
 30
0.0
  0
VERTEX
  5
2E0
  8
0
  6
CONTINUOUS
 62
     7
 10
2381.577401781105
 20
1648.903855742585
 30
0.0
  0
VERTEX
  5
2E1
  8
0
  6
CONTINUOUS
 62
     7
 10
2381.572394842353
 20
1648.907127505433
 30
0.0
  0
VERTEX
  5
2E2
  8
0
  6
CONTINUOUS
 62
     7
 10
2381.567221404627
 20
1648.910300874903
 30
0.0
  0
VERTEX
  5
2E3
  8
0
  6
CONTINUOUS
 62
     7
 10
2381.561880757934
 20
1648.913368946678
 30
0.0
  0
VERTEX
  5
2E4
  8
0
  6
CONTINUOUS
 62
     7
 10
2381.556373415785
 20
1648.916322264837
 30
0.0
  0
VERTEX
  5
2E5
  8
0
  6
CONTINUOUS
 62
     7
 10
2381.550704558128
 20
1648.919141641695
 30
0.0
  0
VERTEX
  5
2E6
  8
0
  6
CONTINUOUS
 62
     7
 10
2381.544880477243
 20
1648.921805569814
 30
0.0
  0
VERTEX
  5
2E7
  8
0
  6
CONTINUOUS
 62
     7
 10
2381.538907465411
 20
1648.924292541754
 30
0.0
  0
VERTEX
  5
2E8
  8
0
  6
CONTINUOUS
 62
     7
 10
2381.532791814911
 20
1648.926581050078
 30
0.0
  0
VERTEX
  5
2E9
  8
0
  6
CONTINUOUS
 62
     7
 10
2381.526539818025
 20
1648.928649587345
 30
0.0
  0
VERTEX
  5
2EA
  8
0
  6
CONTINUOUS
 62
     7
 10
2381.520157767033
 20
1648.930476646118
 30
0.0
  0
VERTEX
  5
2EB
  8
0
  6
CONTINUOUS
 62
     7
 10
2381.513652186301
 20
1648.9320420941
 30
0.0
  0
VERTEX
  5
2EC
  8
0
  6
CONTINUOUS
 62
     7
 10
2381.50703441323
 20
1648.933354316928
 30
0.0
  0
VERTEX
  5
2ED
  8
0
  6
CONTINUOUS
 62
     7
 10
2381.500320323516
 20
1648.934448590295
 30
0.0
  0
VERTEX
  5
2EE
  8
0
  6
CONTINUOUS
 62
     7
 10
2381.493525969931
 20
1648.935361239114
 30
0.0
  0
VERTEX
  5
2EF
  8
0
  6
CONTINUOUS
 62
     7
 10
2381.486667405253
 20
1648.936128588293
 30
0.0
  0
VERTEX
  5
2F0
  8
0
  6
CONTINUOUS
 62
     7
 10
2381.479760682251
 20
1648.936786962743
 30
0.0
  0
VERTEX
  5
2F1
  8
0
  6
CONTINUOUS
 62
     7
 10
2381.472821853703
 20
1648.937372687373
 30
0.0
  0
VERTEX
  5
2F2
  8
0
  6
CONTINUOUS
 62
     7
 10
2381.46586697238
 20
1648.937922087093
 30
0.0
  0
SEQEND
  5
3B8
  8
0
  6
CONTINUOUS
 62
     7
  0
LINE
  5
DC
  8
0
  6
CONTINUOUS
 62
     7
 10
2380.66586697238
 20
1648.451857989277
 30
0.0
 11
2381.46586697238
 21
1648.451857989277
 31
0.0
  0
LINE
  5
DD
  8
0
  6
CONTINUOUS
 62
     7
 10
2381.66586697238
 20
1648.649070808839
 30
0.0
 11
2381.66586697238
 21
1648.637922087093
 31
0.0
  0
LINE
  5
DE
  8
0
  6
CONTINUOUS
 62
     7
 10
2381.66586697238
 20
1648.937922087089
 30
0.0
 11
2381.66586697238
 21
1648.737922087093
 31
0.0
  0
LINE
  5
DF
  8
0
  6
CONTINUOUS
 62
     7
 10
2881.665866972374
 20
1648.73792208708
 30
0.0
 11
2881.665866972374
 21
1648.649070808827
 31
0.0
  0
ARC
  5
E0
  8
0
  6
CONTINUOUS
 62
     7
 10
2881.467250852125
 20
1648.65047424675
 30
0.0
 40
0.1986210785916827
 50
269.6007920651958
 51
359.5951500238614
  0
LINE
  5
E1
  8
0
  6
CONTINUOUS
 62
     7
 10
2881.465866972374
 20
1648.451857989264
 30
0.0
 11
2881.465866972374
 21
1648.93792208708
 31
0.0
  0
POLYLINE
  5
E2
  8
0
  6
CONTINUOUS
 62
     7
 66
     1
 10
0.0
 20
0.0
 30
0.0
  0
VERTEX
  5
2F3
  8
0
  6
CONTINUOUS
 62
     7
 10
2881.665866972374
 20
1648.73792208708
 30
0.0
  0
VERTEX
  5
2F4
  8
0
  6
CONTINUOUS
 62
     7
 10
2881.665849535613
 20
1648.740680019258
 30
0.0
  0
VERTEX
  5
2F5
  8
0
  6
CONTINUOUS
 62
     7
 10
2881.665793737849
 20
1648.743506459005
 30
0.0
  0
VERTEX
  5
2F6
  8
0
  6
CONTINUOUS
 62
     7
 10
2881.665695136259
 20
1648.746402246169
 30
0.0
  0
VERTEX
  5
2F7
  8
0
  6
CONTINUOUS
 62
     7
 10
2881.66555070005
 20
1648.749365403553
 30
0.0
  0
VERTEX
  5
2F8
  8
0
  6
CONTINUOUS
 62
     7
 10
2881.665357398427
 20
1648.752393953961
 30
0.0
  0
VERTEX
  5
2F9
  8
0
  6
CONTINUOUS
 62
     7
 10
2881.665112200597
 20
1648.7554859202
 30
0.0
  0
VERTEX
  5
2FA
  8
0
  6
CONTINUOUS
 62
     7
 10
2881.664812075765
 20
1648.758639325075
 30
0.0
  0
VERTEX
  5
2FB
  8
0
  6
CONTINUOUS
 62
     7
 10
2881.664453993139
 20
1648.761852191391
 30
0.0
  0
VERTEX
  5
2FC
  8
0
  6
CONTINUOUS
 62
     7
 10
2881.664034921924
 20
1648.765122541951
 30
0.0
  0
VERTEX
  5
2FD
  8
0
  6
CONTINUOUS
 62
     7
 10
2881.663551831328
 20
1648.768448399563
 30
0.0
  0
VERTEX
  5
2FE
  8
0
  6
CONTINUOUS
 62
     7
 10
2881.663001690554
 20
1648.77182778703
 30
0.0
  0
VERTEX
  5
2FF
  8
0
  6
CONTINUOUS
 62
     7
 10
2881.66238146881
 20
1648.775258727157
 30
0.0
  0
VERTEX
  5
300
  8
0
  6
CONTINUOUS
 62
     7
 10
2881.661688135303
 20
1648.778739242751
 30
0.0
  0
VERTEX
  5
301
  8
0
  6
CONTINUOUS
 62
     7
 10
2881.660918659236
 20
1648.782267356615
 30
0.0
  0
VERTEX
  5
302
  8
0
  6
CONTINUOUS
 62
     7
 10
2881.660070009819
 20
1648.785841091556
 30
0.0
  0
VERTEX
  5
303
  8
0
  6
CONTINUOUS
 62
     7
 10
2881.659139156257
 20
1648.789458470377
 30
0.0
  0
VERTEX
  5
304
  8
0
  6
CONTINUOUS
 62
     7
 10
2881.658123067755
 20
1648.793117515885
 30
0.0
  0
VERTEX
  5
305
  8
0
  6
CONTINUOUS
 62
     7
 10
2881.65701871352
 20
1648.796816250883
 30
0.0
  0
VERTEX
  5
306
  8
0
  6
CONTINUOUS
 62
     7
 10
2881.655823062758
 20
1648.800552698178
 30
0.0
  0
VERTEX
  5
307
  8
0
  6
CONTINUOUS
 62
     7
 10
2881.654533084676
 20
1648.804324880574
 30
0.0
  0
VERTEX
  5
308
  8
0
  6
CONTINUOUS
 62
     7
 10
2881.653145748479
 20
1648.808130820877
 30
0.0
  0
VERTEX
  5
309
  8
0
  6
CONTINUOUS
 62
     7
 10
2881.651658023373
 20
1648.811968541891
 30
0.0
  0
VERTEX
  5
30A
  8
0
  6
CONTINUOUS
 62
     7
 10
2881.650066878567
 20
1648.815836066421
 30
0.0
  0
VERTEX
  5
30B
  8
0
  6
CONTINUOUS
 62
     7
 10
2881.648369283263
 20
1648.819731417273
 30
0.0
  0
VERTEX
  5
30C
  8
0
  6
CONTINUOUS
 62
     7
 10
2881.646562194114
 20
1648.823652539428
 30
0.0
  0
VERTEX
  5
30D
  8
0
  6
CONTINUOUS
 62
     7
 10
2881.644642345206
 20
1648.827595998467
 30
0.0
  0
VERTEX
  5
30E
  8
0
  6
CONTINUOUS
 62
     7
 10
2881.642606279625
 20
1648.831557176174
 30
0.0
  0
VERTEX
  5
30F
  8
0
  6
CONTINUOUS
 62
     7
 10
2881.640450534259
 20
1648.835531415919
 30
0.0
  0
VERTEX
  5
310
  8
0
  6
CONTINUOUS
 62
     7
 10
2881.638171645995
 20
1648.839514061072
 30
0.0
  0
VERTEX
  5
311
  8
0
  6
CONTINUOUS
 62
     7
 10
2881.635766151722
 20
1648.843500455004
 30
0.0
  0
VERTEX
  5
312
  8
0
  6
CONTINUOUS
 62
     7
 10
2881.633230588326
 20
1648.847485941081
 30
0.0
  0
VERTEX
  5
313
  8
0
  6
CONTINUOUS
 62
     7
 10
2881.630561492697
 20
1648.851465862678
 30
0.0
  0
VERTEX
  5
314
  8
0
  6
CONTINUOUS
 62
     7
 10
2881.627755401721
 20
1648.85543556316
 30
0.0
  0
VERTEX
  5
315
  8
0
  6
CONTINUOUS
 62
     7
 10
2881.624808852285
 20
1648.859390385899
 30
0.0
  0
VERTEX
  5
316
  8
0
  6
CONTINUOUS
 62
     7
 10
2881.621718381278
 20
1648.863325674265
 30
0.0
  0
VERTEX
  5
317
  8
0
  6
CONTINUOUS
 62
     7
 10
2881.618480525588
 20
1648.867236771627
 30
0.0
  0
VERTEX
  5
318
  8
0
  6
CONTINUOUS
 62
     7
 10
2881.615091822102
 20
1648.871119021356
 30
0.0
  0
VERTEX
  5
319
  8
0
  6
CONTINUOUS
 62
     7
 10
2881.611548807708
 20
1648.874967766819
 30
0.0
  0
VERTEX
  5
31A
  8
0
  6
CONTINUOUS
 62
     7
 10
2881.607848020901
 20
1648.878778350077
 30
0.0
  0
VERTEX
  5
31B
  8
0
  6
CONTINUOUS
 62
     7
 10
2881.60398669503
 20
1648.882545545897
 30
0.0
  0
VERTEX
  5
31C
  8
0
  6
CONTINUOUS
 62
     7
 10
2881.599963840169
 20
1648.886262678507
 30
0.0
  0
VERTEX
  5
31D
  8
0
  6
CONTINUOUS
 62
     7
 10
2881.595778746322
 20
1648.889922843598
 30
0.0
  0
VERTEX
  5
31E
  8
0
  6
CONTINUOUS
 62
     7
 10
2881.591430703489
 20
1648.89351913686
 30
0.0
  0
VERTEX
  5
31F
  8
0
  6
CONTINUOUS
 62
     7
 10
2881.586919001672
 20
1648.897044653982
 30
0.0
  0
VERTEX
  5
320
  8
0
  6
CONTINUOUS
 62
     7
 10
2881.582242930875
 20
1648.900492490657
 30
0.0
  0
VERTEX
  5
321
  8
0
  6
CONTINUOUS
 62
     7
 10
2881.577401781099
 20
1648.903855742572
 30
0.0
  0
VERTEX
  5
322
  8
0
  6
CONTINUOUS
 62
     7
 10
2881.572394842347
 20
1648.907127505421
 30
0.0
  0
VERTEX
  5
323
  8
0
  6
CONTINUOUS
 62
     7
 10
2881.567221404621
 20
1648.910300874891
 30
0.0
  0
VERTEX
  5
324
  8
0
  6
CONTINUOUS
 62
     7
 10
2881.561880757928
 20
1648.913368946666
 30
0.0
  0
VERTEX
  5
325
  8
0
  6
CONTINUOUS
 62
     7
 10
2881.556373415779
 20
1648.916322264824
 30
0.0
  0
VERTEX
  5
326
  8
0
  6
CONTINUOUS
 62
     7
 10
2881.550704558122
 20
1648.919141641682
 30
0.0
  0
VERTEX
  5
327
  8
0
  6
CONTINUOUS
 62
     7
 10
2881.544880477237
 20
1648.921805569802
 30
0.0
  0
VERTEX
  5
328
  8
0
  6
CONTINUOUS
 62
     7
 10
2881.538907465404
 20
1648.924292541742
 30
0.0
  0
VERTEX
  5
329
  8
0
  6
CONTINUOUS
 62
     7
 10
2881.532791814905
 20
1648.926581050065
 30
0.0
  0
VERTEX
  5
32A
  8
0
  6
CONTINUOUS
 62
     7
 10
2881.526539818019
 20
1648.928649587333
 30
0.0
  0
VERTEX
  5
32B
  8
0
  6
CONTINUOUS
 62
     7
 10
2881.520157767026
 20
1648.930476646106
 30
0.0
  0
VERTEX
  5
32C
  8
0
  6
CONTINUOUS
 62
     7
 10
2881.513652186294
 20
1648.932042094088
 30
0.0
  0
VERTEX
  5
32D
  8
0
  6
CONTINUOUS
 62
     7
 10
2881.507034413224
 20
1648.933354316915
 30
0.0
  0
VERTEX
  5
32E
  8
0
  6
CONTINUOUS
 62
     7
 10
2881.500320323509
 20
1648.934448590283
 30
0.0
  0
VERTEX
  5
32F
  8
0
  6
CONTINUOUS
 62
     7
 10
2881.493525969925
 20
1648.935361239102
 30
0.0
  0
VERTEX
  5
330
  8
0
  6
CONTINUOUS
 62
     7
 10
2881.486667405246
 20
1648.936128588281
 30
0.0
  0
VERTEX
  5
331
  8
0
  6
CONTINUOUS
 62
     7
 10
2881.479760682245
 20
1648.93678696273
 30
0.0
  0
VERTEX
  5
332
  8
0
  6
CONTINUOUS
 62
     7
 10
2881.472821853697
 20
1648.93737268736
 30
0.0
  0
VERTEX
  5
333
  8
0
  6
CONTINUOUS
 62
     7
 10
2881.465866972374
 20
1648.93792208708
 30
0.0
  0
SEQEND
  5
3B9
  8
0
  6
CONTINUOUS
 62
     7
  0
LINE
  5
E3
  8
0
  6
CONTINUOUS
 62
     7
 10
2880.665866972374
 20
1648.451857989264
 30
0.0
 11
2881.465866972374
 21
1648.451857989264
 31
0.0
  0
LINE
  5
E4
  8
0
  6
CONTINUOUS
 62
     7
 10
2881.665866972374
 20
1648.649070808827
 30
0.0
 11
2881.665866972374
 21
1648.63792208708
 31
0.0
  0
LINE
  5
E5
  8
0
  6
CONTINUOUS
 62
     7
 10
2881.665866972374
 20
1648.937922087079
 30
0.0
 11
2881.665866972374
 21
1648.73792208708
 31
0.0
  0
LINE
  5
E6
  8
0
  6
CONTINUOUS
 62
     7
 10
1883.66586697238
 20
1647.937922087092
 30
0.0
 11
1900.66586697238
 21
1647.937922087092
 31
0.0
  0
LINE
  5
E7
  8
0
  6
CONTINUOUS
 62
     7
 10
1900.66586697238
 20
1647.937922087092
 30
0.0
 11
1900.66586697238
 21
1648.437922087092
 31
0.0
  0
LINE
  5
E8
  8
0
  6
CONTINUOUS
 62
     7
 10
1900.665866972378
 20
1895.937922087093
 30
0.0
 11
1900.665866972378
 21
1896.937922087094
 31
0.0
  0
LINE
  5
E9
  8
0
  6
CONTINUOUS
 62
     7
 10
1883.665866972378
 20
1896.937922087094
 30
0.0
 11
1883.66586697238
 21
1647.937922087092
 31
0.0
  0
LINE
  5
EA
  8
0
  6
CONTINUOUS
 62
     7
 10
1900.665866972378
 20
1896.937922087094
 30
0.0
 11
1883.665866972378
 21
1896.937922087094
 31
0.0
  0
LINE
  5
EB
  8
0
  6
CONTINUOUS
 62
     7
 10
2866.665866972377
 20
1647.937922087092
 30
0.0
 11
2883.665866972377
 21
1647.937922087092
 31
0.0
  0
LINE
  5
EC
  8
0
  6
CONTINUOUS
 62
     7
 10
2883.665866972377
 20
1647.937922087092
 30
0.0
 11
2883.665866972375
 21
1896.937922087094
 31
0.0
  0
LINE
  5
ED
  8
0
  6
CONTINUOUS
 62
     7
 10
2866.665866972376
 20
1896.937922087094
 30
0.0
 11
2866.665866972376
 21
1895.93792208708
 31
0.0
  0
LINE
  5
EE
  8
0
  6
CONTINUOUS
 62
     7
 10
2866.665866972377
 20
1648.43792208708
 30
0.0
 11
2866.665866972377
 21
1647.937922087092
 31
0.0
  0
LINE
  5
EF
  8
0
  6
CONTINUOUS
 62
     7
 10
2883.665866972375
 20
1896.937922087094
 30
0.0
 11
2866.665866972376
 21
1896.937922087094
 31
0.0
  0
LINE
  5
F0
  8
0
  6
CONTINUOUS
 62
     7
 10
1900.665866972378
 20
1897.437922087092
 30
0.0
 11
1900.665866972378
 21
1896.937922087094
 31
0.0
  0
LINE
  5
F1
  8
0
  6
CONTINUOUS
 62
     7
 10
1883.665866972378
 20
1897.437922087092
 30
0.0
 11
1900.665866972378
 21
1897.437922087092
 31
0.0
  0
LINE
  5
F2
  8
0
  6
CONTINUOUS
 62
     7
 10
1883.665866972378
 20
1897.437922087092
 30
0.0
 11
1883.665866972378
 21
1896.937922087094
 31
0.0
  0
LINE
  5
F3
  8
0
  6
CONTINUOUS
 62
     7
 10
2883.665866972375
 20
1897.437922087092
 30
0.0
 11
2883.665866972375
 21
1896.937922087094
 31
0.0
  0
LINE
  5
F4
  8
0
  6
CONTINUOUS
 62
     7
 10
2866.665866972376
 20
1897.437922087092
 30
0.0
 11
2883.665866972375
 21
1897.437922087092
 31
0.0
  0
LINE
  5
F5
  8
0
  6
CONTINUOUS
 62
     7
 10
2866.665866972376
 20
1897.437922087092
 30
0.0
 11
2866.665866972376
 21
1896.937922087094
 31
0.0
  0
LINE
  5
F6
  8
0
  6
CONTINUOUS
 62
     7
 10
2883.665866972377
 20
1647.437922087093
 30
0.0
 11
2883.665866972377
 21
1647.937922087092
 31
0.0
  0
LINE
  5
F7
  8
0
  6
CONTINUOUS
 62
     7
 10
2866.665866972377
 20
1647.437922087093
 30
0.0
 11
2883.665866972377
 21
1647.437922087093
 31
0.0
  0
LINE
  5
F8
  8
0
  6
CONTINUOUS
 62
     7
 10
2866.665866972377
 20
1647.437922087093
 30
0.0
 11
2866.665866972377
 21
1647.937922087092
 31
0.0
  0
LINE
  5
F9
  8
0
  6
CONTINUOUS
 62
     7
 10
1900.66586697238
 20
1647.437922087093
 30
0.0
 11
1900.66586697238
 21
1647.937922087092
 31
0.0
  0
LINE
  5
FA
  8
0
  6
CONTINUOUS
 62
     7
 10
1883.66586697238
 20
1647.437922087093
 30
0.0
 11
1900.66586697238
 21
1647.437922087093
 31
0.0
  0
LINE
  5
FB
  8
0
  6
CONTINUOUS
 62
     7
 10
1883.66586697238
 20
1647.437922087093
 30
0.0
 11
1883.66586697238
 21
1647.937922087092
 31
0.0
  0
LINE
  5
FC
  8
0
  6
CONTINUOUS
 62
     8
 10
1885.86586697238
 20
1648.451857989276
 30
0.0
 11
1885.86586697238
 21
1648.437922087092
 31
0.0
  0
LINE
  5
FD
  8
0
  6
CONTINUOUS
 62
     8
 10
2385.865866972374
 20
1648.451857989264
 30
0.0
 11
2385.865866972374
 21
1648.43792208708
 31
0.0
  0
LINE
  5
FE
  8
0
  6
CONTINUOUS
 62
     8
 10
2381.46586697238
 20
1648.437922087093
 30
0.0
 11
2381.46586697238
 21
1648.451857989277
 31
0.0
  0
LINE
  5
FF
  8
0
  6
CONTINUOUS
 62
     8
 10
2881.465866972374
 20
1648.43792208708
 30
0.0
 11
2881.465866972374
 21
1648.451857989264
 31
0.0
  0
LINE
  5
100
  8
0
  6
CONTINUOUS
 62
     7
 10
2866.66586697238
 20
2638.951635982846
 30
0.0
 11
1900.66586697238
 21
2638.951635982846
 31
0.0
  0
LINE
  5
101
  8
0
  6
CONTINUOUS
 62
     7
 10
2866.66586697238
 20
2917.451635982846
 30
0.0
 11
1900.66586697238
 21
2917.451635982846
 31
0.0
  0
LINE
  5
102
  8
0
  6
CONTINUOUS
 62
     7
 10
2866.66586697238
 20
2637.951635982846
 30
0.0
 11
1900.66586697238
 21
2637.951635982846
 31
0.0
  0
LINE
  5
103
  8
0
  6
CONTINUOUS
 62
     7
 10
1885.665866972379
 20
2637.151635982842
 30
0.0
 11
2381.665866972378
 21
2637.151635982843
 31
0.0
  0
LINE
  5
104
  8
0
  6
CONTINUOUS
 62
     7
 10
2381.665866972378
 20
2622.151635982844
 30
0.0
 11
2381.665866972378
 21
2637.151635982843
 31
0.0
  0
ARC
  5
105
  8
0
  6
CONTINUOUS
 62
     7
 10
2378.665866972378
 20
2622.151635982844
 30
0.0
 40
3.0
 50
270.0000000000008
 51
0.0
  0
LINE
  5
106
  8
0
  6
CONTINUOUS
 62
     7
 10
1888.665866972378
 20
2619.151635982842
 30
0.0
 11
2378.665866972378
 21
2619.151635982844
 31
0.0
  0
ARC
  5
107
  8
0
  6
CONTINUOUS
 62
     7
 10
1888.665866972378
 20
2622.151635982842
 30
0.0
 40
3.0
 50
180.0
 51
270.0000000000008
  0
LINE
  5
108
  8
0
  6
CONTINUOUS
 62
     7
 10
1885.665866972379
 20
2622.151635982842
 30
0.0
 11
1885.665866972379
 21
2637.151635982842
 31
0.0
  0
LINE
  5
109
  8
0
  6
CONTINUOUS
 62
     7
 10
2881.665866972372
 20
2622.151635982844
 30
0.0
 11
2881.665866972372
 21
2637.151635982843
 31
0.0
  0
ARC
  5
10A
  8
0
  6
CONTINUOUS
 62
     7
 10
2878.665866972372
 20
2622.151635982844
 30
0.0
 40
3.0
 50
270.0000000000008
 51
0.0
  0
LINE
  5
10B
  8
0
  6
CONTINUOUS
 62
     7
 10
2388.665866972372
 20
2619.151635982843
 30
0.0
 11
2878.665866972372
 21
2619.151635982844
 31
0.0
  0
ARC
  5
10C
  8
0
  6
CONTINUOUS
 62
     7
 10
2388.665866972372
 20
2622.151635982842
 30
0.0
 40
3.0
 50
180.0
 51
270.0000000000008
  0
LINE
  5
10D
  8
0
  6
CONTINUOUS
 62
     7
 10
2385.665866972372
 20
2622.151635982842
 30
0.0
 11
2385.665866972372
 21
2637.151635982842
 31
0.0
  0
LINE
  5
10E
  8
0
  6
CONTINUOUS
 62
     7
 10
2385.665866972372
 20
2637.151635982842
 30
0.0
 11
2881.665866972372
 21
2637.151635982843
 31
0.0
  0
LINE
  5
10F
  8
0
  6
CONTINUOUS
 62
     7
 10
1886.66586697238
 20
2637.451635982844
 30
0.0
 11
1886.66586697238
 21
2637.251635982844
 31
0.0
  0
LINE
  5
110
  8
0
  6
CONTINUOUS
 62
     7
 10
1886.66586697238
 20
2637.251635982844
 30
0.0
 11
1885.86586697238
 21
2637.251635982844
 31
0.0
  0
LINE
  5
111
  8
0
  6
CONTINUOUS
 62
     7
 10
1885.86586697238
 20
2637.451635982844
 30
0.0
 11
1885.86586697238
 21
2637.251635982844
 31
0.0
  0
LINE
  5
112
  8
0
  6
CONTINUOUS
 62
     7
 10
1885.86586697238
 20
2637.251635982844
 30
0.0
 11
1885.66586697238
 21
2637.251635982844
 31
0.0
  0
ARC
  5
113
  8
0
  6
CONTINUOUS
 62
     7
 10
1885.86586697238
 20
2637.251635982844
 30
0.0
 40
0.2000000000000455
 50
90.0
 51
180.0
  0
LINE
  5
114
  8
0
  6
CONTINUOUS
 62
     7
 10
1885.66586697238
 20
2637.151635982842
 30
0.0
 11
1885.66586697238
 21
2637.251635982844
 31
0.0
  0
LINE
  5
115
  8
0
  6
CONTINUOUS
 62
     7
 10
1886.66586697238
 20
2637.151635982842
 30
0.0
 11
1886.66586697238
 21
2637.251635982844
 31
0.0
  0
LINE
  5
116
  8
0
  6
CONTINUOUS
 62
     7
 10
2386.665866972374
 20
2637.151635982842
 30
0.0
 11
2386.665866972374
 21
2637.251635982844
 31
0.0
  0
LINE
  5
117
  8
0
  6
CONTINUOUS
 62
     7
 10
2386.665866972374
 20
2637.251635982844
 30
0.0
 11
2385.865866972374
 21
2637.251635982844
 31
0.0
  0
LINE
  5
118
  8
0
  6
CONTINUOUS
 62
     7
 10
2385.865866972374
 20
2637.251635982844
 30
0.0
 11
2385.665866972374
 21
2637.251635982844
 31
0.0
  0
ARC
  5
119
  8
0
  6
CONTINUOUS
 62
     7
 10
2385.865866972374
 20
2637.251635982844
 30
0.0
 40
0.1999999999998181
 50
90.0
 51
180.0
  0
LINE
  5
11A
  8
0
  6
CONTINUOUS
 62
     7
 10
2385.865866972374
 20
2637.451635982844
 30
0.0
 11
2385.865866972374
 21
2637.251635982844
 31
0.0
  0
LINE
  5
11B
  8
0
  6
CONTINUOUS
 62
     7
 10
2385.665866972374
 20
2637.151635982842
 30
0.0
 11
2385.665866972374
 21
2637.251635982844
 31
0.0
  0
LINE
  5
11C
  8
0
  6
CONTINUOUS
 62
     7
 10
2385.865866972374
 20
2637.451635982844
 30
0.0
 11
2386.665866972374
 21
2637.451635982844
 31
0.0
  0
LINE
  5
11D
  8
0
  6
CONTINUOUS
 62
     7
 10
2386.665866972374
 20
2637.451635982844
 30
0.0
 11
2386.665866972374
 21
2637.251635982844
 31
0.0
  0
LINE
  5
11E
  8
0
  6
CONTINUOUS
 62
     7
 10
2386.665866972374
 20
2637.451635982844
 30
0.0
 11
2866.665866972376
 21
2637.451635982844
 31
0.0
  0
LINE
  5
11F
  8
0
  6
CONTINUOUS
 62
     7
 10
2880.665866972374
 20
2637.251635982844
 30
0.0
 11
2880.665866972374
 21
2637.451635982844
 31
0.0
  0
LINE
  5
120
  8
0
  6
CONTINUOUS
 62
     7
 10
2880.665866972374
 20
2637.251635982844
 30
0.0
 11
2386.665866972374
 21
2637.251635982844
 31
0.0
  0
LINE
  5
121
  8
0
  6
CONTINUOUS
 62
     7
 10
2880.665866972374
 20
2637.251635982844
 30
0.0
 11
2880.665866972374
 21
2637.151635982843
 31
0.0
  0
LINE
  5
122
  8
0
  6
CONTINUOUS
 62
     7
 10
1900.66586697238
 20
2637.451635982844
 30
0.0
 11
2380.66586697238
 21
2637.451635982844
 31
0.0
  0
LINE
  5
123
  8
0
  6
CONTINUOUS
 62
     7
 10
2380.66586697238
 20
2637.251635982844
 30
0.0
 11
2380.66586697238
 21
2637.451635982844
 31
0.0
  0
LINE
  5
124
  8
0
  6
CONTINUOUS
 62
     7
 10
2380.66586697238
 20
2637.251635982844
 30
0.0
 11
1886.66586697238
 21
2637.251635982844
 31
0.0
  0
LINE
  5
125
  8
0
  6
CONTINUOUS
 62
     7
 10
2380.66586697238
 20
2637.251635982844
 30
0.0
 11
2380.66586697238
 21
2637.151635982842
 31
0.0
  0
LINE
  5
126
  8
0
  6
CONTINUOUS
 62
     7
 10
2381.46586697238
 20
2637.251635982844
 30
0.0
 11
2380.66586697238
 21
2637.251635982844
 31
0.0
  0
LINE
  5
127
  8
0
  6
CONTINUOUS
 62
     7
 10
2381.46586697238
 20
2637.251635982844
 30
0.0
 11
2381.66586697238
 21
2637.251635982844
 31
0.0
  0
LINE
  5
128
  8
0
  6
CONTINUOUS
 62
     7
 10
2381.66586697238
 20
2637.251635982844
 30
0.0
 11
2381.66586697238
 21
2637.151635982842
 31
0.0
  0
ARC
  5
129
  8
0
  6
CONTINUOUS
 62
     7
 10
2381.46586697238
 20
2637.251635982844
 30
0.0
 40
0.2000000000002728
 50
0.0
 51
90.0
  0
LINE
  5
12A
  8
0
  6
CONTINUOUS
 62
     7
 10
2381.46586697238
 20
2637.251635982844
 30
0.0
 11
2381.46586697238
 21
2637.451635982844
 31
0.0
  0
LINE
  5
12B
  8
0
  6
CONTINUOUS
 62
     7
 10
2380.66586697238
 20
2637.451635982844
 30
0.0
 11
2381.46586697238
 21
2637.451635982844
 31
0.0
  0
ARC
  5
12C
  8
0
  6
CONTINUOUS
 62
     7
 10
2881.465866972374
 20
2637.251635982844
 30
0.0
 40
0.1999999999998181
 50
0.0
 51
90.0
  0
LINE
  5
12D
  8
0
  6
CONTINUOUS
 62
     7
 10
2881.465866972374
 20
2637.251635982844
 30
0.0
 11
2881.665866972374
 21
2637.251635982844
 31
0.0
  0
LINE
  5
12E
  8
0
  6
CONTINUOUS
 62
     7
 10
2881.465866972374
 20
2637.251635982844
 30
0.0
 11
2881.465866972374
 21
2637.451635982844
 31
0.0
  0
LINE
  5
12F
  8
0
  6
CONTINUOUS
 62
     7
 10
2881.665866972374
 20
2637.251635982844
 30
0.0
 11
2881.665866972374
 21
2637.151635982843
 31
0.0
  0
LINE
  5
130
  8
0
  6
CONTINUOUS
 62
     7
 10
2881.465866972374
 20
2637.251635982844
 30
0.0
 11
2880.665866972374
 21
2637.251635982844
 31
0.0
  0
LINE
  5
131
  8
0
  6
CONTINUOUS
 62
     7
 10
2866.665866972376
 20
2637.451635982837
 30
0.0
 11
2883.665866972375
 21
2637.451635982843
 31
0.0
  0
LINE
  5
132
  8
0
  6
CONTINUOUS
 62
     7
 10
2883.665866972377
 20
2917.451635982846
 30
0.0
 11
2866.665866972378
 21
2917.451635982846
 31
0.0
  0
LINE
  5
133
  8
0
  6
CONTINUOUS
 62
     7
 10
2883.665866972375
 20
2637.451635982843
 30
0.0
 11
2883.665866972377
 21
2917.451635982846
 31
0.0
  0
LINE
  5
134
  8
0
  6
CONTINUOUS
 62
     7
 10
2866.665866972378
 20
2917.451635982846
 30
0.0
 11
2866.665866972376
 21
2637.451635982837
 31
0.0
  0
LINE
  5
135
  8
0
  6
CONTINUOUS
 62
     7
 10
1883.665866972378
 20
2637.451635982837
 30
0.0
 11
1900.665866972378
 21
2637.451635982843
 31
0.0
  0
LINE
  5
136
  8
0
  6
CONTINUOUS
 62
     7
 10
1900.66586697238
 20
2917.451635982846
 30
0.0
 11
1883.66586697238
 21
2917.451635982846
 31
0.0
  0
LINE
  5
137
  8
0
  6
CONTINUOUS
 62
     7
 10
1900.665866972378
 20
2637.451635982843
 30
0.0
 11
1900.66586697238
 21
2917.451635982846
 31
0.0
  0
LINE
  5
138
  8
0
  6
CONTINUOUS
 62
     7
 10
1883.66586697238
 20
2917.451635982846
 30
0.0
 11
1883.665866972378
 21
2637.451635982837
 31
0.0
  0
LINE
  5
139
  8
0
  6
CONTINUOUS
 62
     8
 10
1885.86586697238
 20
2637.251635982844
 30
0.0
 11
1885.86586697238
 21
2637.151635982842
 31
0.0
  0
LINE
  5
13A
  8
0
  6
CONTINUOUS
 62
     8
 10
2385.865866972374
 20
2637.251635982844
 30
0.0
 11
2385.865866972374
 21
2637.151635982842
 31
0.0
  0
LINE
  5
13B
  8
0
  6
CONTINUOUS
 62
     8
 10
2381.46586697238
 20
2637.151635982842
 30
0.0
 11
2381.46586697238
 21
2637.251635982844
 31
0.0
  0
LINE
  5
13C
  8
0
  6
CONTINUOUS
 62
     8
 10
2881.465866972374
 20
2637.151635982843
 30
0.0
 11
2881.465866972374
 21
2637.251635982844
 31
0.0
  0
LINE
  5
13D
  8
0
  6
CONTINUOUS
 62
     7
 10
3979.689212007297
 20
1648.937922087079
 30
0.0
 11
3979.689212007297
 21
1649.437922087079
 31
0.0
  0
LINE
  5
13E
  8
0
  6
CONTINUOUS
 62
     7
 10
3979.689212007297
 20
1649.437922087079
 30
0.0
 11
3982.689212007297
 21
1649.437922087079
 31
0.0
  0
LINE
  5
13F
  8
0
  6
CONTINUOUS
 62
     7
 10
3982.689212007297
 20
1649.437922087079
 30
0.0
 11
3982.689212007297
 21
1648.937922087079
 31
0.0
  0
LINE
  5
140
  8
0
  6
CONTINUOUS
 62
     7
 10
3982.689212007297
 20
1648.937922087079
 30
0.0
 11
3979.689212007297
 21
1648.937922087079
 31
0.0
  0
LINE
  5
141
  8
0
  6
CONTINUOUS
 62
     7
 10
3983.689212007297
 20
1649.437922087079
 30
0.0
 11
3982.689212007297
 21
1649.437922087079
 31
0.0
  0
LINE
  5
142
  8
0
  6
CONTINUOUS
 62
     7
 10
3983.689212007297
 20
1648.937922087079
 30
0.0
 11
3983.689212007297
 21
1649.437922087079
 31
0.0
  0
LINE
  5
143
  8
0
  6
CONTINUOUS
 62
     7
 10
3983.689212007297
 20
1648.937922087079
 30
0.0
 11
3982.689212007297
 21
1648.937922087079
 31
0.0
  0
LINE
  5
144
  8
0
  6
CONTINUOUS
 62
     7
 10
3979.689212007297
 20
1649.437922087079
 30
0.0
 11
3979.689212007297
 21
1895.43792208708
 31
0.0
  0
LINE
  5
145
  8
0
  6
CONTINUOUS
 62
     7
 10
3979.689212007297
 20
1895.43792208708
 30
0.0
 11
3982.689212007297
 21
1895.43792208708
 31
0.0
  0
LINE
  5
146
  8
0
  6
CONTINUOUS
 62
     7
 10
3982.689212007297
 20
1895.43792208708
 30
0.0
 11
3982.689212007297
 21
1649.437922087079
 31
0.0
  0
LINE
  5
147
  8
0
  6
CONTINUOUS
 62
     7
 10
3983.689212007297
 20
1649.437922087079
 30
0.0
 11
3983.689212007297
 21
1661.93792208708
 31
0.0
  0
LINE
  5
148
  8
0
  6
CONTINUOUS
 62
     7
 10
3982.689212007297
 20
1895.43792208708
 30
0.0
 11
3997.689212007297
 21
1895.43792208708
 31
0.0
  0
LINE
  5
149
  8
0
  6
CONTINUOUS
 62
     7
 10
3997.689212007297
 20
1895.43792208708
 30
0.0
 11
3997.689212007297
 21
1682.43792208708
 31
0.0
  0
LINE
  5
14A
  8
0
  6
CONTINUOUS
 62
     7
 10
3996.189212007297
 20
1682.43792208708
 30
0.0
 11
3997.689212007297
 21
1682.43792208708
 31
0.0
  0
LINE
  5
14B
  8
0
  6
CONTINUOUS
 62
     7
 10
3996.189212007297
 20
1661.937922087079
 30
0.0
 11
3996.189212007297
 21
1682.43792208708
 31
0.0
  0
LINE
  5
14C
  8
0
  6
CONTINUOUS
 62
     7
 10
3983.689212007297
 20
1661.93792208708
 30
0.0
 11
3996.189212007297
 21
1661.937922087079
 31
0.0
  0
LINE
  5
14D
  8
0
  6
CONTINUOUS
 62
     7
 10
3979.689212007297
 20
1895.43792208708
 30
0.0
 11
3979.689212007297
 21
1895.93792208708
 31
0.0
  0
LINE
  5
14E
  8
0
  6
CONTINUOUS
 62
     7
 10
3979.689212007297
 20
1895.93792208708
 30
0.0
 11
3982.689212007297
 21
1895.93792208708
 31
0.0
  0
LINE
  5
14F
  8
0
  6
CONTINUOUS
 62
     7
 10
3982.689212007297
 20
1895.93792208708
 30
0.0
 11
3982.689212007297
 21
1895.43792208708
 31
0.0
  0
LINE
  5
150
  8
0
  6
CONTINUOUS
 62
     7
 10
3982.689212007297
 20
1895.93792208708
 30
0.0
 11
3997.689212007297
 21
1895.93792208708
 31
0.0
  0
LINE
  5
151
  8
0
  6
CONTINUOUS
 62
     7
 10
3997.689212007297
 20
1895.93792208708
 30
0.0
 11
3997.689212007297
 21
1895.43792208708
 31
0.0
  0
LINE
  5
152
  8
0
  6
CONTINUOUS
 62
     7
 10
3984.569348826334
 20
1649.368615530355
 30
0.0
 11
3985.410537444968
 21
1659.041881922168
 31
0.0
  0
LINE
  5
153
  8
0
  6
CONTINUOUS
 62
     7
 10
3985.410537444968
 20
1659.041881922168
 30
0.0
 11
3985.609785500353
 21
1659.024555282987
 31
0.0
  0
LINE
  5
154
  8
0
  6
CONTINUOUS
 62
     7
 10
3985.609785500353
 20
1659.024555282987
 30
0.0
 11
3984.768596881719
 21
1649.351288891174
 31
0.0
  0
LINE
  5
155
  8
0
  6
CONTINUOUS
 62
     7
 10
3984.569348826334
 20
1649.368615530355
 30
0.0
 11
3984.768596881719
 21
1649.351288891174
 31
0.0
  0
LINE
  5
156
  8
0
  6
CONTINUOUS
 62
     7
 10
3996.189212007297
 20
1681.937922087081
 30
0.0
 11
3996.389212007297
 21
1681.737922087081
 31
0.0
  0
LINE
  5
157
  8
0
  6
CONTINUOUS
 62
     7
 10
3996.389212007297
 20
1681.737922087081
 30
0.0
 11
3996.389212007297
 21
1661.737922087081
 31
0.0
  0
LINE
  5
158
  8
0
  6
CONTINUOUS
 62
     7
 10
3996.189212007297
 20
1661.937922087081
 30
0.0
 11
3996.389212007297
 21
1661.737922087081
 31
0.0
  0
ARC
  5
159
  8
0
  6
CONTINUOUS
 62
     7
 10
3983.689173681369
 20
1648.944890038172
 30
0.0
 40
0.300000000000124
 50
223.6216529672419
 51
260.4234115189026
  0
LINE
  5
15A
  8
0
  6
CONTINUOUS
 62
     7
 10
3983.639263927314
 20
1648.649070808827
 30
0.0
 11
3983.605990757944
 21
1648.451857989264
 31
0.0
  0
ARC
  5
15B
  8
0
  6
CONTINUOUS
 62
     7
 10
3983.689173681369
 20
1648.944890038172
 30
0.0
 40
0.5000000000001892
 50
180.798494226098
 51
260.4234115188797
  0
POLYLINE
  5
15C
  8
0
  6
CONTINUOUS
 62
     7
 66
     1
 10
0.0
 20
0.0
 30
0.0
  0
VERTEX
  5
334
  8
0
  6
CONTINUOUS
 62
     7
 10
3983.472000323839
 20
1648.73792208708
 30
0.0
  0
VERTEX
  5
335
  8
0
  6
CONTINUOUS
 62
     7
 10
3983.465648863924
 20
1648.740680019258
 30
0.0
  0
VERTEX
  5
336
  8
0
  6
CONTINUOUS
 62
     7
 10
3983.459320802599
 20
1648.743506459006
 30
0.0
  0
VERTEX
  5
337
  8
0
  6
CONTINUOUS
 62
     7
 10
3983.453018124031
 20
1648.746402246169
 30
0.0
  0
VERTEX
  5
338
  8
0
  6
CONTINUOUS
 62
     7
 10
3983.446741920896
 20
1648.749365403553
 30
0.0
  0
VERTEX
  5
339
  8
0
  6
CONTINUOUS
 62
     7
 10
3983.440493285871
 20
1648.752393953961
 30
0.0
  0
VERTEX
  5
33A
  8
0
  6
CONTINUOUS
 62
     7
 10
3983.434273311633
 20
1648.7554859202
 30
0.0
  0
VERTEX
  5
33B
  8
0
  6
CONTINUOUS
 62
     7
 10
3983.428083090857
 20
1648.758639325075
 30
0.0
  0
VERTEX
  5
33C
  8
0
  6
CONTINUOUS
 62
     7
 10
3983.421923716221
 20
1648.76185219139
 30
0.0
  0
VERTEX
  5
33D
  8
0
  6
CONTINUOUS
 62
     7
 10
3983.415796280402
 20
1648.765122541951
 30
0.0
  0
VERTEX
  5
33E
  8
0
  6
CONTINUOUS
 62
     7
 10
3983.409701876075
 20
1648.768448399562
 30
0.0
  0
VERTEX
  5
33F
  8
0
  6
CONTINUOUS
 62
     7
 10
3983.403641595916
 20
1648.771827787029
 30
0.0
  0
VERTEX
  5
340
  8
0
  6
CONTINUOUS
 62
     7
 10
3983.397616532603
 20
1648.775258727157
 30
0.0
  0
VERTEX
  5
341
  8
0
  6
CONTINUOUS
 62
     7
 10
3983.391627778811
 20
1648.77873924275
 30
0.0
  0
VERTEX
  5
342
  8
0
  6
CONTINUOUS
 62
     7
 10
3983.385676427219
 20
1648.782267356615
 30
0.0
  0
VERTEX
  5
343
  8
0
  6
CONTINUOUS
 62
     7
 10
3983.3797635705
 20
1648.785841091556
 30
0.0
  0
VERTEX
  5
344
  8
0
  6
CONTINUOUS
 62
     7
 10
3983.373890301333
 20
1648.789458470377
 30
0.0
  0
VERTEX
  5
345
  8
0
  6
CONTINUOUS
 62
     7
 10
3983.368057712392
 20
1648.793117515885
 30
0.0
  0
VERTEX
  5
346
  8
0
  6
CONTINUOUS
 62
     7
 10
3983.362266896358
 20
1648.796816250884
 30
0.0
  0
VERTEX
  5
347
  8
0
  6
CONTINUOUS
 62
     7
 10
3983.356518945903
 20
1648.800552698178
 30
0.0
  0
VERTEX
  5
348
  8
0
  6
CONTINUOUS
 62
     7
 10
3983.350814953705
 20
1648.804324880575
 30
0.0
  0
VERTEX
  5
349
  8
0
  6
CONTINUOUS
 62
     7
 10
3983.345156012439
 20
1648.808130820877
 30
0.0
  0
VERTEX
  5
34A
  8
0
  6
CONTINUOUS
 62
     7
 10
3983.339543214784
 20
1648.811968541891
 30
0.0
  0
VERTEX
  5
34B
  8
0
  6
CONTINUOUS
 62
     7
 10
3983.333977653416
 20
1648.815836066421
 30
0.0
  0
VERTEX
  5
34C
  8
0
  6
CONTINUOUS
 62
     7
 10
3983.32846042101
 20
1648.819731417272
 30
0.0
  0
VERTEX
  5
34D
  8
0
  6
CONTINUOUS
 62
     7
 10
3983.322992669991
 20
1648.823652539427
 30
0.0
  0
VERTEX
  5
34E
  8
0
  6
CONTINUOUS
 62
     7
 10
3983.317576611792
 20
1648.827595998466
 30
0.0
  0
VERTEX
  5
34F
  8
0
  6
CONTINUOUS
 62
     7
 10
3983.312215366683
 20
1648.831557176174
 30
0.0
  0
VERTEX
  5
350
  8
0
  6
CONTINUOUS
 62
     7
 10
3983.306912084424
 20
1648.83553141592
 30
0.0
  0
VERTEX
  5
351
  8
0
  6
CONTINUOUS
 62
     7
 10
3983.301669914778
 20
1648.839514061073
 30
0.0
  0
VERTEX
  5
352
  8
0
  6
CONTINUOUS
 62
     7
 10
3983.296492007509
 20
1648.843500455003
 30
0.0
  0
VERTEX
  5
353
  8
0
  6
CONTINUOUS
 62
     7
 10
3983.291381512376
 20
1648.847485941082
 30
0.0
  0
VERTEX
  5
354
  8
0
  6
CONTINUOUS
 62
     7
 10
3983.286341579144
 20
1648.851465862677
 30
0.0
  0
VERTEX
  5
355
  8
0
  6
CONTINUOUS
 62
     7
 10
3983.281375357573
 20
1648.855435563159
 30
0.0
  0
VERTEX
  5
356
  8
0
  6
CONTINUOUS
 62
     7
 10
3983.276485997426
 20
1648.859390385899
 30
0.0
  0
VERTEX
  5
357
  8
0
  6
CONTINUOUS
 62
     7
 10
3983.271676648465
 20
1648.863325674265
 30
0.0
  0
VERTEX
  5
358
  8
0
  6
CONTINUOUS
 62
     7
 10
3983.266950460451
 20
1648.867236771627
 30
0.0
  0
VERTEX
  5
359
  8
0
  6
CONTINUOUS
 62
     7
 10
3983.262310583147
 20
1648.871119021355
 30
0.0
  0
VERTEX
  5
35A
  8
0
  6
CONTINUOUS
 62
     7
 10
3983.257760166316
 20
1648.87496776682
 30
0.0
  0
VERTEX
  5
35B
  8
0
  6
CONTINUOUS
 62
     7
 10
3983.253302360595
 20
1648.878778350077
 30
0.0
  0
VERTEX
  5
35C
  8
0
  6
CONTINUOUS
 62
     7
 10
3983.248940695969
 20
1648.882545545897
 30
0.0
  0
VERTEX
  5
35D
  8
0
  6
CONTINUOUS
 62
     7
 10
3983.244679672394
 20
1648.886262678507
 30
0.0
  0
VERTEX
  5
35E
  8
0
  6
CONTINUOUS
 62
     7
 10
3983.240523942646
 20
1648.889922843598
 30
0.0
  0
VERTEX
  5
35F
  8
0
  6
CONTINUOUS
 62
     7
 10
3983.236478159503
 20
1648.893519136859
 30
0.0
  0
VERTEX
  5
360
  8
0
  6
CONTINUOUS
 62
     7
 10
3983.232546975745
 20
1648.897044653982
 30
0.0
  0
VERTEX
  5
361
  8
0
  6
CONTINUOUS
 62
     7
 10
3983.228735044146
 20
1648.900492490656
 30
0.0
  0
VERTEX
  5
362
  8
0
  6
CONTINUOUS
 62
     7
 10
3983.225047017484
 20
1648.903855742572
 30
0.0
  0
VERTEX
  5
363
  8
0
  6
CONTINUOUS
 62
     7
 10
3983.221487548539
 20
1648.90712750542
 30
0.0
  0
VERTEX
  5
364
  8
0
  6
CONTINUOUS
 62
     7
 10
3983.218061290087
 20
1648.910300874892
 30
0.0
  0
VERTEX
  5
365
  8
0
  6
CONTINUOUS
 62
     7
 10
3983.214772894915
 20
1648.913368946666
 30
0.0
  0
VERTEX
  5
366
  8
0
  6
CONTINUOUS
 62
     7
 10
3983.211629525194
 20
1648.916322264825
 30
0.0
  0
VERTEX
  5
367
  8
0
  6
CONTINUOUS
 62
     7
 10
3983.208647913853
 20
1648.919141641682
 30
0.0
  0
VERTEX
  5
368
  8
0
  6
CONTINUOUS
 62
     7
 10
3983.205847075194
 20
1648.921805569801
 30
0.0
  0
VERTEX
  5
369
  8
0
  6
CONTINUOUS
 62
     7
 10
3983.20324602352
 20
1648.924292541742
 30
0.0
  0
VERTEX
  5
36A
  8
0
  6
CONTINUOUS
 62
     7
 10
3983.200863773132
 20
1648.926581050065
 30
0.0
  0
VERTEX
  5
36B
  8
0
  6
CONTINUOUS
 62
     7
 10
3983.198719338333
 20
1648.928649587333
 30
0.0
  0
VERTEX
  5
36C
  8
0
  6
CONTINUOUS
 62
     7
 10
3983.196831733427
 20
1648.930476646106
 30
0.0
  0
VERTEX
  5
36D
  8
0
  6
CONTINUOUS
 62
     7
 10
3983.195218619973
 20
1648.932042094088
 30
0.0
  0
VERTEX
  5
36E
  8
0
  6
CONTINUOUS
 62
     7
 10
3983.193869606152
 20
1648.933354316915
 30
0.0
  0
VERTEX
  5
36F
  8
0
  6
CONTINUOUS
 62
     7
 10
3983.192747848124
 20
1648.934448590283
 30
0.0
  0
VERTEX
  5
370
  8
0
  6
CONTINUOUS
 62
     7
 10
3983.191815469922
 20
1648.935361239102
 30
0.0
  0
VERTEX
  5
371
  8
0
  6
CONTINUOUS
 62
     7
 10
3983.191034595579
 20
1648.936128588281
 30
0.0
  0
VERTEX
  5
372
  8
0
  6
CONTINUOUS
 62
     7
 10
3983.190367349135
 20
1648.936786962731
 30
0.0
  0
VERTEX
  5
373
  8
0
  6
CONTINUOUS
 62
     7
 10
3983.189775854618
 20
1648.93737268736
 30
0.0
  0
VERTEX
  5
374
  8
0
  6
CONTINUOUS
 62
     7
 10
3983.189222236069
 20
1648.93792208708
 30
0.0
  0
SEQEND
  5
3BA
  8
0
  6
CONTINUOUS
 62
     7
  0
LINE
  5
15D
  8
0
  6
CONTINUOUS
 62
     7
 10
3997.989212007297
 20
1660.93792208708
 30
0.0
 11
3997.789212007297
 21
1660.93792208708
 31
0.0
  0
LINE
  5
15E
  8
0
  6
CONTINUOUS
 62
     7
 10
3997.789212007297
 20
1660.93792208708
 30
0.0
 11
3997.789212007297
 21
1681.737922087081
 31
0.0
  0
LINE
  5
15F
  8
0
  6
CONTINUOUS
 62
     7
 10
3997.989212007297
 20
1681.737922087081
 30
0.0
 11
3997.789212007297
 21
1681.737922087081
 31
0.0
  0
ARC
  5
160
  8
0
  6
CONTINUOUS
 62
     7
 10
3996.989212007297
 20
1660.93792208708
 30
0.0
 40
0.7999999999999545
 50
270.0000000000008
 51
0.0
  0
ARC
  5
161
  8
0
  6
CONTINUOUS
 62
     7
 10
3996.989212007297
 20
1660.93792208708
 30
0.0
 40
1.0
 50
270.0000000000008
 51
0.0
  0
LINE
  5
162
  8
0
  6
CONTINUOUS
 62
     7
 10
3996.989212007297
 20
1660.13792208708
 30
0.0
 11
3996.989212007297
 21
1659.937922087081
 31
0.0
  0
LINE
  5
163
  8
0
  6
CONTINUOUS
 62
     7
 10
3997.789212007297
 20
1681.937922087081
 30
0.0
 11
3997.789212007297
 21
1681.737922087081
 31
0.0
  0
ARC
  5
164
  8
0
  6
CONTINUOUS
 62
     7
 10
3997.789212007297
 20
1681.737922087081
 30
0.0
 40
0.2000000000002728
 50
0.0
 51
90.0
  0
LINE
  5
165
  8
0
  6
CONTINUOUS
 62
     7
 10
3986.606025777278
 20
1660.13792208708
 30
0.0
 11
3996.989212007297
 21
1660.13792208708
 31
0.0
  0
LINE
  5
166
  8
0
  6
CONTINUOUS
 62
     7
 10
3996.989212007297
 20
1659.937922087081
 30
0.0
 11
3986.606025777278
 21
1659.937922087081
 31
0.0
  0
LINE
  5
167
  8
0
  6
CONTINUOUS
 62
     7
 10
3986.606025777278
 20
1660.13792208708
 30
0.0
 11
3986.606025777278
 21
1659.937922087081
 31
0.0
  0
LINE
  5
168
  8
0
  6
CONTINUOUS
 62
     7
 10
3996.389212007297
 20
1661.737922087081
 30
0.0
 11
3983.889212007297
 21
1661.737922087081
 31
0.0
  0
LINE
  5
169
  8
0
  6
CONTINUOUS
 62
     7
 10
3983.689212007297
 20
1661.937922087081
 30
0.0
 11
3983.889212007297
 21
1661.737922087081
 31
0.0
  0
ARC
  5
16A
  8
0
  6
CONTINUOUS
 62
     7
 10
3983.772356604794
 20
1649.43792208708
 30
0.0
 40
0.8000000000002055
 50
260.423411518923
 51
355.0300534053061
  0
ARC
  5
16B
  8
0
  6
CONTINUOUS
 62
     7
 10
3983.772356604794
 20
1649.43792208708
 30
0.0
 40
1.000000000000014
 50
260.4234115189075
 51
355.0300534053093
  0
ARC
  5
16C
  8
0
  6
CONTINUOUS
 62
     7
 10
3986.606025777278
 20
1658.93792208708
 30
0.0
 40
1.200000000000414
 50
90.0
 51
175.0300534053126
  0
LINE
  5
16D
  8
0
  6
CONTINUOUS
 62
     7
 10
3983.889212007297
 20
1648.73792208708
 30
0.0
 11
3983.472000323839
 21
1648.73792208708
 31
0.0
  0
LINE
  5
16E
  8
0
  6
CONTINUOUS
 62
     7
 10
3983.889212007297
 20
1661.737922087081
 30
0.0
 11
3983.889212007297
 21
1648.73792208708
 31
0.0
  0
LINE
  5
16F
  8
0
  6
CONTINUOUS
 62
     7
 10
3997.789212007297
 20
1681.737922087081
 30
0.0
 11
3996.389212007297
 21
1681.737922087081
 31
0.0
  0
LINE
  5
170
  8
0
  6
CONTINUOUS
 62
     7
 10
3996.189212007297
 20
1681.937922087081
 30
0.0
 11
3997.789212007297
 21
1681.937922087081
 31
0.0
  0
ARC
  5
171
  8
0
  6
CONTINUOUS
 62
     7
 10
3986.606025777278
 20
1658.93792208708
 30
0.0
 40
1.000000000000227
 50
90.0
 51
175.0300534053085
  0
LINE
  5
172
  8
0
  6
CONTINUOUS
 62
     7
 10
3983.689212007297
 20
1648.93792208708
 30
0.0
 11
3983.889212007297
 21
1648.73792208708
 31
0.0
  0
LINE
  5
173
  8
0
  6
CONTINUOUS
 62
     7
 10
3998.989212007297
 20
1647.937922087092
 30
0.0
 11
4277.989212007299
 21
1647.937922087092
 31
0.0
  0
LINE
  5
174
  8
0
  6
CONTINUOUS
 62
     7
 10
3998.989212007296
 20
1896.937922087094
 30
0.0
 11
3998.989212007297
 21
1647.937922087092
 31
0.0
  0
LINE
  5
175
  8
0
  6
CONTINUOUS
 62
     7
 10
4277.989212007299
 20
1896.937922087094
 30
0.0
 11
4277.989212007299
 21
1647.937922087092
 31
0.0
  0
LINE
  5
176
  8
0
  6
CONTINUOUS
 62
     7
 10
3998.989212007296
 20
1896.937922087094
 30
0.0
 11
4277.989212007299
 21
1896.937922087094
 31
0.0
  0
LINE
  5
177
  8
0
  6
CONTINUOUS
 62
     7
 10
3997.989212007297
 20
1896.937922087094
 30
0.0
 11
3998.989212007296
 21
1896.937922087094
 31
0.0
  0
LINE
  5
178
  8
0
  6
CONTINUOUS
 62
     7
 10
3997.989212007297
 20
1647.937922087092
 30
0.0
 11
3997.989212007297
 21
1896.937922087094
 31
0.0
  0
LINE
  5
179
  8
0
  6
CONTINUOUS
 62
     7
 10
3997.989212007297
 20
1647.937922087092
 30
0.0
 11
3998.989212007297
 21
1647.937922087092
 31
0.0
  0
LINE
  5
17A
  8
0
  6
CONTINUOUS
 62
     7
 10
4277.989212007299
 20
1897.437922087093
 30
0.0
 11
4277.989212007299
 21
1896.937922087094
 31
0.0
  0
LINE
  5
17B
  8
0
  6
CONTINUOUS
 62
     7
 10
3997.989212007297
 20
1897.437922087092
 30
0.0
 11
3997.989212007297
 21
1896.937922087094
 31
0.0
  0
LINE
  5
17C
  8
0
  6
CONTINUOUS
 62
     7
 10
3997.989212007297
 20
1897.437922087092
 30
0.0
 11
4277.989212007299
 21
1897.437922087093
 31
0.0
  0
LINE
  5
17D
  8
0
  6
CONTINUOUS
 62
     7
 10
3997.989212007297
 20
1896.937922087094
 30
0.0
 11
4277.989212007299
 21
1896.937922087094
 31
0.0
  0
LINE
  5
17E
  8
0
  6
CONTINUOUS
 62
     7
 10
3997.989212007297
 20
1647.437922087093
 30
0.0
 11
3997.989212007297
 21
1647.937922087092
 31
0.0
  0
LINE
  5
17F
  8
0
  6
CONTINUOUS
 62
     7
 10
4277.989212007299
 20
1647.437922087093
 30
0.0
 11
4277.989212007299
 21
1647.937922087092
 31
0.0
  0
LINE
  5
180
  8
0
  6
CONTINUOUS
 62
     7
 10
4277.989212007299
 20
1647.937922087092
 30
0.0
 11
3997.989212007297
 21
1647.937922087092
 31
0.0
  0
LINE
  5
181
  8
0
  6
CONTINUOUS
 62
     7
 10
3997.989212007297
 20
1647.437922087093
 30
0.0
 11
4277.989212007299
 21
1647.437922087093
 31
0.0
  0
LINE
  5
182
  8
0
  6
CONTINUOUS
 62
     7
 10
859.924053263534
 20
1648.937922087092
 30
0.0
 11
859.924053263534
 21
1649.437922087092
 31
0.0
  0
LINE
  5
183
  8
0
  6
CONTINUOUS
 62
     7
 10
858.924053263534
 20
1648.937922087092
 30
0.0
 11
859.924053263534
 21
1648.937922087092
 31
0.0
  0
LINE
  5
184
  8
0
  6
CONTINUOUS
 62
     7
 10
858.924053263534
 20
1648.937922087092
 30
0.0
 11
858.924053263534
 21
1649.437922087092
 31
0.0
  0
LINE
  5
185
  8
0
  6
CONTINUOUS
 62
     7
 10
859.924053263534
 20
1649.437922087092
 30
0.0
 11
858.924053263534
 21
1649.437922087092
 31
0.0
  0
LINE
  5
186
  8
0
  6
CONTINUOUS
 62
     7
 10
862.924053263534
 20
1649.437922087092
 30
0.0
 11
862.924053263534
 21
1648.937922087092
 31
0.0
  0
LINE
  5
187
  8
0
  6
CONTINUOUS
 62
     7
 10
862.924053263534
 20
1648.937922087092
 30
0.0
 11
859.924053263534
 21
1648.937922087092
 31
0.0
  0
LINE
  5
188
  8
0
  6
CONTINUOUS
 62
     7
 10
859.924053263534
 20
1649.437922087092
 30
0.0
 11
862.924053263534
 21
1649.437922087092
 31
0.0
  0
LINE
  5
189
  8
0
  6
CONTINUOUS
 62
     7
 10
859.924053263534
 20
1649.437922087092
 30
0.0
 11
859.9240532635343
 21
1895.437922087092
 31
0.0
  0
LINE
  5
18A
  8
0
  6
CONTINUOUS
 62
     7
 10
862.9240532635343
 20
1895.437922087092
 30
0.0
 11
862.924053263534
 21
1649.437922087092
 31
0.0
  0
LINE
  5
18B
  8
0
  6
CONTINUOUS
 62
     7
 10
859.9240532635343
 20
1895.437922087092
 30
0.0
 11
862.9240532635343
 21
1895.437922087092
 31
0.0
  0
LINE
  5
18C
  8
0
  6
CONTINUOUS
 62
     7
 10
858.924053263534
 20
1649.437922087092
 30
0.0
 11
858.924053263534
 21
1661.937922087092
 31
0.0
  0
LINE
  5
18D
  8
0
  6
CONTINUOUS
 62
     7
 10
858.924053263534
 20
1661.937922087092
 30
0.0
 11
846.4240532635341
 21
1661.937922087092
 31
0.0
  0
LINE
  5
18E
  8
0
  6
CONTINUOUS
 62
     7
 10
846.4240532635341
 20
1661.937922087092
 30
0.0
 11
846.4240532635341
 21
1682.437922087092
 31
0.0
  0
LINE
  5
18F
  8
0
  6
CONTINUOUS
 62
     7
 10
846.4240532635341
 20
1682.437922087092
 30
0.0
 11
844.924053263534
 21
1682.437922087092
 31
0.0
  0
LINE
  5
190
  8
0
  6
CONTINUOUS
 62
     7
 10
844.9240532635336
 20
1895.437922087092
 30
0.0
 11
844.924053263534
 21
1682.437922087092
 31
0.0
  0
LINE
  5
191
  8
0
  6
CONTINUOUS
 62
     7
 10
844.9240532635336
 20
1895.437922087092
 30
0.0
 11
859.9240532635343
 21
1895.437922087092
 31
0.0
  0
LINE
  5
192
  8
0
  6
CONTINUOUS
 62
     7
 10
859.9240532635343
 20
1895.437922087092
 30
0.0
 11
859.9240532635343
 21
1895.937922087092
 31
0.0
  0
LINE
  5
193
  8
0
  6
CONTINUOUS
 62
     7
 10
862.9240532635343
 20
1895.937922087092
 30
0.0
 11
862.9240532635343
 21
1895.437922087092
 31
0.0
  0
LINE
  5
194
  8
0
  6
CONTINUOUS
 62
     7
 10
859.9240532635343
 20
1895.937922087092
 30
0.0
 11
862.9240532635343
 21
1895.937922087092
 31
0.0
  0
LINE
  5
195
  8
0
  6
CONTINUOUS
 62
     7
 10
844.9240532635343
 20
1895.937922087092
 30
0.0
 11
844.9240532635336
 21
1895.437922087092
 31
0.0
  0
LINE
  5
196
  8
0
  6
CONTINUOUS
 62
     7
 10
859.9240532635343
 20
1895.937922087092
 30
0.0
 11
844.9240532635343
 21
1895.937922087092
 31
0.0
  0
LINE
  5
197
  8
0
  6
CONTINUOUS
 62
     7
 10
844.624053263533
 20
1681.737922087093
 30
0.0
 11
844.8240532635332
 21
1681.737922087093
 31
0.0
  0
LINE
  5
198
  8
0
  6
CONTINUOUS
 62
     7
 10
844.8240532635332
 20
1681.737922087093
 30
0.0
 11
844.8240532635332
 21
1660.937922087093
 31
0.0
  0
LINE
  5
199
  8
0
  6
CONTINUOUS
 62
     7
 10
844.624053263533
 20
1660.937922087093
 30
0.0
 11
844.8240532635332
 21
1660.937922087093
 31
0.0
  0
LINE
  5
19A
  8
0
  6
CONTINUOUS
 62
     7
 10
844.8240532635332
 20
1681.937922087092
 30
0.0
 11
844.8240532635332
 21
1681.737922087093
 31
0.0
  0
ARC
  5
19B
  8
0
  6
CONTINUOUS
 62
     7
 10
844.8240532635332
 20
1681.737922087093
 30
0.0
 40
0.2000000000001592
 50
90.0
 51
180.0
  0
ARC
  5
19C
  8
0
  6
CONTINUOUS
 62
     7
 10
845.624053263533
 20
1660.937922087093
 30
0.0
 40
1.000000000000227
 50
180.0
 51
270.0000000000008
  0
ARC
  5
19D
  8
0
  6
CONTINUOUS
 62
     7
 10
845.624053263533
 20
1660.937922087093
 30
0.0
 40
0.8000000000001819
 50
180.0
 51
270.0000000000008
  0
LINE
  5
19E
  8
0
  6
CONTINUOUS
 62
     7
 10
845.624053263533
 20
1659.937922087092
 30
0.0
 11
845.624053263533
 21
1660.137922087092
 31
0.0
  0
LINE
  5
19F
  8
0
  6
CONTINUOUS
 62
     7
 10
858.7240532635332
 20
1648.737922087093
 30
0.0
 11
858.7240532635332
 21
1661.737922087093
 31
0.0
  0
LINE
  5
1A0
  8
0
  6
CONTINUOUS
 62
     7
 10
859.1412649469912
 20
1648.737922087093
 30
0.0
 11
858.7240532635332
 21
1648.737922087093
 31
0.0
  0
ARC
  5
1A1
  8
0
  6
CONTINUOUS
 62
     7
 10
858.9240915894612
 20
1648.944890038184
 30
0.0
 40
0.3000000000001051
 50
279.5765884810776
 51
316.3783470327447
  0
ARC
  5
1A2
  8
0
  6
CONTINUOUS
 62
     7
 10
858.8409086660366
 20
1649.437922087093
 30
0.0
 40
0.8000000000001488
 50
184.9699465946948
 51
279.5765884810544
  0
LINE
  5
1A3
  8
0
  6
CONTINUOUS
 62
     7
 10
857.2027278258622
 20
1659.04188192218
 30
0.0
 11
858.0439164444967
 21
1649.368615530368
 31
0.0
  0
ARC
  5
1A4
  8
0
  6
CONTINUOUS
 62
     7
 10
856.0072394935527
 20
1658.937922087093
 30
0.0
 40
1.199999999999848
 50
4.969946594689779
 51
90.0
  0
LINE
  5
1A5
  8
0
  6
CONTINUOUS
 62
     7
 10
845.624053263533
 20
1660.137922087092
 30
0.0
 11
856.0072394935527
 21
1660.137922087092
 31
0.0
  0
LINE
  5
1A6
  8
0
  6
CONTINUOUS
 62
     7
 10
846.2240532635332
 20
1681.737922087093
 30
0.0
 11
844.8240532635332
 21
1681.737922087093
 31
0.0
  0
LINE
  5
1A7
  8
0
  6
CONTINUOUS
 62
     7
 10
846.2240532635332
 20
1661.737922087093
 30
0.0
 11
846.2240532635332
 21
1681.737922087093
 31
0.0
  0
LINE
  5
1A8
  8
0
  6
CONTINUOUS
 62
     7
 10
858.7240532635332
 20
1661.737922087093
 30
0.0
 11
846.2240532635332
 21
1661.737922087093
 31
0.0
  0
LINE
  5
1A9
  8
0
  6
CONTINUOUS
 62
     7
 10
844.8240532635332
 20
1681.937922087092
 30
0.0
 11
846.4240532635331
 21
1681.937922087092
 31
0.0
  0
LINE
  5
1AA
  8
0
  6
CONTINUOUS
 62
     7
 10
846.4240532635331
 20
1681.937922087092
 30
0.0
 11
846.2240532635332
 21
1681.737922087093
 31
0.0
  0
LINE
  5
1AB
  8
0
  6
CONTINUOUS
 62
     7
 10
856.0072394935527
 20
1659.937922087092
 30
0.0
 11
845.624053263533
 21
1659.937922087092
 31
0.0
  0
LINE
  5
1AC
  8
0
  6
CONTINUOUS
 62
     7
 10
856.0072394935527
 20
1659.937922087092
 30
0.0
 11
856.0072394935527
 21
1660.137922087092
 31
0.0
  0
LINE
  5
1AD
  8
0
  6
CONTINUOUS
 62
     7
 10
846.2240532635332
 20
1661.737922087093
 30
0.0
 11
846.4240532635331
 21
1661.937922087092
 31
0.0
  0
LINE
  5
1AE
  8
0
  6
CONTINUOUS
 62
     7
 10
858.7240532635332
 20
1661.737922087093
 30
0.0
 11
858.9240532635332
 21
1661.937922087092
 31
0.0
  0
ARC
  5
1AF
  8
0
  6
CONTINUOUS
 62
     7
 10
856.0072394935527
 20
1658.937922087093
 30
0.0
 40
0.9999999999998573
 50
4.969946594692034
 51
90.0
  0
LINE
  5
1B0
  8
0
  6
CONTINUOUS
 62
     7
 10
857.0034797704773
 20
1659.024555282999
 30
0.0
 11
857.2027278258622
 21
1659.04188192218
 31
0.0
  0
LINE
  5
1B1
  8
0
  6
CONTINUOUS
 62
     7
 10
858.7240532635332
 20
1648.737922087093
 30
0.0
 11
858.9240532635332
 21
1648.937922087093
 31
0.0
  0
LINE
  5
1B2
  8
0
  6
CONTINUOUS
 62
     7
 10
857.8446683891118
 20
1649.351288891186
 30
0.0
 11
857.0034797704773
 21
1659.024555282999
 31
0.0
  0
LINE
  5
1B3
  8
0
  6
CONTINUOUS
 62
     7
 10
858.0439164444967
 20
1649.368615530368
 30
0.0
 11
857.8446683891118
 21
1649.351288891186
 31
0.0
  0
LINE
  5
1B4
  8
0
  6
CONTINUOUS
 62
     7
 10
858.9740013435162
 20
1648.649070808839
 30
0.0
 11
859.007274512886
 21
1648.451857989276
 31
0.0
  0
ARC
  5
1B5
  8
0
  6
CONTINUOUS
 62
     7
 10
858.8409086660366
 20
1649.437922087093
 30
0.0
 40
1.000000000000125
 50
184.9699465946917
 51
279.5765884810534
  0
POLYLINE
  5
1B6
  8
0
  6
CONTINUOUS
 62
     7
 66
     1
 10
0.0
 20
0.0
 30
0.0
  0
VERTEX
  5
375
  8
0
  6
CONTINUOUS
 62
     7
 10
859.1412649469914
 20
1648.737922087093
 30
0.0
  0
VERTEX
  5
376
  8
0
  6
CONTINUOUS
 62
     7
 10
859.1476164069055
 20
1648.74068001927
 30
0.0
  0
VERTEX
  5
377
  8
0
  6
CONTINUOUS
 62
     7
 10
859.1539444682315
 20
1648.743506459018
 30
0.0
  0
VERTEX
  5
378
  8
0
  6
CONTINUOUS
 62
     7
 10
859.1602471468
 20
1648.746402246181
 30
0.0
  0
VERTEX
  5
379
  8
0
  6
CONTINUOUS
 62
     7
 10
859.1665233499351
 20
1648.749365403565
 30
0.0
  0
VERTEX
  5
37A
  8
0
  6
CONTINUOUS
 62
     7
 10
859.1727719849598
 20
1648.752393953973
 30
0.0
  0
VERTEX
  5
37B
  8
0
  6
CONTINUOUS
 62
     7
 10
859.1789919591982
 20
1648.755485920213
 30
0.0
  0
VERTEX
  5
37C
  8
0
  6
CONTINUOUS
 62
     7
 10
859.1851821799737
 20
1648.758639325088
 30
0.0
  0
VERTEX
  5
37D
  8
0
  6
CONTINUOUS
 62
     7
 10
859.1913415546094
 20
1648.761852191403
 30
0.0
  0
VERTEX
  5
37E
  8
0
  6
CONTINUOUS
 62
     7
 10
859.1974689904291
 20
1648.765122541963
 30
0.0
  0
VERTEX
  5
37F
  8
0
  6
CONTINUOUS
 62
     7
 10
859.2035633947563
 20
1648.768448399574
 30
0.0
  0
VERTEX
  5
380
  8
0
  6
CONTINUOUS
 62
     7
 10
859.209623674915
 20
1648.771827787041
 30
0.0
  0
VERTEX
  5
381
  8
0
  6
CONTINUOUS
 62
     7
 10
859.2156487382282
 20
1648.775258727169
 30
0.0
  0
VERTEX
  5
382
  8
0
  6
CONTINUOUS
 62
     7
 10
859.2216374920193
 20
1648.778739242763
 30
0.0
  0
VERTEX
  5
383
  8
0
  6
CONTINUOUS
 62
     7
 10
859.2275888436127
 20
1648.782267356627
 30
0.0
  0
VERTEX
  5
384
  8
0
  6
CONTINUOUS
 62
     7
 10
859.2335017003312
 20
1648.785841091568
 30
0.0
  0
VERTEX
  5
385
  8
0
  6
CONTINUOUS
 62
     7
 10
859.2393749694984
 20
1648.78945847039
 30
0.0
  0
VERTEX
  5
386
  8
0
  6
CONTINUOUS
 62
     7
 10
859.2452075584378
 20
1648.793117515896
 30
0.0
  0
VERTEX
  5
387
  8
0
  6
CONTINUOUS
 62
     7
 10
859.2509983744735
 20
1648.796816250896
 30
0.0
  0
VERTEX
  5
388
  8
0
  6
CONTINUOUS
 62
     7
 10
859.2567463249285
 20
1648.80055269819
 30
0.0
  0
VERTEX
  5
389
  8
0
  6
CONTINUOUS
 62
     7
 10
859.2624503171266
 20
1648.804324880587
 30
0.0
  0
VERTEX
  5
38A
  8
0
  6
CONTINUOUS
 62
     7
 10
859.2681092583911
 20
1648.808130820889
 30
0.0
  0
VERTEX
  5
38B
  8
0
  6
CONTINUOUS
 62
     7
 10
859.2737220560459
 20
1648.811968541903
 30
0.0
  0
VERTEX
  5
38C
  8
0
  6
CONTINUOUS
 62
     7
 10
859.2792876174143
 20
1648.815836066433
 30
0.0
  0
VERTEX
  5
38D
  8
0
  6
CONTINUOUS
 62
     7
 10
859.2848048498199
 20
1648.819731417285
 30
0.0
  0
VERTEX
  5
38E
  8
0
  6
CONTINUOUS
 62
     7
 10
859.2902726008391
 20
1648.82365253944
 30
0.0
  0
VERTEX
  5
38F
  8
0
  6
CONTINUOUS
 62
     7
 10
859.2956886590383
 20
1648.827595998479
 30
0.0
  0
VERTEX
  5
390
  8
0
  6
CONTINUOUS
 62
     7
 10
859.3010499041484
 20
1648.831557176186
 30
0.0
  0
VERTEX
  5
391
  8
0
  6
CONTINUOUS
 62
     7
 10
859.3063531864069
 20
1648.835531415931
 30
0.0
  0
VERTEX
  5
392
  8
0
  6
CONTINUOUS
 62
     7
 10
859.3115953560523
 20
1648.839514061085
 30
0.0
  0
VERTEX
  5
393
  8
0
  6
CONTINUOUS
 62
     7
 10
859.3167732633218
 20
1648.843500455016
 30
0.0
  0
VERTEX
  5
394
  8
0
  6
CONTINUOUS
 62
     7
 10
859.3218837584536
 20
1648.847485941094
 30
0.0
  0
VERTEX
  5
395
  8
0
  6
CONTINUOUS
 62
     7
 10
859.3269236916863
 20
1648.85146586269
 30
0.0
  0
VERTEX
  5
396
  8
0
  6
CONTINUOUS
 62
     7
 10
859.3318899132568
 20
1648.855435563172
 30
0.0
  0
VERTEX
  5
397
  8
0
  6
CONTINUOUS
 62
     7
 10
859.336779273404
 20
1648.859390385911
 30
0.0
  0
VERTEX
  5
398
  8
0
  6
CONTINUOUS
 62
     7
 10
859.3415886223652
 20
1648.863325674277
 30
0.0
  0
VERTEX
  5
399
  8
0
  6
CONTINUOUS
 62
     7
 10
859.3463148103791
 20
1648.867236771639
 30
0.0
  0
VERTEX
  5
39A
  8
0
  6
CONTINUOUS
 62
     7
 10
859.3509546876828
 20
1648.871119021368
 30
0.0
  0
VERTEX
  5
39B
  8
0
  6
CONTINUOUS
 62
     7
 10
859.3555051045148
 20
1648.874967766832
 30
0.0
  0
VERTEX
  5
39C
  8
0
  6
CONTINUOUS
 62
     7
 10
859.3599629102349
 20
1648.878778350089
 30
0.0
  0
VERTEX
  5
39D
  8
0
  6
CONTINUOUS
 62
     7
 10
859.3643245748611
 20
1648.88254554591
 30
0.0
  0
VERTEX
  5
39E
  8
0
  6
CONTINUOUS
 62
     7
 10
859.3685855984367
 20
1648.88626267852
 30
0.0
  0
VERTEX
  5
39F
  8
0
  6
CONTINUOUS
 62
     7
 10
859.3727413281845
 20
1648.889922843611
 30
0.0
  0
VERTEX
  5
3A0
  8
0
  6
CONTINUOUS
 62
     7
 10
859.376787111327
 20
1648.893519136872
 30
0.0
  0
VERTEX
  5
3A1
  8
0
  6
CONTINUOUS
 62
     7
 10
859.3807182950864
 20
1648.897044653994
 30
0.0
  0
VERTEX
  5
3A2
  8
0
  6
CONTINUOUS
 62
     7
 10
859.3845302266855
 20
1648.900492490669
 30
0.0
  0
VERTEX
  5
3A3
  8
0
  6
CONTINUOUS
 62
     7
 10
859.3882182533464
 20
1648.903855742585
 30
0.0
  0
VERTEX
  5
3A4
  8
0
  6
CONTINUOUS
 62
     7
 10
859.3917777222916
 20
1648.907127505433
 30
0.0
  0
VERTEX
  5
3A5
  8
0
  6
CONTINUOUS
 62
     7
 10
859.3952039807439
 20
1648.910300874904
 30
0.0
  0
VERTEX
  5
3A6
  8
0
  6
CONTINUOUS
 62
     7
 10
859.3984923759156
 20
1648.913368946678
 30
0.0
  0
VERTEX
  5
3A7
  8
0
  6
CONTINUOUS
 62
     7
 10
859.4016357456367
 20
1648.916322264837
 30
0.0
  0
VERTEX
  5
3A8
  8
0
  6
CONTINUOUS
 62
     7
 10
859.4046173569777
 20
1648.919141641695
 30
0.0
  0
VERTEX
  5
3A9
  8
0
  6
CONTINUOUS
 62
     7
 10
859.4074181956365
 20
1648.921805569814
 30
0.0
  0
VERTEX
  5
3AA
  8
0
  6
CONTINUOUS
 62
     7
 10
859.410019247311
 20
1648.924292541754
 30
0.0
  0
VERTEX
  5
3AB
  8
0
  6
CONTINUOUS
 62
     7
 10
859.4124014976985
 20
1648.926581050077
 30
0.0
  0
VERTEX
  5
3AC
  8
0
  6
CONTINUOUS
 62
     7
 10
859.4145459324967
 20
1648.928649587345
 30
0.0
  0
VERTEX
  5
3AD
  8
0
  6
CONTINUOUS
 62
     7
 10
859.4164335374038
 20
1648.930476646119
 30
0.0
  0
VERTEX
  5
3AE
  8
0
  6
CONTINUOUS
 62
     7
 10
859.4180466508575
 20
1648.9320420941
 30
0.0
  0
VERTEX
  5
3AF
  8
0
  6
CONTINUOUS
 62
     7
 10
859.4193956646777
 20
1648.933354316928
 30
0.0
  0
VERTEX
  5
3B0
  8
0
  6
CONTINUOUS
 62
     7
 10
859.4205174227062
 20
1648.934448590295
 30
0.0
  0
VERTEX
  5
3B1
  8
0
  6
CONTINUOUS
 62
     7
 10
859.4214498009088
 20
1648.935361239114
 30
0.0
  0
VERTEX
  5
3B2
  8
0
  6
CONTINUOUS
 62
     7
 10
859.4222306752501
 20
1648.936128588293
 30
0.0
  0
VERTEX
  5
3B3
  8
0
  6
CONTINUOUS
 62
     7
 10
859.4228979216957
 20
1648.936786962742
 30
0.0
  0
VERTEX
  5
3B4
  8
0
  6
CONTINUOUS
 62
     7
 10
859.4234894162114
 20
1648.937372687373
 30
0.0
  0
VERTEX
  5
3B5
  8
0
  6
CONTINUOUS
 62
     7
 10
859.4240430347613
 20
1648.937922087093
 30
0.0
  0
SEQEND
  5
3BB
  8
0
  6
CONTINUOUS
 62
     7
  0
ARC
  5
1B7
  8
0
  6
CONTINUOUS
 62
     7
 10
858.9240915894612
 20
1648.944890038184
 30
0.0
 40
0.5000000000000815
 50
279.5765884810662
 51
359.2015057739035
  0
LINE
  5
1B8
  8
0
  6
CONTINUOUS
 62
     7
 10
843.6240532635398
 20
1896.937922087094
 30
0.0
 11
843.6240532635328
 21
1647.937922087092
 31
0.0
  0
LINE
  5
1B9
  8
0
  6
CONTINUOUS
 62
     7
 10
564.624053263531
 20
1647.937922087092
 30
0.0
 11
843.6240532635328
 21
1647.937922087092
 31
0.0
  0
LINE
  5
1BA
  8
0
  6
CONTINUOUS
 62
     7
 10
564.624053263531
 20
1896.937922087094
 30
0.0
 11
564.624053263531
 21
1647.937922087092
 31
0.0
  0
LINE
  5
1BB
  8
0
  6
CONTINUOUS
 62
     7
 10
564.624053263531
 20
1896.937922087094
 30
0.0
 11
843.6240532635398
 21
1896.937922087094
 31
0.0
  0
LINE
  5
1BC
  8
0
  6
CONTINUOUS
 62
     7
 10
844.6240532635328
 20
1647.937922087092
 30
0.0
 11
843.6240532635328
 21
1647.937922087092
 31
0.0
  0
LINE
  5
1BD
  8
0
  6
CONTINUOUS
 62
     7
 10
844.6240532635398
 20
1896.937922087094
 30
0.0
 11
844.6240532635328
 21
1647.937922087092
 31
0.0
  0
LINE
  5
1BE
  8
0
  6
CONTINUOUS
 62
     7
 10
844.6240532635398
 20
1896.937922087094
 30
0.0
 11
843.6240532635398
 21
1896.937922087094
 31
0.0
  0
LINE
  5
1BF
  8
0
  6
CONTINUOUS
 62
     7
 10
844.6240532635398
 20
1897.437922087092
 30
0.0
 11
844.6240532635398
 21
1896.937922087094
 31
0.0
  0
LINE
  5
1C0
  8
0
  6
CONTINUOUS
 62
     7
 10
564.624053263531
 20
1896.937922087094
 30
0.0
 11
844.6240532635398
 21
1896.937922087094
 31
0.0
  0
LINE
  5
1C1
  8
0
  6
CONTINUOUS
 62
     7
 10
564.624053263531
 20
1897.437922087093
 30
0.0
 11
564.624053263531
 21
1896.937922087094
 31
0.0
  0
LINE
  5
1C2
  8
0
  6
CONTINUOUS
 62
     7
 10
564.624053263531
 20
1897.437922087093
 30
0.0
 11
844.6240532635398
 21
1897.437922087092
 31
0.0
  0
LINE
  5
1C3
  8
0
  6
CONTINUOUS
 62
     7
 10
844.6240532635328
 20
1647.937922087092
 30
0.0
 11
564.624053263531
 21
1647.937922087092
 31
0.0
  0
LINE
  5
1C4
  8
0
  6
CONTINUOUS
 62
     7
 10
844.6240532635328
 20
1647.437922087093
 30
0.0
 11
844.6240532635328
 21
1647.937922087092
 31
0.0
  0
LINE
  5
1C5
  8
0
  6
CONTINUOUS
 62
     7
 10
564.624053263531
 20
1647.437922087093
 30
0.0
 11
844.6240532635328
 21
1647.437922087093
 31
0.0
  0
LINE
  5
1C6
  8
0
  6
CONTINUOUS
 62
     7
 10
564.624053263531
 20
1647.437922087093
 30
0.0
 11
564.624053263531
 21
1647.937922087092
 31
0.0
  0
LINE
  5
1C7
  8
0
  6
CONTINUOUS
 62
     7
 10
1900.665866972374
 20
942.5481160507878
 30
0.0
 11
2866.665866972374
 21
942.5481160507878
 31
0.0
  0
LINE
  5
1C8
  8
0
  6
CONTINUOUS
 62
     7
 10
2866.665866972374
 20
940.0481160507878
 30
0.0
 11
2866.665866972374
 21
942.5481160507878
 31
0.0
  0
LINE
  5
1C9
  8
0
  6
CONTINUOUS
 62
     7
 10
1900.665866972374
 20
940.0481160507878
 30
0.0
 11
2866.665866972374
 21
940.0481160507878
 31
0.0
  0
LINE
  5
1CA
  8
0
  6
CONTINUOUS
 62
     7
 10
1900.665866972374
 20
940.0481160507878
 30
0.0
 11
1900.665866972374
 21
942.5481160507878
 31
0.0
  0
LINE
  5
1CB
  8
0
  6
CONTINUOUS
 62
     7
 10
1900.665866972374
 20
957.0481160507877
 30
0.0
 11
2866.665866972374
 21
957.0481160507877
 31
0.0
  0
LINE
  5
1CC
  8
0
  6
CONTINUOUS
 62
     7
 10
2866.665866972374
 20
954.5481160507877
 30
0.0
 11
2866.665866972374
 21
957.0481160507877
 31
0.0
  0
LINE
  5
1CD
  8
0
  6
CONTINUOUS
 62
     7
 10
1900.665866972374
 20
954.5481160507877
 30
0.0
 11
2866.665866972374
 21
954.5481160507877
 31
0.0
  0
LINE
  5
1CE
  8
0
  6
CONTINUOUS
 62
     7
 10
1900.665866972374
 20
954.5481160507877
 30
0.0
 11
1900.665866972374
 21
957.0481160507877
 31
0.0
  0
LINE
  5
1CF
  8
0
  6
CONTINUOUS
 62
     7
 10
2866.665866972374
 20
954.5481160507877
 30
0.0
 11
2866.665866972374
 21
942.5481160507878
 31
0.0
  0
LINE
  5
1D0
  8
0
  6
CONTINUOUS
 62
     7
 10
1900.665866972374
 20
954.5481160507877
 30
0.0
 11
1900.665866972374
 21
942.5481160507878
 31
0.0
  0
ARC
  5
1D1
  8
0
  6
CONTINUOUS
 62
     7
 10
2848.165866972374
 20
867.0481160507877
 30
0.0
 40
6.000000000000455
 50
180.0
 51
0.0000000000005428
  0
LINE
  5
1D2
  8
0
  6
CONTINUOUS
 62
     7
 10
2854.165866972374
 20
909.0481160507877
 30
0.0
 11
2854.165866972374
 21
867.0481160507877
 31
0.0
  0
ARC
  5
1D3
  8
0
  6
CONTINUOUS
 62
     7
 10
2848.165866972374
 20
909.0481160507877
 30
0.0
 40
6.000000000000455
 50
0.0
 51
180.0
  0
LINE
  5
1D4
  8
0
  6
CONTINUOUS
 62
     7
 10
2842.165866972374
 20
867.0481160507877
 30
0.0
 11
2842.165866972374
 21
909.0481160507877
 31
0.0
  0
ARC
  5
1D5
  8
0
  6
CONTINUOUS
 62
     7
 10
1919.165866972374
 20
867.0481160507877
 30
0.0
 40
6.000000000000227
 50
180.0
 51
0.0000000000005428
  0
LINE
  5
1D6
  8
0
  6
CONTINUOUS
 62
     7
 10
1925.165866972374
 20
909.0481160507877
 30
0.0
 11
1925.165866972374
 21
867.0481160507877
 31
0.0
  0
ARC
  5
1D7
  8
0
  6
CONTINUOUS
 62
     7
 10
1919.165866972374
 20
909.0481160507877
 30
0.0
 40
6.000000000000227
 50
0.0
 51
180.0
  0
LINE
  5
1D8
  8
0
  6
CONTINUOUS
 62
     7
 10
1913.165866972374
 20
867.0481160507877
 30
0.0
 11
1913.165866972374
 21
909.0481160507877
 31
0.0
  0
LINE
  5
1D9
  8
0
  6
CONTINUOUS
 62
     7
 10
2866.665866972374
 20
722.5481160507876
 30
0.0
 11
2866.665866972374
 21
710.5481160507878
 31
0.0
  0
LINE
  5
1DA
  8
0
  6
CONTINUOUS
 62
     7
 10
1900.665866972374
 20
710.5481160507878
 30
0.0
 11
2866.665866972374
 21
710.5481160507878
 31
0.0
  0
LINE
  5
1DB
  8
0
  6
CONTINUOUS
 62
     7
 10
1900.665866972374
 20
722.5481160507876
 30
0.0
 11
1900.665866972374
 21
710.5481160507878
 31
0.0
  0
LINE
  5
1DC
  8
0
  6
CONTINUOUS
 62
     7
 10
1900.665866972374
 20
722.5481160507876
 30
0.0
 11
2866.665866972374
 21
722.5481160507876
 31
0.0
  0
LINE
  5
1DD
  8
0
  6
CONTINUOUS
 62
     7
 10
1900.665866972374
 20
725.0481160507878
 30
0.0
 11
2866.665866972374
 21
725.0481160507878
 31
0.0
  0
LINE
  5
1DE
  8
0
  6
CONTINUOUS
 62
     7
 10
2866.665866972374
 20
722.5481160507877
 30
0.0
 11
2866.665866972374
 21
725.0481160507878
 31
0.0
  0
LINE
  5
1DF
  8
0
  6
CONTINUOUS
 62
     7
 10
1900.665866972374
 20
722.5481160507877
 30
0.0
 11
1900.665866972374
 21
725.0481160507878
 31
0.0
  0
LINE
  5
1E0
  8
0
  6
CONTINUOUS
 62
     7
 10
2866.665866972374
 20
708.0481160507878
 30
0.0
 11
2866.665866972374
 21
710.5481160507878
 31
0.0
  0
LINE
  5
1E1
  8
0
  6
CONTINUOUS
 62
     7
 10
1900.665866972374
 20
708.0481160507878
 30
0.0
 11
2866.665866972374
 21
708.0481160507878
 31
0.0
  0
LINE
  5
1E2
  8
0
  6
CONTINUOUS
 62
     7
 10
1900.665866972374
 20
708.0481160507878
 30
0.0
 11
1900.665866972374
 21
710.5481160507878
 31
0.0
  0
LINE
  5
1E3
  8
0
  6
CONTINUOUS
 62
     7
 10
1886.165866972377
 20
957.0481160507887
 30
0.0
 11
1886.165866972377
 21
708.0481160507877
 31
0.0
  0
LINE
  5
1E4
  8
0
  6
CONTINUOUS
 62
     7
 10
1883.665866972377
 20
708.0481160507877
 30
0.0
 11
1886.165866972377
 21
708.0481160507877
 31
0.0
  0
LINE
  5
1E5
  8
0
  6
CONTINUOUS
 62
     7
 10
1883.665866972377
 20
957.0481160507887
 30
0.0
 11
1883.665866972377
 21
708.0481160507877
 31
0.0
  0
LINE
  5
1E6
  8
0
  6
CONTINUOUS
 62
     7
 10
1883.665866972377
 20
957.0481160507887
 30
0.0
 11
1886.165866972377
 21
957.0481160507887
 31
0.0
  0
LINE
  5
1E7
  8
0
  6
CONTINUOUS
 62
     7
 10
2869.165866972374
 20
957.0481160507887
 30
0.0
 11
2869.165866972374
 21
708.0481160507877
 31
0.0
  0
LINE
  5
1E8
  8
0
  6
CONTINUOUS
 62
     7
 10
2866.665866972374
 20
708.0481160507877
 30
0.0
 11
2869.165866972374
 21
708.0481160507877
 31
0.0
  0
LINE
  5
1E9
  8
0
  6
CONTINUOUS
 62
     7
 10
2866.665866972374
 20
957.0481160507887
 30
0.0
 11
2866.665866972374
 21
708.0481160507877
 31
0.0
  0
LINE
  5
1EA
  8
0
  6
CONTINUOUS
 62
     7
 10
2866.665866972374
 20
957.0481160507887
 30
0.0
 11
2869.165866972374
 21
957.0481160507887
 31
0.0
  0
LINE
  5
1EB
  8
0
  6
CONTINUOUS
 62
     7
 10
1900.665866972377
 20
957.0481160507887
 30
0.0
 11
1900.665866972377
 21
708.0481160507877
 31
0.0
  0
LINE
  5
1EC
  8
0
  6
CONTINUOUS
 62
     7
 10
1898.165866972377
 20
708.0481160507877
 30
0.0
 11
1900.665866972377
 21
708.0481160507877
 31
0.0
  0
LINE
  5
1ED
  8
0
  6
CONTINUOUS
 62
     7
 10
1898.165866972377
 20
957.0481160507887
 30
0.0
 11
1898.165866972377
 21
708.0481160507877
 31
0.0
  0
LINE
  5
1EE
  8
0
  6
CONTINUOUS
 62
     7
 10
1898.165866972377
 20
957.0481160507887
 30
0.0
 11
1900.665866972377
 21
957.0481160507887
 31
0.0
  0
LINE
  5
1EF
  8
0
  6
CONTINUOUS
 62
     7
 10
2883.665866972374
 20
957.0481160507887
 30
0.0
 11
2883.665866972374
 21
708.0481160507877
 31
0.0
  0
LINE
  5
1F0
  8
0
  6
CONTINUOUS
 62
     7
 10
2881.165866972374
 20
708.0481160507877
 30
0.0
 11
2883.665866972374
 21
708.0481160507877
 31
0.0
  0
LINE
  5
1F1
  8
0
  6
CONTINUOUS
 62
     7
 10
2881.165866972374
 20
957.0481160507887
 30
0.0
 11
2881.165866972374
 21
708.0481160507877
 31
0.0
  0
LINE
  5
1F2
  8
0
  6
CONTINUOUS
 62
     7
 10
2881.165866972374
 20
957.0481160507887
 30
0.0
 11
2883.665866972374
 21
957.0481160507887
 31
0.0
  0
LINE
  5
1F3
  8
0
  6
CONTINUOUS
 62
     7
 10
1898.165866972377
 20
708.0481160507877
 30
0.0
 11
1886.165866972377
 21
708.0481160507877
 31
0.0
  0
LINE
  5
1F4
  8
0
  6
CONTINUOUS
 62
     7
 10
1898.165866972377
 20
957.0481160507887
 30
0.0
 11
1886.165866972377
 21
957.0481160507887
 31
0.0
  0
LINE
  5
1F5
  8
0
  6
CONTINUOUS
 62
     7
 10
2881.165866972374
 20
708.0481160507877
 30
0.0
 11
2869.165866972374
 21
708.0481160507877
 31
0.0
  0
LINE
  5
1F6
  8
0
  6
CONTINUOUS
 62
     7
 10
2881.165866972374
 20
957.0481160507887
 30
0.0
 11
2869.165866972374
 21
957.0481160507887
 31
0.0
  0
LINE
  5
1F7
  8
0
  6
CONTINUOUS
 62
     7
 10
1900.665866972377
 20
957.5481160507879
 30
0.0
 11
1900.665866972377
 21
957.0481160507887
 31
0.0
  0
LINE
  5
1F8
  8
0
  6
CONTINUOUS
 62
     7
 10
1883.665866972377
 20
957.0481160507887
 30
0.0
 11
1900.665866972377
 21
957.0481160507887
 31
0.0
  0
LINE
  5
1F9
  8
0
  6
CONTINUOUS
 62
     7
 10
1883.665866972377
 20
957.5481160507879
 30
0.0
 11
1883.665866972377
 21
957.0481160507887
 31
0.0
  0
LINE
  5
1FA
  8
0
  6
CONTINUOUS
 62
     7
 10
1883.665866972377
 20
957.5481160507879
 30
0.0
 11
1900.665866972377
 21
957.5481160507879
 31
0.0
  0
LINE
  5
1FB
  8
0
  6
CONTINUOUS
 62
     7
 10
2883.665866972374
 20
957.5481160507879
 30
0.0
 11
2883.665866972374
 21
957.0481160507887
 31
0.0
  0
LINE
  5
1FC
  8
0
  6
CONTINUOUS
 62
     7
 10
2866.665866972374
 20
957.0481160507887
 30
0.0
 11
2883.665866972374
 21
957.0481160507887
 31
0.0
  0
LINE
  5
1FD
  8
0
  6
CONTINUOUS
 62
     7
 10
2866.665866972374
 20
957.5481160507879
 30
0.0
 11
2866.665866972374
 21
957.0481160507887
 31
0.0
  0
LINE
  5
1FE
  8
0
  6
CONTINUOUS
 62
     7
 10
2866.665866972374
 20
957.5481160507879
 30
0.0
 11
2883.665866972374
 21
957.5481160507879
 31
0.0
  0
LINE
  5
1FF
  8
0
  6
CONTINUOUS
 62
     7
 10
1900.665866972377
 20
708.0481160507877
 30
0.0
 11
1883.665866972377
 21
708.0481160507877
 31
0.0
  0
LINE
  5
200
  8
0
  6
CONTINUOUS
 62
     7
 10
1900.665866972377
 20
707.5481160507877
 30
0.0
 11
1900.665866972377
 21
708.0481160507877
 31
0.0
  0
LINE
  5
201
  8
0
  6
CONTINUOUS
 62
     7
 10
1883.665866972377
 20
707.5481160507877
 30
0.0
 11
1883.665866972377
 21
708.0481160507877
 31
0.0
  0
LINE
  5
202
  8
0
  6
CONTINUOUS
 62
     7
 10
1883.665866972377
 20
707.5481160507877
 30
0.0
 11
1900.665866972377
 21
707.5481160507877
 31
0.0
  0
LINE
  5
203
  8
0
  6
CONTINUOUS
 62
     7
 10
2883.665866972374
 20
708.0481160507877
 30
0.0
 11
2866.665866972374
 21
708.0481160507877
 31
0.0
  0
LINE
  5
204
  8
0
  6
CONTINUOUS
 62
     7
 10
2883.665866972374
 20
707.5481160507877
 30
0.0
 11
2883.665866972374
 21
708.0481160507877
 31
0.0
  0
LINE
  5
205
  8
0
  6
CONTINUOUS
 62
     7
 10
2866.665866972374
 20
707.5481160507877
 30
0.0
 11
2883.665866972374
 21
707.5481160507877
 31
0.0
  0
LINE
  5
206
  8
0
  6
CONTINUOUS
 62
     7
 10
2866.665866972374
 20
707.5481160507877
 30
0.0
 11
2866.665866972374
 21
708.0481160507877
 31
0.0
  0
ENDSEC
  0
EOF
