  0
SECTION
  2
HEADER
  9
$ACADVER
  1
AC1006
  9
$DWGCODEPAGE
  3
dos932
  9
$INSBASE
 10
0.0
 20
0.0
 30
0.0
  9
$EXTMIN
 10
0.0
 20
0.0
  9
$EXTMAX
 10
5000.0
 20
3500.0
  9
$LIMMIN
 10
0.0
 20
0.0
  9
$LIMMAX
 10
5000.0
 20
3500.0
  9
$ORTHOMODE
 70
     0
  9
$REGENMODE
 70
     1
  9
$FILLMODE
 70
     1
  9
$QTEXTMODE
 70
     0
  9
$MIRRTEXT
 70
     1
  9
$DRAGMODE
 70
     2
  9
$LTSCALE
 40
1.0
  9
$OSMODE
 70
    37
  9
$ATTMODE
 70
     1
  9
$TEXTSIZE
 40
3.5
  9
$TRACEWID
 40
1.0
  9
$TEXTSTYLE
  7
STANDARD
  9
$CLAYER
  8
0
  9
$CELTYPE
  6
BYLAYER
  9
$CECOLOR
 62
   256
  9
$DIMSCALE
 40
1.0
  9
$DIMASZ
 40
3.302
  9
$DIMEXO
 40
1.0
  9
$DIMDLI
 40
3.75
  9
$DIMRND
 40
0.0
  9
$DIMDLE
 40
0.0
  9
$DIMEXE
 40
1.0
  9
$DIMTP
 40
0.0
  9
$DIMTM
 40
0.0
  9
$DIMTXT
 40
3.5
  9
$DIMCEN
 40
2.5
  9
$DIMTSZ
 40
0.0
  9
$DIMTOL
 70
     0
  9
$DIMLIM
 70
     0
  9
$DIMTIH
 70
     1
  9
$DIMTOH
 70
     1
  9
$DIMSE1
 70
     0
  9
$DIMSE2
 70
     0
  9
$DIMTAD
 70
     1
  9
$DIMZIN
 70
     0
  9
$DIMBLK
  1

  9
$DIMASO
 70
     1
  9
$DIMSHO
 70
     1
  9
$DIMPOST
  1

  9
$DIMAPOST
  1

  9
$DIMALT
 70
     0
  9
$DIMALTD
 70
     3
  9
$DIMALTF
 40
0.0393700787401575
  9
$DIMLFAC
 40
1.0
  9
$DIMTOFL
 70
     1
  9
$DIMTVP
 40
0.0
  9
$DIMTIX
 70
     0
  9
$DIMSOXD
 70
     0
  9
$DIMSAH
 70
     0
  9
$DIMBLK1
  1

  9
$DIMBLK2
  1

  9
$LUNITS
 70
     2
  9
$LUPREC
 70
     3
  9
$SKETCHINC
 40
1.0
  9
$FILLETRAD
 40
10.0
  9
$AUNITS
 70
     0
  9
$AUPREC
 70
     2
  9
$MENU
  1
.
  9
$ELEVATION
 40
0.0
  9
$THICKNESS
 40
0.0
  9
$LIMCHECK
 70
     0
  9
$CHAMFERA
 40
0.0
  9
$CHAMFERB
 40
0.0
  9
$SKPOLY
 70
     0
  9
$TDCREATE
 40
2459868.384726065
  9
$TDUPDATE
 40
2460139.352361597
  9
$TDINDWG
 40
0.0000000116
  9
$TDUSRTIMER
 40
0.0000000116
  9
$USRTIMER
 70
     1
  9
$ANGBASE
 50
0.0
  9
$ANGDIR
 70
     0
  9
$PDMODE
 70
     0
  9
$PDSIZE
 40
-1.0
  9
$PLINEWID
 40
0.0
  9
$COORDS
 70
     1
  9
$SPLFRAME
 70
     0
  9
$SPLINETYPE
 70
     6
  9
$SPLINESEGS
 70
     8
  9
$ATTDIA
 70
     0
  9
$ATTREQ
 70
     1
  9
$HANDLING
 70
     1
  9
$HANDSEED
  5
8C0
  9
$SURFTAB1
 70
     6
  9
$SURFTAB2
 70
     6
  9
$SURFTYPE
 70
     6
  9
$SURFU
 70
     6
  9
$SURFV
 70
     6
  9
$UCSNAME
  2

  9
$UCSORG
 10
0.0
 20
0.0
 30
0.0
  9
$UCSXDIR
 10
1.0
 20
0.0
 30
0.0
  9
$UCSYDIR
 10
0.0
 20
1.0
 30
0.0
  9
$USERI1
 70
     0
  9
$USERI2
 70
     0
  9
$USERI3
 70
     0
  9
$USERI4
 70
     0
  9
$USERI5
 70
     0
  9
$USERR1
 40
0.0
  9
$USERR2
 40
0.0
  9
$USERR3
 40
0.0
  9
$USERR4
 40
0.0
  9
$USERR5
 40
0.0
  9
$WORLDVIEW
 70
     1
  0
ENDSEC
  0
SECTION
  2
TABLES
  0
TABLE
  2
VPORT
 70
     1
  0
VPORT
  2
*ACTIVE
 70
     0
 10
0.0
 20
0.0
 11
1.0
 21
1.0
 12
2500.0
 22
1750.0
 13
0.0
 23
0.0
 14
10.0
 24
10.0
 15
10.0
 25
10.0
 16
0.0
 26
0.0
 36
1.0
 17
0.0
 27
0.0
 37
0.0
 40
3500.0
 41
1.428571428571429
 42
50.0
 43
0.0
 44
0.0
 50
0.0
 51
0.0
 71
     0
 72
  2000
 73
     1
 74
     3
 75
     0
 76
     0
 77
     0
 78
     0
  0
ENDTAB
  0
TABLE
  2
LTYPE
 70
     6
  0
LTYPE
  2
CONTINUOUS
 70
     0
  3
Solid line
 72
    65
 73
     0
 40
0.0
  0
LTYPE
  2
HIDDEN
 70
     0
  3
Hidden __ __ __ __ __ __ __ __ __ __ __ __ __ __
 72
    65
 73
     2
 40
1.905
 49
1.27
 49
-0.635
  0
LTYPE
  2
PHANTOM
 70
     0
  3
Phantom ______  __  __  ______  __  __  ______
 72
    65
 73
     6
 40
12.7
 49
6.35
 49
-1.27
 49
1.27
 49
-1.27
 49
1.27
 49
-1.27
  0
LTYPE
  2
CENTER
 70
     0
  3
Center ____ _ ____ _ ____ _ ____ _ ____ _ ____
 72
    65
 73
     4
 40
10.16
 49
6.35
 49
-1.27
 49
1.27
 49
-1.27
  0
LTYPE
  2
CENTERX2
 70
     0
  3
Center (2x) ________  __  ________  __  _____
 72
    65
 73
     4
 40
20.32
 49
12.7
 49
-2.54
 49
2.54
 49
-2.54
  0
LTYPE
  2
DOT2
 70
     0
  3
Dot (.5x) ........................................
 72
    65
 73
     2
 40
0.635
 49
0.0
 49
-0.635
  0
ENDTAB
  0
TABLE
  2
LAYER
 70
     3
  0
LAYER
  2
0
 70
     0
 62
     7
  6
CONTINUOUS
  0
LAYER
  2
SLD-0
 70
     0
 62
   179
  6
CONTINUOUS
  0
LAYER
  2
寸法
 70
     0
 62
   179
  6
CONTINUOUS
  0
ENDTAB
  0
TABLE
  2
STYLE
 70
     2
  0
STYLE
  2
STANDARD
 70
     0
 40
0.0
 41
1.0
 50
0.0
 71
     0
 42
3.5
  3
txt
  4
bigfont
  0
STYLE
  2
SLDTEXTSTYLE0
 70
     0
 40
0.0
 41
0.75
 50
0.0
 71
     0
 42
3.5
  3
TXT
  4
bigfont
  0
ENDTAB
  0
TABLE
  2
VIEW
 70
     0
  0
ENDTAB
  0
TABLE
  2
UCS
 70
     0
  0
ENDTAB
  0
ENDSEC
  0
SECTION
  2
BLOCKS
  0
ENDSEC
  0
SECTION
  2
ENTITIES
  0
LINE
  5
75
  8
0
  6
CONTINUOUS
 62
     7
 10
4801.663086450988
 20
279.1403827252221
 30
0.0
 11
3345.906222050112
 21
279.1403827252221
 31
0.0
  0
TEXT
  5
77
  8
0
  6
CONTINUOUS
 62
     7
 10
1830.834345569533
 20
2508.347429666146
 30
0.0
 40
52.91666666666666
  1
＜正面＞
 41
0.75
  7
SLDTEXTSTYLE0
  0
TEXT
  5
78
  8
0
  6
CONTINUOUS
 62
     7
 10
3377.814243189123
 20
326.489054196763
 30
0.0
 40
52.91666666666666
  1
品名：
 41
0.75
  7
SLDTEXTSTYLE0
  0
TEXT
  5
79
  8
0
  6
CONTINUOUS
 62
     7
 10
4446.663437481703
 20
332.3177187478654
 30
0.0
 40
52.91666666666666
  1
Pamouna
 41
0.75
  7
SLDTEXTSTYLE0
  0
TEXT
  5
7A
  8
寸法
  6
CONTINUOUS
 62
     7
 10
4688.007304885427
 20
165.7088516276312
 30
0.0
 40
52.91666666666666
  1
1/1
 41
0.75
  7
SLDTEXTSTYLE0
  0
TEXT
  5
7B
  8
寸法
  6
CONTINUOUS
 62
     7
 10
3611.283129349216
 20
332.2465883182592
 30
0.0
 40
66.14583333333331
  1
MA-NTO370EL
 41
0.75
  7
SLDTEXTSTYLE0
  0
TEXT
  5
7C
  8
寸法
  6
CONTINUOUS
 62
     7
 10
4198.79693921183
 20
165.7088544215994
 30
0.0
 40
52.91666666666666
  1
2022/10/15
 41
0.75
  7
SLDTEXTSTYLE0
  0
TEXT
  5
7D
  8
寸法
  6
CONTINUOUS
 62
     7
 10
3675.466126650375
 20
2500.297128789739
 30
0.0
 40
52.91666666666666
  1
＜右側面＞
 41
0.75
  7
SLDTEXTSTYLE0
  0
TEXT
  5
7E
  8
0
  6
CONTINUOUS
 62
     7
 10
682.5718587193734
 20
2495.347896067605
 30
0.0
 40
52.91666666666666
  1
＜左側面＞
 41
0.75
  7
SLDTEXTSTYLE0
  0
TEXT
  5
7F
  8
0
  6
CONTINUOUS
 62
     7
 10
1852.546908235583
 20
3146.642747282924
 30
0.0
 40
52.91666666666666
  1
＜上面＞
 41
0.75
  7
SLDTEXTSTYLE0
  0
LINE
  5
80
  8
0
  6
CONTINUOUS
 62
     7
 10
2244.139224452523
 20
2361.209425443103
 30
0.0
 11
2244.139224452523
 21
1765.209425443103
 31
0.0
  0
LINE
  5
81
  8
0
  6
CONTINUOUS
 62
     7
 10
2616.139224452523
 20
1765.209425443103
 30
0.0
 11
2616.139224452523
 21
2361.209425443103
 31
0.0
  0
LINE
  5
82
  8
0
  6
CONTINUOUS
 62
     7
 10
2244.139224452523
 20
1765.209425443103
 30
0.0
 11
2616.139224452523
 21
1765.209425443103
 31
0.0
  0
LINE
  5
83
  8
0
  6
CONTINUOUS
 62
     7
 10
2616.139224452523
 20
2361.209425443103
 30
0.0
 11
2244.139224452523
 21
2361.209425443103
 31
0.0
  0
LINE
  5
84
  8
0
  6
CONTINUOUS
 62
     7
 10
2244.139224452523
 20
1461.209425443103
 30
0.0
 11
2244.139224452523
 21
615.2094254431031
 31
0.0
  0
LINE
  5
85
  8
0
  6
CONTINUOUS
 62
     7
 10
2616.139224452523
 20
1461.209425443103
 30
0.0
 11
2244.139224452523
 21
1461.209425443103
 31
0.0
  0
LINE
  5
86
  8
0
  6
CONTINUOUS
 62
     7
 10
2616.139224452523
 20
615.2094254431031
 30
0.0
 11
2616.139224452523
 21
1461.209425443103
 31
0.0
  0
LINE
  5
87
  8
0
  6
CONTINUOUS
 62
     7
 10
2244.139224452523
 20
615.2094254431031
 30
0.0
 11
2616.139224452523
 21
615.2094254431031
 31
0.0
  0
LINE
  5
88
  8
0
  6
CONTINUOUS
 62
     7
 10
2617.639224452523
 20
613.2094254431031
 30
0.0
 11
2617.639224452523
 21
2363.209425443103
 31
0.0
  0
LINE
  5
89
  8
0
  6
CONTINUOUS
 62
     7
 10
2600.139224452523
 20
613.2094254431031
 30
0.0
 11
2617.639224452523
 21
613.2094254431031
 31
0.0
  0
LINE
  5
8A
  8
0
  6
CONTINUOUS
 62
     7
 10
2600.139224452523
 20
2363.209425443103
 30
0.0
 11
2600.139224452523
 21
2361.209425443103
 31
0.0
  0
LINE
  5
8B
  8
0
  6
CONTINUOUS
 62
     7
 10
2600.139224452523
 20
1765.209425443103
 30
0.0
 11
2600.139224452523
 21
1461.209425443103
 31
0.0
  0
LINE
  5
8C
  8
0
  6
CONTINUOUS
 62
     7
 10
2600.139224452523
 20
615.2094254431032
 30
0.0
 11
2600.139224452523
 21
613.2094254431031
 31
0.0
  0
LINE
  5
8D
  8
0
  6
CONTINUOUS
 62
     7
 10
2617.639224452523
 20
2363.209425443103
 30
0.0
 11
2600.139224452523
 21
2363.209425443103
 31
0.0
  0
LINE
  5
8E
  8
0
  6
CONTINUOUS
 62
     7
 10
2242.639224452523
 20
2363.209425443103
 30
0.0
 11
2242.639224452523
 21
613.2094254431031
 31
0.0
  0
LINE
  5
8F
  8
0
  6
CONTINUOUS
 62
     7
 10
2260.139224452523
 20
2363.209425443103
 30
0.0
 11
2242.639224452523
 21
2363.209425443103
 31
0.0
  0
LINE
  5
90
  8
0
  6
CONTINUOUS
 62
     7
 10
2260.139224452523
 20
613.2094254431031
 30
0.0
 11
2260.139224452523
 21
615.2094254431031
 31
0.0
  0
LINE
  5
91
  8
0
  6
CONTINUOUS
 62
     7
 10
2260.139224452523
 20
1461.209425443103
 30
0.0
 11
2260.139224452523
 21
1765.209425443103
 31
0.0
  0
LINE
  5
92
  8
0
  6
CONTINUOUS
 62
     7
 10
2260.139224452523
 20
2361.209425443103
 30
0.0
 11
2260.139224452523
 21
2363.209425443103
 31
0.0
  0
LINE
  5
93
  8
0
  6
CONTINUOUS
 62
     7
 10
2242.639224452523
 20
613.2094254431031
 30
0.0
 11
2260.139224452523
 21
613.2094254431031
 31
0.0
  0
LINE
  5
94
  8
0
  6
CONTINUOUS
 62
     7
 10
2600.139224452523
 20
1462.709425443103
 30
0.0
 11
2260.139224452523
 21
1462.709425443103
 31
0.0
  0
LINE
  5
95
  8
0
  6
CONTINUOUS
 62
     7
 10
2599.889224452523
 20
1656.352562830782
 30
0.0
 11
2260.389224452523
 21
1656.352562830782
 31
0.0
  0
LINE
  5
96
  8
0
  6
CONTINUOUS
 62
     7
 10
2599.889224452523
 20
1639.352562830782
 30
0.0
 11
2599.889224452523
 21
1656.352562830782
 31
0.0
  0
LINE
  5
97
  8
0
  6
CONTINUOUS
 62
     7
 10
2260.389224452523
 20
1639.352562830782
 30
0.0
 11
2599.889224452523
 21
1639.352562830782
 31
0.0
  0
LINE
  5
98
  8
0
  6
CONTINUOUS
 62
     7
 10
2260.389224452523
 20
1656.352562830782
 30
0.0
 11
2260.389224452523
 21
1639.352562830782
 31
0.0
  0
LINE
  5
99
  8
0
  6
CONTINUOUS
 62
     7
 10
2260.139224452523
 20
1462.959425443103
 30
0.0
 11
2600.139224452523
 21
1462.959425443103
 31
0.0
  0
LINE
  5
9A
  8
0
  6
CONTINUOUS
 62
     7
 10
2600.139224452523
 20
613.709425443103
 30
0.0
 11
2260.139224452523
 21
613.709425443103
 31
0.0
  0
LINE
  5
9B
  8
0
  6
CONTINUOUS
 62
     7
 10
2600.139224452523
 20
2362.709425443103
 30
0.0
 11
2260.139224452523
 21
2362.709425443103
 31
0.0
  0
LINE
  5
9C
  8
0
  6
CONTINUOUS
 62
     7
 10
940.0064483101822
 20
2361.209425443103
 30
0.0
 11
922.0064483101822
 21
2361.209425443103
 31
0.0
  0
LINE
  5
9D
  8
0
  6
CONTINUOUS
 62
     7
 10
940.0064483101822
 20
2361.209425443103
 30
0.0
 11
940.0064483101822
 21
1765.209425443103
 31
0.0
  0
LINE
  5
9E
  8
0
  6
CONTINUOUS
 62
     7
 10
940.0064483101822
 20
1765.209425443103
 30
0.0
 11
922.0064483101822
 21
1765.209425443103
 31
0.0
  0
LINE
  5
9F
  8
0
  6
CONTINUOUS
 62
     7
 10
922.0064483101822
 20
2361.209425443103
 30
0.0
 11
922.0064483101822
 21
1765.209425443103
 31
0.0
  0
LINE
  5
A0
  8
0
  6
CONTINUOUS
 62
     7
 10
940.0064483101817
 20
1461.209425443103
 30
0.0
 11
940.0064483101817
 21
615.2094254431029
 31
0.0
  0
LINE
  5
A1
  8
0
  6
CONTINUOUS
 62
     7
 10
940.0064483101817
 20
615.2094254431029
 30
0.0
 11
922.0064483101817
 21
615.2094254431029
 31
0.0
  0
LINE
  5
A2
  8
0
  6
CONTINUOUS
 62
     7
 10
940.0064483101817
 20
1461.209425443103
 30
0.0
 11
922.0064483101817
 21
1461.209425443103
 31
0.0
  0
LINE
  5
A3
  8
0
  6
CONTINUOUS
 62
     7
 10
922.0064483101817
 20
1461.209425443103
 30
0.0
 11
922.0064483101817
 21
615.2094254431029
 31
0.0
  0
LINE
  5
A4
  8
0
  6
CONTINUOUS
 62
     7
 10
920.0064483101817
 20
2363.209425443103
 30
0.0
 11
790.0064483101817
 21
2363.209425443103
 31
0.0
  0
LINE
  5
A5
  8
0
  6
CONTINUOUS
 62
     7
 10
920.0064483101817
 20
2363.209425443103
 30
0.0
 11
920.0064483101817
 21
613.2094254431029
 31
0.0
  0
LINE
  5
A6
  8
0
  6
CONTINUOUS
 62
     7
 10
920.0064483101817
 20
613.2094254431029
 30
0.0
 11
790.0064483101817
 21
613.2094254431029
 31
0.0
  0
LINE
  5
A7
  8
0
  6
CONTINUOUS
 62
     7
 10
790.0064483101817
 20
2363.209425443103
 30
0.0
 11
790.0064483101817
 21
613.2094254431029
 31
0.0
  0
LINE
  5
A8
  8
0
  6
CONTINUOUS
 62
     7
 10
920.1412633851286
 20
703.584425443102
 30
0.0
 11
920.141263385128
 21
702.659425443101
 31
0.0
  0
LINE
  5
A9
  8
0
  6
CONTINUOUS
 62
     7
 10
920.1412633851188
 20
687.7594254431
 30
0.0
 11
920.1412633851182
 21
686.834425443101
 31
0.0
  0
LINE
  5
AA
  8
0
  6
CONTINUOUS
 62
     7
 10
920.1412633851182
 20
686.834425443101
 30
0.0
 11
920.0064483101805
 21
686.8344254431012
 31
0.0
  0
LINE
  5
AB
  8
0
  6
CONTINUOUS
 62
     7
 10
920.0064483101805
 20
703.5844254431016
 30
0.0
 11
920.1412633851286
 21
703.584425443102
 31
0.0
  0
LINE
  5
AC
  8
0
  6
CONTINUOUS
 62
     7
 10
921.50644831019
 20
686.8344254431014
 30
0.0
 11
920.1412633851182
 21
686.834425443101
 31
0.0
  0
LINE
  5
AD
  8
0
  6
CONTINUOUS
 62
     7
 10
920.1412633851286
 20
703.584425443102
 30
0.0
 11
921.5064483101798
 21
703.5844254431016
 31
0.0
  0
LINE
  5
AE
  8
0
  6
CONTINUOUS
 62
     7
 10
920.1412633851286
 20
1853.584425443102
 30
0.0
 11
920.141263385128
 21
1852.659425443101
 31
0.0
  0
LINE
  5
AF
  8
0
  6
CONTINUOUS
 62
     7
 10
920.1412633851188
 20
1837.7594254431
 30
0.0
 11
920.1412633851182
 21
1836.834425443101
 31
0.0
  0
LINE
  5
B0
  8
0
  6
CONTINUOUS
 62
     7
 10
920.1412633851182
 20
1836.834425443101
 30
0.0
 11
920.0064483101805
 21
1836.834425443102
 31
0.0
  0
LINE
  5
B1
  8
0
  6
CONTINUOUS
 62
     7
 10
920.0064483101805
 20
1853.584425443102
 30
0.0
 11
920.1412633851286
 21
1853.584425443102
 31
0.0
  0
LINE
  5
B2
  8
0
  6
CONTINUOUS
 62
     7
 10
921.50644831019
 20
1836.834425443102
 30
0.0
 11
920.1412633851182
 21
1836.834425443101
 31
0.0
  0
LINE
  5
B3
  8
0
  6
CONTINUOUS
 62
     7
 10
920.1412633851286
 20
1853.584425443102
 30
0.0
 11
921.50644831018
 21
1853.584425443102
 31
0.0
  0
LINE
  5
B4
  8
0
  6
CONTINUOUS
 62
     7
 10
920.1412633851285
 20
1389.584425443102
 30
0.0
 11
920.1412633851279
 21
1388.659425443101
 31
0.0
  0
LINE
  5
B5
  8
0
  6
CONTINUOUS
 62
     7
 10
920.1412633851187
 20
1373.7594254431
 30
0.0
 11
920.1412633851181
 21
1372.834425443101
 31
0.0
  0
LINE
  5
B6
  8
0
  6
CONTINUOUS
 62
     7
 10
920.1412633851181
 20
1372.834425443101
 30
0.0
 11
920.0064483101805
 21
1372.834425443101
 31
0.0
  0
LINE
  5
B7
  8
0
  6
CONTINUOUS
 62
     7
 10
920.0064483101805
 20
1389.584425443102
 30
0.0
 11
920.1412633851285
 21
1389.584425443102
 31
0.0
  0
LINE
  5
B8
  8
0
  6
CONTINUOUS
 62
     7
 10
921.50644831019
 20
1372.834425443101
 30
0.0
 11
920.1412633851181
 21
1372.834425443101
 31
0.0
  0
LINE
  5
B9
  8
0
  6
CONTINUOUS
 62
     7
 10
920.1412633851285
 20
1389.584425443102
 30
0.0
 11
921.5064483101798
 21
1389.584425443102
 31
0.0
  0
LINE
  5
BA
  8
0
  6
CONTINUOUS
 62
     7
 10
920.1412633851289
 20
1046.584425443102
 30
0.0
 11
920.1412633851284
 21
1045.659425443101
 31
0.0
  0
LINE
  5
BB
  8
0
  6
CONTINUOUS
 62
     7
 10
920.1412633851191
 20
1030.7594254431
 30
0.0
 11
920.1412633851186
 21
1029.834425443101
 31
0.0
  0
LINE
  5
BC
  8
0
  6
CONTINUOUS
 62
     7
 10
920.1412633851186
 20
1029.834425443101
 30
0.0
 11
920.0064483101805
 21
1029.834425443101
 31
0.0
  0
LINE
  5
BD
  8
0
  6
CONTINUOUS
 62
     7
 10
920.0064483101805
 20
1046.584425443102
 30
0.0
 11
920.1412633851289
 21
1046.584425443102
 31
0.0
  0
LINE
  5
BE
  8
0
  6
CONTINUOUS
 62
     7
 10
921.5064483101903
 20
1029.834425443101
 30
0.0
 11
920.1412633851186
 21
1029.834425443101
 31
0.0
  0
LINE
  5
BF
  8
0
  6
CONTINUOUS
 62
     7
 10
920.1412633851289
 20
1046.584425443102
 30
0.0
 11
921.5064483101803
 21
1046.584425443102
 31
0.0
  0
LINE
  5
C0
  8
0
  6
CONTINUOUS
 62
     7
 10
920.1412633851286
 20
2289.584425443103
 30
0.0
 11
920.141263385128
 21
2288.659425443102
 31
0.0
  0
LINE
  5
C1
  8
0
  6
CONTINUOUS
 62
     7
 10
920.1412633851188
 20
2273.759425443101
 30
0.0
 11
920.1412633851182
 21
2272.834425443102
 31
0.0
  0
LINE
  5
C2
  8
0
  6
CONTINUOUS
 62
     7
 10
920.1412633851182
 20
2272.834425443102
 30
0.0
 11
920.0064483101805
 21
2272.834425443103
 31
0.0
  0
LINE
  5
C3
  8
0
  6
CONTINUOUS
 62
     7
 10
920.0064483101805
 20
2289.584425443103
 30
0.0
 11
920.1412633851286
 21
2289.584425443103
 31
0.0
  0
LINE
  5
C4
  8
0
  6
CONTINUOUS
 62
     7
 10
921.50644831019
 20
2272.834425443103
 30
0.0
 11
920.1412633851182
 21
2272.834425443102
 31
0.0
  0
LINE
  5
C5
  8
0
  6
CONTINUOUS
 62
     7
 10
920.1412633851286
 20
2289.584425443103
 30
0.0
 11
921.5064483101798
 21
2289.584425443103
 31
0.0
  0
LINE
  5
C6
  8
0
  6
CONTINUOUS
 62
     7
 10
921.5064483101803
 20
704.1653835821605
 30
0.0
 11
922.0064483101818
 21
704.1653835821609
 31
0.0
  0
LINE
  5
C7
  8
0
  6
CONTINUOUS
 62
     7
 10
921.506448310179
 20
702.6094254428682
 30
0.0
 11
922.0064483101789
 21
702.6094254428682
 31
0.0
  0
LINE
  5
C8
  8
0
  6
CONTINUOUS
 62
     7
 10
921.506448310179
 20
702.6094254428682
 30
0.0
 11
921.5064483101803
 21
704.1653835821605
 31
0.0
  0
LINE
  5
C9
  8
0
  6
CONTINUOUS
 62
     7
 10
922.0064483101818
 20
686.2534673040318
 30
0.0
 11
921.506448310187
 21
686.2534673040329
 31
0.0
  0
LINE
  5
CA
  8
0
  6
CONTINUOUS
 62
     7
 10
921.506448310187
 20
686.2534673040329
 30
0.0
 11
921.5064483101947
 21
687.8094254433192
 31
0.0
  0
LINE
  5
CB
  8
0
  6
CONTINUOUS
 62
     7
 10
922.0064483101947
 20
687.8094254433192
 30
0.0
 11
921.5064483101947
 21
687.8094254433192
 31
0.0
  0
LINE
  5
CC
  8
0
  6
CONTINUOUS
 62
     7
 10
921.8064483101809
 20
713.6009996008529
 30
0.0
 11
921.5064483101808
 21
713.6009996008529
 31
0.0
  0
LINE
  5
CD
  8
0
  6
CONTINUOUS
 62
     7
 10
922.006448310181
 20
713.6009996008529
 30
0.0
 11
921.8064483101809
 21
713.6009996008529
 31
0.0
  0
LINE
  5
CE
  8
0
  6
CONTINUOUS
 62
     7
 10
921.5064483101808
 20
713.6009996008529
 30
0.0
 11
921.5064483101803
 21
704.1653835821605
 31
0.0
  0
LINE
  5
CF
  8
0
  6
CONTINUOUS
 62
     7
 10
921.8064483101866
 20
676.8178512853534
 30
0.0
 11
922.0064483101867
 21
676.8178512853534
 31
0.0
  0
LINE
  5
D0
  8
0
  6
CONTINUOUS
 62
     7
 10
921.5064483101867
 20
676.8178512853534
 30
0.0
 11
921.8064483101866
 21
676.8178512853534
 31
0.0
  0
LINE
  5
D1
  8
0
  6
CONTINUOUS
 62
     7
 10
921.506448310187
 20
686.2534673040329
 30
0.0
 11
921.5064483101867
 21
676.8178512853534
 31
0.0
  0
POLYLINE
  5
D2
  8
0
  6
CONTINUOUS
 62
     7
 10
0.0
 20
0.0
 30
0.0
 66
     1
 70
     8
  0
VERTEX
  5
238
  8
0
  6
CONTINUOUS
 62
     7
 10
920.0064483101806
 20
723.7094254431021
 30
0.0
 70
    32
  0
VERTEX
  5
239
  8
0
  6
CONTINUOUS
 62
     7
 10
920.0237171355601
 20
723.7094254431021
 30
0.0
 70
    32
  0
VERTEX
  5
23A
  8
0
  6
CONTINUOUS
 62
     7
 10
920.0411422190307
 20
723.7094254431021
 30
0.0
 70
    32
  0
VERTEX
  5
23B
  8
0
  6
CONTINUOUS
 62
     7
 10
920.0588798186844
 20
723.7094254431021
 30
0.0
 70
    32
  0
VERTEX
  5
23C
  8
0
  6
CONTINUOUS
 62
     7
 10
920.0770861926119
 20
723.7094254431021
 30
0.0
 70
    32
  0
VERTEX
  5
23D
  8
0
  6
CONTINUOUS
 62
     7
 10
920.095917598905
 20
723.7094254431021
 30
0.0
 70
    32
  0
VERTEX
  5
23E
  8
0
  6
CONTINUOUS
 62
     7
 10
920.1155302956546
 20
723.709425443102
 30
0.0
 70
    32
  0
VERTEX
  5
23F
  8
0
  6
CONTINUOUS
 62
     7
 10
920.1360805189435
 20
723.7094254431021
 30
0.0
 70
    32
  0
VERTEX
  5
240
  8
0
  6
CONTINUOUS
 62
     7
 10
920.1576783065624
 20
723.7094254431021
 30
0.0
 70
    32
  0
VERTEX
  5
241
  8
0
  6
CONTINUOUS
 62
     7
 10
920.1802901018832
 20
723.7094254431022
 30
0.0
 70
    32
  0
VERTEX
  5
242
  8
0
  6
CONTINUOUS
 62
     7
 10
920.2038545306646
 20
723.7094254431021
 30
0.0
 70
    32
  0
VERTEX
  5
243
  8
0
  6
CONTINUOUS
 62
     7
 10
920.228310218665
 20
723.7094254431021
 30
0.0
 70
    32
  0
VERTEX
  5
244
  8
0
  6
CONTINUOUS
 62
     7
 10
920.2535957916434
 20
723.7094254431021
 30
0.0
 70
    32
  0
VERTEX
  5
245
  8
0
  6
CONTINUOUS
 62
     7
 10
920.2796498753584
 20
723.7094254431021
 30
0.0
 70
    32
  0
VERTEX
  5
246
  8
0
  6
CONTINUOUS
 62
     7
 10
920.3064110955685
 20
723.7094254431021
 30
0.0
 70
    32
  0
VERTEX
  5
247
  8
0
  6
CONTINUOUS
 62
     7
 10
920.3338180780324
 20
723.7094254431022
 30
0.0
 70
    32
  0
VERTEX
  5
248
  8
0
  6
CONTINUOUS
 62
     7
 10
920.3618094485092
 20
723.7094254431021
 30
0.0
 70
    32
  0
VERTEX
  5
249
  8
0
  6
CONTINUOUS
 62
     7
 10
920.3903238327567
 20
723.7094254431021
 30
0.0
 70
    32
  0
VERTEX
  5
24A
  8
0
  6
CONTINUOUS
 62
     7
 10
920.4193084836105
 20
723.7094254431022
 30
0.0
 70
    32
  0
VERTEX
  5
24B
  8
0
  6
CONTINUOUS
 62
     7
 10
920.4487527924907
 20
723.7094254431021
 30
0.0
 70
    32
  0
VERTEX
  5
24C
  8
0
  6
CONTINUOUS
 62
     7
 10
920.4786589968999
 20
723.7094254431022
 30
0.0
 70
    32
  0
VERTEX
  5
24D
  8
0
  6
CONTINUOUS
 62
     7
 10
920.5090293374463
 20
723.7094254431021
 30
0.0
 70
    32
  0
VERTEX
  5
24E
  8
0
  6
CONTINUOUS
 62
     7
 10
920.539866054739
 20
723.709425443102
 30
0.0
 70
    32
  0
VERTEX
  5
24F
  8
0
  6
CONTINUOUS
 62
     7
 10
920.571171389387
 20
723.7094254431022
 30
0.0
 70
    32
  0
VERTEX
  5
250
  8
0
  6
CONTINUOUS
 62
     7
 10
920.6029475819981
 20
723.7094254431021
 30
0.0
 70
    32
  0
VERTEX
  5
251
  8
0
  6
CONTINUOUS
 62
     7
 10
920.6351968731819
 20
723.7094254431021
 30
0.0
 70
    32
  0
VERTEX
  5
252
  8
0
  6
CONTINUOUS
 62
     7
 10
920.6679215035472
 20
723.7094254431022
 30
0.0
 70
    32
  0
VERTEX
  5
253
  8
0
  6
CONTINUOUS
 62
     7
 10
920.7011237137025
 20
723.7094254431021
 30
0.0
 70
    32
  0
VERTEX
  5
254
  8
0
  6
CONTINUOUS
 62
     7
 10
920.7348041525108
 20
723.709425443102
 30
0.0
 70
    32
  0
VERTEX
  5
255
  8
0
  6
CONTINUOUS
 62
     7
 10
920.7689515458343
 20
723.7094254431021
 30
0.0
 70
    32
  0
VERTEX
  5
256
  8
0
  6
CONTINUOUS
 62
     7
 10
920.8035492127449
 20
723.7094254431022
 30
0.0
 70
    32
  0
VERTEX
  5
257
  8
0
  6
CONTINUOUS
 62
     7
 10
920.8385804454346
 20
723.709425443102
 30
0.0
 70
    32
  0
VERTEX
  5
258
  8
0
  6
CONTINUOUS
 62
     7
 10
920.8740285360959
 20
723.709425443102
 30
0.0
 70
    32
  0
VERTEX
  5
259
  8
0
  6
CONTINUOUS
 62
     7
 10
920.9098767769216
 20
723.709425443102
 30
0.0
 70
    32
  0
VERTEX
  5
25A
  8
0
  6
CONTINUOUS
 62
     7
 10
920.9461084601038
 20
723.709425443102
 30
0.0
 70
    32
  0
VERTEX
  5
25B
  8
0
  6
CONTINUOUS
 62
     7
 10
920.9827068778344
 20
723.7094254431021
 30
0.0
 70
    32
  0
VERTEX
  5
25C
  8
0
  6
CONTINUOUS
 62
     7
 10
921.0196553223063
 20
723.7094254431021
 30
0.0
 70
    32
  0
VERTEX
  5
25D
  8
0
  6
CONTINUOUS
 62
     7
 10
921.0569370857115
 20
723.7094254431022
 30
0.0
 70
    32
  0
VERTEX
  5
25E
  8
0
  6
CONTINUOUS
 62
     7
 10
921.0945354622486
 20
723.7094254431023
 30
0.0
 70
    32
  0
VERTEX
  5
25F
  8
0
  6
CONTINUOUS
 62
     7
 10
921.1324337713902
 20
723.7094254431023
 30
0.0
 70
    32
  0
VERTEX
  5
260
  8
0
  6
CONTINUOUS
 62
     7
 10
921.1706153498977
 20
723.7094254431026
 30
0.0
 70
    32
  0
VERTEX
  5
261
  8
0
  6
CONTINUOUS
 62
     7
 10
921.2090635348666
 20
723.7094254431028
 30
0.0
 70
    32
  0
VERTEX
  5
262
  8
0
  6
CONTINUOUS
 62
     7
 10
921.2477616633936
 20
723.709425443103
 30
0.0
 70
    32
  0
VERTEX
  5
263
  8
0
  6
CONTINUOUS
 62
     7
 10
921.2866930725743
 20
723.7094254431032
 30
0.0
 70
    32
  0
VERTEX
  5
264
  8
0
  6
CONTINUOUS
 62
     7
 10
921.3258410995052
 20
723.7094254431034
 30
0.0
 70
    32
  0
VERTEX
  5
265
  8
0
  6
CONTINUOUS
 62
     7
 10
921.3651890812823
 20
723.7094254431038
 30
0.0
 70
    32
  0
VERTEX
  5
266
  8
0
  6
CONTINUOUS
 62
     7
 10
921.404720355002
 20
723.7094254431041
 30
0.0
 70
    32
  0
VERTEX
  5
267
  8
0
  6
CONTINUOUS
 62
     7
 10
921.4444182577599
 20
723.7094254431042
 30
0.0
 70
    32
  0
VERTEX
  5
268
  8
0
  6
CONTINUOUS
 62
     7
 10
921.4842661266528
 20
723.7094254431046
 30
0.0
 70
    32
  0
VERTEX
  5
269
  8
0
  6
CONTINUOUS
 62
     7
 10
921.5242472987763
 20
723.709425443105
 30
0.0
 70
    32
  0
VERTEX
  5
26A
  8
0
  6
CONTINUOUS
 62
     7
 10
921.5643451112271
 20
723.7094254431055
 30
0.0
 70
    32
  0
VERTEX
  5
26B
  8
0
  6
CONTINUOUS
 62
     7
 10
921.6045429011006
 20
723.7094254431056
 30
0.0
 70
    32
  0
VERTEX
  5
26C
  8
0
  6
CONTINUOUS
 62
     7
 10
921.6448240054935
 20
723.709425443106
 30
0.0
 70
    32
  0
VERTEX
  5
26D
  8
0
  6
CONTINUOUS
 62
     7
 10
921.685171761502
 20
723.7094254431065
 30
0.0
 70
    32
  0
VERTEX
  5
26E
  8
0
  6
CONTINUOUS
 62
     7
 10
921.725569506222
 20
723.7094254431069
 30
0.0
 70
    32
  0
VERTEX
  5
26F
  8
0
  6
CONTINUOUS
 62
     7
 10
921.7660005767498
 20
723.7094254431073
 30
0.0
 70
    32
  0
VERTEX
  5
270
  8
0
  6
CONTINUOUS
 62
     7
 10
921.8064483101812
 20
723.7094254431076
 30
0.0
 70
    32
  0
SEQEND
  5
8A0
  8
0
  6
CONTINUOUS
 62
     7
  0
LINE
  5
D3
  8
0
  6
CONTINUOUS
 62
     7
 10
921.8064483101805
 20
722.7094254431084
 30
0.0
 11
921.8064483101812
 21
723.7094254431076
 31
0.0
  0
POLYLINE
  5
D4
  8
0
  6
CONTINUOUS
 62
     7
 10
0.0
 20
0.0
 30
0.0
 66
     1
 70
     8
  0
VERTEX
  5
271
  8
0
  6
CONTINUOUS
 62
     7
 10
921.8064483102044
 20
666.709425443105
 30
0.0
 70
    32
  0
VERTEX
  5
272
  8
0
  6
CONTINUOUS
 62
     7
 10
921.7659998315072
 20
666.7094254431051
 30
0.0
 70
    32
  0
VERTEX
  5
273
  8
0
  6
CONTINUOUS
 62
     7
 10
921.7255680192046
 20
666.709425443105
 30
0.0
 70
    32
  0
VERTEX
  5
274
  8
0
  6
CONTINUOUS
 62
     7
 10
921.6851695396915
 20
666.709425443105
 30
0.0
 70
    32
  0
VERTEX
  5
275
  8
0
  6
CONTINUOUS
 62
     7
 10
921.6448210593633
 20
666.709425443105
 30
0.0
 70
    32
  0
VERTEX
  5
276
  8
0
  6
CONTINUOUS
 62
     7
 10
921.6045392446139
 20
666.7094254431049
 30
0.0
 70
    32
  0
VERTEX
  5
277
  8
0
  6
CONTINUOUS
 62
     7
 10
921.564340761839
 20
666.709425443105
 30
0.0
 70
    32
  0
VERTEX
  5
278
  8
0
  6
CONTINUOUS
 62
     7
 10
921.5242422774329
 20
666.7094254431049
 30
0.0
 70
    32
  0
VERTEX
  5
279
  8
0
  6
CONTINUOUS
 62
     7
 10
921.4842604577902
 20
666.7094254431049
 30
0.0
 70
    32
  0
VERTEX
  5
27A
  8
0
  6
CONTINUOUS
 62
     7
 10
921.4444119693064
 20
666.709425443105
 30
0.0
 70
    32
  0
VERTEX
  5
27B
  8
0
  6
CONTINUOUS
 62
     7
 10
921.4047134783758
 20
666.7094254431049
 30
0.0
 70
    32
  0
VERTEX
  5
27C
  8
0
  6
CONTINUOUS
 62
     7
 10
921.3651816513932
 20
666.7094254431049
 30
0.0
 70
    32
  0
VERTEX
  5
27D
  8
0
  6
CONTINUOUS
 62
     7
 10
921.3258331547536
 20
666.7094254431049
 30
0.0
 70
    32
  0
VERTEX
  5
27E
  8
0
  6
CONTINUOUS
 62
     7
 10
921.286684654852
 20
666.7094254431049
 30
0.0
 70
    32
  0
VERTEX
  5
27F
  8
0
  6
CONTINUOUS
 62
     7
 10
921.2477528180829
 20
666.7094254431048
 30
0.0
 70
    32
  0
VERTEX
  5
280
  8
0
  6
CONTINUOUS
 62
     7
 10
921.2090543108411
 20
666.7094254431049
 30
0.0
 70
    32
  0
VERTEX
  5
281
  8
0
  6
CONTINUOUS
 62
     7
 10
921.1706057995215
 20
666.7094254431048
 30
0.0
 70
    32
  0
VERTEX
  5
282
  8
0
  6
CONTINUOUS
 62
     7
 10
921.1324239505192
 20
666.7094254431049
 30
0.0
 70
    32
  0
VERTEX
  5
283
  8
0
  6
CONTINUOUS
 62
     7
 10
921.0945254302287
 20
666.7094254431049
 30
0.0
 70
    32
  0
VERTEX
  5
284
  8
0
  6
CONTINUOUS
 62
     7
 10
921.0569269052871
 20
666.7094254431049
 30
0.0
 70
    32
  0
VERTEX
  5
285
  8
0
  6
CONTINUOUS
 62
     7
 10
921.0196450547927
 20
666.7094254431048
 30
0.0
 70
    32
  0
VERTEX
  5
286
  8
0
  6
CONTINUOUS
 62
     7
 10
920.9826965760503
 20
666.7094254431047
 30
0.0
 70
    32
  0
VERTEX
  5
287
  8
0
  6
CONTINUOUS
 62
     7
 10
920.946098167808
 20
666.7094254431048
 30
0.0
 70
    32
  0
VERTEX
  5
288
  8
0
  6
CONTINUOUS
 62
     7
 10
920.9098665288132
 20
666.7094254431048
 30
0.0
 70
    32
  0
VERTEX
  5
289
  8
0
  6
CONTINUOUS
 62
     7
 10
920.874018357814
 20
666.7094254431048
 30
0.0
 70
    32
  0
VERTEX
  5
28A
  8
0
  6
CONTINUOUS
 62
     7
 10
920.8385703535581
 20
666.7094254431048
 30
0.0
 70
    32
  0
VERTEX
  5
28B
  8
0
  6
CONTINUOUS
 62
     7
 10
920.8035392147939
 20
666.7094254431048
 30
0.0
 70
    32
  0
VERTEX
  5
28C
  8
0
  6
CONTINUOUS
 62
     7
 10
920.768941640269
 20
666.7094254431049
 30
0.0
 70
    32
  0
VERTEX
  5
28D
  8
0
  6
CONTINUOUS
 62
     7
 10
920.7347943287311
 20
666.7094254431049
 30
0.0
 70
    32
  0
VERTEX
  5
28E
  8
0
  6
CONTINUOUS
 62
     7
 10
920.7011139463326
 20
666.7094254431049
 30
0.0
 70
    32
  0
VERTEX
  5
28F
  8
0
  6
CONTINUOUS
 62
     7
 10
920.6679115997891
 20
666.7094254431047
 30
0.0
 70
    32
  0
VERTEX
  5
290
  8
0
  6
CONTINUOUS
 62
     7
 10
920.6351865976317
 20
666.7094254431048
 30
0.0
 70
    32
  0
VERTEX
  5
291
  8
0
  6
CONTINUOUS
 62
     7
 10
920.602936741854
 20
666.7094254431048
 30
0.0
 70
    32
  0
VERTEX
  5
292
  8
0
  6
CONTINUOUS
 62
     7
 10
920.5711598344501
 20
666.7094254431048
 30
0.0
 70
    32
  0
VERTEX
  5
293
  8
0
  6
CONTINUOUS
 62
     7
 10
920.5398536774138
 20
666.7094254431047
 30
0.0
 70
    32
  0
VERTEX
  5
294
  8
0
  6
CONTINUOUS
 62
     7
 10
920.5090160727395
 20
666.7094254431048
 30
0.0
 70
    32
  0
VERTEX
  5
295
  8
0
  6
CONTINUOUS
 62
     7
 10
920.4786448224207
 20
666.7094254431048
 30
0.0
 70
    32
  0
VERTEX
  5
296
  8
0
  6
CONTINUOUS
 62
     7
 10
920.4487377284516
 20
666.7094254431048
 30
0.0
 70
    32
  0
VERTEX
  5
297
  8
0
  6
CONTINUOUS
 62
     7
 10
920.419292592826
 20
666.7094254431048
 30
0.0
 70
    32
  0
VERTEX
  5
298
  8
0
  6
CONTINUOUS
 62
     7
 10
920.3903072207278
 20
666.7094254431049
 30
0.0
 70
    32
  0
VERTEX
  5
299
  8
0
  6
CONTINUOUS
 62
     7
 10
920.3617922904087
 20
666.7094254431049
 30
0.0
 70
    32
  0
VERTEX
  5
29A
  8
0
  6
CONTINUOUS
 62
     7
 10
920.3338006352915
 20
666.7094254431048
 30
0.0
 70
    32
  0
VERTEX
  5
29B
  8
0
  6
CONTINUOUS
 62
     7
 10
920.3063937042679
 20
666.7094254431048
 30
0.0
 70
    32
  0
VERTEX
  5
29C
  8
0
  6
CONTINUOUS
 62
     7
 10
920.2796329462291
 20
666.7094254431048
 30
0.0
 70
    32
  0
VERTEX
  5
29D
  8
0
  6
CONTINUOUS
 62
     7
 10
920.2535798100665
 20
666.7094254431048
 30
0.0
 70
    32
  0
VERTEX
  5
29E
  8
0
  6
CONTINUOUS
 62
     7
 10
920.2282957446714
 20
666.7094254431048
 30
0.0
 70
    32
  0
VERTEX
  5
29F
  8
0
  6
CONTINUOUS
 62
     7
 10
920.2038421989353
 20
666.7094254431049
 30
0.0
 70
    32
  0
VERTEX
  5
2A0
  8
0
  6
CONTINUOUS
 62
     7
 10
920.1802806217488
 20
666.7094254431048
 30
0.0
 70
    32
  0
VERTEX
  5
2A1
  8
0
  6
CONTINUOUS
 62
     7
 10
920.157672462004
 20
666.7094254431048
 30
0.0
 70
    32
  0
VERTEX
  5
2A2
  8
0
  6
CONTINUOUS
 62
     7
 10
920.136079168592
 20
666.7094254431047
 30
0.0
 70
    32
  0
VERTEX
  5
2A3
  8
0
  6
CONTINUOUS
 62
     7
 10
920.1155331035432
 20
666.7094254431048
 30
0.0
 70
    32
  0
VERTEX
  5
2A4
  8
0
  6
CONTINUOUS
 62
     7
 10
920.0959227404705
 20
666.7094254431048
 30
0.0
 70
    32
  0
VERTEX
  5
2A5
  8
0
  6
CONTINUOUS
 62
     7
 10
920.0770921396772
 20
666.7094254431049
 30
0.0
 70
    32
  0
VERTEX
  5
2A6
  8
0
  6
CONTINUOUS
 62
     7
 10
920.0588853487075
 20
666.7094254431048
 30
0.0
 70
    32
  0
VERTEX
  5
2A7
  8
0
  6
CONTINUOUS
 62
     7
 10
920.0411464151053
 20
666.7094254431048
 30
0.0
 70
    32
  0
VERTEX
  5
2A8
  8
0
  6
CONTINUOUS
 62
     7
 10
920.023719386415
 20
666.7094254431048
 30
0.0
 70
    32
  0
VERTEX
  5
2A9
  8
0
  6
CONTINUOUS
 62
     7
 10
920.0064483101806
 20
666.7094254431048
 30
0.0
 70
    32
  0
SEQEND
  5
8A1
  8
0
  6
CONTINUOUS
 62
     7
  0
LINE
  5
D5
  8
0
  6
CONTINUOUS
 62
     7
 10
921.8064483101897
 20
667.7094254431039
 30
0.0
 11
921.8064483102044
 21
666.709425443105
 31
0.0
  0
LINE
  5
D6
  8
0
  6
CONTINUOUS
 62
     7
 10
922.0064483101804
 20
722.7094254431084
 30
0.0
 11
921.8064483101805
 21
722.7094254431084
 31
0.0
  0
LINE
  5
D7
  8
0
  6
CONTINUOUS
 62
     7
 10
921.8064483101805
 20
722.7094254431084
 30
0.0
 11
921.8064483101809
 21
713.6009996008529
 31
0.0
  0
POLYLINE
  5
D8
  8
0
  6
CONTINUOUS
 62
     7
 66
     1
 10
0.0
 20
0.0
 30
0.0
  0
VERTEX
  5
2AA
  8
0
  6
CONTINUOUS
 62
     7
 10
920.0064483101805
 20
705.4551897832853
 30
0.0
  0
VERTEX
  5
2AB
  8
0
  6
CONTINUOUS
 62
     7
 10
920.0178594952004
 20
705.4416813740955
 30
0.0
  0
VERTEX
  5
2AC
  8
0
  6
CONTINUOUS
 62
     7
 10
920.0295855885997
 20
705.4285347199897
 30
0.0
  0
VERTEX
  5
2AD
  8
0
  6
CONTINUOUS
 62
     7
 10
920.0417742137281
 20
705.4159242788376
 30
0.0
  0
VERTEX
  5
2AE
  8
0
  6
CONTINUOUS
 62
     7
 10
920.0544120248001
 20
705.4038442827575
 30
0.0
  0
VERTEX
  5
2AF
  8
0
  6
CONTINUOUS
 62
     7
 10
920.0674791525048
 20
705.3922816599371
 30
0.0
  0
VERTEX
  5
2B0
  8
0
  6
CONTINUOUS
 62
     7
 10
920.080955727531
 20
705.3812233385642
 30
0.0
  0
VERTEX
  5
2B1
  8
0
  6
CONTINUOUS
 62
     7
 10
920.094821880568
 20
705.3706562468262
 30
0.0
  0
VERTEX
  5
2B2
  8
0
  6
CONTINUOUS
 62
     7
 10
920.1090577423045
 20
705.3605673129115
 30
0.0
  0
VERTEX
  5
2B3
  8
0
  6
CONTINUOUS
 62
     7
 10
920.1236434434295
 20
705.3509434650075
 30
0.0
  0
VERTEX
  5
2B4
  8
0
  6
CONTINUOUS
 62
     7
 10
920.1385591146324
 20
705.3417716313021
 30
0.0
  0
VERTEX
  5
2B5
  8
0
  6
CONTINUOUS
 62
     7
 10
920.1537848866018
 20
705.333038739983
 30
0.0
  0
VERTEX
  5
2B6
  8
0
  6
CONTINUOUS
 62
     7
 10
920.1693008900266
 20
705.3247317192379
 30
0.0
  0
VERTEX
  5
2B7
  8
0
  6
CONTINUOUS
 62
     7
 10
920.1850872555964
 20
705.3168374972547
 30
0.0
  0
VERTEX
  5
2B8
  8
0
  6
CONTINUOUS
 62
     7
 10
920.2011241139993
 20
705.3093430022212
 30
0.0
  0
VERTEX
  5
2B9
  8
0
  6
CONTINUOUS
 62
     7
 10
920.2173915959253
 20
705.3022351623254
 30
0.0
  0
VERTEX
  5
2BA
  8
0
  6
CONTINUOUS
 62
     7
 10
920.2338698320624
 20
705.2955009057542
 30
0.0
  0
VERTEX
  5
2BB
  8
0
  6
CONTINUOUS
 62
     7
 10
920.2505389531004
 20
705.2891271606965
 30
0.0
  0
VERTEX
  5
2BC
  8
0
  6
CONTINUOUS
 62
     7
 10
920.2673790897277
 20
705.2831008553393
 30
0.0
  0
VERTEX
  5
2BD
  8
0
  6
CONTINUOUS
 62
     7
 10
920.2843703726338
 20
705.2774089178707
 30
0.0
  0
VERTEX
  5
2BE
  8
0
  6
CONTINUOUS
 62
     7
 10
920.3014929325076
 20
705.2720382764787
 30
0.0
  0
VERTEX
  5
2BF
  8
0
  6
CONTINUOUS
 62
     7
 10
920.3187269000376
 20
705.2669758593503
 30
0.0
  0
VERTEX
  5
2C0
  8
0
  6
CONTINUOUS
 62
     7
 10
920.3360524063173
 20
705.262208594608
 30
0.0
  0
VERTEX
  5
2C1
  8
0
  6
CONTINUOUS
 62
     7
 10
920.3534526676268
 20
705.2577229056155
 30
0.0
  0
VERTEX
  5
2C2
  8
0
  6
CONTINUOUS
 62
     7
 10
920.3709214165582
 20
705.2535034951982
 30
0.0
  0
VERTEX
  5
2C3
  8
0
  6
CONTINUOUS
 62
     7
 10
920.3884546244277
 20
705.2495346999098
 30
0.0
  0
VERTEX
  5
2C4
  8
0
  6
CONTINUOUS
 62
     7
 10
920.4060482625523
 20
705.245800856305
 30
0.0
  0
VERTEX
  5
2C5
  8
0
  6
CONTINUOUS
 62
     7
 10
920.4236983022479
 20
705.2422863009385
 30
0.0
  0
VERTEX
  5
2C6
  8
0
  6
CONTINUOUS
 62
     7
 10
920.4414007148307
 20
705.2389753703645
 30
0.0
  0
VERTEX
  5
2C7
  8
0
  6
CONTINUOUS
 62
     7
 10
920.4591514716176
 20
705.2358524011374
 30
0.0
  0
VERTEX
  5
2C8
  8
0
  6
CONTINUOUS
 62
     7
 10
920.476946543924
 20
705.2329017298116
 30
0.0
  0
VERTEX
  5
2C9
  8
0
  6
CONTINUOUS
 62
     7
 10
920.4947819030675
 20
705.2301076929415
 30
0.0
  0
VERTEX
  5
2CA
  8
0
  6
CONTINUOUS
 62
     7
 10
920.5126535203633
 20
705.2274546270817
 30
0.0
  0
VERTEX
  5
2CB
  8
0
  6
CONTINUOUS
 62
     7
 10
920.5305573671288
 20
705.2249268687865
 30
0.0
  0
VERTEX
  5
2CC
  8
0
  6
CONTINUOUS
 62
     7
 10
920.5484894146794
 20
705.2225087546104
 30
0.0
  0
VERTEX
  5
2CD
  8
0
  6
CONTINUOUS
 62
     7
 10
920.566445634332
 20
705.2201846211076
 30
0.0
  0
VERTEX
  5
2CE
  8
0
  6
CONTINUOUS
 62
     7
 10
920.5844219974028
 20
705.2179388048328
 30
0.0
  0
VERTEX
  5
2CF
  8
0
  6
CONTINUOUS
 62
     7
 10
920.6024144752082
 20
705.2157556423404
 30
0.0
  0
VERTEX
  5
2D0
  8
0
  6
CONTINUOUS
 62
     7
 10
920.6204190390647
 20
705.2136194701845
 30
0.0
  0
VERTEX
  5
2D1
  8
0
  6
CONTINUOUS
 62
     7
 10
920.6384316602882
 20
705.2115146249199
 30
0.0
  0
VERTEX
  5
2D2
  8
0
  6
CONTINUOUS
 62
     7
 10
920.6564483101955
 20
705.2094254431008
 30
0.0
  0
SEQEND
  5
8A2
  8
0
  6
CONTINUOUS
 62
     7
  0
LINE
  5
D9
  8
0
  6
CONTINUOUS
 62
     7
 10
921.5064483101897
 20
705.2094254431006
 30
0.0
 11
920.6564483101955
 21
705.2094254431008
 31
0.0
  0
LINE
  5
DA
  8
0
  6
CONTINUOUS
 62
     7
 10
922.0064483101896
 20
667.7094254431039
 30
0.0
 11
921.8064483101897
 21
667.7094254431039
 31
0.0
  0
LINE
  5
DB
  8
0
  6
CONTINUOUS
 62
     7
 10
921.8064483101866
 20
676.8178512853534
 30
0.0
 11
921.8064483101897
 21
667.7094254431039
 31
0.0
  0
POLYLINE
  5
DC
  8
0
  6
CONTINUOUS
 62
     7
 66
     1
 10
0.0
 20
0.0
 30
0.0
  0
VERTEX
  5
2D3
  8
0
  6
CONTINUOUS
 62
     7
 10
920.6564483101846
 20
685.209425443101
 30
0.0
  0
VERTEX
  5
2D4
  8
0
  6
CONTINUOUS
 62
     7
 10
920.6335628515544
 20
685.2071501201091
 30
0.0
  0
VERTEX
  5
2D5
  8
0
  6
CONTINUOUS
 62
     7
 10
920.6106973873533
 20
685.2048338696347
 30
0.0
  0
VERTEX
  5
2D6
  8
0
  6
CONTINUOUS
 62
     7
 10
920.5878719120116
 20
685.2024357641957
 30
0.0
  0
VERTEX
  5
2D7
  8
0
  6
CONTINUOUS
 62
     7
 10
920.5651064199585
 20
685.1999148763097
 30
0.0
  0
VERTEX
  5
2D8
  8
0
  6
CONTINUOUS
 62
     7
 10
920.5424209056232
 20
685.1972302784945
 30
0.0
  0
VERTEX
  5
2D9
  8
0
  6
CONTINUOUS
 62
     7
 10
920.5198353634354
 20
685.1943410432679
 30
0.0
  0
VERTEX
  5
2DA
  8
0
  6
CONTINUOUS
 62
     7
 10
920.4973697878246
 20
685.1912062431472
 30
0.0
  0
VERTEX
  5
2DB
  8
0
  6
CONTINUOUS
 62
     7
 10
920.4750441732202
 20
685.1877849506506
 30
0.0
  0
VERTEX
  5
2DC
  8
0
  6
CONTINUOUS
 62
     7
 10
920.4528785140524
 20
685.1840362382954
 30
0.0
  0
VERTEX
  5
2DD
  8
0
  6
CONTINUOUS
 62
     7
 10
920.4308928047498
 20
685.1799191785994
 30
0.0
  0
VERTEX
  5
2DE
  8
0
  6
CONTINUOUS
 62
     7
 10
920.4091070397426
 20
685.1753928440806
 30
0.0
  0
VERTEX
  5
2DF
  8
0
  6
CONTINUOUS
 62
     7
 10
920.3875412134598
 20
685.170416307256
 30
0.0
  0
VERTEX
  5
2E0
  8
0
  6
CONTINUOUS
 62
     7
 10
920.3662153203308
 20
685.164948640644
 30
0.0
  0
VERTEX
  5
2E1
  8
0
  6
CONTINUOUS
 62
     7
 10
920.3451493547858
 20
685.1589489167619
 30
0.0
  0
VERTEX
  5
2E2
  8
0
  6
CONTINUOUS
 62
     7
 10
920.3243633112536
 20
685.1523762081273
 30
0.0
  0
VERTEX
  5
2E3
  8
0
  6
CONTINUOUS
 62
     7
 10
920.3038771841642
 20
685.1451895872583
 30
0.0
  0
VERTEX
  5
2E4
  8
0
  6
CONTINUOUS
 62
     7
 10
920.2837069814252
 20
685.1373562868598
 30
0.0
  0
VERTEX
  5
2E5
  8
0
  6
CONTINUOUS
 62
     7
 10
920.2638427362848
 20
685.1288967083178
 30
0.0
  0
VERTEX
  5
2E6
  8
0
  6
CONTINUOUS
 62
     7
 10
920.244264077432
 20
685.119852550569
 30
0.0
  0
VERTEX
  5
2E7
  8
0
  6
CONTINUOUS
 62
     7
 10
920.2249506058464
 20
685.1102655692713
 30
0.0
  0
VERTEX
  5
2E8
  8
0
  6
CONTINUOUS
 62
     7
 10
920.2058819225073
 20
685.1001775200817
 30
0.0
  0
VERTEX
  5
2E9
  8
0
  6
CONTINUOUS
 62
     7
 10
920.1870376283946
 20
685.0896301586587
 30
0.0
  0
VERTEX
  5
2EA
  8
0
  6
CONTINUOUS
 62
     7
 10
920.1683973244873
 20
685.0786652406592
 30
0.0
  0
VERTEX
  5
2EB
  8
0
  6
CONTINUOUS
 62
     7
 10
920.1499406117653
 20
685.0673245217414
 30
0.0
  0
VERTEX
  5
2EC
  8
0
  6
CONTINUOUS
 62
     7
 10
920.1316470912074
 20
685.0556497575624
 30
0.0
  0
VERTEX
  5
2ED
  8
0
  6
CONTINUOUS
 62
     7
 10
920.1134963637935
 20
685.0436827037801
 30
0.0
  0
VERTEX
  5
2EE
  8
0
  6
CONTINUOUS
 62
     7
 10
920.0954680305028
 20
685.031465116052
 30
0.0
  0
VERTEX
  5
2EF
  8
0
  6
CONTINUOUS
 62
     7
 10
920.0775416923152
 20
685.019038750036
 30
0.0
  0
VERTEX
  5
2F0
  8
0
  6
CONTINUOUS
 62
     7
 10
920.0596969502094
 20
685.0064453613893
 30
0.0
  0
VERTEX
  5
2F1
  8
0
  6
CONTINUOUS
 62
     7
 10
920.0419134051656
 20
684.9937267057699
 30
0.0
  0
VERTEX
  5
2F2
  8
0
  6
CONTINUOUS
 62
     7
 10
920.0241706581628
 20
684.9809245388351
 30
0.0
  0
VERTEX
  5
2F3
  8
0
  6
CONTINUOUS
 62
     7
 10
920.0064483101805
 20
684.9680806162427
 30
0.0
  0
SEQEND
  5
8A3
  8
0
  6
CONTINUOUS
 62
     7
  0
LINE
  5
DD
  8
0
  6
CONTINUOUS
 62
     7
 10
920.6564483101846
 20
685.209425443101
 30
0.0
 11
921.5064483101896
 21
685.2094254431039
 31
0.0
  0
LINE
  5
DE
  8
0
  6
CONTINUOUS
 62
     7
 10
922.0064483101812
 20
723.7094254431076
 30
0.0
 11
921.8064483101812
 21
723.7094254431076
 31
0.0
  0
LINE
  5
DF
  8
0
  6
CONTINUOUS
 62
     7
 10
922.0064483102043
 20
666.709425443105
 30
0.0
 11
921.8064483102044
 21
666.709425443105
 31
0.0
  0
LINE
  5
E0
  8
0
  6
CONTINUOUS
 62
     7
 10
921.5064483101803
 20
1854.165383582161
 30
0.0
 11
922.0064483101822
 21
1854.165383582161
 31
0.0
  0
LINE
  5
E1
  8
0
  6
CONTINUOUS
 62
     7
 10
921.506448310179
 20
1852.609425442869
 30
0.0
 11
922.0064483101789
 21
1852.609425442869
 31
0.0
  0
LINE
  5
E2
  8
0
  6
CONTINUOUS
 62
     7
 10
921.506448310179
 20
1852.609425442869
 30
0.0
 11
921.5064483101803
 21
1854.165383582161
 31
0.0
  0
LINE
  5
E3
  8
0
  6
CONTINUOUS
 62
     7
 10
922.0064483101822
 20
1836.253467304032
 30
0.0
 11
921.506448310187
 21
1836.253467304033
 31
0.0
  0
LINE
  5
E4
  8
0
  6
CONTINUOUS
 62
     7
 10
921.506448310187
 20
1836.253467304033
 30
0.0
 11
921.5064483101947
 21
1837.809425443319
 31
0.0
  0
LINE
  5
E5
  8
0
  6
CONTINUOUS
 62
     7
 10
922.0064483101947
 20
1837.809425443319
 30
0.0
 11
921.5064483101947
 21
1837.809425443319
 31
0.0
  0
LINE
  5
E6
  8
0
  6
CONTINUOUS
 62
     7
 10
921.806448310181
 20
1863.600999600853
 30
0.0
 11
921.5064483101809
 21
1863.600999600853
 31
0.0
  0
LINE
  5
E7
  8
0
  6
CONTINUOUS
 62
     7
 10
922.0064483101811
 20
1863.600999600853
 30
0.0
 11
921.806448310181
 21
1863.600999600853
 31
0.0
  0
LINE
  5
E8
  8
0
  6
CONTINUOUS
 62
     7
 10
921.5064483101809
 20
1863.600999600853
 30
0.0
 11
921.5064483101803
 21
1854.165383582161
 31
0.0
  0
LINE
  5
E9
  8
0
  6
CONTINUOUS
 62
     7
 10
921.8064483101867
 20
1826.817851285354
 30
0.0
 11
922.0064483101868
 21
1826.817851285354
 31
0.0
  0
LINE
  5
EA
  8
0
  6
CONTINUOUS
 62
     7
 10
921.5064483101868
 20
1826.817851285354
 30
0.0
 11
921.8064483101867
 21
1826.817851285354
 31
0.0
  0
LINE
  5
EB
  8
0
  6
CONTINUOUS
 62
     7
 10
921.506448310187
 20
1836.253467304033
 30
0.0
 11
921.5064483101868
 21
1826.817851285354
 31
0.0
  0
POLYLINE
  5
EC
  8
0
  6
CONTINUOUS
 62
     7
 10
0.0
 20
0.0
 30
0.0
 66
     1
 70
     8
  0
VERTEX
  5
2F4
  8
0
  6
CONTINUOUS
 62
     7
 10
920.0064483101806
 20
1873.709425443103
 30
0.0
 70
    32
  0
VERTEX
  5
2F5
  8
0
  6
CONTINUOUS
 62
     7
 10
920.02371713556
 20
1873.709425443103
 30
0.0
 70
    32
  0
VERTEX
  5
2F6
  8
0
  6
CONTINUOUS
 62
     7
 10
920.0411422190306
 20
1873.709425443102
 30
0.0
 70
    32
  0
VERTEX
  5
2F7
  8
0
  6
CONTINUOUS
 62
     7
 10
920.0588798186842
 20
1873.709425443102
 30
0.0
 70
    32
  0
VERTEX
  5
2F8
  8
0
  6
CONTINUOUS
 62
     7
 10
920.077086192612
 20
1873.709425443103
 30
0.0
 70
    32
  0
VERTEX
  5
2F9
  8
0
  6
CONTINUOUS
 62
     7
 10
920.0959175989051
 20
1873.709425443103
 30
0.0
 70
    32
  0
VERTEX
  5
2FA
  8
0
  6
CONTINUOUS
 62
     7
 10
920.1155302956547
 20
1873.709425443103
 30
0.0
 70
    32
  0
VERTEX
  5
2FB
  8
0
  6
CONTINUOUS
 62
     7
 10
920.1360805189436
 20
1873.709425443103
 30
0.0
 70
    32
  0
VERTEX
  5
2FC
  8
0
  6
CONTINUOUS
 62
     7
 10
920.1576783065625
 20
1873.709425443103
 30
0.0
 70
    32
  0
VERTEX
  5
2FD
  8
0
  6
CONTINUOUS
 62
     7
 10
920.1802901018832
 20
1873.709425443103
 30
0.0
 70
    32
  0
VERTEX
  5
2FE
  8
0
  6
CONTINUOUS
 62
     7
 10
920.2038545306647
 20
1873.709425443103
 30
0.0
 70
    32
  0
VERTEX
  5
2FF
  8
0
  6
CONTINUOUS
 62
     7
 10
920.2283102186651
 20
1873.709425443102
 30
0.0
 70
    32
  0
VERTEX
  5
300
  8
0
  6
CONTINUOUS
 62
     7
 10
920.2535957916435
 20
1873.709425443103
 30
0.0
 70
    32
  0
VERTEX
  5
301
  8
0
  6
CONTINUOUS
 62
     7
 10
920.2796498753582
 20
1873.709425443102
 30
0.0
 70
    32
  0
VERTEX
  5
302
  8
0
  6
CONTINUOUS
 62
     7
 10
920.3064110955685
 20
1873.709425443102
 30
0.0
 70
    32
  0
VERTEX
  5
303
  8
0
  6
CONTINUOUS
 62
     7
 10
920.3338180780326
 20
1873.709425443102
 30
0.0
 70
    32
  0
VERTEX
  5
304
  8
0
  6
CONTINUOUS
 62
     7
 10
920.3618094485091
 20
1873.709425443103
 30
0.0
 70
    32
  0
VERTEX
  5
305
  8
0
  6
CONTINUOUS
 62
     7
 10
920.3903238327568
 20
1873.709425443103
 30
0.0
 70
    32
  0
VERTEX
  5
306
  8
0
  6
CONTINUOUS
 62
     7
 10
920.4193084836104
 20
1873.709425443102
 30
0.0
 70
    32
  0
VERTEX
  5
307
  8
0
  6
CONTINUOUS
 62
     7
 10
920.4487527924906
 20
1873.709425443102
 30
0.0
 70
    32
  0
VERTEX
  5
308
  8
0
  6
CONTINUOUS
 62
     7
 10
920.4786589969001
 20
1873.709425443103
 30
0.0
 70
    32
  0
VERTEX
  5
309
  8
0
  6
CONTINUOUS
 62
     7
 10
920.5090293374463
 20
1873.709425443103
 30
0.0
 70
    32
  0
VERTEX
  5
30A
  8
0
  6
CONTINUOUS
 62
     7
 10
920.5398660547392
 20
1873.709425443103
 30
0.0
 70
    32
  0
VERTEX
  5
30B
  8
0
  6
CONTINUOUS
 62
     7
 10
920.5711713893869
 20
1873.709425443103
 30
0.0
 70
    32
  0
VERTEX
  5
30C
  8
0
  6
CONTINUOUS
 62
     7
 10
920.6029475819984
 20
1873.709425443103
 30
0.0
 70
    32
  0
VERTEX
  5
30D
  8
0
  6
CONTINUOUS
 62
     7
 10
920.6351968731824
 20
1873.709425443103
 30
0.0
 70
    32
  0
VERTEX
  5
30E
  8
0
  6
CONTINUOUS
 62
     7
 10
920.6679215035474
 20
1873.709425443103
 30
0.0
 70
    32
  0
VERTEX
  5
30F
  8
0
  6
CONTINUOUS
 62
     7
 10
920.7011237137024
 20
1873.709425443103
 30
0.0
 70
    32
  0
VERTEX
  5
310
  8
0
  6
CONTINUOUS
 62
     7
 10
920.7348041525112
 20
1873.709425443103
 30
0.0
 70
    32
  0
VERTEX
  5
311
  8
0
  6
CONTINUOUS
 62
     7
 10
920.7689515458344
 20
1873.709425443102
 30
0.0
 70
    32
  0
VERTEX
  5
312
  8
0
  6
CONTINUOUS
 62
     7
 10
920.8035492127447
 20
1873.709425443102
 30
0.0
 70
    32
  0
VERTEX
  5
313
  8
0
  6
CONTINUOUS
 62
     7
 10
920.8385804454343
 20
1873.709425443102
 30
0.0
 70
    32
  0
VERTEX
  5
314
  8
0
  6
CONTINUOUS
 62
     7
 10
920.8740285360959
 20
1873.709425443102
 30
0.0
 70
    32
  0
VERTEX
  5
315
  8
0
  6
CONTINUOUS
 62
     7
 10
920.9098767769216
 20
1873.709425443102
 30
0.0
 70
    32
  0
VERTEX
  5
316
  8
0
  6
CONTINUOUS
 62
     7
 10
920.9461084601036
 20
1873.709425443102
 30
0.0
 70
    32
  0
VERTEX
  5
317
  8
0
  6
CONTINUOUS
 62
     7
 10
920.9827068778343
 20
1873.709425443102
 30
0.0
 70
    32
  0
VERTEX
  5
318
  8
0
  6
CONTINUOUS
 62
     7
 10
921.0196553223061
 20
1873.709425443102
 30
0.0
 70
    32
  0
VERTEX
  5
319
  8
0
  6
CONTINUOUS
 62
     7
 10
921.0569370857114
 20
1873.709425443102
 30
0.0
 70
    32
  0
VERTEX
  5
31A
  8
0
  6
CONTINUOUS
 62
     7
 10
921.0945354622485
 20
1873.709425443102
 30
0.0
 70
    32
  0
VERTEX
  5
31B
  8
0
  6
CONTINUOUS
 62
     7
 10
921.1324337713903
 20
1873.709425443103
 30
0.0
 70
    32
  0
VERTEX
  5
31C
  8
0
  6
CONTINUOUS
 62
     7
 10
921.1706153498976
 20
1873.709425443102
 30
0.0
 70
    32
  0
VERTEX
  5
31D
  8
0
  6
CONTINUOUS
 62
     7
 10
921.2090635348668
 20
1873.709425443103
 30
0.0
 70
    32
  0
VERTEX
  5
31E
  8
0
  6
CONTINUOUS
 62
     7
 10
921.2477616633935
 20
1873.709425443103
 30
0.0
 70
    32
  0
VERTEX
  5
31F
  8
0
  6
CONTINUOUS
 62
     7
 10
921.2866930725742
 20
1873.709425443103
 30
0.0
 70
    32
  0
VERTEX
  5
320
  8
0
  6
CONTINUOUS
 62
     7
 10
921.3258410995052
 20
1873.709425443103
 30
0.0
 70
    32
  0
VERTEX
  5
321
  8
0
  6
CONTINUOUS
 62
     7
 10
921.3651890812823
 20
1873.709425443104
 30
0.0
 70
    32
  0
VERTEX
  5
322
  8
0
  6
CONTINUOUS
 62
     7
 10
921.4047203550019
 20
1873.709425443104
 30
0.0
 70
    32
  0
VERTEX
  5
323
  8
0
  6
CONTINUOUS
 62
     7
 10
921.4444182577599
 20
1873.709425443104
 30
0.0
 70
    32
  0
VERTEX
  5
324
  8
0
  6
CONTINUOUS
 62
     7
 10
921.4842661266528
 20
1873.709425443105
 30
0.0
 70
    32
  0
VERTEX
  5
325
  8
0
  6
CONTINUOUS
 62
     7
 10
921.5242472987763
 20
1873.709425443105
 30
0.0
 70
    32
  0
VERTEX
  5
326
  8
0
  6
CONTINUOUS
 62
     7
 10
921.5643451112269
 20
1873.709425443105
 30
0.0
 70
    32
  0
VERTEX
  5
327
  8
0
  6
CONTINUOUS
 62
     7
 10
921.6045429011006
 20
1873.709425443106
 30
0.0
 70
    32
  0
VERTEX
  5
328
  8
0
  6
CONTINUOUS
 62
     7
 10
921.6448240054937
 20
1873.709425443106
 30
0.0
 70
    32
  0
VERTEX
  5
329
  8
0
  6
CONTINUOUS
 62
     7
 10
921.685171761502
 20
1873.709425443107
 30
0.0
 70
    32
  0
VERTEX
  5
32A
  8
0
  6
CONTINUOUS
 62
     7
 10
921.7255695062221
 20
1873.709425443107
 30
0.0
 70
    32
  0
VERTEX
  5
32B
  8
0
  6
CONTINUOUS
 62
     7
 10
921.7660005767498
 20
1873.709425443108
 30
0.0
 70
    32
  0
VERTEX
  5
32C
  8
0
  6
CONTINUOUS
 62
     7
 10
921.8064483101812
 20
1873.709425443108
 30
0.0
 70
    32
  0
SEQEND
  5
8A4
  8
0
  6
CONTINUOUS
 62
     7
  0
LINE
  5
ED
  8
0
  6
CONTINUOUS
 62
     7
 10
921.8064483101806
 20
1872.709425443109
 30
0.0
 11
921.8064483101812
 21
1873.709425443108
 31
0.0
  0
POLYLINE
  5
EE
  8
0
  6
CONTINUOUS
 62
     7
 10
0.0
 20
0.0
 30
0.0
 66
     1
 70
     8
  0
VERTEX
  5
32D
  8
0
  6
CONTINUOUS
 62
     7
 10
921.8064483102045
 20
1816.709425443105
 30
0.0
 70
    32
  0
VERTEX
  5
32E
  8
0
  6
CONTINUOUS
 62
     7
 10
921.7659998315072
 20
1816.709425443106
 30
0.0
 70
    32
  0
VERTEX
  5
32F
  8
0
  6
CONTINUOUS
 62
     7
 10
921.7255680192046
 20
1816.709425443105
 30
0.0
 70
    32
  0
VERTEX
  5
330
  8
0
  6
CONTINUOUS
 62
     7
 10
921.6851695396917
 20
1816.709425443106
 30
0.0
 70
    32
  0
VERTEX
  5
331
  8
0
  6
CONTINUOUS
 62
     7
 10
921.6448210593634
 20
1816.709425443105
 30
0.0
 70
    32
  0
VERTEX
  5
332
  8
0
  6
CONTINUOUS
 62
     7
 10
921.6045392446142
 20
1816.709425443106
 30
0.0
 70
    32
  0
VERTEX
  5
333
  8
0
  6
CONTINUOUS
 62
     7
 10
921.5643407618389
 20
1816.709425443105
 30
0.0
 70
    32
  0
VERTEX
  5
334
  8
0
  6
CONTINUOUS
 62
     7
 10
921.5242422774329
 20
1816.709425443105
 30
0.0
 70
    32
  0
VERTEX
  5
335
  8
0
  6
CONTINUOUS
 62
     7
 10
921.4842604577902
 20
1816.709425443105
 30
0.0
 70
    32
  0
VERTEX
  5
336
  8
0
  6
CONTINUOUS
 62
     7
 10
921.4444119693064
 20
1816.709425443106
 30
0.0
 70
    32
  0
VERTEX
  5
337
  8
0
  6
CONTINUOUS
 62
     7
 10
921.4047134783756
 20
1816.709425443105
 30
0.0
 70
    32
  0
VERTEX
  5
338
  8
0
  6
CONTINUOUS
 62
     7
 10
921.3651816513932
 20
1816.709425443105
 30
0.0
 70
    32
  0
VERTEX
  5
339
  8
0
  6
CONTINUOUS
 62
     7
 10
921.3258331547538
 20
1816.709425443106
 30
0.0
 70
    32
  0
VERTEX
  5
33A
  8
0
  6
CONTINUOUS
 62
     7
 10
921.2866846548521
 20
1816.709425443106
 30
0.0
 70
    32
  0
VERTEX
  5
33B
  8
0
  6
CONTINUOUS
 62
     7
 10
921.2477528180827
 20
1816.709425443105
 30
0.0
 70
    32
  0
VERTEX
  5
33C
  8
0
  6
CONTINUOUS
 62
     7
 10
921.2090543108412
 20
1816.709425443106
 30
0.0
 70
    32
  0
VERTEX
  5
33D
  8
0
  6
CONTINUOUS
 62
     7
 10
921.1706057995216
 20
1816.709425443105
 30
0.0
 70
    32
  0
VERTEX
  5
33E
  8
0
  6
CONTINUOUS
 62
     7
 10
921.1324239505192
 20
1816.709425443105
 30
0.0
 70
    32
  0
VERTEX
  5
33F
  8
0
  6
CONTINUOUS
 62
     7
 10
921.0945254302287
 20
1816.709425443105
 30
0.0
 70
    32
  0
VERTEX
  5
340
  8
0
  6
CONTINUOUS
 62
     7
 10
921.0569269052872
 20
1816.709425443106
 30
0.0
 70
    32
  0
VERTEX
  5
341
  8
0
  6
CONTINUOUS
 62
     7
 10
921.0196450547927
 20
1816.709425443105
 30
0.0
 70
    32
  0
VERTEX
  5
342
  8
0
  6
CONTINUOUS
 62
     7
 10
920.9826965760504
 20
1816.709425443105
 30
0.0
 70
    32
  0
VERTEX
  5
343
  8
0
  6
CONTINUOUS
 62
     7
 10
920.946098167808
 20
1816.709425443106
 30
0.0
 70
    32
  0
VERTEX
  5
344
  8
0
  6
CONTINUOUS
 62
     7
 10
920.9098665288133
 20
1816.709425443106
 30
0.0
 70
    32
  0
VERTEX
  5
345
  8
0
  6
CONTINUOUS
 62
     7
 10
920.8740183578137
 20
1816.709425443105
 30
0.0
 70
    32
  0
VERTEX
  5
346
  8
0
  6
CONTINUOUS
 62
     7
 10
920.8385703535581
 20
1816.709425443105
 30
0.0
 70
    32
  0
VERTEX
  5
347
  8
0
  6
CONTINUOUS
 62
     7
 10
920.8035392147939
 20
1816.709425443106
 30
0.0
 70
    32
  0
VERTEX
  5
348
  8
0
  6
CONTINUOUS
 62
     7
 10
920.768941640269
 20
1816.709425443106
 30
0.0
 70
    32
  0
VERTEX
  5
349
  8
0
  6
CONTINUOUS
 62
     7
 10
920.7347943287313
 20
1816.709425443106
 30
0.0
 70
    32
  0
VERTEX
  5
34A
  8
0
  6
CONTINUOUS
 62
     7
 10
920.7011139463327
 20
1816.709425443106
 30
0.0
 70
    32
  0
VERTEX
  5
34B
  8
0
  6
CONTINUOUS
 62
     7
 10
920.6679115997892
 20
1816.709425443105
 30
0.0
 70
    32
  0
VERTEX
  5
34C
  8
0
  6
CONTINUOUS
 62
     7
 10
920.6351865976318
 20
1816.709425443106
 30
0.0
 70
    32
  0
VERTEX
  5
34D
  8
0
  6
CONTINUOUS
 62
     7
 10
920.6029367418539
 20
1816.709425443105
 30
0.0
 70
    32
  0
VERTEX
  5
34E
  8
0
  6
CONTINUOUS
 62
     7
 10
920.5711598344502
 20
1816.709425443105
 30
0.0
 70
    32
  0
VERTEX
  5
34F
  8
0
  6
CONTINUOUS
 62
     7
 10
920.5398536774139
 20
1816.709425443106
 30
0.0
 70
    32
  0
VERTEX
  5
350
  8
0
  6
CONTINUOUS
 62
     7
 10
920.5090160727395
 20
1816.709425443105
 30
0.0
 70
    32
  0
VERTEX
  5
351
  8
0
  6
CONTINUOUS
 62
     7
 10
920.4786448224208
 20
1816.709425443106
 30
0.0
 70
    32
  0
VERTEX
  5
352
  8
0
  6
CONTINUOUS
 62
     7
 10
920.4487377284516
 20
1816.709425443106
 30
0.0
 70
    32
  0
VERTEX
  5
353
  8
0
  6
CONTINUOUS
 62
     7
 10
920.419292592826
 20
1816.709425443105
 30
0.0
 70
    32
  0
VERTEX
  5
354
  8
0
  6
CONTINUOUS
 62
     7
 10
920.3903072207279
 20
1816.709425443106
 30
0.0
 70
    32
  0
VERTEX
  5
355
  8
0
  6
CONTINUOUS
 62
     7
 10
920.3617922904085
 20
1816.709425443105
 30
0.0
 70
    32
  0
VERTEX
  5
356
  8
0
  6
CONTINUOUS
 62
     7
 10
920.3338006352915
 20
1816.709425443105
 30
0.0
 70
    32
  0
VERTEX
  5
357
  8
0
  6
CONTINUOUS
 62
     7
 10
920.306393704268
 20
1816.709425443106
 30
0.0
 70
    32
  0
VERTEX
  5
358
  8
0
  6
CONTINUOUS
 62
     7
 10
920.2796329462293
 20
1816.709425443106
 30
0.0
 70
    32
  0
VERTEX
  5
359
  8
0
  6
CONTINUOUS
 62
     7
 10
920.2535798100664
 20
1816.709425443105
 30
0.0
 70
    32
  0
VERTEX
  5
35A
  8
0
  6
CONTINUOUS
 62
     7
 10
920.2282957446715
 20
1816.709425443105
 30
0.0
 70
    32
  0
VERTEX
  5
35B
  8
0
  6
CONTINUOUS
 62
     7
 10
920.2038421989353
 20
1816.709425443105
 30
0.0
 70
    32
  0
VERTEX
  5
35C
  8
0
  6
CONTINUOUS
 62
     7
 10
920.1802806217487
 20
1816.709425443105
 30
0.0
 70
    32
  0
VERTEX
  5
35D
  8
0
  6
CONTINUOUS
 62
     7
 10
920.1576724620039
 20
1816.709425443105
 30
0.0
 70
    32
  0
VERTEX
  5
35E
  8
0
  6
CONTINUOUS
 62
     7
 10
920.136079168592
 20
1816.709425443105
 30
0.0
 70
    32
  0
VERTEX
  5
35F
  8
0
  6
CONTINUOUS
 62
     7
 10
920.115533103543
 20
1816.709425443105
 30
0.0
 70
    32
  0
VERTEX
  5
360
  8
0
  6
CONTINUOUS
 62
     7
 10
920.0959227404704
 20
1816.709425443105
 30
0.0
 70
    32
  0
VERTEX
  5
361
  8
0
  6
CONTINUOUS
 62
     7
 10
920.0770921396771
 20
1816.709425443105
 30
0.0
 70
    32
  0
VERTEX
  5
362
  8
0
  6
CONTINUOUS
 62
     7
 10
920.0588853487075
 20
1816.709425443105
 30
0.0
 70
    32
  0
VERTEX
  5
363
  8
0
  6
CONTINUOUS
 62
     7
 10
920.0411464151055
 20
1816.709425443105
 30
0.0
 70
    32
  0
VERTEX
  5
364
  8
0
  6
CONTINUOUS
 62
     7
 10
920.0237193864149
 20
1816.709425443105
 30
0.0
 70
    32
  0
VERTEX
  5
365
  8
0
  6
CONTINUOUS
 62
     7
 10
920.0064483101806
 20
1816.709425443106
 30
0.0
 70
    32
  0
SEQEND
  5
8A5
  8
0
  6
CONTINUOUS
 62
     7
  0
LINE
  5
EF
  8
0
  6
CONTINUOUS
 62
     7
 10
921.8064483101898
 20
1817.709425443104
 30
0.0
 11
921.8064483102045
 21
1816.709425443105
 31
0.0
  0
POLYLINE
  5
F0
  8
0
  6
CONTINUOUS
 62
     7
 66
     1
 10
0.0
 20
0.0
 30
0.0
  0
VERTEX
  5
366
  8
0
  6
CONTINUOUS
 62
     7
 10
920.0064483101806
 20
1855.455189783286
 30
0.0
  0
VERTEX
  5
367
  8
0
  6
CONTINUOUS
 62
     7
 10
920.0178594952005
 20
1855.441681374097
 30
0.0
  0
VERTEX
  5
368
  8
0
  6
CONTINUOUS
 62
     7
 10
920.0295855885998
 20
1855.428534719991
 30
0.0
  0
VERTEX
  5
369
  8
0
  6
CONTINUOUS
 62
     7
 10
920.0417742137281
 20
1855.415924278838
 30
0.0
  0
VERTEX
  5
36A
  8
0
  6
CONTINUOUS
 62
     7
 10
920.0544120248001
 20
1855.403844282758
 30
0.0
  0
VERTEX
  5
36B
  8
0
  6
CONTINUOUS
 62
     7
 10
920.0674791525046
 20
1855.392281659937
 30
0.0
  0
VERTEX
  5
36C
  8
0
  6
CONTINUOUS
 62
     7
 10
920.080955727531
 20
1855.381223338564
 30
0.0
  0
VERTEX
  5
36D
  8
0
  6
CONTINUOUS
 62
     7
 10
920.0948218805677
 20
1855.370656246826
 30
0.0
  0
VERTEX
  5
36E
  8
0
  6
CONTINUOUS
 62
     7
 10
920.1090577423041
 20
1855.360567312911
 30
0.0
  0
VERTEX
  5
36F
  8
0
  6
CONTINUOUS
 62
     7
 10
920.1236434434296
 20
1855.350943465008
 30
0.0
  0
VERTEX
  5
370
  8
0
  6
CONTINUOUS
 62
     7
 10
920.1385591146321
 20
1855.341771631302
 30
0.0
  0
VERTEX
  5
371
  8
0
  6
CONTINUOUS
 62
     7
 10
920.1537848866014
 20
1855.333038739983
 30
0.0
  0
VERTEX
  5
372
  8
0
  6
CONTINUOUS
 62
     7
 10
920.1693008900263
 20
1855.324731719238
 30
0.0
  0
VERTEX
  5
373
  8
0
  6
CONTINUOUS
 62
     7
 10
920.185087255596
 20
1855.316837497255
 30
0.0
  0
VERTEX
  5
374
  8
0
  6
CONTINUOUS
 62
     7
 10
920.2011241139991
 20
1855.309343002221
 30
0.0
  0
VERTEX
  5
375
  8
0
  6
CONTINUOUS
 62
     7
 10
920.2173915959248
 20
1855.302235162325
 30
0.0
  0
VERTEX
  5
376
  8
0
  6
CONTINUOUS
 62
     7
 10
920.2338698320623
 20
1855.295500905755
 30
0.0
  0
VERTEX
  5
377
  8
0
  6
CONTINUOUS
 62
     7
 10
920.2505389531002
 20
1855.289127160697
 30
0.0
  0
VERTEX
  5
378
  8
0
  6
CONTINUOUS
 62
     7
 10
920.2673790897277
 20
1855.283100855339
 30
0.0
  0
VERTEX
  5
379
  8
0
  6
CONTINUOUS
 62
     7
 10
920.2843703726337
 20
1855.277408917871
 30
0.0
  0
VERTEX
  5
37A
  8
0
  6
CONTINUOUS
 62
     7
 10
920.3014929325075
 20
1855.272038276479
 30
0.0
  0
VERTEX
  5
37B
  8
0
  6
CONTINUOUS
 62
     7
 10
920.3187269000375
 20
1855.266975859351
 30
0.0
  0
VERTEX
  5
37C
  8
0
  6
CONTINUOUS
 62
     7
 10
920.3360524063171
 20
1855.262208594608
 30
0.0
  0
VERTEX
  5
37D
  8
0
  6
CONTINUOUS
 62
     7
 10
920.3534526676267
 20
1855.257722905616
 30
0.0
  0
VERTEX
  5
37E
  8
0
  6
CONTINUOUS
 62
     7
 10
920.3709214165582
 20
1855.253503495198
 30
0.0
  0
VERTEX
  5
37F
  8
0
  6
CONTINUOUS
 62
     7
 10
920.388454624428
 20
1855.249534699911
 30
0.0
  0
VERTEX
  5
380
  8
0
  6
CONTINUOUS
 62
     7
 10
920.4060482625522
 20
1855.245800856305
 30
0.0
  0
VERTEX
  5
381
  8
0
  6
CONTINUOUS
 62
     7
 10
920.4236983022481
 20
1855.242286300939
 30
0.0
  0
VERTEX
  5
382
  8
0
  6
CONTINUOUS
 62
     7
 10
920.4414007148309
 20
1855.238975370365
 30
0.0
  0
VERTEX
  5
383
  8
0
  6
CONTINUOUS
 62
     7
 10
920.4591514716175
 20
1855.235852401138
 30
0.0
  0
VERTEX
  5
384
  8
0
  6
CONTINUOUS
 62
     7
 10
920.4769465439243
 20
1855.232901729812
 30
0.0
  0
VERTEX
  5
385
  8
0
  6
CONTINUOUS
 62
     7
 10
920.4947819030675
 20
1855.230107692942
 30
0.0
  0
VERTEX
  5
386
  8
0
  6
CONTINUOUS
 62
     7
 10
920.5126535203635
 20
1855.227454627082
 30
0.0
  0
VERTEX
  5
387
  8
0
  6
CONTINUOUS
 62
     7
 10
920.5305573671288
 20
1855.224926868787
 30
0.0
  0
VERTEX
  5
388
  8
0
  6
CONTINUOUS
 62
     7
 10
920.5484894146797
 20
1855.222508754611
 30
0.0
  0
VERTEX
  5
389
  8
0
  6
CONTINUOUS
 62
     7
 10
920.5664456343321
 20
1855.220184621108
 30
0.0
  0
VERTEX
  5
38A
  8
0
  6
CONTINUOUS
 62
     7
 10
920.584421997403
 20
1855.217938804833
 30
0.0
  0
VERTEX
  5
38B
  8
0
  6
CONTINUOUS
 62
     7
 10
920.6024144752082
 20
1855.21575564234
 30
0.0
  0
VERTEX
  5
38C
  8
0
  6
CONTINUOUS
 62
     7
 10
920.6204190390647
 20
1855.213619470185
 30
0.0
  0
VERTEX
  5
38D
  8
0
  6
CONTINUOUS
 62
     7
 10
920.6384316602883
 20
1855.21151462492
 30
0.0
  0
VERTEX
  5
38E
  8
0
  6
CONTINUOUS
 62
     7
 10
920.6564483101957
 20
1855.209425443102
 30
0.0
  0
SEQEND
  5
8A6
  8
0
  6
CONTINUOUS
 62
     7
  0
LINE
  5
F1
  8
0
  6
CONTINUOUS
 62
     7
 10
921.8064483101806
 20
1872.709425443109
 30
0.0
 11
921.806448310181
 21
1863.600999600853
 31
0.0
  0
LINE
  5
F2
  8
0
  6
CONTINUOUS
 62
     7
 10
921.5064483101897
 20
1855.209425443101
 30
0.0
 11
920.6564483101956
 21
1855.209425443101
 31
0.0
  0
LINE
  5
F3
  8
0
  6
CONTINUOUS
 62
     7
 10
922.0064483101805
 20
1872.709425443109
 30
0.0
 11
921.8064483101806
 21
1872.709425443109
 31
0.0
  0
LINE
  5
F4
  8
0
  6
CONTINUOUS
 62
     7
 10
922.0064483101897
 20
1817.709425443104
 30
0.0
 11
921.8064483101898
 21
1817.709425443104
 31
0.0
  0
LINE
  5
F5
  8
0
  6
CONTINUOUS
 62
     7
 10
921.8064483101867
 20
1826.817851285354
 30
0.0
 11
921.8064483101898
 21
1817.709425443104
 31
0.0
  0
POLYLINE
  5
F6
  8
0
  6
CONTINUOUS
 62
     7
 66
     1
 10
0.0
 20
0.0
 30
0.0
  0
VERTEX
  5
38F
  8
0
  6
CONTINUOUS
 62
     7
 10
920.6564483101847
 20
1835.209425443101
 30
0.0
  0
VERTEX
  5
390
  8
0
  6
CONTINUOUS
 62
     7
 10
920.6335628515543
 20
1835.207150120109
 30
0.0
  0
VERTEX
  5
391
  8
0
  6
CONTINUOUS
 62
     7
 10
920.6106973873536
 20
1835.204833869635
 30
0.0
  0
VERTEX
  5
392
  8
0
  6
CONTINUOUS
 62
     7
 10
920.5878719120117
 20
1835.202435764196
 30
0.0
  0
VERTEX
  5
393
  8
0
  6
CONTINUOUS
 62
     7
 10
920.5651064199583
 20
1835.19991487631
 30
0.0
  0
VERTEX
  5
394
  8
0
  6
CONTINUOUS
 62
     7
 10
920.5424209056229
 20
1835.197230278495
 30
0.0
  0
VERTEX
  5
395
  8
0
  6
CONTINUOUS
 62
     7
 10
920.5198353634353
 20
1835.194341043268
 30
0.0
  0
VERTEX
  5
396
  8
0
  6
CONTINUOUS
 62
     7
 10
920.4973697878246
 20
1835.191206243147
 30
0.0
  0
VERTEX
  5
397
  8
0
  6
CONTINUOUS
 62
     7
 10
920.4750441732206
 20
1835.187784950651
 30
0.0
  0
VERTEX
  5
398
  8
0
  6
CONTINUOUS
 62
     7
 10
920.4528785140524
 20
1835.184036238296
 30
0.0
  0
VERTEX
  5
399
  8
0
  6
CONTINUOUS
 62
     7
 10
920.4308928047496
 20
1835.179919178599
 30
0.0
  0
VERTEX
  5
39A
  8
0
  6
CONTINUOUS
 62
     7
 10
920.4091070397424
 20
1835.175392844081
 30
0.0
  0
VERTEX
  5
39B
  8
0
  6
CONTINUOUS
 62
     7
 10
920.3875412134597
 20
1835.170416307256
 30
0.0
  0
VERTEX
  5
39C
  8
0
  6
CONTINUOUS
 62
     7
 10
920.3662153203309
 20
1835.164948640644
 30
0.0
  0
VERTEX
  5
39D
  8
0
  6
CONTINUOUS
 62
     7
 10
920.3451493547857
 20
1835.158948916762
 30
0.0
  0
VERTEX
  5
39E
  8
0
  6
CONTINUOUS
 62
     7
 10
920.3243633112536
 20
1835.152376208127
 30
0.0
  0
VERTEX
  5
39F
  8
0
  6
CONTINUOUS
 62
     7
 10
920.3038771841643
 20
1835.145189587259
 30
0.0
  0
VERTEX
  5
3A0
  8
0
  6
CONTINUOUS
 62
     7
 10
920.2837069814252
 20
1835.13735628686
 30
0.0
  0
VERTEX
  5
3A1
  8
0
  6
CONTINUOUS
 62
     7
 10
920.2638427362847
 20
1835.128896708318
 30
0.0
  0
VERTEX
  5
3A2
  8
0
  6
CONTINUOUS
 62
     7
 10
920.244264077432
 20
1835.119852550569
 30
0.0
  0
VERTEX
  5
3A3
  8
0
  6
CONTINUOUS
 62
     7
 10
920.2249506058463
 20
1835.110265569271
 30
0.0
  0
VERTEX
  5
3A4
  8
0
  6
CONTINUOUS
 62
     7
 10
920.2058819225076
 20
1835.100177520082
 30
0.0
  0
VERTEX
  5
3A5
  8
0
  6
CONTINUOUS
 62
     7
 10
920.1870376283947
 20
1835.089630158659
 30
0.0
  0
VERTEX
  5
3A6
  8
0
  6
CONTINUOUS
 62
     7
 10
920.1683973244874
 20
1835.078665240659
 30
0.0
  0
VERTEX
  5
3A7
  8
0
  6
CONTINUOUS
 62
     7
 10
920.1499406117653
 20
1835.067324521742
 30
0.0
  0
VERTEX
  5
3A8
  8
0
  6
CONTINUOUS
 62
     7
 10
920.1316470912074
 20
1835.055649757562
 30
0.0
  0
VERTEX
  5
3A9
  8
0
  6
CONTINUOUS
 62
     7
 10
920.1134963637937
 20
1835.04368270378
 30
0.0
  0
VERTEX
  5
3AA
  8
0
  6
CONTINUOUS
 62
     7
 10
920.095468030503
 20
1835.031465116052
 30
0.0
  0
VERTEX
  5
3AB
  8
0
  6
CONTINUOUS
 62
     7
 10
920.077541692315
 20
1835.019038750036
 30
0.0
  0
VERTEX
  5
3AC
  8
0
  6
CONTINUOUS
 62
     7
 10
920.0596969502096
 20
1835.00644536139
 30
0.0
  0
VERTEX
  5
3AD
  8
0
  6
CONTINUOUS
 62
     7
 10
920.0419134051656
 20
1834.99372670577
 30
0.0
  0
VERTEX
  5
3AE
  8
0
  6
CONTINUOUS
 62
     7
 10
920.0241706581628
 20
1834.980924538835
 30
0.0
  0
VERTEX
  5
3AF
  8
0
  6
CONTINUOUS
 62
     7
 10
920.0064483101805
 20
1834.968080616243
 30
0.0
  0
SEQEND
  5
8A7
  8
0
  6
CONTINUOUS
 62
     7
  0
LINE
  5
F7
  8
0
  6
CONTINUOUS
 62
     7
 10
920.6564483101847
 20
1835.209425443101
 30
0.0
 11
921.5064483101896
 21
1835.209425443104
 31
0.0
  0
LINE
  5
F8
  8
0
  6
CONTINUOUS
 62
     7
 10
922.0064483101812
 20
1873.709425443108
 30
0.0
 11
921.8064483101812
 21
1873.709425443108
 31
0.0
  0
LINE
  5
F9
  8
0
  6
CONTINUOUS
 62
     7
 10
922.0064483102044
 20
1816.709425443105
 30
0.0
 11
921.8064483102045
 21
1816.709425443105
 31
0.0
  0
LINE
  5
FA
  8
0
  6
CONTINUOUS
 62
     7
 10
921.5064483101805
 20
1047.16538358216
 30
0.0
 11
922.0064483101818
 21
1047.165383582161
 31
0.0
  0
LINE
  5
FB
  8
0
  6
CONTINUOUS
 62
     7
 10
921.5064483101794
 20
1045.609425442868
 30
0.0
 11
922.0064483101793
 21
1045.609425442868
 31
0.0
  0
LINE
  5
FC
  8
0
  6
CONTINUOUS
 62
     7
 10
921.5064483101794
 20
1045.609425442868
 30
0.0
 11
921.5064483101805
 21
1047.16538358216
 31
0.0
  0
LINE
  5
FD
  8
0
  6
CONTINUOUS
 62
     7
 10
922.0064483101818
 20
1029.253467304032
 30
0.0
 11
921.5064483101874
 21
1029.253467304033
 31
0.0
  0
LINE
  5
FE
  8
0
  6
CONTINUOUS
 62
     7
 10
921.5064483101874
 20
1029.253467304033
 30
0.0
 11
921.5064483101951
 21
1030.809425443319
 31
0.0
  0
LINE
  5
FF
  8
0
  6
CONTINUOUS
 62
     7
 10
922.0064483101951
 20
1030.809425443319
 30
0.0
 11
921.5064483101951
 21
1030.809425443319
 31
0.0
  0
LINE
  5
100
  8
0
  6
CONTINUOUS
 62
     7
 10
921.8064483101814
 20
1056.600999600853
 30
0.0
 11
921.5064483101812
 21
1056.600999600853
 31
0.0
  0
LINE
  5
101
  8
0
  6
CONTINUOUS
 62
     7
 10
922.0064483101814
 20
1056.600999600853
 30
0.0
 11
921.8064483101814
 21
1056.600999600853
 31
0.0
  0
LINE
  5
102
  8
0
  6
CONTINUOUS
 62
     7
 10
921.5064483101812
 20
1056.600999600853
 30
0.0
 11
921.5064483101805
 21
1047.16538358216
 31
0.0
  0
LINE
  5
103
  8
0
  6
CONTINUOUS
 62
     7
 10
921.8064483101871
 20
1019.817851285353
 30
0.0
 11
922.0064483101871
 21
1019.817851285353
 31
0.0
  0
LINE
  5
104
  8
0
  6
CONTINUOUS
 62
     7
 10
921.5064483101871
 20
1019.817851285353
 30
0.0
 11
921.8064483101871
 21
1019.817851285353
 31
0.0
  0
LINE
  5
105
  8
0
  6
CONTINUOUS
 62
     7
 10
921.5064483101874
 20
1029.253467304033
 30
0.0
 11
921.5064483101871
 21
1019.817851285353
 31
0.0
  0
POLYLINE
  5
106
  8
0
  6
CONTINUOUS
 62
     7
 10
0.0
 20
0.0
 30
0.0
 66
     1
 70
     8
  0
VERTEX
  5
3B0
  8
0
  6
CONTINUOUS
 62
     7
 10
920.0064483101806
 20
1066.709425443102
 30
0.0
 70
    32
  0
VERTEX
  5
3B1
  8
0
  6
CONTINUOUS
 62
     7
 10
920.0237171355599
 20
1066.709425443102
 30
0.0
 70
    32
  0
VERTEX
  5
3B2
  8
0
  6
CONTINUOUS
 62
     7
 10
920.0411422190307
 20
1066.709425443102
 30
0.0
 70
    32
  0
VERTEX
  5
3B3
  8
0
  6
CONTINUOUS
 62
     7
 10
920.0588798186842
 20
1066.709425443102
 30
0.0
 70
    32
  0
VERTEX
  5
3B4
  8
0
  6
CONTINUOUS
 62
     7
 10
920.0770861926118
 20
1066.709425443102
 30
0.0
 70
    32
  0
VERTEX
  5
3B5
  8
0
  6
CONTINUOUS
 62
     7
 10
920.095917598905
 20
1066.709425443102
 30
0.0
 70
    32
  0
VERTEX
  5
3B6
  8
0
  6
CONTINUOUS
 62
     7
 10
920.1155302956549
 20
1066.709425443102
 30
0.0
 70
    32
  0
VERTEX
  5
3B7
  8
0
  6
CONTINUOUS
 62
     7
 10
920.1360805189437
 20
1066.709425443102
 30
0.0
 70
    32
  0
VERTEX
  5
3B8
  8
0
  6
CONTINUOUS
 62
     7
 10
920.1576783065623
 20
1066.709425443102
 30
0.0
 70
    32
  0
VERTEX
  5
3B9
  8
0
  6
CONTINUOUS
 62
     7
 10
920.1802901018833
 20
1066.709425443102
 30
0.0
 70
    32
  0
VERTEX
  5
3BA
  8
0
  6
CONTINUOUS
 62
     7
 10
920.2038545306643
 20
1066.709425443102
 30
0.0
 70
    32
  0
VERTEX
  5
3BB
  8
0
  6
CONTINUOUS
 62
     7
 10
920.2283102186649
 20
1066.709425443102
 30
0.0
 70
    32
  0
VERTEX
  5
3BC
  8
0
  6
CONTINUOUS
 62
     7
 10
920.2535957916433
 20
1066.709425443102
 30
0.0
 70
    32
  0
VERTEX
  5
3BD
  8
0
  6
CONTINUOUS
 62
     7
 10
920.2796498753582
 20
1066.709425443102
 30
0.0
 70
    32
  0
VERTEX
  5
3BE
  8
0
  6
CONTINUOUS
 62
     7
 10
920.3064110955683
 20
1066.709425443102
 30
0.0
 70
    32
  0
VERTEX
  5
3BF
  8
0
  6
CONTINUOUS
 62
     7
 10
920.3338180780326
 20
1066.709425443102
 30
0.0
 70
    32
  0
VERTEX
  5
3C0
  8
0
  6
CONTINUOUS
 62
     7
 10
920.3618094485089
 20
1066.709425443102
 30
0.0
 70
    32
  0
VERTEX
  5
3C1
  8
0
  6
CONTINUOUS
 62
     7
 10
920.3903238327568
 20
1066.709425443102
 30
0.0
 70
    32
  0
VERTEX
  5
3C2
  8
0
  6
CONTINUOUS
 62
     7
 10
920.4193084836105
 20
1066.709425443102
 30
0.0
 70
    32
  0
VERTEX
  5
3C3
  8
0
  6
CONTINUOUS
 62
     7
 10
920.4487527924907
 20
1066.709425443102
 30
0.0
 70
    32
  0
VERTEX
  5
3C4
  8
0
  6
CONTINUOUS
 62
     7
 10
920.4786589968998
 20
1066.709425443102
 30
0.0
 70
    32
  0
VERTEX
  5
3C5
  8
0
  6
CONTINUOUS
 62
     7
 10
920.5090293374461
 20
1066.709425443102
 30
0.0
 70
    32
  0
VERTEX
  5
3C6
  8
0
  6
CONTINUOUS
 62
     7
 10
920.5398660547389
 20
1066.709425443102
 30
0.0
 70
    32
  0
VERTEX
  5
3C7
  8
0
  6
CONTINUOUS
 62
     7
 10
920.5711713893868
 20
1066.709425443102
 30
0.0
 70
    32
  0
VERTEX
  5
3C8
  8
0
  6
CONTINUOUS
 62
     7
 10
920.6029475819983
 20
1066.709425443102
 30
0.0
 70
    32
  0
VERTEX
  5
3C9
  8
0
  6
CONTINUOUS
 62
     7
 10
920.6351968731822
 20
1066.709425443102
 30
0.0
 70
    32
  0
VERTEX
  5
3CA
  8
0
  6
CONTINUOUS
 62
     7
 10
920.6679215035473
 20
1066.709425443102
 30
0.0
 70
    32
  0
VERTEX
  5
3CB
  8
0
  6
CONTINUOUS
 62
     7
 10
920.7011237137021
 20
1066.709425443102
 30
0.0
 70
    32
  0
VERTEX
  5
3CC
  8
0
  6
CONTINUOUS
 62
     7
 10
920.7348041525111
 20
1066.709425443102
 30
0.0
 70
    32
  0
VERTEX
  5
3CD
  8
0
  6
CONTINUOUS
 62
     7
 10
920.7689515458343
 20
1066.709425443102
 30
0.0
 70
    32
  0
VERTEX
  5
3CE
  8
0
  6
CONTINUOUS
 62
     7
 10
920.8035492127447
 20
1066.709425443102
 30
0.0
 70
    32
  0
VERTEX
  5
3CF
  8
0
  6
CONTINUOUS
 62
     7
 10
920.8385804454344
 20
1066.709425443102
 30
0.0
 70
    32
  0
VERTEX
  5
3D0
  8
0
  6
CONTINUOUS
 62
     7
 10
920.874028536096
 20
1066.709425443102
 30
0.0
 70
    32
  0
VERTEX
  5
3D1
  8
0
  6
CONTINUOUS
 62
     7
 10
920.9098767769216
 20
1066.709425443102
 30
0.0
 70
    32
  0
VERTEX
  5
3D2
  8
0
  6
CONTINUOUS
 62
     7
 10
920.9461084601036
 20
1066.709425443102
 30
0.0
 70
    32
  0
VERTEX
  5
3D3
  8
0
  6
CONTINUOUS
 62
     7
 10
920.9827068778344
 20
1066.709425443102
 30
0.0
 70
    32
  0
VERTEX
  5
3D4
  8
0
  6
CONTINUOUS
 62
     7
 10
921.0196553223063
 20
1066.709425443102
 30
0.0
 70
    32
  0
VERTEX
  5
3D5
  8
0
  6
CONTINUOUS
 62
     7
 10
921.0569370857118
 20
1066.709425443102
 30
0.0
 70
    32
  0
VERTEX
  5
3D6
  8
0
  6
CONTINUOUS
 62
     7
 10
921.0945354622486
 20
1066.709425443102
 30
0.0
 70
    32
  0
VERTEX
  5
3D7
  8
0
  6
CONTINUOUS
 62
     7
 10
921.1324337713905
 20
1066.709425443102
 30
0.0
 70
    32
  0
VERTEX
  5
3D8
  8
0
  6
CONTINUOUS
 62
     7
 10
921.1706153498977
 20
1066.709425443102
 30
0.0
 70
    32
  0
VERTEX
  5
3D9
  8
0
  6
CONTINUOUS
 62
     7
 10
921.2090635348667
 20
1066.709425443103
 30
0.0
 70
    32
  0
VERTEX
  5
3DA
  8
0
  6
CONTINUOUS
 62
     7
 10
921.2477616633935
 20
1066.709425443102
 30
0.0
 70
    32
  0
VERTEX
  5
3DB
  8
0
  6
CONTINUOUS
 62
     7
 10
921.2866930725744
 20
1066.709425443103
 30
0.0
 70
    32
  0
VERTEX
  5
3DC
  8
0
  6
CONTINUOUS
 62
     7
 10
921.3258410995052
 20
1066.709425443103
 30
0.0
 70
    32
  0
VERTEX
  5
3DD
  8
0
  6
CONTINUOUS
 62
     7
 10
921.3651890812827
 20
1066.709425443104
 30
0.0
 70
    32
  0
VERTEX
  5
3DE
  8
0
  6
CONTINUOUS
 62
     7
 10
921.404720355002
 20
1066.709425443104
 30
0.0
 70
    32
  0
VERTEX
  5
3DF
  8
0
  6
CONTINUOUS
 62
     7
 10
921.4444182577602
 20
1066.709425443104
 30
0.0
 70
    32
  0
VERTEX
  5
3E0
  8
0
  6
CONTINUOUS
 62
     7
 10
921.484266126653
 20
1066.709425443105
 30
0.0
 70
    32
  0
VERTEX
  5
3E1
  8
0
  6
CONTINUOUS
 62
     7
 10
921.5242472987767
 20
1066.709425443105
 30
0.0
 70
    32
  0
VERTEX
  5
3E2
  8
0
  6
CONTINUOUS
 62
     7
 10
921.5643451112271
 20
1066.709425443105
 30
0.0
 70
    32
  0
VERTEX
  5
3E3
  8
0
  6
CONTINUOUS
 62
     7
 10
921.604542901101
 20
1066.709425443106
 30
0.0
 70
    32
  0
VERTEX
  5
3E4
  8
0
  6
CONTINUOUS
 62
     7
 10
921.644824005494
 20
1066.709425443106
 30
0.0
 70
    32
  0
VERTEX
  5
3E5
  8
0
  6
CONTINUOUS
 62
     7
 10
921.6851717615024
 20
1066.709425443107
 30
0.0
 70
    32
  0
VERTEX
  5
3E6
  8
0
  6
CONTINUOUS
 62
     7
 10
921.7255695062223
 20
1066.709425443107
 30
0.0
 70
    32
  0
VERTEX
  5
3E7
  8
0
  6
CONTINUOUS
 62
     7
 10
921.7660005767501
 20
1066.709425443107
 30
0.0
 70
    32
  0
VERTEX
  5
3E8
  8
0
  6
CONTINUOUS
 62
     7
 10
921.8064483101815
 20
1066.709425443108
 30
0.0
 70
    32
  0
SEQEND
  5
8A8
  8
0
  6
CONTINUOUS
 62
     7
  0
LINE
  5
107
  8
0
  6
CONTINUOUS
 62
     7
 10
921.8064483101808
 20
1065.709425443108
 30
0.0
 11
921.8064483101815
 21
1066.709425443108
 31
0.0
  0
POLYLINE
  5
108
  8
0
  6
CONTINUOUS
 62
     7
 10
0.0
 20
0.0
 30
0.0
 66
     1
 70
     8
  0
VERTEX
  5
3E9
  8
0
  6
CONTINUOUS
 62
     7
 10
921.8064483102047
 20
1009.709425443105
 30
0.0
 70
    32
  0
VERTEX
  5
3EA
  8
0
  6
CONTINUOUS
 62
     7
 10
921.7659998315073
 20
1009.709425443105
 30
0.0
 70
    32
  0
VERTEX
  5
3EB
  8
0
  6
CONTINUOUS
 62
     7
 10
921.7255680192047
 20
1009.709425443105
 30
0.0
 70
    32
  0
VERTEX
  5
3EC
  8
0
  6
CONTINUOUS
 62
     7
 10
921.6851695396922
 20
1009.709425443105
 30
0.0
 70
    32
  0
VERTEX
  5
3ED
  8
0
  6
CONTINUOUS
 62
     7
 10
921.6448210593634
 20
1009.709425443105
 30
0.0
 70
    32
  0
VERTEX
  5
3EE
  8
0
  6
CONTINUOUS
 62
     7
 10
921.6045392446142
 20
1009.709425443105
 30
0.0
 70
    32
  0
VERTEX
  5
3EF
  8
0
  6
CONTINUOUS
 62
     7
 10
921.5643407618393
 20
1009.709425443105
 30
0.0
 70
    32
  0
VERTEX
  5
3F0
  8
0
  6
CONTINUOUS
 62
     7
 10
921.5242422774331
 20
1009.709425443105
 30
0.0
 70
    32
  0
VERTEX
  5
3F1
  8
0
  6
CONTINUOUS
 62
     7
 10
921.4842604577906
 20
1009.709425443105
 30
0.0
 70
    32
  0
VERTEX
  5
3F2
  8
0
  6
CONTINUOUS
 62
     7
 10
921.4444119693068
 20
1009.709425443105
 30
0.0
 70
    32
  0
VERTEX
  5
3F3
  8
0
  6
CONTINUOUS
 62
     7
 10
921.4047134783758
 20
1009.709425443104
 30
0.0
 70
    32
  0
VERTEX
  5
3F4
  8
0
  6
CONTINUOUS
 62
     7
 10
921.3651816513935
 20
1009.709425443105
 30
0.0
 70
    32
  0
VERTEX
  5
3F5
  8
0
  6
CONTINUOUS
 62
     7
 10
921.3258331547538
 20
1009.709425443105
 30
0.0
 70
    32
  0
VERTEX
  5
3F6
  8
0
  6
CONTINUOUS
 62
     7
 10
921.286684654852
 20
1009.709425443105
 30
0.0
 70
    32
  0
VERTEX
  5
3F7
  8
0
  6
CONTINUOUS
 62
     7
 10
921.2477528180832
 20
1009.709425443105
 30
0.0
 70
    32
  0
VERTEX
  5
3F8
  8
0
  6
CONTINUOUS
 62
     7
 10
921.2090543108412
 20
1009.709425443105
 30
0.0
 70
    32
  0
VERTEX
  5
3F9
  8
0
  6
CONTINUOUS
 62
     7
 10
921.1706057995217
 20
1009.709425443105
 30
0.0
 70
    32
  0
VERTEX
  5
3FA
  8
0
  6
CONTINUOUS
 62
     7
 10
921.1324239505194
 20
1009.709425443105
 30
0.0
 70
    32
  0
VERTEX
  5
3FB
  8
0
  6
CONTINUOUS
 62
     7
 10
921.0945254302287
 20
1009.709425443105
 30
0.0
 70
    32
  0
VERTEX
  5
3FC
  8
0
  6
CONTINUOUS
 62
     7
 10
921.056926905287
 20
1009.709425443105
 30
0.0
 70
    32
  0
VERTEX
  5
3FD
  8
0
  6
CONTINUOUS
 62
     7
 10
921.019645054793
 20
1009.709425443105
 30
0.0
 70
    32
  0
VERTEX
  5
3FE
  8
0
  6
CONTINUOUS
 62
     7
 10
920.9826965760504
 20
1009.709425443105
 30
0.0
 70
    32
  0
VERTEX
  5
3FF
  8
0
  6
CONTINUOUS
 62
     7
 10
920.9460981678079
 20
1009.709425443105
 30
0.0
 70
    32
  0
VERTEX
  5
400
  8
0
  6
CONTINUOUS
 62
     7
 10
920.909866528813
 20
1009.709425443105
 30
0.0
 70
    32
  0
VERTEX
  5
401
  8
0
  6
CONTINUOUS
 62
     7
 10
920.8740183578137
 20
1009.709425443105
 30
0.0
 70
    32
  0
VERTEX
  5
402
  8
0
  6
CONTINUOUS
 62
     7
 10
920.8385703535583
 20
1009.709425443105
 30
0.0
 70
    32
  0
VERTEX
  5
403
  8
0
  6
CONTINUOUS
 62
     7
 10
920.8035392147939
 20
1009.709425443105
 30
0.0
 70
    32
  0
VERTEX
  5
404
  8
0
  6
CONTINUOUS
 62
     7
 10
920.768941640269
 20
1009.709425443105
 30
0.0
 70
    32
  0
VERTEX
  5
405
  8
0
  6
CONTINUOUS
 62
     7
 10
920.7347943287313
 20
1009.709425443105
 30
0.0
 70
    32
  0
VERTEX
  5
406
  8
0
  6
CONTINUOUS
 62
     7
 10
920.7011139463326
 20
1009.709425443105
 30
0.0
 70
    32
  0
VERTEX
  5
407
  8
0
  6
CONTINUOUS
 62
     7
 10
920.6679115997892
 20
1009.709425443105
 30
0.0
 70
    32
  0
VERTEX
  5
408
  8
0
  6
CONTINUOUS
 62
     7
 10
920.6351865976318
 20
1009.709425443105
 30
0.0
 70
    32
  0
VERTEX
  5
409
  8
0
  6
CONTINUOUS
 62
     7
 10
920.6029367418543
 20
1009.709425443105
 30
0.0
 70
    32
  0
VERTEX
  5
40A
  8
0
  6
CONTINUOUS
 62
     7
 10
920.5711598344502
 20
1009.709425443105
 30
0.0
 70
    32
  0
VERTEX
  5
40B
  8
0
  6
CONTINUOUS
 62
     7
 10
920.5398536774138
 20
1009.709425443105
 30
0.0
 70
    32
  0
VERTEX
  5
40C
  8
0
  6
CONTINUOUS
 62
     7
 10
920.5090160727395
 20
1009.709425443105
 30
0.0
 70
    32
  0
VERTEX
  5
40D
  8
0
  6
CONTINUOUS
 62
     7
 10
920.4786448224206
 20
1009.709425443105
 30
0.0
 70
    32
  0
VERTEX
  5
40E
  8
0
  6
CONTINUOUS
 62
     7
 10
920.4487377284518
 20
1009.709425443105
 30
0.0
 70
    32
  0
VERTEX
  5
40F
  8
0
  6
CONTINUOUS
 62
     7
 10
920.4192925928262
 20
1009.709425443105
 30
0.0
 70
    32
  0
VERTEX
  5
410
  8
0
  6
CONTINUOUS
 62
     7
 10
920.3903072207278
 20
1009.709425443105
 30
0.0
 70
    32
  0
VERTEX
  5
411
  8
0
  6
CONTINUOUS
 62
     7
 10
920.3617922904083
 20
1009.709425443105
 30
0.0
 70
    32
  0
VERTEX
  5
412
  8
0
  6
CONTINUOUS
 62
     7
 10
920.3338006352914
 20
1009.709425443105
 30
0.0
 70
    32
  0
VERTEX
  5
413
  8
0
  6
CONTINUOUS
 62
     7
 10
920.3063937042677
 20
1009.709425443105
 30
0.0
 70
    32
  0
VERTEX
  5
414
  8
0
  6
CONTINUOUS
 62
     7
 10
920.2796329462291
 20
1009.709425443105
 30
0.0
 70
    32
  0
VERTEX
  5
415
  8
0
  6
CONTINUOUS
 62
     7
 10
920.2535798100665
 20
1009.709425443105
 30
0.0
 70
    32
  0
VERTEX
  5
416
  8
0
  6
CONTINUOUS
 62
     7
 10
920.2282957446714
 20
1009.709425443105
 30
0.0
 70
    32
  0
VERTEX
  5
417
  8
0
  6
CONTINUOUS
 62
     7
 10
920.203842198935
 20
1009.709425443105
 30
0.0
 70
    32
  0
VERTEX
  5
418
  8
0
  6
CONTINUOUS
 62
     7
 10
920.180280621749
 20
1009.709425443105
 30
0.0
 70
    32
  0
VERTEX
  5
419
  8
0
  6
CONTINUOUS
 62
     7
 10
920.1576724620041
 20
1009.709425443105
 30
0.0
 70
    32
  0
VERTEX
  5
41A
  8
0
  6
CONTINUOUS
 62
     7
 10
920.1360791685921
 20
1009.709425443105
 30
0.0
 70
    32
  0
VERTEX
  5
41B
  8
0
  6
CONTINUOUS
 62
     7
 10
920.1155331035433
 20
1009.709425443105
 30
0.0
 70
    32
  0
VERTEX
  5
41C
  8
0
  6
CONTINUOUS
 62
     7
 10
920.0959227404703
 20
1009.709425443105
 30
0.0
 70
    32
  0
VERTEX
  5
41D
  8
0
  6
CONTINUOUS
 62
     7
 10
920.0770921396771
 20
1009.709425443105
 30
0.0
 70
    32
  0
VERTEX
  5
41E
  8
0
  6
CONTINUOUS
 62
     7
 10
920.0588853487076
 20
1009.709425443105
 30
0.0
 70
    32
  0
VERTEX
  5
41F
  8
0
  6
CONTINUOUS
 62
     7
 10
920.0411464151052
 20
1009.709425443105
 30
0.0
 70
    32
  0
VERTEX
  5
420
  8
0
  6
CONTINUOUS
 62
     7
 10
920.023719386415
 20
1009.709425443105
 30
0.0
 70
    32
  0
VERTEX
  5
421
  8
0
  6
CONTINUOUS
 62
     7
 10
920.0064483101805
 20
1009.709425443105
 30
0.0
 70
    32
  0
SEQEND
  5
8A9
  8
0
  6
CONTINUOUS
 62
     7
  0
LINE
  5
109
  8
0
  6
CONTINUOUS
 62
     7
 10
921.8064483101901
 20
1010.709425443104
 30
0.0
 11
921.8064483102047
 21
1009.709425443105
 31
0.0
  0
LINE
  5
10A
  8
0
  6
CONTINUOUS
 62
     7
 10
922.0064483101809
 20
1065.709425443108
 30
0.0
 11
921.8064483101808
 21
1065.709425443108
 31
0.0
  0
LINE
  5
10B
  8
0
  6
CONTINUOUS
 62
     7
 10
921.8064483101808
 20
1065.709425443108
 30
0.0
 11
921.8064483101814
 21
1056.600999600853
 31
0.0
  0
POLYLINE
  5
10C
  8
0
  6
CONTINUOUS
 62
     7
 66
     1
 10
0.0
 20
0.0
 30
0.0
  0
VERTEX
  5
422
  8
0
  6
CONTINUOUS
 62
     7
 10
920.0064483101805
 20
1048.455189783286
 30
0.0
  0
VERTEX
  5
423
  8
0
  6
CONTINUOUS
 62
     7
 10
920.0178594952004
 20
1048.441681374096
 30
0.0
  0
VERTEX
  5
424
  8
0
  6
CONTINUOUS
 62
     7
 10
920.0295855885995
 20
1048.42853471999
 30
0.0
  0
VERTEX
  5
425
  8
0
  6
CONTINUOUS
 62
     7
 10
920.041774213728
 20
1048.415924278838
 30
0.0
  0
VERTEX
  5
426
  8
0
  6
CONTINUOUS
 62
     7
 10
920.0544120248001
 20
1048.403844282758
 30
0.0
  0
VERTEX
  5
427
  8
0
  6
CONTINUOUS
 62
     7
 10
920.0674791525049
 20
1048.392281659938
 30
0.0
  0
VERTEX
  5
428
  8
0
  6
CONTINUOUS
 62
     7
 10
920.0809557275311
 20
1048.381223338564
 30
0.0
  0
VERTEX
  5
429
  8
0
  6
CONTINUOUS
 62
     7
 10
920.0948218805679
 20
1048.370656246827
 30
0.0
  0
VERTEX
  5
42A
  8
0
  6
CONTINUOUS
 62
     7
 10
920.1090577423043
 20
1048.360567312912
 30
0.0
  0
VERTEX
  5
42B
  8
0
  6
CONTINUOUS
 62
     7
 10
920.1236434434296
 20
1048.350943465008
 30
0.0
  0
VERTEX
  5
42C
  8
0
  6
CONTINUOUS
 62
     7
 10
920.1385591146324
 20
1048.341771631302
 30
0.0
  0
VERTEX
  5
42D
  8
0
  6
CONTINUOUS
 62
     7
 10
920.1537848866018
 20
1048.333038739983
 30
0.0
  0
VERTEX
  5
42E
  8
0
  6
CONTINUOUS
 62
     7
 10
920.1693008900269
 20
1048.324731719238
 30
0.0
  0
VERTEX
  5
42F
  8
0
  6
CONTINUOUS
 62
     7
 10
920.1850872555964
 20
1048.316837497255
 30
0.0
  0
VERTEX
  5
430
  8
0
  6
CONTINUOUS
 62
     7
 10
920.2011241139994
 20
1048.309343002222
 30
0.0
  0
VERTEX
  5
431
  8
0
  6
CONTINUOUS
 62
     7
 10
920.2173915959252
 20
1048.302235162325
 30
0.0
  0
VERTEX
  5
432
  8
0
  6
CONTINUOUS
 62
     7
 10
920.2338698320623
 20
1048.295500905755
 30
0.0
  0
VERTEX
  5
433
  8
0
  6
CONTINUOUS
 62
     7
 10
920.2505389531002
 20
1048.289127160697
 30
0.0
  0
VERTEX
  5
434
  8
0
  6
CONTINUOUS
 62
     7
 10
920.2673790897279
 20
1048.28310085534
 30
0.0
  0
VERTEX
  5
435
  8
0
  6
CONTINUOUS
 62
     7
 10
920.2843703726339
 20
1048.277408917871
 30
0.0
  0
VERTEX
  5
436
  8
0
  6
CONTINUOUS
 62
     7
 10
920.3014929325077
 20
1048.272038276479
 30
0.0
  0
VERTEX
  5
437
  8
0
  6
CONTINUOUS
 62
     7
 10
920.3187269000379
 20
1048.266975859351
 30
0.0
  0
VERTEX
  5
438
  8
0
  6
CONTINUOUS
 62
     7
 10
920.3360524063177
 20
1048.262208594608
 30
0.0
  0
VERTEX
  5
439
  8
0
  6
CONTINUOUS
 62
     7
 10
920.3534526676268
 20
1048.257722905616
 30
0.0
  0
VERTEX
  5
43A
  8
0
  6
CONTINUOUS
 62
     7
 10
920.3709214165584
 20
1048.253503495198
 30
0.0
  0
VERTEX
  5
43B
  8
0
  6
CONTINUOUS
 62
     7
 10
920.388454624428
 20
1048.24953469991
 30
0.0
  0
VERTEX
  5
43C
  8
0
  6
CONTINUOUS
 62
     7
 10
920.4060482625525
 20
1048.245800856305
 30
0.0
  0
VERTEX
  5
43D
  8
0
  6
CONTINUOUS
 62
     7
 10
920.4236983022481
 20
1048.242286300939
 30
0.0
  0
VERTEX
  5
43E
  8
0
  6
CONTINUOUS
 62
     7
 10
920.4414007148309
 20
1048.238975370364
 30
0.0
  0
VERTEX
  5
43F
  8
0
  6
CONTINUOUS
 62
     7
 10
920.4591514716176
 20
1048.235852401137
 30
0.0
  0
VERTEX
  5
440
  8
0
  6
CONTINUOUS
 62
     7
 10
920.4769465439246
 20
1048.232901729811
 30
0.0
  0
VERTEX
  5
441
  8
0
  6
CONTINUOUS
 62
     7
 10
920.4947819030679
 20
1048.230107692941
 30
0.0
  0
VERTEX
  5
442
  8
0
  6
CONTINUOUS
 62
     7
 10
920.5126535203635
 20
1048.227454627081
 30
0.0
  0
VERTEX
  5
443
  8
0
  6
CONTINUOUS
 62
     7
 10
920.530557367129
 20
1048.224926868786
 30
0.0
  0
VERTEX
  5
444
  8
0
  6
CONTINUOUS
 62
     7
 10
920.5484894146798
 20
1048.22250875461
 30
0.0
  0
VERTEX
  5
445
  8
0
  6
CONTINUOUS
 62
     7
 10
920.5664456343325
 20
1048.220184621108
 30
0.0
  0
VERTEX
  5
446
  8
0
  6
CONTINUOUS
 62
     7
 10
920.5844219974031
 20
1048.217938804833
 30
0.0
  0
VERTEX
  5
447
  8
0
  6
CONTINUOUS
 62
     7
 10
920.6024144752087
 20
1048.21575564234
 30
0.0
  0
VERTEX
  5
448
  8
0
  6
CONTINUOUS
 62
     7
 10
920.6204190390649
 20
1048.213619470184
 30
0.0
  0
VERTEX
  5
449
  8
0
  6
CONTINUOUS
 62
     7
 10
920.6384316602887
 20
1048.21151462492
 30
0.0
  0
VERTEX
  5
44A
  8
0
  6
CONTINUOUS
 62
     7
 10
920.656448310196
 20
1048.209425443101
 30
0.0
  0
SEQEND
  5
8AA
  8
0
  6
CONTINUOUS
 62
     7
  0
LINE
  5
10D
  8
0
  6
CONTINUOUS
 62
     7
 10
921.50644831019
 20
1048.2094254431
 30
0.0
 11
920.656448310196
 21
1048.209425443101
 31
0.0
  0
LINE
  5
10E
  8
0
  6
CONTINUOUS
 62
     7
 10
922.0064483101901
 20
1010.709425443104
 30
0.0
 11
921.8064483101901
 21
1010.709425443104
 31
0.0
  0
LINE
  5
10F
  8
0
  6
CONTINUOUS
 62
     7
 10
921.8064483101871
 20
1019.817851285353
 30
0.0
 11
921.8064483101901
 21
1010.709425443104
 31
0.0
  0
POLYLINE
  5
110
  8
0
  6
CONTINUOUS
 62
     7
 66
     1
 10
0.0
 20
0.0
 30
0.0
  0
VERTEX
  5
44B
  8
0
  6
CONTINUOUS
 62
     7
 10
920.656448310185
 20
1028.209425443101
 30
0.0
  0
VERTEX
  5
44C
  8
0
  6
CONTINUOUS
 62
     7
 10
920.6335628515546
 20
1028.207150120109
 30
0.0
  0
VERTEX
  5
44D
  8
0
  6
CONTINUOUS
 62
     7
 10
920.6106973873539
 20
1028.204833869635
 30
0.0
  0
VERTEX
  5
44E
  8
0
  6
CONTINUOUS
 62
     7
 10
920.5878719120119
 20
1028.202435764195
 30
0.0
  0
VERTEX
  5
44F
  8
0
  6
CONTINUOUS
 62
     7
 10
920.5651064199587
 20
1028.19991487631
 30
0.0
  0
VERTEX
  5
450
  8
0
  6
CONTINUOUS
 62
     7
 10
920.5424209056233
 20
1028.197230278494
 30
0.0
  0
VERTEX
  5
451
  8
0
  6
CONTINUOUS
 62
     7
 10
920.5198353634357
 20
1028.194341043268
 30
0.0
  0
VERTEX
  5
452
  8
0
  6
CONTINUOUS
 62
     7
 10
920.4973697878247
 20
1028.191206243147
 30
0.0
  0
VERTEX
  5
453
  8
0
  6
CONTINUOUS
 62
     7
 10
920.4750441732208
 20
1028.18778495065
 30
0.0
  0
VERTEX
  5
454
  8
0
  6
CONTINUOUS
 62
     7
 10
920.4528785140525
 20
1028.184036238295
 30
0.0
  0
VERTEX
  5
455
  8
0
  6
CONTINUOUS
 62
     7
 10
920.4308928047501
 20
1028.179919178599
 30
0.0
  0
VERTEX
  5
456
  8
0
  6
CONTINUOUS
 62
     7
 10
920.4091070397427
 20
1028.17539284408
 30
0.0
  0
VERTEX
  5
457
  8
0
  6
CONTINUOUS
 62
     7
 10
920.3875412134597
 20
1028.170416307256
 30
0.0
  0
VERTEX
  5
458
  8
0
  6
CONTINUOUS
 62
     7
 10
920.366215320331
 20
1028.164948640644
 30
0.0
  0
VERTEX
  5
459
  8
0
  6
CONTINUOUS
 62
     7
 10
920.3451493547859
 20
1028.158948916762
 30
0.0
  0
VERTEX
  5
45A
  8
0
  6
CONTINUOUS
 62
     7
 10
920.3243633112538
 20
1028.152376208127
 30
0.0
  0
VERTEX
  5
45B
  8
0
  6
CONTINUOUS
 62
     7
 10
920.3038771841645
 20
1028.145189587258
 30
0.0
  0
VERTEX
  5
45C
  8
0
  6
CONTINUOUS
 62
     7
 10
920.2837069814256
 20
1028.13735628686
 30
0.0
  0
VERTEX
  5
45D
  8
0
  6
CONTINUOUS
 62
     7
 10
920.263842736285
 20
1028.128896708318
 30
0.0
  0
VERTEX
  5
45E
  8
0
  6
CONTINUOUS
 62
     7
 10
920.2442640774321
 20
1028.119852550569
 30
0.0
  0
VERTEX
  5
45F
  8
0
  6
CONTINUOUS
 62
     7
 10
920.2249506058464
 20
1028.110265569271
 30
0.0
  0
VERTEX
  5
460
  8
0
  6
CONTINUOUS
 62
     7
 10
920.2058819225078
 20
1028.100177520082
 30
0.0
  0
VERTEX
  5
461
  8
0
  6
CONTINUOUS
 62
     7
 10
920.187037628395
 20
1028.089630158659
 30
0.0
  0
VERTEX
  5
462
  8
0
  6
CONTINUOUS
 62
     7
 10
920.1683973244876
 20
1028.078665240659
 30
0.0
  0
VERTEX
  5
463
  8
0
  6
CONTINUOUS
 62
     7
 10
920.1499406117655
 20
1028.067324521742
 30
0.0
  0
VERTEX
  5
464
  8
0
  6
CONTINUOUS
 62
     7
 10
920.1316470912074
 20
1028.055649757562
 30
0.0
  0
VERTEX
  5
465
  8
0
  6
CONTINUOUS
 62
     7
 10
920.1134963637937
 20
1028.04368270378
 30
0.0
  0
VERTEX
  5
466
  8
0
  6
CONTINUOUS
 62
     7
 10
920.0954680305031
 20
1028.031465116052
 30
0.0
  0
VERTEX
  5
467
  8
0
  6
CONTINUOUS
 62
     7
 10
920.077541692315
 20
1028.019038750036
 30
0.0
  0
VERTEX
  5
468
  8
0
  6
CONTINUOUS
 62
     7
 10
920.0596969502095
 20
1028.006445361389
 30
0.0
  0
VERTEX
  5
469
  8
0
  6
CONTINUOUS
 62
     7
 10
920.0419134051657
 20
1027.99372670577
 30
0.0
  0
VERTEX
  5
46A
  8
0
  6
CONTINUOUS
 62
     7
 10
920.0241706581629
 20
1027.980924538835
 30
0.0
  0
VERTEX
  5
46B
  8
0
  6
CONTINUOUS
 62
     7
 10
920.0064483101806
 20
1027.968080616243
 30
0.0
  0
SEQEND
  5
8AB
  8
0
  6
CONTINUOUS
 62
     7
  0
LINE
  5
111
  8
0
  6
CONTINUOUS
 62
     7
 10
920.656448310185
 20
1028.209425443101
 30
0.0
 11
921.5064483101899
 21
1028.209425443104
 31
0.0
  0
LINE
  5
112
  8
0
  6
CONTINUOUS
 62
     7
 10
922.0064483101816
 20
1066.709425443108
 30
0.0
 11
921.8064483101815
 21
1066.709425443108
 31
0.0
  0
LINE
  5
113
  8
0
  6
CONTINUOUS
 62
     7
 10
922.0064483102047
 20
1009.709425443105
 30
0.0
 11
921.8064483102047
 21
1009.709425443105
 31
0.0
  0
LINE
  5
114
  8
0
  6
CONTINUOUS
 62
     7
 10
921.5064483101803
 20
2290.165383582162
 30
0.0
 11
922.0064483101822
 21
2290.165383582162
 31
0.0
  0
LINE
  5
115
  8
0
  6
CONTINUOUS
 62
     7
 10
921.506448310179
 20
2288.609425442869
 30
0.0
 11
922.0064483101789
 21
2288.609425442869
 31
0.0
  0
LINE
  5
116
  8
0
  6
CONTINUOUS
 62
     7
 10
921.506448310179
 20
2288.609425442869
 30
0.0
 11
921.5064483101803
 21
2290.165383582162
 31
0.0
  0
LINE
  5
117
  8
0
  6
CONTINUOUS
 62
     7
 10
922.0064483101822
 20
2272.253467304033
 30
0.0
 11
921.506448310187
 21
2272.253467304034
 31
0.0
  0
LINE
  5
118
  8
0
  6
CONTINUOUS
 62
     7
 10
921.506448310187
 20
2272.253467304034
 30
0.0
 11
921.5064483101947
 21
2273.80942544332
 31
0.0
  0
LINE
  5
119
  8
0
  6
CONTINUOUS
 62
     7
 10
922.0064483101947
 20
2273.80942544332
 30
0.0
 11
921.5064483101947
 21
2273.80942544332
 31
0.0
  0
LINE
  5
11A
  8
0
  6
CONTINUOUS
 62
     7
 10
921.8064483101809
 20
2299.600999600854
 30
0.0
 11
921.5064483101808
 21
2299.600999600854
 31
0.0
  0
LINE
  5
11B
  8
0
  6
CONTINUOUS
 62
     7
 10
922.006448310181
 20
2299.600999600854
 30
0.0
 11
921.8064483101809
 21
2299.600999600854
 31
0.0
  0
LINE
  5
11C
  8
0
  6
CONTINUOUS
 62
     7
 10
921.5064483101808
 20
2299.600999600854
 30
0.0
 11
921.5064483101803
 21
2290.165383582162
 31
0.0
  0
LINE
  5
11D
  8
0
  6
CONTINUOUS
 62
     7
 10
921.8064483101866
 20
2262.817851285354
 30
0.0
 11
922.0064483101867
 21
2262.817851285354
 31
0.0
  0
LINE
  5
11E
  8
0
  6
CONTINUOUS
 62
     7
 10
921.5064483101867
 20
2262.817851285354
 30
0.0
 11
921.8064483101866
 21
2262.817851285354
 31
0.0
  0
LINE
  5
11F
  8
0
  6
CONTINUOUS
 62
     7
 10
921.506448310187
 20
2272.253467304034
 30
0.0
 11
921.5064483101867
 21
2262.817851285354
 31
0.0
  0
POLYLINE
  5
120
  8
0
  6
CONTINUOUS
 62
     7
 10
0.0
 20
0.0
 30
0.0
 66
     1
 70
     8
  0
VERTEX
  5
46C
  8
0
  6
CONTINUOUS
 62
     7
 10
920.0064483101806
 20
2309.709425443104
 30
0.0
 70
    32
  0
VERTEX
  5
46D
  8
0
  6
CONTINUOUS
 62
     7
 10
920.0237171355601
 20
2309.709425443104
 30
0.0
 70
    32
  0
VERTEX
  5
46E
  8
0
  6
CONTINUOUS
 62
     7
 10
920.041142219031
 20
2309.709425443104
 30
0.0
 70
    32
  0
VERTEX
  5
46F
  8
0
  6
CONTINUOUS
 62
     7
 10
920.0588798186843
 20
2309.709425443104
 30
0.0
 70
    32
  0
VERTEX
  5
470
  8
0
  6
CONTINUOUS
 62
     7
 10
920.077086192612
 20
2309.709425443104
 30
0.0
 70
    32
  0
VERTEX
  5
471
  8
0
  6
CONTINUOUS
 62
     7
 10
920.0959175989049
 20
2309.709425443104
 30
0.0
 70
    32
  0
VERTEX
  5
472
  8
0
  6
CONTINUOUS
 62
     7
 10
920.1155302956547
 20
2309.709425443104
 30
0.0
 70
    32
  0
VERTEX
  5
473
  8
0
  6
CONTINUOUS
 62
     7
 10
920.1360805189438
 20
2309.709425443104
 30
0.0
 70
    32
  0
VERTEX
  5
474
  8
0
  6
CONTINUOUS
 62
     7
 10
920.1576783065624
 20
2309.709425443103
 30
0.0
 70
    32
  0
VERTEX
  5
475
  8
0
  6
CONTINUOUS
 62
     7
 10
920.1802901018834
 20
2309.709425443104
 30
0.0
 70
    32
  0
VERTEX
  5
476
  8
0
  6
CONTINUOUS
 62
     7
 10
920.2038545306646
 20
2309.709425443104
 30
0.0
 70
    32
  0
VERTEX
  5
477
  8
0
  6
CONTINUOUS
 62
     7
 10
920.2283102186651
 20
2309.709425443104
 30
0.0
 70
    32
  0
VERTEX
  5
478
  8
0
  6
CONTINUOUS
 62
     7
 10
920.2535957916434
 20
2309.709425443104
 30
0.0
 70
    32
  0
VERTEX
  5
479
  8
0
  6
CONTINUOUS
 62
     7
 10
920.2796498753585
 20
2309.709425443104
 30
0.0
 70
    32
  0
VERTEX
  5
47A
  8
0
  6
CONTINUOUS
 62
     7
 10
920.3064110955685
 20
2309.709425443104
 30
0.0
 70
    32
  0
VERTEX
  5
47B
  8
0
  6
CONTINUOUS
 62
     7
 10
920.3338180780324
 20
2309.709425443103
 30
0.0
 70
    32
  0
VERTEX
  5
47C
  8
0
  6
CONTINUOUS
 62
     7
 10
920.3618094485092
 20
2309.709425443104
 30
0.0
 70
    32
  0
VERTEX
  5
47D
  8
0
  6
CONTINUOUS
 62
     7
 10
920.3903238327566
 20
2309.709425443103
 30
0.0
 70
    32
  0
VERTEX
  5
47E
  8
0
  6
CONTINUOUS
 62
     7
 10
920.4193084836106
 20
2309.709425443104
 30
0.0
 70
    32
  0
VERTEX
  5
47F
  8
0
  6
CONTINUOUS
 62
     7
 10
920.4487527924907
 20
2309.709425443103
 30
0.0
 70
    32
  0
VERTEX
  5
480
  8
0
  6
CONTINUOUS
 62
     7
 10
920.4786589968998
 20
2309.709425443103
 30
0.0
 70
    32
  0
VERTEX
  5
481
  8
0
  6
CONTINUOUS
 62
     7
 10
920.5090293374462
 20
2309.709425443103
 30
0.0
 70
    32
  0
VERTEX
  5
482
  8
0
  6
CONTINUOUS
 62
     7
 10
920.539866054739
 20
2309.709425443103
 30
0.0
 70
    32
  0
VERTEX
  5
483
  8
0
  6
CONTINUOUS
 62
     7
 10
920.5711713893868
 20
2309.709425443103
 30
0.0
 70
    32
  0
VERTEX
  5
484
  8
0
  6
CONTINUOUS
 62
     7
 10
920.6029475819984
 20
2309.709425443103
 30
0.0
 70
    32
  0
VERTEX
  5
485
  8
0
  6
CONTINUOUS
 62
     7
 10
920.6351968731824
 20
2309.709425443103
 30
0.0
 70
    32
  0
VERTEX
  5
486
  8
0
  6
CONTINUOUS
 62
     7
 10
920.6679215035473
 20
2309.709425443103
 30
0.0
 70
    32
  0
VERTEX
  5
487
  8
0
  6
CONTINUOUS
 62
     7
 10
920.7011237137023
 20
2309.709425443103
 30
0.0
 70
    32
  0
VERTEX
  5
488
  8
0
  6
CONTINUOUS
 62
     7
 10
920.7348041525111
 20
2309.709425443103
 30
0.0
 70
    32
  0
VERTEX
  5
489
  8
0
  6
CONTINUOUS
 62
     7
 10
920.7689515458342
 20
2309.709425443103
 30
0.0
 70
    32
  0
VERTEX
  5
48A
  8
0
  6
CONTINUOUS
 62
     7
 10
920.8035492127447
 20
2309.709425443103
 30
0.0
 70
    32
  0
VERTEX
  5
48B
  8
0
  6
CONTINUOUS
 62
     7
 10
920.8385804454342
 20
2309.709425443103
 30
0.0
 70
    32
  0
VERTEX
  5
48C
  8
0
  6
CONTINUOUS
 62
     7
 10
920.8740285360959
 20
2309.709425443103
 30
0.0
 70
    32
  0
VERTEX
  5
48D
  8
0
  6
CONTINUOUS
 62
     7
 10
920.9098767769216
 20
2309.709425443103
 30
0.0
 70
    32
  0
VERTEX
  5
48E
  8
0
  6
CONTINUOUS
 62
     7
 10
920.9461084601037
 20
2309.709425443103
 30
0.0
 70
    32
  0
VERTEX
  5
48F
  8
0
  6
CONTINUOUS
 62
     7
 10
920.9827068778345
 20
2309.709425443104
 30
0.0
 70
    32
  0
VERTEX
  5
490
  8
0
  6
CONTINUOUS
 62
     7
 10
921.0196553223064
 20
2309.709425443103
 30
0.0
 70
    32
  0
VERTEX
  5
491
  8
0
  6
CONTINUOUS
 62
     7
 10
921.0569370857116
 20
2309.709425443104
 30
0.0
 70
    32
  0
VERTEX
  5
492
  8
0
  6
CONTINUOUS
 62
     7
 10
921.0945354622485
 20
2309.709425443104
 30
0.0
 70
    32
  0
VERTEX
  5
493
  8
0
  6
CONTINUOUS
 62
     7
 10
921.1324337713902
 20
2309.709425443104
 30
0.0
 70
    32
  0
VERTEX
  5
494
  8
0
  6
CONTINUOUS
 62
     7
 10
921.1706153498975
 20
2309.709425443104
 30
0.0
 70
    32
  0
VERTEX
  5
495
  8
0
  6
CONTINUOUS
 62
     7
 10
921.2090635348666
 20
2309.709425443104
 30
0.0
 70
    32
  0
VERTEX
  5
496
  8
0
  6
CONTINUOUS
 62
     7
 10
921.2477616633934
 20
2309.709425443104
 30
0.0
 70
    32
  0
VERTEX
  5
497
  8
0
  6
CONTINUOUS
 62
     7
 10
921.2866930725743
 20
2309.709425443105
 30
0.0
 70
    32
  0
VERTEX
  5
498
  8
0
  6
CONTINUOUS
 62
     7
 10
921.3258410995054
 20
2309.709425443105
 30
0.0
 70
    32
  0
VERTEX
  5
499
  8
0
  6
CONTINUOUS
 62
     7
 10
921.3651890812822
 20
2309.709425443105
 30
0.0
 70
    32
  0
VERTEX
  5
49A
  8
0
  6
CONTINUOUS
 62
     7
 10
921.404720355002
 20
2309.709425443106
 30
0.0
 70
    32
  0
VERTEX
  5
49B
  8
0
  6
CONTINUOUS
 62
     7
 10
921.4444182577599
 20
2309.709425443106
 30
0.0
 70
    32
  0
VERTEX
  5
49C
  8
0
  6
CONTINUOUS
 62
     7
 10
921.4842661266529
 20
2309.709425443106
 30
0.0
 70
    32
  0
VERTEX
  5
49D
  8
0
  6
CONTINUOUS
 62
     7
 10
921.5242472987763
 20
2309.709425443107
 30
0.0
 70
    32
  0
VERTEX
  5
49E
  8
0
  6
CONTINUOUS
 62
     7
 10
921.5643451112269
 20
2309.709425443107
 30
0.0
 70
    32
  0
VERTEX
  5
49F
  8
0
  6
CONTINUOUS
 62
     7
 10
921.6045429011006
 20
2309.709425443107
 30
0.0
 70
    32
  0
VERTEX
  5
4A0
  8
0
  6
CONTINUOUS
 62
     7
 10
921.6448240054935
 20
2309.709425443108
 30
0.0
 70
    32
  0
VERTEX
  5
4A1
  8
0
  6
CONTINUOUS
 62
     7
 10
921.6851717615019
 20
2309.709425443108
 30
0.0
 70
    32
  0
VERTEX
  5
4A2
  8
0
  6
CONTINUOUS
 62
     7
 10
921.725569506222
 20
2309.709425443108
 30
0.0
 70
    32
  0
VERTEX
  5
4A3
  8
0
  6
CONTINUOUS
 62
     7
 10
921.7660005767497
 20
2309.709425443109
 30
0.0
 70
    32
  0
VERTEX
  5
4A4
  8
0
  6
CONTINUOUS
 62
     7
 10
921.8064483101813
 20
2309.709425443109
 30
0.0
 70
    32
  0
SEQEND
  5
8AC
  8
0
  6
CONTINUOUS
 62
     7
  0
LINE
  5
121
  8
0
  6
CONTINUOUS
 62
     7
 10
921.8064483101805
 20
2308.709425443109
 30
0.0
 11
921.8064483101812
 21
2309.709425443109
 31
0.0
  0
POLYLINE
  5
122
  8
0
  6
CONTINUOUS
 62
     7
 10
0.0
 20
0.0
 30
0.0
 66
     1
 70
     8
  0
VERTEX
  5
4A5
  8
0
  6
CONTINUOUS
 62
     7
 10
921.8064483102044
 20
2252.709425443106
 30
0.0
 70
    32
  0
VERTEX
  5
4A6
  8
0
  6
CONTINUOUS
 62
     7
 10
921.7659998315072
 20
2252.709425443106
 30
0.0
 70
    32
  0
VERTEX
  5
4A7
  8
0
  6
CONTINUOUS
 62
     7
 10
921.7255680192046
 20
2252.709425443106
 30
0.0
 70
    32
  0
VERTEX
  5
4A8
  8
0
  6
CONTINUOUS
 62
     7
 10
921.6851695396915
 20
2252.709425443106
 30
0.0
 70
    32
  0
VERTEX
  5
4A9
  8
0
  6
CONTINUOUS
 62
     7
 10
921.6448210593633
 20
2252.709425443106
 30
0.0
 70
    32
  0
VERTEX
  5
4AA
  8
0
  6
CONTINUOUS
 62
     7
 10
921.6045392446139
 20
2252.709425443106
 30
0.0
 70
    32
  0
VERTEX
  5
4AB
  8
0
  6
CONTINUOUS
 62
     7
 10
921.564340761839
 20
2252.709425443106
 30
0.0
 70
    32
  0
VERTEX
  5
4AC
  8
0
  6
CONTINUOUS
 62
     7
 10
921.5242422774329
 20
2252.709425443106
 30
0.0
 70
    32
  0
VERTEX
  5
4AD
  8
0
  6
CONTINUOUS
 62
     7
 10
921.4842604577902
 20
2252.709425443106
 30
0.0
 70
    32
  0
VERTEX
  5
4AE
  8
0
  6
CONTINUOUS
 62
     7
 10
921.4444119693064
 20
2252.709425443106
 30
0.0
 70
    32
  0
VERTEX
  5
4AF
  8
0
  6
CONTINUOUS
 62
     7
 10
921.4047134783758
 20
2252.709425443106
 30
0.0
 70
    32
  0
VERTEX
  5
4B0
  8
0
  6
CONTINUOUS
 62
     7
 10
921.3651816513932
 20
2252.709425443106
 30
0.0
 70
    32
  0
VERTEX
  5
4B1
  8
0
  6
CONTINUOUS
 62
     7
 10
921.3258331547536
 20
2252.709425443105
 30
0.0
 70
    32
  0
VERTEX
  5
4B2
  8
0
  6
CONTINUOUS
 62
     7
 10
921.286684654852
 20
2252.709425443106
 30
0.0
 70
    32
  0
VERTEX
  5
4B3
  8
0
  6
CONTINUOUS
 62
     7
 10
921.2477528180829
 20
2252.709425443106
 30
0.0
 70
    32
  0
VERTEX
  5
4B4
  8
0
  6
CONTINUOUS
 62
     7
 10
921.2090543108411
 20
2252.709425443106
 30
0.0
 70
    32
  0
VERTEX
  5
4B5
  8
0
  6
CONTINUOUS
 62
     7
 10
921.1706057995215
 20
2252.709425443106
 30
0.0
 70
    32
  0
VERTEX
  5
4B6
  8
0
  6
CONTINUOUS
 62
     7
 10
921.1324239505192
 20
2252.709425443106
 30
0.0
 70
    32
  0
VERTEX
  5
4B7
  8
0
  6
CONTINUOUS
 62
     7
 10
921.0945254302287
 20
2252.709425443106
 30
0.0
 70
    32
  0
VERTEX
  5
4B8
  8
0
  6
CONTINUOUS
 62
     7
 10
921.0569269052871
 20
2252.709425443106
 30
0.0
 70
    32
  0
VERTEX
  5
4B9
  8
0
  6
CONTINUOUS
 62
     7
 10
921.0196450547927
 20
2252.709425443105
 30
0.0
 70
    32
  0
VERTEX
  5
4BA
  8
0
  6
CONTINUOUS
 62
     7
 10
920.9826965760503
 20
2252.709425443106
 30
0.0
 70
    32
  0
VERTEX
  5
4BB
  8
0
  6
CONTINUOUS
 62
     7
 10
920.946098167808
 20
2252.709425443106
 30
0.0
 70
    32
  0
VERTEX
  5
4BC
  8
0
  6
CONTINUOUS
 62
     7
 10
920.9098665288132
 20
2252.709425443106
 30
0.0
 70
    32
  0
VERTEX
  5
4BD
  8
0
  6
CONTINUOUS
 62
     7
 10
920.874018357814
 20
2252.709425443106
 30
0.0
 70
    32
  0
VERTEX
  5
4BE
  8
0
  6
CONTINUOUS
 62
     7
 10
920.8385703535581
 20
2252.709425443106
 30
0.0
 70
    32
  0
VERTEX
  5
4BF
  8
0
  6
CONTINUOUS
 62
     7
 10
920.8035392147939
 20
2252.709425443106
 30
0.0
 70
    32
  0
VERTEX
  5
4C0
  8
0
  6
CONTINUOUS
 62
     7
 10
920.768941640269
 20
2252.709425443106
 30
0.0
 70
    32
  0
VERTEX
  5
4C1
  8
0
  6
CONTINUOUS
 62
     7
 10
920.7347943287311
 20
2252.709425443106
 30
0.0
 70
    32
  0
VERTEX
  5
4C2
  8
0
  6
CONTINUOUS
 62
     7
 10
920.7011139463326
 20
2252.709425443106
 30
0.0
 70
    32
  0
VERTEX
  5
4C3
  8
0
  6
CONTINUOUS
 62
     7
 10
920.6679115997891
 20
2252.709425443106
 30
0.0
 70
    32
  0
VERTEX
  5
4C4
  8
0
  6
CONTINUOUS
 62
     7
 10
920.6351865976317
 20
2252.709425443106
 30
0.0
 70
    32
  0
VERTEX
  5
4C5
  8
0
  6
CONTINUOUS
 62
     7
 10
920.602936741854
 20
2252.709425443106
 30
0.0
 70
    32
  0
VERTEX
  5
4C6
  8
0
  6
CONTINUOUS
 62
     7
 10
920.5711598344501
 20
2252.709425443106
 30
0.0
 70
    32
  0
VERTEX
  5
4C7
  8
0
  6
CONTINUOUS
 62
     7
 10
920.5398536774138
 20
2252.709425443106
 30
0.0
 70
    32
  0
VERTEX
  5
4C8
  8
0
  6
CONTINUOUS
 62
     7
 10
920.5090160727395
 20
2252.709425443106
 30
0.0
 70
    32
  0
VERTEX
  5
4C9
  8
0
  6
CONTINUOUS
 62
     7
 10
920.4786448224207
 20
2252.709425443106
 30
0.0
 70
    32
  0
VERTEX
  5
4CA
  8
0
  6
CONTINUOUS
 62
     7
 10
920.4487377284516
 20
2252.709425443106
 30
0.0
 70
    32
  0
VERTEX
  5
4CB
  8
0
  6
CONTINUOUS
 62
     7
 10
920.419292592826
 20
2252.709425443105
 30
0.0
 70
    32
  0
VERTEX
  5
4CC
  8
0
  6
CONTINUOUS
 62
     7
 10
920.3903072207278
 20
2252.709425443106
 30
0.0
 70
    32
  0
VERTEX
  5
4CD
  8
0
  6
CONTINUOUS
 62
     7
 10
920.3617922904087
 20
2252.709425443106
 30
0.0
 70
    32
  0
VERTEX
  5
4CE
  8
0
  6
CONTINUOUS
 62
     7
 10
920.3338006352915
 20
2252.709425443106
 30
0.0
 70
    32
  0
VERTEX
  5
4CF
  8
0
  6
CONTINUOUS
 62
     7
 10
920.3063937042679
 20
2252.709425443106
 30
0.0
 70
    32
  0
VERTEX
  5
4D0
  8
0
  6
CONTINUOUS
 62
     7
 10
920.2796329462291
 20
2252.709425443106
 30
0.0
 70
    32
  0
VERTEX
  5
4D1
  8
0
  6
CONTINUOUS
 62
     7
 10
920.2535798100665
 20
2252.709425443106
 30
0.0
 70
    32
  0
VERTEX
  5
4D2
  8
0
  6
CONTINUOUS
 62
     7
 10
920.2282957446714
 20
2252.709425443106
 30
0.0
 70
    32
  0
VERTEX
  5
4D3
  8
0
  6
CONTINUOUS
 62
     7
 10
920.2038421989353
 20
2252.709425443106
 30
0.0
 70
    32
  0
VERTEX
  5
4D4
  8
0
  6
CONTINUOUS
 62
     7
 10
920.1802806217488
 20
2252.709425443106
 30
0.0
 70
    32
  0
VERTEX
  5
4D5
  8
0
  6
CONTINUOUS
 62
     7
 10
920.157672462004
 20
2252.709425443106
 30
0.0
 70
    32
  0
VERTEX
  5
4D6
  8
0
  6
CONTINUOUS
 62
     7
 10
920.136079168592
 20
2252.709425443106
 30
0.0
 70
    32
  0
VERTEX
  5
4D7
  8
0
  6
CONTINUOUS
 62
     7
 10
920.1155331035432
 20
2252.709425443106
 30
0.0
 70
    32
  0
VERTEX
  5
4D8
  8
0
  6
CONTINUOUS
 62
     7
 10
920.0959227404705
 20
2252.709425443106
 30
0.0
 70
    32
  0
VERTEX
  5
4D9
  8
0
  6
CONTINUOUS
 62
     7
 10
920.0770921396772
 20
2252.709425443106
 30
0.0
 70
    32
  0
VERTEX
  5
4DA
  8
0
  6
CONTINUOUS
 62
     7
 10
920.0588853487075
 20
2252.709425443106
 30
0.0
 70
    32
  0
VERTEX
  5
4DB
  8
0
  6
CONTINUOUS
 62
     7
 10
920.0411464151053
 20
2252.709425443106
 30
0.0
 70
    32
  0
VERTEX
  5
4DC
  8
0
  6
CONTINUOUS
 62
     7
 10
920.023719386415
 20
2252.709425443106
 30
0.0
 70
    32
  0
VERTEX
  5
4DD
  8
0
  6
CONTINUOUS
 62
     7
 10
920.0064483101806
 20
2252.709425443106
 30
0.0
 70
    32
  0
SEQEND
  5
8AD
  8
0
  6
CONTINUOUS
 62
     7
  0
LINE
  5
123
  8
0
  6
CONTINUOUS
 62
     7
 10
921.8064483101897
 20
2253.709425443105
 30
0.0
 11
921.8064483102044
 21
2252.709425443106
 31
0.0
  0
LINE
  5
124
  8
0
  6
CONTINUOUS
 62
     7
 10
922.0064483101804
 20
2308.709425443109
 30
0.0
 11
921.8064483101805
 21
2308.709425443109
 31
0.0
  0
LINE
  5
125
  8
0
  6
CONTINUOUS
 62
     7
 10
921.8064483101805
 20
2308.709425443109
 30
0.0
 11
921.8064483101809
 21
2299.600999600854
 31
0.0
  0
POLYLINE
  5
126
  8
0
  6
CONTINUOUS
 62
     7
 66
     1
 10
0.0
 20
0.0
 30
0.0
  0
VERTEX
  5
4DE
  8
0
  6
CONTINUOUS
 62
     7
 10
920.0064483101805
 20
2291.455189783287
 30
0.0
  0
VERTEX
  5
4DF
  8
0
  6
CONTINUOUS
 62
     7
 10
920.0178594952005
 20
2291.441681374097
 30
0.0
  0
VERTEX
  5
4E0
  8
0
  6
CONTINUOUS
 62
     7
 10
920.0295855885996
 20
2291.428534719991
 30
0.0
  0
VERTEX
  5
4E1
  8
0
  6
CONTINUOUS
 62
     7
 10
920.041774213728
 20
2291.415924278839
 30
0.0
  0
VERTEX
  5
4E2
  8
0
  6
CONTINUOUS
 62
     7
 10
920.0544120248001
 20
2291.403844282759
 30
0.0
  0
VERTEX
  5
4E3
  8
0
  6
CONTINUOUS
 62
     7
 10
920.0674791525048
 20
2291.392281659938
 30
0.0
  0
VERTEX
  5
4E4
  8
0
  6
CONTINUOUS
 62
     7
 10
920.0809557275311
 20
2291.381223338566
 30
0.0
  0
VERTEX
  5
4E5
  8
0
  6
CONTINUOUS
 62
     7
 10
920.0948218805678
 20
2291.370656246828
 30
0.0
  0
VERTEX
  5
4E6
  8
0
  6
CONTINUOUS
 62
     7
 10
920.1090577423045
 20
2291.360567312913
 30
0.0
  0
VERTEX
  5
4E7
  8
0
  6
CONTINUOUS
 62
     7
 10
920.1236434434294
 20
2291.350943465009
 30
0.0
  0
VERTEX
  5
4E8
  8
0
  6
CONTINUOUS
 62
     7
 10
920.1385591146325
 20
2291.341771631304
 30
0.0
  0
VERTEX
  5
4E9
  8
0
  6
CONTINUOUS
 62
     7
 10
920.1537848866016
 20
2291.333038739985
 30
0.0
  0
VERTEX
  5
4EA
  8
0
  6
CONTINUOUS
 62
     7
 10
920.1693008900264
 20
2291.324731719239
 30
0.0
  0
VERTEX
  5
4EB
  8
0
  6
CONTINUOUS
 62
     7
 10
920.1850872555959
 20
2291.316837497257
 30
0.0
  0
VERTEX
  5
4EC
  8
0
  6
CONTINUOUS
 62
     7
 10
920.2011241139992
 20
2291.309343002223
 30
0.0
  0
VERTEX
  5
4ED
  8
0
  6
CONTINUOUS
 62
     7
 10
920.2173915959249
 20
2291.302235162327
 30
0.0
  0
VERTEX
  5
4EE
  8
0
  6
CONTINUOUS
 62
     7
 10
920.2338698320623
 20
2291.295500905756
 30
0.0
  0
VERTEX
  5
4EF
  8
0
  6
CONTINUOUS
 62
     7
 10
920.2505389531003
 20
2291.289127160699
 30
0.0
  0
VERTEX
  5
4F0
  8
0
  6
CONTINUOUS
 62
     7
 10
920.2673790897277
 20
2291.283100855341
 30
0.0
  0
VERTEX
  5
4F1
  8
0
  6
CONTINUOUS
 62
     7
 10
920.2843703726337
 20
2291.277408917872
 30
0.0
  0
VERTEX
  5
4F2
  8
0
  6
CONTINUOUS
 62
     7
 10
920.3014929325072
 20
2291.27203827648
 30
0.0
  0
VERTEX
  5
4F3
  8
0
  6
CONTINUOUS
 62
     7
 10
920.3187269000375
 20
2291.266975859352
 30
0.0
  0
VERTEX
  5
4F4
  8
0
  6
CONTINUOUS
 62
     7
 10
920.3360524063173
 20
2291.26220859461
 30
0.0
  0
VERTEX
  5
4F5
  8
0
  6
CONTINUOUS
 62
     7
 10
920.3534526676267
 20
2291.257722905617
 30
0.0
  0
VERTEX
  5
4F6
  8
0
  6
CONTINUOUS
 62
     7
 10
920.3709214165583
 20
2291.2535034952
 30
0.0
  0
VERTEX
  5
4F7
  8
0
  6
CONTINUOUS
 62
     7
 10
920.3884546244282
 20
2291.249534699912
 30
0.0
  0
VERTEX
  5
4F8
  8
0
  6
CONTINUOUS
 62
     7
 10
920.4060482625523
 20
2291.245800856306
 30
0.0
  0
VERTEX
  5
4F9
  8
0
  6
CONTINUOUS
 62
     7
 10
920.423698302248
 20
2291.24228630094
 30
0.0
  0
VERTEX
  5
4FA
  8
0
  6
CONTINUOUS
 62
     7
 10
920.4414007148308
 20
2291.238975370366
 30
0.0
  0
VERTEX
  5
4FB
  8
0
  6
CONTINUOUS
 62
     7
 10
920.4591514716176
 20
2291.235852401139
 30
0.0
  0
VERTEX
  5
4FC
  8
0
  6
CONTINUOUS
 62
     7
 10
920.4769465439244
 20
2291.232901729813
 30
0.0
  0
VERTEX
  5
4FD
  8
0
  6
CONTINUOUS
 62
     7
 10
920.4947819030674
 20
2291.230107692943
 30
0.0
  0
VERTEX
  5
4FE
  8
0
  6
CONTINUOUS
 62
     7
 10
920.5126535203636
 20
2291.227454627083
 30
0.0
  0
VERTEX
  5
4FF
  8
0
  6
CONTINUOUS
 62
     7
 10
920.5305573671287
 20
2291.224926868788
 30
0.0
  0
VERTEX
  5
500
  8
0
  6
CONTINUOUS
 62
     7
 10
920.5484894146794
 20
2291.222508754612
 30
0.0
  0
VERTEX
  5
501
  8
0
  6
CONTINUOUS
 62
     7
 10
920.5664456343322
 20
2291.220184621109
 30
0.0
  0
VERTEX
  5
502
  8
0
  6
CONTINUOUS
 62
     7
 10
920.5844219974027
 20
2291.217938804834
 30
0.0
  0
VERTEX
  5
503
  8
0
  6
CONTINUOUS
 62
     7
 10
920.6024144752083
 20
2291.215755642341
 30
0.0
  0
VERTEX
  5
504
  8
0
  6
CONTINUOUS
 62
     7
 10
920.6204190390646
 20
2291.213619470186
 30
0.0
  0
VERTEX
  5
505
  8
0
  6
CONTINUOUS
 62
     7
 10
920.6384316602882
 20
2291.211514624921
 30
0.0
  0
VERTEX
  5
506
  8
0
  6
CONTINUOUS
 62
     7
 10
920.6564483101955
 20
2291.209425443102
 30
0.0
  0
SEQEND
  5
8AE
  8
0
  6
CONTINUOUS
 62
     7
  0
LINE
  5
127
  8
0
  6
CONTINUOUS
 62
     7
 10
921.5064483101897
 20
2291.209425443101
 30
0.0
 11
920.6564483101955
 21
2291.209425443102
 31
0.0
  0
LINE
  5
128
  8
0
  6
CONTINUOUS
 62
     7
 10
922.0064483101896
 20
2253.709425443105
 30
0.0
 11
921.8064483101897
 21
2253.709425443105
 31
0.0
  0
LINE
  5
129
  8
0
  6
CONTINUOUS
 62
     7
 10
921.8064483101866
 20
2262.817851285354
 30
0.0
 11
921.8064483101897
 21
2253.709425443105
 31
0.0
  0
POLYLINE
  5
12A
  8
0
  6
CONTINUOUS
 62
     7
 66
     1
 10
0.0
 20
0.0
 30
0.0
  0
VERTEX
  5
507
  8
0
  6
CONTINUOUS
 62
     7
 10
920.6564483101846
 20
2271.209425443102
 30
0.0
  0
VERTEX
  5
508
  8
0
  6
CONTINUOUS
 62
     7
 10
920.6335628515545
 20
2271.20715012011
 30
0.0
  0
VERTEX
  5
509
  8
0
  6
CONTINUOUS
 62
     7
 10
920.6106973873536
 20
2271.204833869636
 30
0.0
  0
VERTEX
  5
50A
  8
0
  6
CONTINUOUS
 62
     7
 10
920.5878719120116
 20
2271.202435764196
 30
0.0
  0
VERTEX
  5
50B
  8
0
  6
CONTINUOUS
 62
     7
 10
920.5651064199583
 20
2271.199914876311
 30
0.0
  0
VERTEX
  5
50C
  8
0
  6
CONTINUOUS
 62
     7
 10
920.5424209056231
 20
2271.197230278496
 30
0.0
  0
VERTEX
  5
50D
  8
0
  6
CONTINUOUS
 62
     7
 10
920.5198353634353
 20
2271.194341043269
 30
0.0
  0
VERTEX
  5
50E
  8
0
  6
CONTINUOUS
 62
     7
 10
920.4973697878245
 20
2271.191206243148
 30
0.0
  0
VERTEX
  5
50F
  8
0
  6
CONTINUOUS
 62
     7
 10
920.4750441732205
 20
2271.187784950652
 30
0.0
  0
VERTEX
  5
510
  8
0
  6
CONTINUOUS
 62
     7
 10
920.4528785140521
 20
2271.184036238296
 30
0.0
  0
VERTEX
  5
511
  8
0
  6
CONTINUOUS
 62
     7
 10
920.4308928047498
 20
2271.179919178601
 30
0.0
  0
VERTEX
  5
512
  8
0
  6
CONTINUOUS
 62
     7
 10
920.4091070397424
 20
2271.175392844081
 30
0.0
  0
VERTEX
  5
513
  8
0
  6
CONTINUOUS
 62
     7
 10
920.3875412134597
 20
2271.170416307257
 30
0.0
  0
VERTEX
  5
514
  8
0
  6
CONTINUOUS
 62
     7
 10
920.3662153203309
 20
2271.164948640645
 30
0.0
  0
VERTEX
  5
515
  8
0
  6
CONTINUOUS
 62
     7
 10
920.3451493547857
 20
2271.158948916763
 30
0.0
  0
VERTEX
  5
516
  8
0
  6
CONTINUOUS
 62
     7
 10
920.3243633112537
 20
2271.152376208128
 30
0.0
  0
VERTEX
  5
517
  8
0
  6
CONTINUOUS
 62
     7
 10
920.3038771841643
 20
2271.145189587259
 30
0.0
  0
VERTEX
  5
518
  8
0
  6
CONTINUOUS
 62
     7
 10
920.2837069814251
 20
2271.13735628686
 30
0.0
  0
VERTEX
  5
519
  8
0
  6
CONTINUOUS
 62
     7
 10
920.2638427362848
 20
2271.128896708319
 30
0.0
  0
VERTEX
  5
51A
  8
0
  6
CONTINUOUS
 62
     7
 10
920.2442640774319
 20
2271.11985255057
 30
0.0
  0
VERTEX
  5
51B
  8
0
  6
CONTINUOUS
 62
     7
 10
920.2249506058465
 20
2271.110265569272
 30
0.0
  0
VERTEX
  5
51C
  8
0
  6
CONTINUOUS
 62
     7
 10
920.2058819225073
 20
2271.100177520082
 30
0.0
  0
VERTEX
  5
51D
  8
0
  6
CONTINUOUS
 62
     7
 10
920.1870376283946
 20
2271.089630158659
 30
0.0
  0
VERTEX
  5
51E
  8
0
  6
CONTINUOUS
 62
     7
 10
920.1683973244875
 20
2271.07866524066
 30
0.0
  0
VERTEX
  5
51F
  8
0
  6
CONTINUOUS
 62
     7
 10
920.1499406117653
 20
2271.067324521742
 30
0.0
  0
VERTEX
  5
520
  8
0
  6
CONTINUOUS
 62
     7
 10
920.1316470912074
 20
2271.055649757563
 30
0.0
  0
VERTEX
  5
521
  8
0
  6
CONTINUOUS
 62
     7
 10
920.1134963637934
 20
2271.043682703781
 30
0.0
  0
VERTEX
  5
522
  8
0
  6
CONTINUOUS
 62
     7
 10
920.095468030503
 20
2271.031465116053
 30
0.0
  0
VERTEX
  5
523
  8
0
  6
CONTINUOUS
 62
     7
 10
920.0775416923151
 20
2271.019038750037
 30
0.0
  0
VERTEX
  5
524
  8
0
  6
CONTINUOUS
 62
     7
 10
920.0596969502096
 20
2271.00644536139
 30
0.0
  0
VERTEX
  5
525
  8
0
  6
CONTINUOUS
 62
     7
 10
920.0419134051657
 20
2270.993726705771
 30
0.0
  0
VERTEX
  5
526
  8
0
  6
CONTINUOUS
 62
     7
 10
920.0241706581628
 20
2270.980924538836
 30
0.0
  0
VERTEX
  5
527
  8
0
  6
CONTINUOUS
 62
     7
 10
920.0064483101805
 20
2270.968080616244
 30
0.0
  0
SEQEND
  5
8AF
  8
0
  6
CONTINUOUS
 62
     7
  0
LINE
  5
12B
  8
0
  6
CONTINUOUS
 62
     7
 10
920.6564483101846
 20
2271.209425443102
 30
0.0
 11
921.5064483101896
 21
2271.209425443105
 31
0.0
  0
LINE
  5
12C
  8
0
  6
CONTINUOUS
 62
     7
 10
922.0064483101812
 20
2309.709425443109
 30
0.0
 11
921.8064483101812
 21
2309.709425443109
 31
0.0
  0
LINE
  5
12D
  8
0
  6
CONTINUOUS
 62
     7
 10
922.0064483102043
 20
2252.709425443106
 30
0.0
 11
921.8064483102044
 21
2252.709425443106
 31
0.0
  0
LINE
  5
12E
  8
0
  6
CONTINUOUS
 62
     7
 10
921.5064483101803
 20
1390.165383582161
 30
0.0
 11
922.0064483101818
 21
1390.165383582161
 31
0.0
  0
LINE
  5
12F
  8
0
  6
CONTINUOUS
 62
     7
 10
921.506448310179
 20
1388.609425442868
 30
0.0
 11
922.0064483101789
 21
1388.609425442868
 31
0.0
  0
LINE
  5
130
  8
0
  6
CONTINUOUS
 62
     7
 10
921.506448310179
 20
1388.609425442868
 30
0.0
 11
921.5064483101803
 21
1390.165383582161
 31
0.0
  0
LINE
  5
131
  8
0
  6
CONTINUOUS
 62
     7
 10
922.0064483101818
 20
1372.253467304032
 30
0.0
 11
921.506448310187
 21
1372.253467304033
 31
0.0
  0
LINE
  5
132
  8
0
  6
CONTINUOUS
 62
     7
 10
921.506448310187
 20
1372.253467304033
 30
0.0
 11
921.5064483101947
 21
1373.809425443319
 31
0.0
  0
LINE
  5
133
  8
0
  6
CONTINUOUS
 62
     7
 10
922.0064483101947
 20
1373.809425443319
 30
0.0
 11
921.5064483101947
 21
1373.809425443319
 31
0.0
  0
LINE
  5
134
  8
0
  6
CONTINUOUS
 62
     7
 10
921.8064483101809
 20
1399.600999600853
 30
0.0
 11
921.5064483101808
 21
1399.600999600853
 31
0.0
  0
LINE
  5
135
  8
0
  6
CONTINUOUS
 62
     7
 10
922.006448310181
 20
1399.600999600853
 30
0.0
 11
921.8064483101809
 21
1399.600999600853
 31
0.0
  0
LINE
  5
136
  8
0
  6
CONTINUOUS
 62
     7
 10
921.5064483101808
 20
1399.600999600853
 30
0.0
 11
921.5064483101803
 21
1390.165383582161
 31
0.0
  0
LINE
  5
137
  8
0
  6
CONTINUOUS
 62
     7
 10
921.8064483101866
 20
1362.817851285354
 30
0.0
 11
922.0064483101867
 21
1362.817851285354
 31
0.0
  0
LINE
  5
138
  8
0
  6
CONTINUOUS
 62
     7
 10
921.5064483101867
 20
1362.817851285354
 30
0.0
 11
921.8064483101866
 21
1362.817851285354
 31
0.0
  0
LINE
  5
139
  8
0
  6
CONTINUOUS
 62
     7
 10
921.506448310187
 20
1372.253467304033
 30
0.0
 11
921.5064483101867
 21
1362.817851285354
 31
0.0
  0
POLYLINE
  5
13A
  8
0
  6
CONTINUOUS
 62
     7
 10
0.0
 20
0.0
 30
0.0
 66
     1
 70
     8
  0
VERTEX
  5
528
  8
0
  6
CONTINUOUS
 62
     7
 10
920.0064483101806
 20
1409.709425443102
 30
0.0
 70
    32
  0
VERTEX
  5
529
  8
0
  6
CONTINUOUS
 62
     7
 10
920.0237171355599
 20
1409.709425443102
 30
0.0
 70
    32
  0
VERTEX
  5
52A
  8
0
  6
CONTINUOUS
 62
     7
 10
920.0411422190308
 20
1409.709425443102
 30
0.0
 70
    32
  0
VERTEX
  5
52B
  8
0
  6
CONTINUOUS
 62
     7
 10
920.0588798186844
 20
1409.709425443102
 30
0.0
 70
    32
  0
VERTEX
  5
52C
  8
0
  6
CONTINUOUS
 62
     7
 10
920.0770861926119
 20
1409.709425443102
 30
0.0
 70
    32
  0
VERTEX
  5
52D
  8
0
  6
CONTINUOUS
 62
     7
 10
920.0959175989051
 20
1409.709425443102
 30
0.0
 70
    32
  0
VERTEX
  5
52E
  8
0
  6
CONTINUOUS
 62
     7
 10
920.1155302956548
 20
1409.709425443102
 30
0.0
 70
    32
  0
VERTEX
  5
52F
  8
0
  6
CONTINUOUS
 62
     7
 10
920.1360805189435
 20
1409.709425443103
 30
0.0
 70
    32
  0
VERTEX
  5
530
  8
0
  6
CONTINUOUS
 62
     7
 10
920.1576783065623
 20
1409.709425443103
 30
0.0
 70
    32
  0
VERTEX
  5
531
  8
0
  6
CONTINUOUS
 62
     7
 10
920.1802901018832
 20
1409.709425443102
 30
0.0
 70
    32
  0
VERTEX
  5
532
  8
0
  6
CONTINUOUS
 62
     7
 10
920.2038545306646
 20
1409.709425443102
 30
0.0
 70
    32
  0
VERTEX
  5
533
  8
0
  6
CONTINUOUS
 62
     7
 10
920.228310218665
 20
1409.709425443103
 30
0.0
 70
    32
  0
VERTEX
  5
534
  8
0
  6
CONTINUOUS
 62
     7
 10
920.2535957916435
 20
1409.709425443103
 30
0.0
 70
    32
  0
VERTEX
  5
535
  8
0
  6
CONTINUOUS
 62
     7
 10
920.2796498753586
 20
1409.709425443102
 30
0.0
 70
    32
  0
VERTEX
  5
536
  8
0
  6
CONTINUOUS
 62
     7
 10
920.3064110955686
 20
1409.709425443103
 30
0.0
 70
    32
  0
VERTEX
  5
537
  8
0
  6
CONTINUOUS
 62
     7
 10
920.3338180780324
 20
1409.709425443102
 30
0.0
 70
    32
  0
VERTEX
  5
538
  8
0
  6
CONTINUOUS
 62
     7
 10
920.3618094485091
 20
1409.709425443102
 30
0.0
 70
    32
  0
VERTEX
  5
539
  8
0
  6
CONTINUOUS
 62
     7
 10
920.3903238327568
 20
1409.709425443102
 30
0.0
 70
    32
  0
VERTEX
  5
53A
  8
0
  6
CONTINUOUS
 62
     7
 10
920.4193084836107
 20
1409.709425443102
 30
0.0
 70
    32
  0
VERTEX
  5
53B
  8
0
  6
CONTINUOUS
 62
     7
 10
920.4487527924907
 20
1409.709425443102
 30
0.0
 70
    32
  0
VERTEX
  5
53C
  8
0
  6
CONTINUOUS
 62
     7
 10
920.4786589968996
 20
1409.709425443102
 30
0.0
 70
    32
  0
VERTEX
  5
53D
  8
0
  6
CONTINUOUS
 62
     7
 10
920.5090293374465
 20
1409.709425443102
 30
0.0
 70
    32
  0
VERTEX
  5
53E
  8
0
  6
CONTINUOUS
 62
     7
 10
920.5398660547392
 20
1409.709425443102
 30
0.0
 70
    32
  0
VERTEX
  5
53F
  8
0
  6
CONTINUOUS
 62
     7
 10
920.571171389387
 20
1409.709425443102
 30
0.0
 70
    32
  0
VERTEX
  5
540
  8
0
  6
CONTINUOUS
 62
     7
 10
920.6029475819985
 20
1409.709425443102
 30
0.0
 70
    32
  0
VERTEX
  5
541
  8
0
  6
CONTINUOUS
 62
     7
 10
920.6351968731824
 20
1409.709425443102
 30
0.0
 70
    32
  0
VERTEX
  5
542
  8
0
  6
CONTINUOUS
 62
     7
 10
920.6679215035475
 20
1409.709425443102
 30
0.0
 70
    32
  0
VERTEX
  5
543
  8
0
  6
CONTINUOUS
 62
     7
 10
920.7011237137024
 20
1409.709425443102
 30
0.0
 70
    32
  0
VERTEX
  5
544
  8
0
  6
CONTINUOUS
 62
     7
 10
920.7348041525112
 20
1409.709425443102
 30
0.0
 70
    32
  0
VERTEX
  5
545
  8
0
  6
CONTINUOUS
 62
     7
 10
920.7689515458343
 20
1409.709425443102
 30
0.0
 70
    32
  0
VERTEX
  5
546
  8
0
  6
CONTINUOUS
 62
     7
 10
920.8035492127448
 20
1409.709425443102
 30
0.0
 70
    32
  0
VERTEX
  5
547
  8
0
  6
CONTINUOUS
 62
     7
 10
920.8385804454346
 20
1409.709425443102
 30
0.0
 70
    32
  0
VERTEX
  5
548
  8
0
  6
CONTINUOUS
 62
     7
 10
920.8740285360961
 20
1409.709425443102
 30
0.0
 70
    32
  0
VERTEX
  5
549
  8
0
  6
CONTINUOUS
 62
     7
 10
920.9098767769215
 20
1409.709425443102
 30
0.0
 70
    32
  0
VERTEX
  5
54A
  8
0
  6
CONTINUOUS
 62
     7
 10
920.9461084601036
 20
1409.709425443102
 30
0.0
 70
    32
  0
VERTEX
  5
54B
  8
0
  6
CONTINUOUS
 62
     7
 10
920.9827068778345
 20
1409.709425443102
 30
0.0
 70
    32
  0
VERTEX
  5
54C
  8
0
  6
CONTINUOUS
 62
     7
 10
921.0196553223062
 20
1409.709425443102
 30
0.0
 70
    32
  0
VERTEX
  5
54D
  8
0
  6
CONTINUOUS
 62
     7
 10
921.0569370857114
 20
1409.709425443102
 30
0.0
 70
    32
  0
VERTEX
  5
54E
  8
0
  6
CONTINUOUS
 62
     7
 10
921.0945354622485
 20
1409.709425443102
 30
0.0
 70
    32
  0
VERTEX
  5
54F
  8
0
  6
CONTINUOUS
 62
     7
 10
921.1324337713904
 20
1409.709425443102
 30
0.0
 70
    32
  0
VERTEX
  5
550
  8
0
  6
CONTINUOUS
 62
     7
 10
921.1706153498974
 20
1409.709425443102
 30
0.0
 70
    32
  0
VERTEX
  5
551
  8
0
  6
CONTINUOUS
 62
     7
 10
921.2090635348667
 20
1409.709425443102
 30
0.0
 70
    32
  0
VERTEX
  5
552
  8
0
  6
CONTINUOUS
 62
     7
 10
921.2477616633934
 20
1409.709425443103
 30
0.0
 70
    32
  0
VERTEX
  5
553
  8
0
  6
CONTINUOUS
 62
     7
 10
921.286693072574
 20
1409.709425443103
 30
0.0
 70
    32
  0
VERTEX
  5
554
  8
0
  6
CONTINUOUS
 62
     7
 10
921.3258410995049
 20
1409.709425443103
 30
0.0
 70
    32
  0
VERTEX
  5
555
  8
0
  6
CONTINUOUS
 62
     7
 10
921.3651890812821
 20
1409.709425443104
 30
0.0
 70
    32
  0
VERTEX
  5
556
  8
0
  6
CONTINUOUS
 62
     7
 10
921.4047203550018
 20
1409.709425443104
 30
0.0
 70
    32
  0
VERTEX
  5
557
  8
0
  6
CONTINUOUS
 62
     7
 10
921.4444182577597
 20
1409.709425443104
 30
0.0
 70
    32
  0
VERTEX
  5
558
  8
0
  6
CONTINUOUS
 62
     7
 10
921.4842661266528
 20
1409.709425443105
 30
0.0
 70
    32
  0
VERTEX
  5
559
  8
0
  6
CONTINUOUS
 62
     7
 10
921.5242472987762
 20
1409.709425443105
 30
0.0
 70
    32
  0
VERTEX
  5
55A
  8
0
  6
CONTINUOUS
 62
     7
 10
921.564345111227
 20
1409.709425443105
 30
0.0
 70
    32
  0
VERTEX
  5
55B
  8
0
  6
CONTINUOUS
 62
     7
 10
921.6045429011008
 20
1409.709425443106
 30
0.0
 70
    32
  0
VERTEX
  5
55C
  8
0
  6
CONTINUOUS
 62
     7
 10
921.6448240054938
 20
1409.709425443106
 30
0.0
 70
    32
  0
VERTEX
  5
55D
  8
0
  6
CONTINUOUS
 62
     7
 10
921.685171761502
 20
1409.709425443107
 30
0.0
 70
    32
  0
VERTEX
  5
55E
  8
0
  6
CONTINUOUS
 62
     7
 10
921.7255695062221
 20
1409.709425443107
 30
0.0
 70
    32
  0
VERTEX
  5
55F
  8
0
  6
CONTINUOUS
 62
     7
 10
921.7660005767495
 20
1409.709425443107
 30
0.0
 70
    32
  0
VERTEX
  5
560
  8
0
  6
CONTINUOUS
 62
     7
 10
921.8064483101812
 20
1409.709425443108
 30
0.0
 70
    32
  0
SEQEND
  5
8B0
  8
0
  6
CONTINUOUS
 62
     7
  0
LINE
  5
13B
  8
0
  6
CONTINUOUS
 62
     7
 10
921.8064483101805
 20
1408.709425443109
 30
0.0
 11
921.8064483101812
 21
1409.709425443108
 31
0.0
  0
POLYLINE
  5
13C
  8
0
  6
CONTINUOUS
 62
     7
 10
0.0
 20
0.0
 30
0.0
 66
     1
 70
     8
  0
VERTEX
  5
561
  8
0
  6
CONTINUOUS
 62
     7
 10
921.8064483102044
 20
1352.709425443105
 30
0.0
 70
    32
  0
VERTEX
  5
562
  8
0
  6
CONTINUOUS
 62
     7
 10
921.7659998315071
 20
1352.709425443105
 30
0.0
 70
    32
  0
VERTEX
  5
563
  8
0
  6
CONTINUOUS
 62
     7
 10
921.7255680192045
 20
1352.709425443105
 30
0.0
 70
    32
  0
VERTEX
  5
564
  8
0
  6
CONTINUOUS
 62
     7
 10
921.6851695396916
 20
1352.709425443105
 30
0.0
 70
    32
  0
VERTEX
  5
565
  8
0
  6
CONTINUOUS
 62
     7
 10
921.6448210593633
 20
1352.709425443105
 30
0.0
 70
    32
  0
VERTEX
  5
566
  8
0
  6
CONTINUOUS
 62
     7
 10
921.6045392446142
 20
1352.709425443105
 30
0.0
 70
    32
  0
VERTEX
  5
567
  8
0
  6
CONTINUOUS
 62
     7
 10
921.5643407618388
 20
1352.709425443105
 30
0.0
 70
    32
  0
VERTEX
  5
568
  8
0
  6
CONTINUOUS
 62
     7
 10
921.5242422774329
 20
1352.709425443105
 30
0.0
 70
    32
  0
VERTEX
  5
569
  8
0
  6
CONTINUOUS
 62
     7
 10
921.4842604577904
 20
1352.709425443105
 30
0.0
 70
    32
  0
VERTEX
  5
56A
  8
0
  6
CONTINUOUS
 62
     7
 10
921.4444119693062
 20
1352.709425443105
 30
0.0
 70
    32
  0
VERTEX
  5
56B
  8
0
  6
CONTINUOUS
 62
     7
 10
921.4047134783757
 20
1352.709425443105
 30
0.0
 70
    32
  0
VERTEX
  5
56C
  8
0
  6
CONTINUOUS
 62
     7
 10
921.3651816513933
 20
1352.709425443105
 30
0.0
 70
    32
  0
VERTEX
  5
56D
  8
0
  6
CONTINUOUS
 62
     7
 10
921.3258331547536
 20
1352.709425443105
 30
0.0
 70
    32
  0
VERTEX
  5
56E
  8
0
  6
CONTINUOUS
 62
     7
 10
921.2866846548518
 20
1352.709425443105
 30
0.0
 70
    32
  0
VERTEX
  5
56F
  8
0
  6
CONTINUOUS
 62
     7
 10
921.2477528180827
 20
1352.709425443105
 30
0.0
 70
    32
  0
VERTEX
  5
570
  8
0
  6
CONTINUOUS
 62
     7
 10
921.2090543108411
 20
1352.709425443105
 30
0.0
 70
    32
  0
VERTEX
  5
571
  8
0
  6
CONTINUOUS
 62
     7
 10
921.1706057995216
 20
1352.709425443105
 30
0.0
 70
    32
  0
VERTEX
  5
572
  8
0
  6
CONTINUOUS
 62
     7
 10
921.1324239505192
 20
1352.709425443105
 30
0.0
 70
    32
  0
VERTEX
  5
573
  8
0
  6
CONTINUOUS
 62
     7
 10
921.0945254302286
 20
1352.709425443105
 30
0.0
 70
    32
  0
VERTEX
  5
574
  8
0
  6
CONTINUOUS
 62
     7
 10
921.0569269052872
 20
1352.709425443105
 30
0.0
 70
    32
  0
VERTEX
  5
575
  8
0
  6
CONTINUOUS
 62
     7
 10
921.0196450547929
 20
1352.709425443105
 30
0.0
 70
    32
  0
VERTEX
  5
576
  8
0
  6
CONTINUOUS
 62
     7
 10
920.9826965760507
 20
1352.709425443105
 30
0.0
 70
    32
  0
VERTEX
  5
577
  8
0
  6
CONTINUOUS
 62
     7
 10
920.9460981678079
 20
1352.709425443105
 30
0.0
 70
    32
  0
VERTEX
  5
578
  8
0
  6
CONTINUOUS
 62
     7
 10
920.909866528813
 20
1352.709425443105
 30
0.0
 70
    32
  0
VERTEX
  5
579
  8
0
  6
CONTINUOUS
 62
     7
 10
920.874018357814
 20
1352.709425443105
 30
0.0
 70
    32
  0
VERTEX
  5
57A
  8
0
  6
CONTINUOUS
 62
     7
 10
920.8385703535582
 20
1352.709425443105
 30
0.0
 70
    32
  0
VERTEX
  5
57B
  8
0
  6
CONTINUOUS
 62
     7
 10
920.8035392147938
 20
1352.709425443105
 30
0.0
 70
    32
  0
VERTEX
  5
57C
  8
0
  6
CONTINUOUS
 62
     7
 10
920.7689416402687
 20
1352.709425443105
 30
0.0
 70
    32
  0
VERTEX
  5
57D
  8
0
  6
CONTINUOUS
 62
     7
 10
920.7347943287311
 20
1352.709425443105
 30
0.0
 70
    32
  0
VERTEX
  5
57E
  8
0
  6
CONTINUOUS
 62
     7
 10
920.7011139463328
 20
1352.709425443105
 30
0.0
 70
    32
  0
VERTEX
  5
57F
  8
0
  6
CONTINUOUS
 62
     7
 10
920.6679115997895
 20
1352.709425443105
 30
0.0
 70
    32
  0
VERTEX
  5
580
  8
0
  6
CONTINUOUS
 62
     7
 10
920.6351865976317
 20
1352.709425443105
 30
0.0
 70
    32
  0
VERTEX
  5
581
  8
0
  6
CONTINUOUS
 62
     7
 10
920.602936741854
 20
1352.709425443105
 30
0.0
 70
    32
  0
VERTEX
  5
582
  8
0
  6
CONTINUOUS
 62
     7
 10
920.57115983445
 20
1352.709425443105
 30
0.0
 70
    32
  0
VERTEX
  5
583
  8
0
  6
CONTINUOUS
 62
     7
 10
920.539853677414
 20
1352.709425443105
 30
0.0
 70
    32
  0
VERTEX
  5
584
  8
0
  6
CONTINUOUS
 62
     7
 10
920.5090160727393
 20
1352.709425443105
 30
0.0
 70
    32
  0
VERTEX
  5
585
  8
0
  6
CONTINUOUS
 62
     7
 10
920.4786448224208
 20
1352.709425443105
 30
0.0
 70
    32
  0
VERTEX
  5
586
  8
0
  6
CONTINUOUS
 62
     7
 10
920.4487377284516
 20
1352.709425443105
 30
0.0
 70
    32
  0
VERTEX
  5
587
  8
0
  6
CONTINUOUS
 62
     7
 10
920.4192925928261
 20
1352.709425443105
 30
0.0
 70
    32
  0
VERTEX
  5
588
  8
0
  6
CONTINUOUS
 62
     7
 10
920.3903072207278
 20
1352.709425443105
 30
0.0
 70
    32
  0
VERTEX
  5
589
  8
0
  6
CONTINUOUS
 62
     7
 10
920.3617922904085
 20
1352.709425443105
 30
0.0
 70
    32
  0
VERTEX
  5
58A
  8
0
  6
CONTINUOUS
 62
     7
 10
920.3338006352914
 20
1352.709425443105
 30
0.0
 70
    32
  0
VERTEX
  5
58B
  8
0
  6
CONTINUOUS
 62
     7
 10
920.306393704268
 20
1352.709425443105
 30
0.0
 70
    32
  0
VERTEX
  5
58C
  8
0
  6
CONTINUOUS
 62
     7
 10
920.2796329462291
 20
1352.709425443105
 30
0.0
 70
    32
  0
VERTEX
  5
58D
  8
0
  6
CONTINUOUS
 62
     7
 10
920.2535798100664
 20
1352.709425443105
 30
0.0
 70
    32
  0
VERTEX
  5
58E
  8
0
  6
CONTINUOUS
 62
     7
 10
920.2282957446713
 20
1352.709425443105
 30
0.0
 70
    32
  0
VERTEX
  5
58F
  8
0
  6
CONTINUOUS
 62
     7
 10
920.2038421989353
 20
1352.709425443105
 30
0.0
 70
    32
  0
VERTEX
  5
590
  8
0
  6
CONTINUOUS
 62
     7
 10
920.1802806217488
 20
1352.709425443105
 30
0.0
 70
    32
  0
VERTEX
  5
591
  8
0
  6
CONTINUOUS
 62
     7
 10
920.1576724620041
 20
1352.709425443105
 30
0.0
 70
    32
  0
VERTEX
  5
592
  8
0
  6
CONTINUOUS
 62
     7
 10
920.136079168592
 20
1352.709425443105
 30
0.0
 70
    32
  0
VERTEX
  5
593
  8
0
  6
CONTINUOUS
 62
     7
 10
920.1155331035432
 20
1352.709425443105
 30
0.0
 70
    32
  0
VERTEX
  5
594
  8
0
  6
CONTINUOUS
 62
     7
 10
920.0959227404703
 20
1352.709425443105
 30
0.0
 70
    32
  0
VERTEX
  5
595
  8
0
  6
CONTINUOUS
 62
     7
 10
920.0770921396772
 20
1352.709425443105
 30
0.0
 70
    32
  0
VERTEX
  5
596
  8
0
  6
CONTINUOUS
 62
     7
 10
920.0588853487075
 20
1352.709425443105
 30
0.0
 70
    32
  0
VERTEX
  5
597
  8
0
  6
CONTINUOUS
 62
     7
 10
920.0411464151055
 20
1352.709425443105
 30
0.0
 70
    32
  0
VERTEX
  5
598
  8
0
  6
CONTINUOUS
 62
     7
 10
920.0237193864151
 20
1352.709425443105
 30
0.0
 70
    32
  0
VERTEX
  5
599
  8
0
  6
CONTINUOUS
 62
     7
 10
920.0064483101805
 20
1352.709425443105
 30
0.0
 70
    32
  0
SEQEND
  5
8B1
  8
0
  6
CONTINUOUS
 62
     7
  0
LINE
  5
13D
  8
0
  6
CONTINUOUS
 62
     7
 10
921.8064483101897
 20
1353.709425443104
 30
0.0
 11
921.8064483102044
 21
1352.709425443105
 31
0.0
  0
POLYLINE
  5
13E
  8
0
  6
CONTINUOUS
 62
     7
 66
     1
 10
0.0
 20
0.0
 30
0.0
  0
VERTEX
  5
59A
  8
0
  6
CONTINUOUS
 62
     7
 10
920.0064483101805
 20
1391.455189783285
 30
0.0
  0
VERTEX
  5
59B
  8
0
  6
CONTINUOUS
 62
     7
 10
920.0178594952005
 20
1391.441681374096
 30
0.0
  0
VERTEX
  5
59C
  8
0
  6
CONTINUOUS
 62
     7
 10
920.0295855885997
 20
1391.42853471999
 30
0.0
  0
VERTEX
  5
59D
  8
0
  6
CONTINUOUS
 62
     7
 10
920.0417742137282
 20
1391.415924278838
 30
0.0
  0
VERTEX
  5
59E
  8
0
  6
CONTINUOUS
 62
     7
 10
920.0544120248002
 20
1391.403844282758
 30
0.0
  0
VERTEX
  5
59F
  8
0
  6
CONTINUOUS
 62
     7
 10
920.0674791525049
 20
1391.392281659938
 30
0.0
  0
VERTEX
  5
5A0
  8
0
  6
CONTINUOUS
 62
     7
 10
920.0809557275311
 20
1391.381223338564
 30
0.0
  0
VERTEX
  5
5A1
  8
0
  6
CONTINUOUS
 62
     7
 10
920.0948218805679
 20
1391.370656246827
 30
0.0
  0
VERTEX
  5
5A2
  8
0
  6
CONTINUOUS
 62
     7
 10
920.1090577423042
 20
1391.360567312912
 30
0.0
  0
VERTEX
  5
5A3
  8
0
  6
CONTINUOUS
 62
     7
 10
920.1236434434296
 20
1391.350943465008
 30
0.0
  0
VERTEX
  5
5A4
  8
0
  6
CONTINUOUS
 62
     7
 10
920.1385591146327
 20
1391.341771631303
 30
0.0
  0
VERTEX
  5
5A5
  8
0
  6
CONTINUOUS
 62
     7
 10
920.1537848866018
 20
1391.333038739984
 30
0.0
  0
VERTEX
  5
5A6
  8
0
  6
CONTINUOUS
 62
     7
 10
920.1693008900269
 20
1391.324731719239
 30
0.0
  0
VERTEX
  5
5A7
  8
0
  6
CONTINUOUS
 62
     7
 10
920.1850872555963
 20
1391.316837497255
 30
0.0
  0
VERTEX
  5
5A8
  8
0
  6
CONTINUOUS
 62
     7
 10
920.2011241139994
 20
1391.309343002222
 30
0.0
  0
VERTEX
  5
5A9
  8
0
  6
CONTINUOUS
 62
     7
 10
920.2173915959252
 20
1391.302235162326
 30
0.0
  0
VERTEX
  5
5AA
  8
0
  6
CONTINUOUS
 62
     7
 10
920.2338698320624
 20
1391.295500905755
 30
0.0
  0
VERTEX
  5
5AB
  8
0
  6
CONTINUOUS
 62
     7
 10
920.2505389531002
 20
1391.289127160697
 30
0.0
  0
VERTEX
  5
5AC
  8
0
  6
CONTINUOUS
 62
     7
 10
920.2673790897278
 20
1391.28310085534
 30
0.0
  0
VERTEX
  5
5AD
  8
0
  6
CONTINUOUS
 62
     7
 10
920.2843703726336
 20
1391.277408917871
 30
0.0
  0
VERTEX
  5
5AE
  8
0
  6
CONTINUOUS
 62
     7
 10
920.3014929325075
 20
1391.272038276479
 30
0.0
  0
VERTEX
  5
5AF
  8
0
  6
CONTINUOUS
 62
     7
 10
920.3187269000376
 20
1391.266975859351
 30
0.0
  0
VERTEX
  5
5B0
  8
0
  6
CONTINUOUS
 62
     7
 10
920.3360524063172
 20
1391.262208594608
 30
0.0
  0
VERTEX
  5
5B1
  8
0
  6
CONTINUOUS
 62
     7
 10
920.3534526676269
 20
1391.257722905616
 30
0.0
  0
VERTEX
  5
5B2
  8
0
  6
CONTINUOUS
 62
     7
 10
920.3709214165582
 20
1391.253503495198
 30
0.0
  0
VERTEX
  5
5B3
  8
0
  6
CONTINUOUS
 62
     7
 10
920.3884546244279
 20
1391.24953469991
 30
0.0
  0
VERTEX
  5
5B4
  8
0
  6
CONTINUOUS
 62
     7
 10
920.4060482625523
 20
1391.245800856305
 30
0.0
  0
VERTEX
  5
5B5
  8
0
  6
CONTINUOUS
 62
     7
 10
920.4236983022479
 20
1391.242286300939
 30
0.0
  0
VERTEX
  5
5B6
  8
0
  6
CONTINUOUS
 62
     7
 10
920.4414007148308
 20
1391.238975370364
 30
0.0
  0
VERTEX
  5
5B7
  8
0
  6
CONTINUOUS
 62
     7
 10
920.4591514716175
 20
1391.235852401137
 30
0.0
  0
VERTEX
  5
5B8
  8
0
  6
CONTINUOUS
 62
     7
 10
920.4769465439242
 20
1391.232901729812
 30
0.0
  0
VERTEX
  5
5B9
  8
0
  6
CONTINUOUS
 62
     7
 10
920.4947819030676
 20
1391.230107692942
 30
0.0
  0
VERTEX
  5
5BA
  8
0
  6
CONTINUOUS
 62
     7
 10
920.5126535203634
 20
1391.227454627082
 30
0.0
  0
VERTEX
  5
5BB
  8
0
  6
CONTINUOUS
 62
     7
 10
920.5305573671288
 20
1391.224926868786
 30
0.0
  0
VERTEX
  5
5BC
  8
0
  6
CONTINUOUS
 62
     7
 10
920.5484894146795
 20
1391.22250875461
 30
0.0
  0
VERTEX
  5
5BD
  8
0
  6
CONTINUOUS
 62
     7
 10
920.5664456343321
 20
1391.220184621108
 30
0.0
  0
VERTEX
  5
5BE
  8
0
  6
CONTINUOUS
 62
     7
 10
920.5844219974028
 20
1391.217938804833
 30
0.0
  0
VERTEX
  5
5BF
  8
0
  6
CONTINUOUS
 62
     7
 10
920.6024144752082
 20
1391.21575564234
 30
0.0
  0
VERTEX
  5
5C0
  8
0
  6
CONTINUOUS
 62
     7
 10
920.6204190390646
 20
1391.213619470185
 30
0.0
  0
VERTEX
  5
5C1
  8
0
  6
CONTINUOUS
 62
     7
 10
920.6384316602882
 20
1391.21151462492
 30
0.0
  0
VERTEX
  5
5C2
  8
0
  6
CONTINUOUS
 62
     7
 10
920.6564483101955
 20
1391.209425443101
 30
0.0
  0
SEQEND
  5
8B2
  8
0
  6
CONTINUOUS
 62
     7
  0
LINE
  5
13F
  8
0
  6
CONTINUOUS
 62
     7
 10
921.8064483101805
 20
1408.709425443109
 30
0.0
 11
921.8064483101809
 21
1399.600999600853
 31
0.0
  0
LINE
  5
140
  8
0
  6
CONTINUOUS
 62
     7
 10
921.5064483101897
 20
1391.209425443101
 30
0.0
 11
920.6564483101955
 21
1391.209425443101
 31
0.0
  0
LINE
  5
141
  8
0
  6
CONTINUOUS
 62
     7
 10
922.0064483101804
 20
1408.709425443109
 30
0.0
 11
921.8064483101805
 21
1408.709425443109
 31
0.0
  0
LINE
  5
142
  8
0
  6
CONTINUOUS
 62
     7
 10
922.0064483101896
 20
1353.709425443104
 30
0.0
 11
921.8064483101897
 21
1353.709425443104
 31
0.0
  0
LINE
  5
143
  8
0
  6
CONTINUOUS
 62
     7
 10
921.8064483101866
 20
1362.817851285354
 30
0.0
 11
921.8064483101897
 21
1353.709425443104
 31
0.0
  0
POLYLINE
  5
144
  8
0
  6
CONTINUOUS
 62
     7
 66
     1
 10
0.0
 20
0.0
 30
0.0
  0
VERTEX
  5
5C3
  8
0
  6
CONTINUOUS
 62
     7
 10
920.6564483101846
 20
1371.209425443101
 30
0.0
  0
VERTEX
  5
5C4
  8
0
  6
CONTINUOUS
 62
     7
 10
920.6335628515543
 20
1371.207150120109
 30
0.0
  0
VERTEX
  5
5C5
  8
0
  6
CONTINUOUS
 62
     7
 10
920.6106973873534
 20
1371.204833869635
 30
0.0
  0
VERTEX
  5
5C6
  8
0
  6
CONTINUOUS
 62
     7
 10
920.5878719120116
 20
1371.202435764196
 30
0.0
  0
VERTEX
  5
5C7
  8
0
  6
CONTINUOUS
 62
     7
 10
920.5651064199582
 20
1371.19991487631
 30
0.0
  0
VERTEX
  5
5C8
  8
0
  6
CONTINUOUS
 62
     7
 10
920.542420905623
 20
1371.197230278494
 30
0.0
  0
VERTEX
  5
5C9
  8
0
  6
CONTINUOUS
 62
     7
 10
920.5198353634353
 20
1371.194341043268
 30
0.0
  0
VERTEX
  5
5CA
  8
0
  6
CONTINUOUS
 62
     7
 10
920.4973697878245
 20
1371.191206243147
 30
0.0
  0
VERTEX
  5
5CB
  8
0
  6
CONTINUOUS
 62
     7
 10
920.4750441732203
 20
1371.18778495065
 30
0.0
  0
VERTEX
  5
5CC
  8
0
  6
CONTINUOUS
 62
     7
 10
920.4528785140525
 20
1371.184036238295
 30
0.0
  0
VERTEX
  5
5CD
  8
0
  6
CONTINUOUS
 62
     7
 10
920.4308928047498
 20
1371.179919178599
 30
0.0
  0
VERTEX
  5
5CE
  8
0
  6
CONTINUOUS
 62
     7
 10
920.4091070397423
 20
1371.17539284408
 30
0.0
  0
VERTEX
  5
5CF
  8
0
  6
CONTINUOUS
 62
     7
 10
920.3875412134596
 20
1371.170416307256
 30
0.0
  0
VERTEX
  5
5D0
  8
0
  6
CONTINUOUS
 62
     7
 10
920.3662153203309
 20
1371.164948640644
 30
0.0
  0
VERTEX
  5
5D1
  8
0
  6
CONTINUOUS
 62
     7
 10
920.3451493547858
 20
1371.158948916762
 30
0.0
  0
VERTEX
  5
5D2
  8
0
  6
CONTINUOUS
 62
     7
 10
920.3243633112536
 20
1371.152376208127
 30
0.0
  0
VERTEX
  5
5D3
  8
0
  6
CONTINUOUS
 62
     7
 10
920.3038771841641
 20
1371.145189587258
 30
0.0
  0
VERTEX
  5
5D4
  8
0
  6
CONTINUOUS
 62
     7
 10
920.2837069814253
 20
1371.13735628686
 30
0.0
  0
VERTEX
  5
5D5
  8
0
  6
CONTINUOUS
 62
     7
 10
920.2638427362849
 20
1371.128896708318
 30
0.0
  0
VERTEX
  5
5D6
  8
0
  6
CONTINUOUS
 62
     7
 10
920.2442640774319
 20
1371.119852550569
 30
0.0
  0
VERTEX
  5
5D7
  8
0
  6
CONTINUOUS
 62
     7
 10
920.2249506058464
 20
1371.110265569271
 30
0.0
  0
VERTEX
  5
5D8
  8
0
  6
CONTINUOUS
 62
     7
 10
920.2058819225075
 20
1371.100177520082
 30
0.0
  0
VERTEX
  5
5D9
  8
0
  6
CONTINUOUS
 62
     7
 10
920.1870376283948
 20
1371.089630158659
 30
0.0
  0
VERTEX
  5
5DA
  8
0
  6
CONTINUOUS
 62
     7
 10
920.1683973244875
 20
1371.078665240659
 30
0.0
  0
VERTEX
  5
5DB
  8
0
  6
CONTINUOUS
 62
     7
 10
920.1499406117653
 20
1371.067324521741
 30
0.0
  0
VERTEX
  5
5DC
  8
0
  6
CONTINUOUS
 62
     7
 10
920.1316470912071
 20
1371.055649757562
 30
0.0
  0
VERTEX
  5
5DD
  8
0
  6
CONTINUOUS
 62
     7
 10
920.1134963637935
 20
1371.04368270378
 30
0.0
  0
VERTEX
  5
5DE
  8
0
  6
CONTINUOUS
 62
     7
 10
920.0954680305031
 20
1371.031465116052
 30
0.0
  0
VERTEX
  5
5DF
  8
0
  6
CONTINUOUS
 62
     7
 10
920.077541692315
 20
1371.019038750036
 30
0.0
  0
VERTEX
  5
5E0
  8
0
  6
CONTINUOUS
 62
     7
 10
920.0596969502096
 20
1371.00644536139
 30
0.0
  0
VERTEX
  5
5E1
  8
0
  6
CONTINUOUS
 62
     7
 10
920.0419134051656
 20
1370.99372670577
 30
0.0
  0
VERTEX
  5
5E2
  8
0
  6
CONTINUOUS
 62
     7
 10
920.0241706581628
 20
1370.980924538835
 30
0.0
  0
VERTEX
  5
5E3
  8
0
  6
CONTINUOUS
 62
     7
 10
920.0064483101805
 20
1370.968080616243
 30
0.0
  0
SEQEND
  5
8B3
  8
0
  6
CONTINUOUS
 62
     7
  0
LINE
  5
145
  8
0
  6
CONTINUOUS
 62
     7
 10
920.6564483101846
 20
1371.209425443101
 30
0.0
 11
921.5064483101896
 21
1371.209425443104
 31
0.0
  0
LINE
  5
146
  8
0
  6
CONTINUOUS
 62
     7
 10
922.0064483101812
 20
1409.709425443108
 30
0.0
 11
921.8064483101812
 21
1409.709425443108
 31
0.0
  0
LINE
  5
147
  8
0
  6
CONTINUOUS
 62
     7
 10
922.0064483102043
 20
1352.709425443105
 30
0.0
 11
921.8064483102044
 21
1352.709425443105
 31
0.0
  0
LINE
  5
148
  8
0
  6
CONTINUOUS
 62
     7
 10
920.0064483101804
 20
2287.709425443102
 30
0.0
 11
922.0064483101879
 21
2287.709425443103
 31
0.0
  0
LINE
  5
149
  8
0
  6
CONTINUOUS
 62
     7
 10
922.0064483101879
 20
2274.709425443101
 30
0.0
 11
920.0064483101804
 21
2274.709425443104
 31
0.0
  0
LINE
  5
14A
  8
0
  6
CONTINUOUS
 62
     7
 10
920.7351657650019
 20
2273.759425443101
 30
0.0
 11
920.7351657650014
 21
2274.709425443104
 31
0.0
  0
LINE
  5
14B
  8
0
  6
CONTINUOUS
 62
     7
 10
920.7351657649964
 20
2287.709425443103
 30
0.0
 11
920.735165764996
 21
2288.659425443102
 31
0.0
  0
LINE
  5
14C
  8
0
  6
CONTINUOUS
 62
     7
 10
920.7351657650019
 20
2273.759425443101
 30
0.0
 11
920.0064483101805
 21
2273.759425443101
 31
0.0
  0
LINE
  5
14D
  8
0
  6
CONTINUOUS
 62
     7
 10
920.735165764996
 20
2288.659425443102
 30
0.0
 11
920.0064483101805
 21
2288.659425443102
 31
0.0
  0
LINE
  5
14E
  8
0
  6
CONTINUOUS
 62
     7
 10
920.796535260597
 20
2273.759425443104
 30
0.0
 11
920.7965352605974
 21
2274.709425443104
 31
0.0
  0
LINE
  5
14F
  8
0
  6
CONTINUOUS
 62
     7
 10
920.7965352606018
 20
2287.709425443103
 30
0.0
 11
920.7965352606021
 21
2288.6594254431
 31
0.0
  0
LINE
  5
150
  8
0
  6
CONTINUOUS
 62
     7
 10
920.796535260597
 20
2273.759425443104
 30
0.0
 11
920.7351657650019
 21
2273.759425443101
 31
0.0
  0
LINE
  5
151
  8
0
  6
CONTINUOUS
 62
     7
 10
920.7965352606021
 20
2288.6594254431
 30
0.0
 11
920.735165764996
 21
2288.659425443102
 31
0.0
  0
LINE
  5
152
  8
0
  6
CONTINUOUS
 62
     7
 10
920.0064483101804
 20
1044.709425443101
 30
0.0
 11
922.0064483101883
 21
1044.709425443101
 31
0.0
  0
LINE
  5
153
  8
0
  6
CONTINUOUS
 62
     7
 10
922.0064483101883
 20
1031.7094254431
 30
0.0
 11
920.0064483101804
 21
1031.709425443103
 31
0.0
  0
LINE
  5
154
  8
0
  6
CONTINUOUS
 62
     7
 10
920.7351657650022
 20
1030.7594254431
 30
0.0
 11
920.7351657650019
 21
1031.709425443103
 31
0.0
  0
LINE
  5
155
  8
0
  6
CONTINUOUS
 62
     7
 10
920.7351657649967
 20
1044.709425443102
 30
0.0
 11
920.7351657649964
 21
1045.659425443101
 31
0.0
  0
LINE
  5
156
  8
0
  6
CONTINUOUS
 62
     7
 10
920.7351657650022
 20
1030.7594254431
 30
0.0
 11
920.0064483101805
 21
1030.7594254431
 31
0.0
  0
LINE
  5
157
  8
0
  6
CONTINUOUS
 62
     7
 10
920.7351657649964
 20
1045.659425443101
 30
0.0
 11
920.0064483101805
 21
1045.659425443101
 31
0.0
  0
LINE
  5
158
  8
0
  6
CONTINUOUS
 62
     7
 10
920.7965352605974
 20
1030.759425443103
 30
0.0
 11
920.7965352605977
 21
1031.709425443103
 31
0.0
  0
LINE
  5
159
  8
0
  6
CONTINUOUS
 62
     7
 10
920.7965352606021
 20
1044.709425443102
 30
0.0
 11
920.7965352606025
 21
1045.659425443099
 31
0.0
  0
LINE
  5
15A
  8
0
  6
CONTINUOUS
 62
     7
 10
920.7965352605974
 20
1030.759425443103
 30
0.0
 11
920.7351657650022
 21
1030.7594254431
 31
0.0
  0
LINE
  5
15B
  8
0
  6
CONTINUOUS
 62
     7
 10
920.7965352606025
 20
1045.659425443099
 30
0.0
 11
920.7351657649964
 21
1045.659425443101
 31
0.0
  0
LINE
  5
15C
  8
0
  6
CONTINUOUS
 62
     7
 10
920.0064483101804
 20
1851.709425443101
 30
0.0
 11
922.0064483101879
 21
1851.709425443102
 31
0.0
  0
LINE
  5
15D
  8
0
  6
CONTINUOUS
 62
     7
 10
922.0064483101879
 20
1838.7094254431
 30
0.0
 11
920.0064483101804
 21
1838.709425443103
 31
0.0
  0
LINE
  5
15E
  8
0
  6
CONTINUOUS
 62
     7
 10
920.7351657650019
 20
1837.759425443101
 30
0.0
 11
920.7351657650015
 21
1838.709425443103
 31
0.0
  0
LINE
  5
15F
  8
0
  6
CONTINUOUS
 62
     7
 10
920.7351657649964
 20
1851.709425443102
 30
0.0
 11
920.735165764996
 21
1852.659425443101
 31
0.0
  0
LINE
  5
160
  8
0
  6
CONTINUOUS
 62
     7
 10
920.7351657650019
 20
1837.759425443101
 30
0.0
 11
920.0064483101805
 21
1837.7594254431
 31
0.0
  0
LINE
  5
161
  8
0
  6
CONTINUOUS
 62
     7
 10
920.735165764996
 20
1852.659425443101
 30
0.0
 11
920.0064483101805
 21
1852.659425443101
 31
0.0
  0
LINE
  5
162
  8
0
  6
CONTINUOUS
 62
     7
 10
920.796535260597
 20
1837.759425443103
 30
0.0
 11
920.7965352605974
 21
1838.709425443103
 31
0.0
  0
LINE
  5
163
  8
0
  6
CONTINUOUS
 62
     7
 10
920.7965352606018
 20
1851.709425443102
 30
0.0
 11
920.7965352606021
 21
1852.6594254431
 31
0.0
  0
LINE
  5
164
  8
0
  6
CONTINUOUS
 62
     7
 10
920.796535260597
 20
1837.759425443103
 30
0.0
 11
920.7351657650019
 21
1837.759425443101
 31
0.0
  0
LINE
  5
165
  8
0
  6
CONTINUOUS
 62
     7
 10
920.7965352606021
 20
1852.6594254431
 30
0.0
 11
920.735165764996
 21
1852.659425443101
 31
0.0
  0
LINE
  5
166
  8
0
  6
CONTINUOUS
 62
     7
 10
920.0064483101804
 20
1387.709425443101
 30
0.0
 11
922.0064483101879
 21
1387.709425443101
 31
0.0
  0
LINE
  5
167
  8
0
  6
CONTINUOUS
 62
     7
 10
922.0064483101878
 20
1374.7094254431
 30
0.0
 11
920.0064483101804
 21
1374.709425443103
 31
0.0
  0
LINE
  5
168
  8
0
  6
CONTINUOUS
 62
     7
 10
920.7351657650017
 20
1373.7594254431
 30
0.0
 11
920.7351657650014
 21
1374.709425443103
 31
0.0
  0
LINE
  5
169
  8
0
  6
CONTINUOUS
 62
     7
 10
920.7351657649964
 20
1387.709425443102
 30
0.0
 11
920.7351657649959
 21
1388.659425443101
 31
0.0
  0
LINE
  5
16A
  8
0
  6
CONTINUOUS
 62
     7
 10
920.7351657650017
 20
1373.7594254431
 30
0.0
 11
920.0064483101805
 21
1373.7594254431
 31
0.0
  0
LINE
  5
16B
  8
0
  6
CONTINUOUS
 62
     7
 10
920.7351657649959
 20
1388.659425443101
 30
0.0
 11
920.0064483101805
 21
1388.659425443101
 31
0.0
  0
LINE
  5
16C
  8
0
  6
CONTINUOUS
 62
     7
 10
920.796535260597
 20
1373.759425443103
 30
0.0
 11
920.7965352605974
 21
1374.709425443103
 31
0.0
  0
LINE
  5
16D
  8
0
  6
CONTINUOUS
 62
     7
 10
920.7965352606018
 20
1387.709425443102
 30
0.0
 11
920.7965352606021
 21
1388.659425443099
 31
0.0
  0
LINE
  5
16E
  8
0
  6
CONTINUOUS
 62
     7
 10
920.796535260597
 20
1373.759425443103
 30
0.0
 11
920.7351657650017
 21
1373.7594254431
 31
0.0
  0
LINE
  5
16F
  8
0
  6
CONTINUOUS
 62
     7
 10
920.7965352606021
 20
1388.659425443099
 30
0.0
 11
920.7351657649959
 21
1388.659425443101
 31
0.0
  0
LINE
  5
170
  8
0
  6
CONTINUOUS
 62
     7
 10
920.0064483101804
 20
701.709425443101
 30
0.0
 11
922.0064483101879
 21
701.7094254431013
 31
0.0
  0
LINE
  5
171
  8
0
  6
CONTINUOUS
 62
     7
 10
922.0064483101879
 20
688.7094254430997
 30
0.0
 11
920.0064483101804
 21
688.7094254431029
 31
0.0
  0
LINE
  5
172
  8
0
  6
CONTINUOUS
 62
     7
 10
920.7351657650019
 20
687.7594254431002
 30
0.0
 11
920.7351657650014
 21
688.7094254431029
 31
0.0
  0
LINE
  5
173
  8
0
  6
CONTINUOUS
 62
     7
 10
920.7351657649964
 20
701.7094254431015
 30
0.0
 11
920.735165764996
 21
702.659425443101
 31
0.0
  0
LINE
  5
174
  8
0
  6
CONTINUOUS
 62
     7
 10
920.7351657650019
 20
687.7594254431002
 30
0.0
 11
920.0064483101805
 21
687.7594254430999
 31
0.0
  0
LINE
  5
175
  8
0
  6
CONTINUOUS
 62
     7
 10
920.735165764996
 20
702.659425443101
 30
0.0
 11
920.0064483101805
 21
702.659425443101
 31
0.0
  0
LINE
  5
176
  8
0
  6
CONTINUOUS
 62
     7
 10
920.796535260597
 20
687.7594254431026
 30
0.0
 11
920.7965352605974
 21
688.7094254431029
 31
0.0
  0
LINE
  5
177
  8
0
  6
CONTINUOUS
 62
     7
 10
920.7965352606018
 20
701.7094254431016
 30
0.0
 11
920.7965352606021
 21
702.6594254430993
 31
0.0
  0
LINE
  5
178
  8
0
  6
CONTINUOUS
 62
     7
 10
920.796535260597
 20
687.7594254431026
 30
0.0
 11
920.7351657650019
 21
687.7594254431002
 31
0.0
  0
LINE
  5
179
  8
0
  6
CONTINUOUS
 62
     7
 10
920.7965352606021
 20
702.6594254430993
 30
0.0
 11
920.735165764996
 21
702.659425443101
 31
0.0
  0
LINE
  5
17A
  8
0
  6
CONTINUOUS
 62
     7
 10
921.5064483101945
 20
1837.734425443101
 30
0.0
 11
921.1948825073571
 21
1837.734425443101
 31
0.0
  0
LINE
  5
17B
  8
0
  6
CONTINUOUS
 62
     7
 10
921.19488250736
 20
1852.684425443101
 30
0.0
 11
921.1948825073599
 21
1851.709425443102
 31
0.0
  0
LINE
  5
17C
  8
0
  6
CONTINUOUS
 62
     7
 10
921.1948825073573
 20
1838.709425443103
 30
0.0
 11
921.1948825073571
 21
1837.734425443101
 31
0.0
  0
LINE
  5
17D
  8
0
  6
CONTINUOUS
 62
     7
 10
921.5064483101792
 20
1852.684425443101
 30
0.0
 11
921.19488250736
 21
1852.684425443101
 31
0.0
  0
LINE
  5
17E
  8
0
  6
CONTINUOUS
 62
     7
 10
921.1948825073571
 20
1837.734425443101
 30
0.0
 11
921.1557399128976
 21
1837.734425443101
 31
0.0
  0
LINE
  5
17F
  8
0
  6
CONTINUOUS
 62
     7
 10
921.19488250736
 20
1852.684425443101
 30
0.0
 11
921.1557399129003
 21
1852.684425443101
 31
0.0
  0
LINE
  5
180
  8
0
  6
CONTINUOUS
 62
     7
 10
921.5064483101945
 20
1373.734425443101
 30
0.0
 11
921.1948825073571
 21
1373.7344254431
 31
0.0
  0
LINE
  5
181
  8
0
  6
CONTINUOUS
 62
     7
 10
921.19488250736
 20
1388.684425443101
 30
0.0
 11
921.1948825073598
 21
1387.709425443102
 31
0.0
  0
LINE
  5
182
  8
0
  6
CONTINUOUS
 62
     7
 10
921.1948825073573
 20
1374.709425443103
 30
0.0
 11
921.1948825073571
 21
1373.7344254431
 31
0.0
  0
LINE
  5
183
  8
0
  6
CONTINUOUS
 62
     7
 10
921.5064483101792
 20
1388.684425443101
 30
0.0
 11
921.19488250736
 21
1388.684425443101
 31
0.0
  0
LINE
  5
184
  8
0
  6
CONTINUOUS
 62
     7
 10
921.1948825073571
 20
1373.7344254431
 30
0.0
 11
921.1557399128975
 21
1373.7344254431
 31
0.0
  0
LINE
  5
185
  8
0
  6
CONTINUOUS
 62
     7
 10
921.19488250736
 20
1388.684425443101
 30
0.0
 11
921.1557399129002
 21
1388.684425443101
 31
0.0
  0
LINE
  5
186
  8
0
  6
CONTINUOUS
 62
     7
 10
921.5064483101945
 20
2273.734425443102
 30
0.0
 11
921.1948825073571
 21
2273.734425443101
 31
0.0
  0
LINE
  5
187
  8
0
  6
CONTINUOUS
 62
     7
 10
921.19488250736
 20
2288.684425443102
 30
0.0
 11
921.1948825073598
 21
2287.709425443104
 31
0.0
  0
LINE
  5
188
  8
0
  6
CONTINUOUS
 62
     7
 10
921.1948825073573
 20
2274.709425443104
 30
0.0
 11
921.1948825073571
 21
2273.734425443101
 31
0.0
  0
LINE
  5
189
  8
0
  6
CONTINUOUS
 62
     7
 10
921.5064483101792
 20
2288.684425443102
 30
0.0
 11
921.19488250736
 21
2288.684425443102
 31
0.0
  0
LINE
  5
18A
  8
0
  6
CONTINUOUS
 62
     7
 10
921.1948825073571
 20
2273.734425443101
 30
0.0
 11
921.1557399128976
 21
2273.734425443101
 31
0.0
  0
LINE
  5
18B
  8
0
  6
CONTINUOUS
 62
     7
 10
921.19488250736
 20
2288.684425443102
 30
0.0
 11
921.1557399129003
 21
2288.684425443102
 31
0.0
  0
LINE
  5
18C
  8
0
  6
CONTINUOUS
 62
     7
 10
921.5064483101947
 20
1030.7344254431
 30
0.0
 11
921.1948825073574
 21
1030.7344254431
 31
0.0
  0
LINE
  5
18D
  8
0
  6
CONTINUOUS
 62
     7
 10
921.1948825073604
 20
1045.6844254431
 30
0.0
 11
921.1948825073603
 21
1044.709425443102
 31
0.0
  0
LINE
  5
18E
  8
0
  6
CONTINUOUS
 62
     7
 10
921.1948825073576
 20
1031.709425443103
 30
0.0
 11
921.1948825073574
 21
1030.7344254431
 31
0.0
  0
LINE
  5
18F
  8
0
  6
CONTINUOUS
 62
     7
 10
921.5064483101795
 20
1045.684425443101
 30
0.0
 11
921.1948825073604
 21
1045.6844254431
 31
0.0
  0
LINE
  5
190
  8
0
  6
CONTINUOUS
 62
     7
 10
921.1948825073574
 20
1030.7344254431
 30
0.0
 11
921.1557399128978
 21
1030.7344254431
 31
0.0
  0
LINE
  5
191
  8
0
  6
CONTINUOUS
 62
     7
 10
921.1948825073604
 20
1045.6844254431
 30
0.0
 11
921.1557399129007
 21
1045.6844254431
 31
0.0
  0
LINE
  5
192
  8
0
  6
CONTINUOUS
 62
     7
 10
921.5064483101945
 20
687.7344254431007
 30
0.0
 11
921.1948825073571
 21
687.7344254431005
 31
0.0
  0
LINE
  5
193
  8
0
  6
CONTINUOUS
 62
     7
 10
921.19488250736
 20
702.6844254431005
 30
0.0
 11
921.1948825073598
 21
701.709425443102
 31
0.0
  0
LINE
  5
194
  8
0
  6
CONTINUOUS
 62
     7
 10
921.1948825073573
 20
688.7094254431029
 30
0.0
 11
921.1948825073571
 21
687.7344254431005
 31
0.0
  0
LINE
  5
195
  8
0
  6
CONTINUOUS
 62
     7
 10
921.5064483101792
 20
702.6844254431006
 30
0.0
 11
921.19488250736
 21
702.6844254431005
 31
0.0
  0
LINE
  5
196
  8
0
  6
CONTINUOUS
 62
     7
 10
921.1948825073571
 20
687.7344254431005
 30
0.0
 11
921.1557399128976
 21
687.7344254431005
 31
0.0
  0
LINE
  5
197
  8
0
  6
CONTINUOUS
 62
     7
 10
921.19488250736
 20
702.6844254431005
 30
0.0
 11
921.1557399129003
 21
702.6844254431005
 31
0.0
  0
LINE
  5
198
  8
0
  6
CONTINUOUS
 62
     8
 10
921.8064483101805
 20
722.7094254431084
 30
0.0
 11
920.0064483101816
 21
722.7094254431091
 31
0.0
  0
LINE
  5
199
  8
0
  6
CONTINUOUS
 62
     8
 10
921.8064483101897
 20
667.7094254431039
 30
0.0
 11
920.0064483101816
 21
667.7094254431047
 31
0.0
  0
LINE
  5
19A
  8
0
  6
CONTINUOUS
 62
     8
 10
920.65644831019
 20
703.5844254431013
 30
0.0
 11
920.6564483101865
 21
705.2094254430984
 31
0.0
  0
LINE
  5
19B
  8
0
  6
CONTINUOUS
 62
     8
 10
920.6564483102018
 20
685.2094254431024
 30
0.0
 11
920.65644831019
 21
686.8344254431025
 31
0.0
  0
LINE
  5
19C
  8
0
  6
CONTINUOUS
 62
     8
 10
921.8064483101806
 20
1872.709425443109
 30
0.0
 11
920.0064483101816
 21
1872.709425443109
 31
0.0
  0
LINE
  5
19D
  8
0
  6
CONTINUOUS
 62
     8
 10
921.8064483101898
 20
1817.709425443104
 30
0.0
 11
920.0064483101816
 21
1817.709425443105
 31
0.0
  0
LINE
  5
19E
  8
0
  6
CONTINUOUS
 62
     8
 10
920.65644831019
 20
1853.584425443102
 30
0.0
 11
920.6564483101865
 21
1855.209425443099
 31
0.0
  0
LINE
  5
19F
  8
0
  6
CONTINUOUS
 62
     8
 10
920.6564483102018
 20
1835.209425443103
 30
0.0
 11
920.65644831019
 21
1836.834425443103
 31
0.0
  0
LINE
  5
1A0
  8
0
  6
CONTINUOUS
 62
     8
 10
921.8064483101808
 20
1065.709425443108
 30
0.0
 11
920.0064483101816
 21
1065.709425443109
 31
0.0
  0
LINE
  5
1A1
  8
0
  6
CONTINUOUS
 62
     8
 10
921.8064483101901
 20
1010.709425443104
 30
0.0
 11
920.0064483101816
 21
1010.709425443105
 31
0.0
  0
LINE
  5
1A2
  8
0
  6
CONTINUOUS
 62
     8
 10
920.6564483101903
 20
1046.584425443101
 30
0.0
 11
920.6564483101869
 21
1048.209425443098
 31
0.0
  0
LINE
  5
1A3
  8
0
  6
CONTINUOUS
 62
     8
 10
920.6564483102021
 20
1028.209425443102
 30
0.0
 11
920.6564483101902
 21
1029.834425443102
 31
0.0
  0
LINE
  5
1A4
  8
0
  6
CONTINUOUS
 62
     8
 10
921.8064483101805
 20
2308.709425443109
 30
0.0
 11
920.0064483101816
 21
2308.70942544311
 31
0.0
  0
LINE
  5
1A5
  8
0
  6
CONTINUOUS
 62
     8
 10
921.8064483101897
 20
2253.709425443105
 30
0.0
 11
920.0064483101816
 21
2253.709425443106
 31
0.0
  0
LINE
  5
1A6
  8
0
  6
CONTINUOUS
 62
     8
 10
920.65644831019
 20
2289.584425443103
 30
0.0
 11
920.6564483101865
 21
2291.209425443099
 31
0.0
  0
LINE
  5
1A7
  8
0
  6
CONTINUOUS
 62
     8
 10
920.6564483102018
 20
2271.209425443104
 30
0.0
 11
920.65644831019
 21
2272.834425443104
 31
0.0
  0
LINE
  5
1A8
  8
0
  6
CONTINUOUS
 62
     8
 10
921.8064483101805
 20
1408.709425443109
 30
0.0
 11
920.0064483101816
 21
1408.709425443109
 31
0.0
  0
LINE
  5
1A9
  8
0
  6
CONTINUOUS
 62
     8
 10
921.8064483101897
 20
1353.709425443104
 30
0.0
 11
920.0064483101816
 21
1353.709425443105
 31
0.0
  0
LINE
  5
1AA
  8
0
  6
CONTINUOUS
 62
     8
 10
920.65644831019
 20
1389.584425443101
 30
0.0
 11
920.6564483101865
 21
1391.209425443099
 31
0.0
  0
LINE
  5
1AB
  8
0
  6
CONTINUOUS
 62
     8
 10
920.6564483102018
 20
1371.209425443102
 30
0.0
 11
920.65644831019
 21
1372.834425443103
 31
0.0
  0
LINE
  5
1AC
  8
0
  6
CONTINUOUS
 62
     7
 10
3784.581188771088
 20
1765.209425443103
 30
0.0
 11
3802.581188771088
 21
1765.209425443103
 31
0.0
  0
LINE
  5
1AD
  8
0
  6
CONTINUOUS
 62
     7
 10
3784.581188771088
 20
1765.209425443103
 30
0.0
 11
3784.581188771088
 21
2361.209425443103
 31
0.0
  0
LINE
  5
1AE
  8
0
  6
CONTINUOUS
 62
     7
 10
3784.581188771088
 20
2361.209425443103
 30
0.0
 11
3802.581188771088
 21
2361.209425443103
 31
0.0
  0
LINE
  5
1AF
  8
0
  6
CONTINUOUS
 62
     7
 10
3802.581188771088
 20
1765.209425443103
 30
0.0
 11
3802.581188771088
 21
2361.209425443103
 31
0.0
  0
LINE
  5
1B0
  8
0
  6
CONTINUOUS
 62
     7
 10
3784.581188771089
 20
615.2094254431029
 30
0.0
 11
3802.581188771089
 21
615.2094254431029
 31
0.0
  0
LINE
  5
1B1
  8
0
  6
CONTINUOUS
 62
     7
 10
3784.581188771089
 20
615.2094254431029
 30
0.0
 11
3784.581188771089
 21
1461.209425443103
 31
0.0
  0
LINE
  5
1B2
  8
0
  6
CONTINUOUS
 62
     7
 10
3784.581188771089
 20
1461.209425443103
 30
0.0
 11
3802.581188771089
 21
1461.209425443103
 31
0.0
  0
LINE
  5
1B3
  8
0
  6
CONTINUOUS
 62
     7
 10
3802.581188771089
 20
615.2094254431029
 30
0.0
 11
3802.581188771089
 21
1461.209425443103
 31
0.0
  0
LINE
  5
1B4
  8
0
  6
CONTINUOUS
 62
     7
 10
3804.581188771089
 20
613.2094254431029
 30
0.0
 11
3804.581188771089
 21
2363.209425443103
 31
0.0
  0
LINE
  5
1B5
  8
0
  6
CONTINUOUS
 62
     7
 10
3804.581188771089
 20
2363.209425443103
 30
0.0
 11
3934.581188771089
 21
2363.209425443103
 31
0.0
  0
LINE
  5
1B6
  8
0
  6
CONTINUOUS
 62
     7
 10
3934.581188771089
 20
613.2094254431029
 30
0.0
 11
3934.581188771089
 21
2363.209425443103
 31
0.0
  0
LINE
  5
1B7
  8
0
  6
CONTINUOUS
 62
     7
 10
3804.581188771089
 20
613.2094254431029
 30
0.0
 11
3934.581188771089
 21
613.2094254431029
 31
0.0
  0
POLYLINE
  5
1B8
  8
0
  6
CONTINUOUS
 62
     7
 10
0.0
 20
0.0
 30
0.0
 66
     1
 70
     8
  0
VERTEX
  5
5E4
  8
0
  6
CONTINUOUS
 62
     7
 10
3804.581188771089
 20
666.7094254431048
 30
0.0
 70
    32
  0
VERTEX
  5
5E5
  8
0
  6
CONTINUOUS
 62
     7
 10
3804.56391994571
 20
666.7094254431048
 30
0.0
 70
    32
  0
VERTEX
  5
5E6
  8
0
  6
CONTINUOUS
 62
     7
 10
3804.546494862239
 20
666.7094254431049
 30
0.0
 70
    32
  0
VERTEX
  5
5E7
  8
0
  6
CONTINUOUS
 62
     7
 10
3804.528757262585
 20
666.7094254431047
 30
0.0
 70
    32
  0
VERTEX
  5
5E8
  8
0
  6
CONTINUOUS
 62
     7
 10
3804.510550888658
 20
666.7094254431048
 30
0.0
 70
    32
  0
VERTEX
  5
5E9
  8
0
  6
CONTINUOUS
 62
     7
 10
3804.491719482364
 20
666.7094254431048
 30
0.0
 70
    32
  0
VERTEX
  5
5EA
  8
0
  6
CONTINUOUS
 62
     7
 10
3804.472106785614
 20
666.7094254431047
 30
0.0
 70
    32
  0
VERTEX
  5
5EB
  8
0
  6
CONTINUOUS
 62
     7
 10
3804.451556562326
 20
666.7094254431047
 30
0.0
 70
    32
  0
VERTEX
  5
5EC
  8
0
  6
CONTINUOUS
 62
     7
 10
3804.429958774706
 20
666.7094254431049
 30
0.0
 70
    32
  0
VERTEX
  5
5ED
  8
0
  6
CONTINUOUS
 62
     7
 10
3804.407346979387
 20
666.7094254431048
 30
0.0
 70
    32
  0
VERTEX
  5
5EE
  8
0
  6
CONTINUOUS
 62
     7
 10
3804.383782550604
 20
666.7094254431049
 30
0.0
 70
    32
  0
VERTEX
  5
5EF
  8
0
  6
CONTINUOUS
 62
     7
 10
3804.359326862604
 20
666.7094254431048
 30
0.0
 70
    32
  0
VERTEX
  5
5F0
  8
0
  6
CONTINUOUS
 62
     7
 10
3804.334041289625
 20
666.7094254431048
 30
0.0
 70
    32
  0
VERTEX
  5
5F1
  8
0
  6
CONTINUOUS
 62
     7
 10
3804.307987205912
 20
666.7094254431049
 30
0.0
 70
    32
  0
VERTEX
  5
5F2
  8
0
  6
CONTINUOUS
 62
     7
 10
3804.281225985701
 20
666.7094254431048
 30
0.0
 70
    32
  0
VERTEX
  5
5F3
  8
0
  6
CONTINUOUS
 62
     7
 10
3804.253819003236
 20
666.7094254431048
 30
0.0
 70
    32
  0
VERTEX
  5
5F4
  8
0
  6
CONTINUOUS
 62
     7
 10
3804.22582763276
 20
666.7094254431048
 30
0.0
 70
    32
  0
VERTEX
  5
5F5
  8
0
  6
CONTINUOUS
 62
     7
 10
3804.197313248512
 20
666.7094254431048
 30
0.0
 70
    32
  0
VERTEX
  5
5F6
  8
0
  6
CONTINUOUS
 62
     7
 10
3804.168328597658
 20
666.7094254431048
 30
0.0
 70
    32
  0
VERTEX
  5
5F7
  8
0
  6
CONTINUOUS
 62
     7
 10
3804.138884288777
 20
666.7094254431049
 30
0.0
 70
    32
  0
VERTEX
  5
5F8
  8
0
  6
CONTINUOUS
 62
     7
 10
3804.108978084369
 20
666.7094254431049
 30
0.0
 70
    32
  0
VERTEX
  5
5F9
  8
0
  6
CONTINUOUS
 62
     7
 10
3804.078607743823
 20
666.7094254431048
 30
0.0
 70
    32
  0
VERTEX
  5
5FA
  8
0
  6
CONTINUOUS
 62
     7
 10
3804.04777102653
 20
666.7094254431048
 30
0.0
 70
    32
  0
VERTEX
  5
5FB
  8
0
  6
CONTINUOUS
 62
     7
 10
3804.016465691881
 20
666.7094254431048
 30
0.0
 70
    32
  0
VERTEX
  5
5FC
  8
0
  6
CONTINUOUS
 62
     7
 10
3803.984689499269
 20
666.7094254431048
 30
0.0
 70
    32
  0
VERTEX
  5
5FD
  8
0
  6
CONTINUOUS
 62
     7
 10
3803.952440208087
 20
666.709425443105
 30
0.0
 70
    32
  0
VERTEX
  5
5FE
  8
0
  6
CONTINUOUS
 62
     7
 10
3803.919715577721
 20
666.7094254431048
 30
0.0
 70
    32
  0
VERTEX
  5
5FF
  8
0
  6
CONTINUOUS
 62
     7
 10
3803.886513367566
 20
666.7094254431049
 30
0.0
 70
    32
  0
VERTEX
  5
600
  8
0
  6
CONTINUOUS
 62
     7
 10
3803.852832928756
 20
666.7094254431048
 30
0.0
 70
    32
  0
VERTEX
  5
601
  8
0
  6
CONTINUOUS
 62
     7
 10
3803.818685535433
 20
666.7094254431049
 30
0.0
 70
    32
  0
VERTEX
  5
602
  8
0
  6
CONTINUOUS
 62
     7
 10
3803.784087868523
 20
666.7094254431048
 30
0.0
 70
    32
  0
VERTEX
  5
603
  8
0
  6
CONTINUOUS
 62
     7
 10
3803.749056635832
 20
666.7094254431048
 30
0.0
 70
    32
  0
VERTEX
  5
604
  8
0
  6
CONTINUOUS
 62
     7
 10
3803.71360854517
 20
666.7094254431048
 30
0.0
 70
    32
  0
VERTEX
  5
605
  8
0
  6
CONTINUOUS
 62
     7
 10
3803.677760304346
 20
666.7094254431049
 30
0.0
 70
    32
  0
VERTEX
  5
606
  8
0
  6
CONTINUOUS
 62
     7
 10
3803.641528621163
 20
666.7094254431048
 30
0.0
 70
    32
  0
VERTEX
  5
607
  8
0
  6
CONTINUOUS
 62
     7
 10
3803.604930203433
 20
666.7094254431049
 30
0.0
 70
    32
  0
VERTEX
  5
608
  8
0
  6
CONTINUOUS
 62
     7
 10
3803.56798175896
 20
666.7094254431049
 30
0.0
 70
    32
  0
VERTEX
  5
609
  8
0
  6
CONTINUOUS
 62
     7
 10
3803.530699995555
 20
666.7094254431048
 30
0.0
 70
    32
  0
VERTEX
  5
60A
  8
0
  6
CONTINUOUS
 62
     7
 10
3803.493101619018
 20
666.7094254431048
 30
0.0
 70
    32
  0
VERTEX
  5
60B
  8
0
  6
CONTINUOUS
 62
     7
 10
3803.455203309875
 20
666.7094254431047
 30
0.0
 70
    32
  0
VERTEX
  5
60C
  8
0
  6
CONTINUOUS
 62
     7
 10
3803.417021731368
 20
666.7094254431046
 30
0.0
 70
    32
  0
VERTEX
  5
60D
  8
0
  6
CONTINUOUS
 62
     7
 10
3803.378573546399
 20
666.7094254431047
 30
0.0
 70
    32
  0
VERTEX
  5
60E
  8
0
  6
CONTINUOUS
 62
     7
 10
3803.339875417872
 20
666.7094254431046
 30
0.0
 70
    32
  0
VERTEX
  5
60F
  8
0
  6
CONTINUOUS
 62
     7
 10
3803.30094400869
 20
666.7094254431044
 30
0.0
 70
    32
  0
VERTEX
  5
610
  8
0
  6
CONTINUOUS
 62
     7
 10
3803.26179598176
 20
666.7094254431042
 30
0.0
 70
    32
  0
VERTEX
  5
611
  8
0
  6
CONTINUOUS
 62
     7
 10
3803.222447999983
 20
666.7094254431042
 30
0.0
 70
    32
  0
VERTEX
  5
612
  8
0
  6
CONTINUOUS
 62
     7
 10
3803.182916726263
 20
666.7094254431042
 30
0.0
 70
    32
  0
VERTEX
  5
613
  8
0
  6
CONTINUOUS
 62
     7
 10
3803.143218823505
 20
666.7094254431041
 30
0.0
 70
    32
  0
VERTEX
  5
614
  8
0
  6
CONTINUOUS
 62
     7
 10
3803.103370954613
 20
666.709425443104
 30
0.0
 70
    32
  0
VERTEX
  5
615
  8
0
  6
CONTINUOUS
 62
     7
 10
3803.063389782489
 20
666.7094254431038
 30
0.0
 70
    32
  0
VERTEX
  5
616
  8
0
  6
CONTINUOUS
 62
     7
 10
3803.023291970037
 20
666.7094254431037
 30
0.0
 70
    32
  0
VERTEX
  5
617
  8
0
  6
CONTINUOUS
 62
     7
 10
3802.983094180163
 20
666.7094254431034
 30
0.0
 70
    32
  0
VERTEX
  5
618
  8
0
  6
CONTINUOUS
 62
     7
 10
3802.942813075771
 20
666.7094254431033
 30
0.0
 70
    32
  0
VERTEX
  5
619
  8
0
  6
CONTINUOUS
 62
     7
 10
3802.902465319763
 20
666.7094254431031
 30
0.0
 70
    32
  0
VERTEX
  5
61A
  8
0
  6
CONTINUOUS
 62
     7
 10
3802.862067575042
 20
666.709425443103
 30
0.0
 70
    32
  0
VERTEX
  5
61B
  8
0
  6
CONTINUOUS
 62
     7
 10
3802.821636504514
 20
666.7094254431029
 30
0.0
 70
    32
  0
VERTEX
  5
61C
  8
0
  6
CONTINUOUS
 62
     7
 10
3802.781188771082
 20
666.7094254431026
 30
0.0
 70
    32
  0
SEQEND
  5
8B4
  8
0
  6
CONTINUOUS
 62
     7
  0
LINE
  5
1B9
  8
0
  6
CONTINUOUS
 62
     7
 10
3802.781188771079
 20
667.7094254431051
 30
0.0
 11
3802.781188771082
 21
666.7094254431026
 31
0.0
  0
LINE
  5
1BA
  8
0
  6
CONTINUOUS
 62
     7
 10
3802.781188771073
 20
723.7094254431025
 30
0.0
 11
3802.781188771082
 21
722.7094254431009
 31
0.0
  0
POLYLINE
  5
1BB
  8
0
  6
CONTINUOUS
 62
     7
 10
0.0
 20
0.0
 30
0.0
 66
     1
 70
     8
  0
VERTEX
  5
61D
  8
0
  6
CONTINUOUS
 62
     7
 10
3802.781188771073
 20
723.7094254431025
 30
0.0
 70
    32
  0
VERTEX
  5
61E
  8
0
  6
CONTINUOUS
 62
     7
 10
3802.821637249771
 20
723.7094254431026
 30
0.0
 70
    32
  0
VERTEX
  5
61F
  8
0
  6
CONTINUOUS
 62
     7
 10
3802.862069062072
 20
723.7094254431025
 30
0.0
 70
    32
  0
VERTEX
  5
620
  8
0
  6
CONTINUOUS
 62
     7
 10
3802.902467541585
 20
723.7094254431024
 30
0.0
 70
    32
  0
VERTEX
  5
621
  8
0
  6
CONTINUOUS
 62
     7
 10
3802.942816021913
 20
723.7094254431024
 30
0.0
 70
    32
  0
VERTEX
  5
622
  8
0
  6
CONTINUOUS
 62
     7
 10
3802.983097836662
 20
723.7094254431022
 30
0.0
 70
    32
  0
VERTEX
  5
623
  8
0
  6
CONTINUOUS
 62
     7
 10
3803.023296319437
 20
723.7094254431023
 30
0.0
 70
    32
  0
VERTEX
  5
624
  8
0
  6
CONTINUOUS
 62
     7
 10
3803.063394803843
 20
723.7094254431022
 30
0.0
 70
    32
  0
VERTEX
  5
625
  8
0
  6
CONTINUOUS
 62
     7
 10
3803.103376623485
 20
723.7094254431022
 30
0.0
 70
    32
  0
VERTEX
  5
626
  8
0
  6
CONTINUOUS
 62
     7
 10
3803.14322511197
 20
723.7094254431023
 30
0.0
 70
    32
  0
VERTEX
  5
627
  8
0
  6
CONTINUOUS
 62
     7
 10
3803.1829236029
 20
723.7094254431023
 30
0.0
 70
    32
  0
VERTEX
  5
628
  8
0
  6
CONTINUOUS
 62
     7
 10
3803.222455429882
 20
723.7094254431022
 30
0.0
 70
    32
  0
VERTEX
  5
629
  8
0
  6
CONTINUOUS
 62
     7
 10
3803.261803926521
 20
723.7094254431022
 30
0.0
 70
    32
  0
VERTEX
  5
62A
  8
0
  6
CONTINUOUS
 62
     7
 10
3803.300952426423
 20
723.7094254431022
 30
0.0
 70
    32
  0
VERTEX
  5
62B
  8
0
  6
CONTINUOUS
 62
     7
 10
3803.339884263192
 20
723.7094254431022
 30
0.0
 70
    32
  0
VERTEX
  5
62C
  8
0
  6
CONTINUOUS
 62
     7
 10
3803.378582770433
 20
723.7094254431022
 30
0.0
 70
    32
  0
VERTEX
  5
62D
  8
0
  6
CONTINUOUS
 62
     7
 10
3803.417031281752
 20
723.7094254431022
 30
0.0
 70
    32
  0
VERTEX
  5
62E
  8
0
  6
CONTINUOUS
 62
     7
 10
3803.455213130755
 20
723.7094254431022
 30
0.0
 70
    32
  0
VERTEX
  5
62F
  8
0
  6
CONTINUOUS
 62
     7
 10
3803.493111651045
 20
723.7094254431022
 30
0.0
 70
    32
  0
VERTEX
  5
630
  8
0
  6
CONTINUOUS
 62
     7
 10
3803.530710175986
 20
723.7094254431021
 30
0.0
 70
    32
  0
VERTEX
  5
631
  8
0
  6
CONTINUOUS
 62
     7
 10
3803.56799202648
 20
723.7094254431022
 30
0.0
 70
    32
  0
VERTEX
  5
632
  8
0
  6
CONTINUOUS
 62
     7
 10
3803.604940505223
 20
723.7094254431022
 30
0.0
 70
    32
  0
VERTEX
  5
633
  8
0
  6
CONTINUOUS
 62
     7
 10
3803.641538913465
 20
723.7094254431021
 30
0.0
 70
    32
  0
VERTEX
  5
634
  8
0
  6
CONTINUOUS
 62
     7
 10
3803.67777055246
 20
723.7094254431021
 30
0.0
 70
    32
  0
VERTEX
  5
635
  8
0
  6
CONTINUOUS
 62
     7
 10
3803.713618723459
 20
723.7094254431021
 30
0.0
 70
    32
  0
VERTEX
  5
636
  8
0
  6
CONTINUOUS
 62
     7
 10
3803.749066727714
 20
723.7094254431021
 30
0.0
 70
    32
  0
VERTEX
  5
637
  8
0
  6
CONTINUOUS
 62
     7
 10
3803.784097866479
 20
723.7094254431021
 30
0.0
 70
    32
  0
VERTEX
  5
638
  8
0
  6
CONTINUOUS
 62
     7
 10
3803.818695441003
 20
723.7094254431021
 30
0.0
 70
    32
  0
VERTEX
  5
639
  8
0
  6
CONTINUOUS
 62
     7
 10
3803.852842752541
 20
723.7094254431021
 30
0.0
 70
    32
  0
VERTEX
  5
63A
  8
0
  6
CONTINUOUS
 62
     7
 10
3803.886523134938
 20
723.709425443102
 30
0.0
 70
    32
  0
VERTEX
  5
63B
  8
0
  6
CONTINUOUS
 62
     7
 10
3803.919725481483
 20
723.7094254431021
 30
0.0
 70
    32
  0
VERTEX
  5
63C
  8
0
  6
CONTINUOUS
 62
     7
 10
3803.95245048364
 20
723.7094254431021
 30
0.0
 70
    32
  0
VERTEX
  5
63D
  8
0
  6
CONTINUOUS
 62
     7
 10
3803.984700339417
 20
723.7094254431021
 30
0.0
 70
    32
  0
VERTEX
  5
63E
  8
0
  6
CONTINUOUS
 62
     7
 10
3804.016477246822
 20
723.7094254431022
 30
0.0
 70
    32
  0
VERTEX
  5
63F
  8
0
  6
CONTINUOUS
 62
     7
 10
3804.047783403857
 20
723.7094254431021
 30
0.0
 70
    32
  0
VERTEX
  5
640
  8
0
  6
CONTINUOUS
 62
     7
 10
3804.078621008532
 20
723.7094254431021
 30
0.0
 70
    32
  0
VERTEX
  5
641
  8
0
  6
CONTINUOUS
 62
     7
 10
3804.108992258851
 20
723.7094254431021
 30
0.0
 70
    32
  0
VERTEX
  5
642
  8
0
  6
CONTINUOUS
 62
     7
 10
3804.138899352819
 20
723.7094254431022
 30
0.0
 70
    32
  0
VERTEX
  5
643
  8
0
  6
CONTINUOUS
 62
     7
 10
3804.168344488445
 20
723.7094254431022
 30
0.0
 70
    32
  0
VERTEX
  5
644
  8
0
  6
CONTINUOUS
 62
     7
 10
3804.197329860543
 20
723.7094254431021
 30
0.0
 70
    32
  0
VERTEX
  5
645
  8
0
  6
CONTINUOUS
 62
     7
 10
3804.225844790862
 20
723.7094254431021
 30
0.0
 70
    32
  0
VERTEX
  5
646
  8
0
  6
CONTINUOUS
 62
     7
 10
3804.25383644598
 20
723.7094254431021
 30
0.0
 70
    32
  0
VERTEX
  5
647
  8
0
  6
CONTINUOUS
 62
     7
 10
3804.281243377002
 20
723.7094254431021
 30
0.0
 70
    32
  0
VERTEX
  5
648
  8
0
  6
CONTINUOUS
 62
     7
 10
3804.308004135042
 20
723.7094254431022
 30
0.0
 70
    32
  0
VERTEX
  5
649
  8
0
  6
CONTINUOUS
 62
     7
 10
3804.334057271204
 20
723.7094254431022
 30
0.0
 70
    32
  0
VERTEX
  5
64A
  8
0
  6
CONTINUOUS
 62
     7
 10
3804.359341336598
 20
723.7094254431021
 30
0.0
 70
    32
  0
VERTEX
  5
64B
  8
0
  6
CONTINUOUS
 62
     7
 10
3804.383794882334
 20
723.7094254431022
 30
0.0
 70
    32
  0
VERTEX
  5
64C
  8
0
  6
CONTINUOUS
 62
     7
 10
3804.40735645952
 20
723.709425443102
 30
0.0
 70
    32
  0
VERTEX
  5
64D
  8
0
  6
CONTINUOUS
 62
     7
 10
3804.429964619264
 20
723.7094254431021
 30
0.0
 70
    32
  0
VERTEX
  5
64E
  8
0
  6
CONTINUOUS
 62
     7
 10
3804.451557912677
 20
723.7094254431021
 30
0.0
 70
    32
  0
VERTEX
  5
64F
  8
0
  6
CONTINUOUS
 62
     7
 10
3804.472103977726
 20
723.709425443102
 30
0.0
 70
    32
  0
VERTEX
  5
650
  8
0
  6
CONTINUOUS
 62
     7
 10
3804.491714340799
 20
723.7094254431021
 30
0.0
 70
    32
  0
VERTEX
  5
651
  8
0
  6
CONTINUOUS
 62
     7
 10
3804.510544941592
 20
723.7094254431022
 30
0.0
 70
    32
  0
VERTEX
  5
652
  8
0
  6
CONTINUOUS
 62
     7
 10
3804.528751732561
 20
723.709425443102
 30
0.0
 70
    32
  0
VERTEX
  5
653
  8
0
  6
CONTINUOUS
 62
     7
 10
3804.546490666164
 20
723.7094254431021
 30
0.0
 70
    32
  0
VERTEX
  5
654
  8
0
  6
CONTINUOUS
 62
     7
 10
3804.563917694854
 20
723.7094254431021
 30
0.0
 70
    32
  0
VERTEX
  5
655
  8
0
  6
CONTINUOUS
 62
     7
 10
3804.581188771089
 20
723.7094254431021
 30
0.0
 70
    32
  0
SEQEND
  5
8B5
  8
0
  6
CONTINUOUS
 62
     7
  0
LINE
  5
1BC
  8
0
  6
CONTINUOUS
 62
     7
 10
3802.781188771079
 20
667.7094254431051
 30
0.0
 11
3802.781188771082
 21
722.7094254431009
 31
0.0
  0
LINE
  5
1BD
  8
0
  6
CONTINUOUS
 62
     7
 10
3802.581188771082
 20
666.7094254431026
 30
0.0
 11
3802.781188771082
 21
666.7094254431026
 31
0.0
  0
LINE
  5
1BE
  8
0
  6
CONTINUOUS
 62
     7
 10
3802.581188771079
 20
667.7094254431051
 30
0.0
 11
3802.781188771079
 21
667.7094254431051
 31
0.0
  0
LINE
  5
1BF
  8
0
  6
CONTINUOUS
 62
     7
 10
3802.581188771082
 20
722.7094254431009
 30
0.0
 11
3802.781188771082
 21
722.7094254431009
 31
0.0
  0
LINE
  5
1C0
  8
0
  6
CONTINUOUS
 62
     7
 10
3802.781188771073
 20
723.7094254431025
 30
0.0
 11
3802.581188771073
 21
723.7094254431025
 31
0.0
  0
POLYLINE
  5
1C1
  8
0
  6
CONTINUOUS
 62
     7
 10
0.0
 20
0.0
 30
0.0
 66
     1
 70
     8
  0
VERTEX
  5
656
  8
0
  6
CONTINUOUS
 62
     7
 10
3804.581188771089
 20
1816.709425443105
 30
0.0
 70
    32
  0
VERTEX
  5
657
  8
0
  6
CONTINUOUS
 62
     7
 10
3804.563919945709
 20
1816.709425443104
 30
0.0
 70
    32
  0
VERTEX
  5
658
  8
0
  6
CONTINUOUS
 62
     7
 10
3804.546494862239
 20
1816.709425443105
 30
0.0
 70
    32
  0
VERTEX
  5
659
  8
0
  6
CONTINUOUS
 62
     7
 10
3804.528757262586
 20
1816.709425443105
 30
0.0
 70
    32
  0
VERTEX
  5
65A
  8
0
  6
CONTINUOUS
 62
     7
 10
3804.510550888657
 20
1816.709425443105
 30
0.0
 70
    32
  0
VERTEX
  5
65B
  8
0
  6
CONTINUOUS
 62
     7
 10
3804.491719482364
 20
1816.709425443105
 30
0.0
 70
    32
  0
VERTEX
  5
65C
  8
0
  6
CONTINUOUS
 62
     7
 10
3804.472106785614
 20
1816.709425443105
 30
0.0
 70
    32
  0
VERTEX
  5
65D
  8
0
  6
CONTINUOUS
 62
     7
 10
3804.451556562326
 20
1816.709425443106
 30
0.0
 70
    32
  0
VERTEX
  5
65E
  8
0
  6
CONTINUOUS
 62
     7
 10
3804.429958774707
 20
1816.709425443105
 30
0.0
 70
    32
  0
VERTEX
  5
65F
  8
0
  6
CONTINUOUS
 62
     7
 10
3804.407346979386
 20
1816.709425443105
 30
0.0
 70
    32
  0
VERTEX
  5
660
  8
0
  6
CONTINUOUS
 62
     7
 10
3804.383782550605
 20
1816.709425443105
 30
0.0
 70
    32
  0
VERTEX
  5
661
  8
0
  6
CONTINUOUS
 62
     7
 10
3804.359326862604
 20
1816.709425443105
 30
0.0
 70
    32
  0
VERTEX
  5
662
  8
0
  6
CONTINUOUS
 62
     7
 10
3804.334041289625
 20
1816.709425443105
 30
0.0
 70
    32
  0
VERTEX
  5
663
  8
0
  6
CONTINUOUS
 62
     7
 10
3804.307987205912
 20
1816.709425443105
 30
0.0
 70
    32
  0
VERTEX
  5
664
  8
0
  6
CONTINUOUS
 62
     7
 10
3804.281225985701
 20
1816.709425443105
 30
0.0
 70
    32
  0
VERTEX
  5
665
  8
0
  6
CONTINUOUS
 62
     7
 10
3804.253819003237
 20
1816.709425443105
 30
0.0
 70
    32
  0
VERTEX
  5
666
  8
0
  6
CONTINUOUS
 62
     7
 10
3804.22582763276
 20
1816.709425443105
 30
0.0
 70
    32
  0
VERTEX
  5
667
  8
0
  6
CONTINUOUS
 62
     7
 10
3804.197313248512
 20
1816.709425443105
 30
0.0
 70
    32
  0
VERTEX
  5
668
  8
0
  6
CONTINUOUS
 62
     7
 10
3804.168328597659
 20
1816.709425443105
 30
0.0
 70
    32
  0
VERTEX
  5
669
  8
0
  6
CONTINUOUS
 62
     7
 10
3804.138884288778
 20
1816.709425443105
 30
0.0
 70
    32
  0
VERTEX
  5
66A
  8
0
  6
CONTINUOUS
 62
     7
 10
3804.108978084369
 20
1816.709425443105
 30
0.0
 70
    32
  0
VERTEX
  5
66B
  8
0
  6
CONTINUOUS
 62
     7
 10
3804.078607743822
 20
1816.709425443105
 30
0.0
 70
    32
  0
VERTEX
  5
66C
  8
0
  6
CONTINUOUS
 62
     7
 10
3804.04777102653
 20
1816.709425443105
 30
0.0
 70
    32
  0
VERTEX
  5
66D
  8
0
  6
CONTINUOUS
 62
     7
 10
3804.016465691881
 20
1816.709425443105
 30
0.0
 70
    32
  0
VERTEX
  5
66E
  8
0
  6
CONTINUOUS
 62
     7
 10
3803.98468949927
 20
1816.709425443105
 30
0.0
 70
    32
  0
VERTEX
  5
66F
  8
0
  6
CONTINUOUS
 62
     7
 10
3803.952440208087
 20
1816.709425443105
 30
0.0
 70
    32
  0
VERTEX
  5
670
  8
0
  6
CONTINUOUS
 62
     7
 10
3803.919715577721
 20
1816.709425443105
 30
0.0
 70
    32
  0
VERTEX
  5
671
  8
0
  6
CONTINUOUS
 62
     7
 10
3803.886513367566
 20
1816.709425443105
 30
0.0
 70
    32
  0
VERTEX
  5
672
  8
0
  6
CONTINUOUS
 62
     7
 10
3803.852832928757
 20
1816.709425443105
 30
0.0
 70
    32
  0
VERTEX
  5
673
  8
0
  6
CONTINUOUS
 62
     7
 10
3803.818685535433
 20
1816.709425443105
 30
0.0
 70
    32
  0
VERTEX
  5
674
  8
0
  6
CONTINUOUS
 62
     7
 10
3803.784087868522
 20
1816.709425443105
 30
0.0
 70
    32
  0
VERTEX
  5
675
  8
0
  6
CONTINUOUS
 62
     7
 10
3803.749056635833
 20
1816.709425443106
 30
0.0
 70
    32
  0
VERTEX
  5
676
  8
0
  6
CONTINUOUS
 62
     7
 10
3803.713608545172
 20
1816.709425443105
 30
0.0
 70
    32
  0
VERTEX
  5
677
  8
0
  6
CONTINUOUS
 62
     7
 10
3803.677760304345
 20
1816.709425443105
 30
0.0
 70
    32
  0
VERTEX
  5
678
  8
0
  6
CONTINUOUS
 62
     7
 10
3803.641528621163
 20
1816.709425443105
 30
0.0
 70
    32
  0
VERTEX
  5
679
  8
0
  6
CONTINUOUS
 62
     7
 10
3803.604930203433
 20
1816.709425443106
 30
0.0
 70
    32
  0
VERTEX
  5
67A
  8
0
  6
CONTINUOUS
 62
     7
 10
3803.567981758961
 20
1816.709425443106
 30
0.0
 70
    32
  0
VERTEX
  5
67B
  8
0
  6
CONTINUOUS
 62
     7
 10
3803.530699995555
 20
1816.709425443106
 30
0.0
 70
    32
  0
VERTEX
  5
67C
  8
0
  6
CONTINUOUS
 62
     7
 10
3803.493101619018
 20
1816.709425443106
 30
0.0
 70
    32
  0
VERTEX
  5
67D
  8
0
  6
CONTINUOUS
 62
     7
 10
3803.455203309876
 20
1816.709425443106
 30
0.0
 70
    32
  0
VERTEX
  5
67E
  8
0
  6
CONTINUOUS
 62
     7
 10
3803.417021731369
 20
1816.709425443106
 30
0.0
 70
    32
  0
VERTEX
  5
67F
  8
0
  6
CONTINUOUS
 62
     7
 10
3803.3785735464
 20
1816.709425443106
 30
0.0
 70
    32
  0
VERTEX
  5
680
  8
0
  6
CONTINUOUS
 62
     7
 10
3803.339875417872
 20
1816.709425443106
 30
0.0
 70
    32
  0
VERTEX
  5
681
  8
0
  6
CONTINUOUS
 62
     7
 10
3803.300944008691
 20
1816.709425443105
 30
0.0
 70
    32
  0
VERTEX
  5
682
  8
0
  6
CONTINUOUS
 62
     7
 10
3803.26179598176
 20
1816.709425443105
 30
0.0
 70
    32
  0
VERTEX
  5
683
  8
0
  6
CONTINUOUS
 62
     7
 10
3803.222447999983
 20
1816.709425443105
 30
0.0
 70
    32
  0
VERTEX
  5
684
  8
0
  6
CONTINUOUS
 62
     7
 10
3803.182916726264
 20
1816.709425443105
 30
0.0
 70
    32
  0
VERTEX
  5
685
  8
0
  6
CONTINUOUS
 62
     7
 10
3803.143218823505
 20
1816.709425443105
 30
0.0
 70
    32
  0
VERTEX
  5
686
  8
0
  6
CONTINUOUS
 62
     7
 10
3803.103370954612
 20
1816.709425443104
 30
0.0
 70
    32
  0
VERTEX
  5
687
  8
0
  6
CONTINUOUS
 62
     7
 10
3803.063389782489
 20
1816.709425443105
 30
0.0
 70
    32
  0
VERTEX
  5
688
  8
0
  6
CONTINUOUS
 62
     7
 10
3803.023291970038
 20
1816.709425443105
 30
0.0
 70
    32
  0
VERTEX
  5
689
  8
0
  6
CONTINUOUS
 62
     7
 10
3802.983094180164
 20
1816.709425443104
 30
0.0
 70
    32
  0
VERTEX
  5
68A
  8
0
  6
CONTINUOUS
 62
     7
 10
3802.942813075771
 20
1816.709425443104
 30
0.0
 70
    32
  0
VERTEX
  5
68B
  8
0
  6
CONTINUOUS
 62
     7
 10
3802.902465319763
 20
1816.709425443104
 30
0.0
 70
    32
  0
VERTEX
  5
68C
  8
0
  6
CONTINUOUS
 62
     7
 10
3802.862067575042
 20
1816.709425443104
 30
0.0
 70
    32
  0
VERTEX
  5
68D
  8
0
  6
CONTINUOUS
 62
     7
 10
3802.821636504514
 20
1816.709425443103
 30
0.0
 70
    32
  0
VERTEX
  5
68E
  8
0
  6
CONTINUOUS
 62
     7
 10
3802.781188771082
 20
1816.709425443103
 30
0.0
 70
    32
  0
SEQEND
  5
8B6
  8
0
  6
CONTINUOUS
 62
     7
  0
LINE
  5
1C2
  8
0
  6
CONTINUOUS
 62
     7
 10
3802.781188771079
 20
1817.709425443105
 30
0.0
 11
3802.781188771082
 21
1816.709425443103
 31
0.0
  0
LINE
  5
1C3
  8
0
  6
CONTINUOUS
 62
     7
 10
3802.781188771073
 20
1873.709425443103
 30
0.0
 11
3802.781188771082
 21
1872.709425443101
 31
0.0
  0
POLYLINE
  5
1C4
  8
0
  6
CONTINUOUS
 62
     7
 10
0.0
 20
0.0
 30
0.0
 66
     1
 70
     8
  0
VERTEX
  5
68F
  8
0
  6
CONTINUOUS
 62
     7
 10
3802.781188771073
 20
1873.709425443103
 30
0.0
 70
    32
  0
VERTEX
  5
690
  8
0
  6
CONTINUOUS
 62
     7
 10
3802.82163724977
 20
1873.709425443102
 30
0.0
 70
    32
  0
VERTEX
  5
691
  8
0
  6
CONTINUOUS
 62
     7
 10
3802.862069062072
 20
1873.709425443103
 30
0.0
 70
    32
  0
VERTEX
  5
692
  8
0
  6
CONTINUOUS
 62
     7
 10
3802.902467541585
 20
1873.709425443103
 30
0.0
 70
    32
  0
VERTEX
  5
693
  8
0
  6
CONTINUOUS
 62
     7
 10
3802.942816021914
 20
1873.709425443102
 30
0.0
 70
    32
  0
VERTEX
  5
694
  8
0
  6
CONTINUOUS
 62
     7
 10
3802.983097836663
 20
1873.709425443103
 30
0.0
 70
    32
  0
VERTEX
  5
695
  8
0
  6
CONTINUOUS
 62
     7
 10
3803.023296319438
 20
1873.709425443103
 30
0.0
 70
    32
  0
VERTEX
  5
696
  8
0
  6
CONTINUOUS
 62
     7
 10
3803.063394803843
 20
1873.709425443102
 30
0.0
 70
    32
  0
VERTEX
  5
697
  8
0
  6
CONTINUOUS
 62
     7
 10
3803.103376623486
 20
1873.709425443103
 30
0.0
 70
    32
  0
VERTEX
  5
698
  8
0
  6
CONTINUOUS
 62
     7
 10
3803.14322511197
 20
1873.709425443102
 30
0.0
 70
    32
  0
VERTEX
  5
699
  8
0
  6
CONTINUOUS
 62
     7
 10
3803.1829236029
 20
1873.709425443103
 30
0.0
 70
    32
  0
VERTEX
  5
69A
  8
0
  6
CONTINUOUS
 62
     7
 10
3803.222455429882
 20
1873.709425443103
 30
0.0
 70
    32
  0
VERTEX
  5
69B
  8
0
  6
CONTINUOUS
 62
     7
 10
3803.261803926521
 20
1873.709425443103
 30
0.0
 70
    32
  0
VERTEX
  5
69C
  8
0
  6
CONTINUOUS
 62
     7
 10
3803.300952426423
 20
1873.709425443102
 30
0.0
 70
    32
  0
VERTEX
  5
69D
  8
0
  6
CONTINUOUS
 62
     7
 10
3803.339884263192
 20
1873.709425443102
 30
0.0
 70
    32
  0
VERTEX
  5
69E
  8
0
  6
CONTINUOUS
 62
     7
 10
3803.378582770434
 20
1873.709425443103
 30
0.0
 70
    32
  0
VERTEX
  5
69F
  8
0
  6
CONTINUOUS
 62
     7
 10
3803.417031281753
 20
1873.709425443103
 30
0.0
 70
    32
  0
VERTEX
  5
6A0
  8
0
  6
CONTINUOUS
 62
     7
 10
3803.455213130755
 20
1873.709425443102
 30
0.0
 70
    32
  0
VERTEX
  5
6A1
  8
0
  6
CONTINUOUS
 62
     7
 10
3803.493111651045
 20
1873.709425443102
 30
0.0
 70
    32
  0
VERTEX
  5
6A2
  8
0
  6
CONTINUOUS
 62
     7
 10
3803.530710175987
 20
1873.709425443102
 30
0.0
 70
    32
  0
VERTEX
  5
6A3
  8
0
  6
CONTINUOUS
 62
     7
 10
3803.567992026481
 20
1873.709425443102
 30
0.0
 70
    32
  0
VERTEX
  5
6A4
  8
0
  6
CONTINUOUS
 62
     7
 10
3803.604940505222
 20
1873.709425443102
 30
0.0
 70
    32
  0
VERTEX
  5
6A5
  8
0
  6
CONTINUOUS
 62
     7
 10
3803.641538913465
 20
1873.709425443102
 30
0.0
 70
    32
  0
VERTEX
  5
6A6
  8
0
  6
CONTINUOUS
 62
     7
 10
3803.67777055246
 20
1873.709425443102
 30
0.0
 70
    32
  0
VERTEX
  5
6A7
  8
0
  6
CONTINUOUS
 62
     7
 10
3803.713618723459
 20
1873.709425443103
 30
0.0
 70
    32
  0
VERTEX
  5
6A8
  8
0
  6
CONTINUOUS
 62
     7
 10
3803.749066727714
 20
1873.709425443103
 30
0.0
 70
    32
  0
VERTEX
  5
6A9
  8
0
  6
CONTINUOUS
 62
     7
 10
3803.784097866479
 20
1873.709425443102
 30
0.0
 70
    32
  0
VERTEX
  5
6AA
  8
0
  6
CONTINUOUS
 62
     7
 10
3803.818695441003
 20
1873.709425443102
 30
0.0
 70
    32
  0
VERTEX
  5
6AB
  8
0
  6
CONTINUOUS
 62
     7
 10
3803.852842752541
 20
1873.709425443103
 30
0.0
 70
    32
  0
VERTEX
  5
6AC
  8
0
  6
CONTINUOUS
 62
     7
 10
3803.886523134939
 20
1873.709425443102
 30
0.0
 70
    32
  0
VERTEX
  5
6AD
  8
0
  6
CONTINUOUS
 62
     7
 10
3803.919725481482
 20
1873.709425443102
 30
0.0
 70
    32
  0
VERTEX
  5
6AE
  8
0
  6
CONTINUOUS
 62
     7
 10
3803.952450483639
 20
1873.709425443102
 30
0.0
 70
    32
  0
VERTEX
  5
6AF
  8
0
  6
CONTINUOUS
 62
     7
 10
3803.984700339417
 20
1873.709425443103
 30
0.0
 70
    32
  0
VERTEX
  5
6B0
  8
0
  6
CONTINUOUS
 62
     7
 10
3804.016477246822
 20
1873.709425443103
 30
0.0
 70
    32
  0
VERTEX
  5
6B1
  8
0
  6
CONTINUOUS
 62
     7
 10
3804.047783403858
 20
1873.709425443103
 30
0.0
 70
    32
  0
VERTEX
  5
6B2
  8
0
  6
CONTINUOUS
 62
     7
 10
3804.078621008532
 20
1873.709425443103
 30
0.0
 70
    32
  0
VERTEX
  5
6B3
  8
0
  6
CONTINUOUS
 62
     7
 10
3804.10899225885
 20
1873.709425443102
 30
0.0
 70
    32
  0
VERTEX
  5
6B4
  8
0
  6
CONTINUOUS
 62
     7
 10
3804.138899352819
 20
1873.709425443103
 30
0.0
 70
    32
  0
VERTEX
  5
6B5
  8
0
  6
CONTINUOUS
 62
     7
 10
3804.168344488444
 20
1873.709425443102
 30
0.0
 70
    32
  0
VERTEX
  5
6B6
  8
0
  6
CONTINUOUS
 62
     7
 10
3804.197329860543
 20
1873.709425443103
 30
0.0
 70
    32
  0
VERTEX
  5
6B7
  8
0
  6
CONTINUOUS
 62
     7
 10
3804.225844790863
 20
1873.709425443103
 30
0.0
 70
    32
  0
VERTEX
  5
6B8
  8
0
  6
CONTINUOUS
 62
     7
 10
3804.253836445979
 20
1873.709425443102
 30
0.0
 70
    32
  0
VERTEX
  5
6B9
  8
0
  6
CONTINUOUS
 62
     7
 10
3804.281243377003
 20
1873.709425443103
 30
0.0
 70
    32
  0
VERTEX
  5
6BA
  8
0
  6
CONTINUOUS
 62
     7
 10
3804.30800413504
 20
1873.709425443102
 30
0.0
 70
    32
  0
VERTEX
  5
6BB
  8
0
  6
CONTINUOUS
 62
     7
 10
3804.334057271203
 20
1873.709425443103
 30
0.0
 70
    32
  0
VERTEX
  5
6BC
  8
0
  6
CONTINUOUS
 62
     7
 10
3804.359341336598
 20
1873.709425443103
 30
0.0
 70
    32
  0
VERTEX
  5
6BD
  8
0
  6
CONTINUOUS
 62
     7
 10
3804.383794882334
 20
1873.709425443102
 30
0.0
 70
    32
  0
VERTEX
  5
6BE
  8
0
  6
CONTINUOUS
 62
     7
 10
3804.407356459521
 20
1873.709425443103
 30
0.0
 70
    32
  0
VERTEX
  5
6BF
  8
0
  6
CONTINUOUS
 62
     7
 10
3804.429964619265
 20
1873.709425443103
 30
0.0
 70
    32
  0
VERTEX
  5
6C0
  8
0
  6
CONTINUOUS
 62
     7
 10
3804.451557912677
 20
1873.709425443103
 30
0.0
 70
    32
  0
VERTEX
  5
6C1
  8
0
  6
CONTINUOUS
 62
     7
 10
3804.472103977725
 20
1873.709425443103
 30
0.0
 70
    32
  0
VERTEX
  5
6C2
  8
0
  6
CONTINUOUS
 62
     7
 10
3804.491714340798
 20
1873.709425443102
 30
0.0
 70
    32
  0
VERTEX
  5
6C3
  8
0
  6
CONTINUOUS
 62
     7
 10
3804.510544941592
 20
1873.709425443103
 30
0.0
 70
    32
  0
VERTEX
  5
6C4
  8
0
  6
CONTINUOUS
 62
     7
 10
3804.528751732561
 20
1873.709425443102
 30
0.0
 70
    32
  0
VERTEX
  5
6C5
  8
0
  6
CONTINUOUS
 62
     7
 10
3804.546490666164
 20
1873.709425443103
 30
0.0
 70
    32
  0
VERTEX
  5
6C6
  8
0
  6
CONTINUOUS
 62
     7
 10
3804.563917694854
 20
1873.709425443102
 30
0.0
 70
    32
  0
VERTEX
  5
6C7
  8
0
  6
CONTINUOUS
 62
     7
 10
3804.581188771089
 20
1873.709425443102
 30
0.0
 70
    32
  0
SEQEND
  5
8B7
  8
0
  6
CONTINUOUS
 62
     7
  0
LINE
  5
1C5
  8
0
  6
CONTINUOUS
 62
     7
 10
3802.781188771079
 20
1817.709425443105
 30
0.0
 11
3802.781188771082
 21
1872.709425443101
 31
0.0
  0
LINE
  5
1C6
  8
0
  6
CONTINUOUS
 62
     7
 10
3802.581188771082
 20
1816.709425443103
 30
0.0
 11
3802.781188771082
 21
1816.709425443103
 31
0.0
  0
LINE
  5
1C7
  8
0
  6
CONTINUOUS
 62
     7
 10
3802.581188771079
 20
1817.709425443105
 30
0.0
 11
3802.781188771079
 21
1817.709425443105
 31
0.0
  0
LINE
  5
1C8
  8
0
  6
CONTINUOUS
 62
     7
 10
3802.581188771082
 20
1872.709425443101
 30
0.0
 11
3802.781188771082
 21
1872.709425443101
 31
0.0
  0
LINE
  5
1C9
  8
0
  6
CONTINUOUS
 62
     7
 10
3802.781188771073
 20
1873.709425443103
 30
0.0
 11
3802.581188771073
 21
1873.709425443103
 31
0.0
  0
POLYLINE
  5
1CA
  8
0
  6
CONTINUOUS
 62
     7
 10
0.0
 20
0.0
 30
0.0
 66
     1
 70
     8
  0
VERTEX
  5
6C8
  8
0
  6
CONTINUOUS
 62
     7
 10
3804.581188771089
 20
1009.709425443105
 30
0.0
 70
    32
  0
VERTEX
  5
6C9
  8
0
  6
CONTINUOUS
 62
     7
 10
3804.563919945709
 20
1009.709425443105
 30
0.0
 70
    32
  0
VERTEX
  5
6CA
  8
0
  6
CONTINUOUS
 62
     7
 10
3804.546494862239
 20
1009.709425443105
 30
0.0
 70
    32
  0
VERTEX
  5
6CB
  8
0
  6
CONTINUOUS
 62
     7
 10
3804.528757262585
 20
1009.709425443105
 30
0.0
 70
    32
  0
VERTEX
  5
6CC
  8
0
  6
CONTINUOUS
 62
     7
 10
3804.510550888657
 20
1009.709425443105
 30
0.0
 70
    32
  0
VERTEX
  5
6CD
  8
0
  6
CONTINUOUS
 62
     7
 10
3804.491719482365
 20
1009.709425443105
 30
0.0
 70
    32
  0
VERTEX
  5
6CE
  8
0
  6
CONTINUOUS
 62
     7
 10
3804.472106785614
 20
1009.709425443105
 30
0.0
 70
    32
  0
VERTEX
  5
6CF
  8
0
  6
CONTINUOUS
 62
     7
 10
3804.451556562326
 20
1009.709425443105
 30
0.0
 70
    32
  0
VERTEX
  5
6D0
  8
0
  6
CONTINUOUS
 62
     7
 10
3804.429958774707
 20
1009.709425443105
 30
0.0
 70
    32
  0
VERTEX
  5
6D1
  8
0
  6
CONTINUOUS
 62
     7
 10
3804.407346979386
 20
1009.709425443105
 30
0.0
 70
    32
  0
VERTEX
  5
6D2
  8
0
  6
CONTINUOUS
 62
     7
 10
3804.383782550604
 20
1009.709425443105
 30
0.0
 70
    32
  0
VERTEX
  5
6D3
  8
0
  6
CONTINUOUS
 62
     7
 10
3804.359326862605
 20
1009.709425443105
 30
0.0
 70
    32
  0
VERTEX
  5
6D4
  8
0
  6
CONTINUOUS
 62
     7
 10
3804.334041289626
 20
1009.709425443105
 30
0.0
 70
    32
  0
VERTEX
  5
6D5
  8
0
  6
CONTINUOUS
 62
     7
 10
3804.30798720591
 20
1009.709425443105
 30
0.0
 70
    32
  0
VERTEX
  5
6D6
  8
0
  6
CONTINUOUS
 62
     7
 10
3804.281225985701
 20
1009.709425443105
 30
0.0
 70
    32
  0
VERTEX
  5
6D7
  8
0
  6
CONTINUOUS
 62
     7
 10
3804.253819003236
 20
1009.709425443105
 30
0.0
 70
    32
  0
VERTEX
  5
6D8
  8
0
  6
CONTINUOUS
 62
     7
 10
3804.225827632759
 20
1009.709425443105
 30
0.0
 70
    32
  0
VERTEX
  5
6D9
  8
0
  6
CONTINUOUS
 62
     7
 10
3804.197313248512
 20
1009.709425443105
 30
0.0
 70
    32
  0
VERTEX
  5
6DA
  8
0
  6
CONTINUOUS
 62
     7
 10
3804.168328597658
 20
1009.709425443105
 30
0.0
 70
    32
  0
VERTEX
  5
6DB
  8
0
  6
CONTINUOUS
 62
     7
 10
3804.138884288778
 20
1009.709425443105
 30
0.0
 70
    32
  0
VERTEX
  5
6DC
  8
0
  6
CONTINUOUS
 62
     7
 10
3804.108978084369
 20
1009.709425443105
 30
0.0
 70
    32
  0
VERTEX
  5
6DD
  8
0
  6
CONTINUOUS
 62
     7
 10
3804.078607743822
 20
1009.709425443105
 30
0.0
 70
    32
  0
VERTEX
  5
6DE
  8
0
  6
CONTINUOUS
 62
     7
 10
3804.047771026529
 20
1009.709425443105
 30
0.0
 70
    32
  0
VERTEX
  5
6DF
  8
0
  6
CONTINUOUS
 62
     7
 10
3804.016465691882
 20
1009.709425443105
 30
0.0
 70
    32
  0
VERTEX
  5
6E0
  8
0
  6
CONTINUOUS
 62
     7
 10
3803.98468949927
 20
1009.709425443105
 30
0.0
 70
    32
  0
VERTEX
  5
6E1
  8
0
  6
CONTINUOUS
 62
     7
 10
3803.952440208087
 20
1009.709425443105
 30
0.0
 70
    32
  0
VERTEX
  5
6E2
  8
0
  6
CONTINUOUS
 62
     7
 10
3803.919715577721
 20
1009.709425443105
 30
0.0
 70
    32
  0
VERTEX
  5
6E3
  8
0
  6
CONTINUOUS
 62
     7
 10
3803.886513367566
 20
1009.709425443105
 30
0.0
 70
    32
  0
VERTEX
  5
6E4
  8
0
  6
CONTINUOUS
 62
     7
 10
3803.852832928756
 20
1009.709425443105
 30
0.0
 70
    32
  0
VERTEX
  5
6E5
  8
0
  6
CONTINUOUS
 62
     7
 10
3803.818685535434
 20
1009.709425443105
 30
0.0
 70
    32
  0
VERTEX
  5
6E6
  8
0
  6
CONTINUOUS
 62
     7
 10
3803.784087868523
 20
1009.709425443105
 30
0.0
 70
    32
  0
VERTEX
  5
6E7
  8
0
  6
CONTINUOUS
 62
     7
 10
3803.749056635833
 20
1009.709425443105
 30
0.0
 70
    32
  0
VERTEX
  5
6E8
  8
0
  6
CONTINUOUS
 62
     7
 10
3803.713608545171
 20
1009.709425443105
 30
0.0
 70
    32
  0
VERTEX
  5
6E9
  8
0
  6
CONTINUOUS
 62
     7
 10
3803.677760304346
 20
1009.709425443105
 30
0.0
 70
    32
  0
VERTEX
  5
6EA
  8
0
  6
CONTINUOUS
 62
     7
 10
3803.641528621163
 20
1009.709425443105
 30
0.0
 70
    32
  0
VERTEX
  5
6EB
  8
0
  6
CONTINUOUS
 62
     7
 10
3803.604930203432
 20
1009.709425443105
 30
0.0
 70
    32
  0
VERTEX
  5
6EC
  8
0
  6
CONTINUOUS
 62
     7
 10
3803.56798175896
 20
1009.709425443105
 30
0.0
 70
    32
  0
VERTEX
  5
6ED
  8
0
  6
CONTINUOUS
 62
     7
 10
3803.530699995554
 20
1009.709425443105
 30
0.0
 70
    32
  0
VERTEX
  5
6EE
  8
0
  6
CONTINUOUS
 62
     7
 10
3803.493101619018
 20
1009.709425443105
 30
0.0
 70
    32
  0
VERTEX
  5
6EF
  8
0
  6
CONTINUOUS
 62
     7
 10
3803.455203309877
 20
1009.709425443105
 30
0.0
 70
    32
  0
VERTEX
  5
6F0
  8
0
  6
CONTINUOUS
 62
     7
 10
3803.417021731368
 20
1009.709425443105
 30
0.0
 70
    32
  0
VERTEX
  5
6F1
  8
0
  6
CONTINUOUS
 62
     7
 10
3803.378573546399
 20
1009.709425443105
 30
0.0
 70
    32
  0
VERTEX
  5
6F2
  8
0
  6
CONTINUOUS
 62
     7
 10
3803.339875417872
 20
1009.709425443105
 30
0.0
 70
    32
  0
VERTEX
  5
6F3
  8
0
  6
CONTINUOUS
 62
     7
 10
3803.300944008691
 20
1009.709425443104
 30
0.0
 70
    32
  0
VERTEX
  5
6F4
  8
0
  6
CONTINUOUS
 62
     7
 10
3803.26179598176
 20
1009.709425443104
 30
0.0
 70
    32
  0
VERTEX
  5
6F5
  8
0
  6
CONTINUOUS
 62
     7
 10
3803.222447999983
 20
1009.709425443104
 30
0.0
 70
    32
  0
VERTEX
  5
6F6
  8
0
  6
CONTINUOUS
 62
     7
 10
3803.182916726263
 20
1009.709425443104
 30
0.0
 70
    32
  0
VERTEX
  5
6F7
  8
0
  6
CONTINUOUS
 62
     7
 10
3803.143218823504
 20
1009.709425443104
 30
0.0
 70
    32
  0
VERTEX
  5
6F8
  8
0
  6
CONTINUOUS
 62
     7
 10
3803.103370954612
 20
1009.709425443104
 30
0.0
 70
    32
  0
VERTEX
  5
6F9
  8
0
  6
CONTINUOUS
 62
     7
 10
3803.063389782488
 20
1009.709425443104
 30
0.0
 70
    32
  0
VERTEX
  5
6FA
  8
0
  6
CONTINUOUS
 62
     7
 10
3803.023291970037
 20
1009.709425443103
 30
0.0
 70
    32
  0
VERTEX
  5
6FB
  8
0
  6
CONTINUOUS
 62
     7
 10
3802.983094180163
 20
1009.709425443103
 30
0.0
 70
    32
  0
VERTEX
  5
6FC
  8
0
  6
CONTINUOUS
 62
     7
 10
3802.942813075771
 20
1009.709425443103
 30
0.0
 70
    32
  0
VERTEX
  5
6FD
  8
0
  6
CONTINUOUS
 62
     7
 10
3802.902465319761
 20
1009.709425443103
 30
0.0
 70
    32
  0
VERTEX
  5
6FE
  8
0
  6
CONTINUOUS
 62
     7
 10
3802.862067575041
 20
1009.709425443103
 30
0.0
 70
    32
  0
VERTEX
  5
6FF
  8
0
  6
CONTINUOUS
 62
     7
 10
3802.821636504514
 20
1009.709425443103
 30
0.0
 70
    32
  0
VERTEX
  5
700
  8
0
  6
CONTINUOUS
 62
     7
 10
3802.781188771082
 20
1009.709425443103
 30
0.0
 70
    32
  0
SEQEND
  5
8B8
  8
0
  6
CONTINUOUS
 62
     7
  0
LINE
  5
1CB
  8
0
  6
CONTINUOUS
 62
     7
 10
3802.781188771079
 20
1010.709425443105
 30
0.0
 11
3802.781188771082
 21
1009.709425443103
 31
0.0
  0
LINE
  5
1CC
  8
0
  6
CONTINUOUS
 62
     7
 10
3802.781188771073
 20
1066.709425443102
 30
0.0
 11
3802.781188771082
 21
1065.709425443101
 31
0.0
  0
POLYLINE
  5
1CD
  8
0
  6
CONTINUOUS
 62
     7
 10
0.0
 20
0.0
 30
0.0
 66
     1
 70
     8
  0
VERTEX
  5
701
  8
0
  6
CONTINUOUS
 62
     7
 10
3802.781188771073
 20
1066.709425443102
 30
0.0
 70
    32
  0
VERTEX
  5
702
  8
0
  6
CONTINUOUS
 62
     7
 10
3802.82163724977
 20
1066.709425443102
 30
0.0
 70
    32
  0
VERTEX
  5
703
  8
0
  6
CONTINUOUS
 62
     7
 10
3802.862069062072
 20
1066.709425443102
 30
0.0
 70
    32
  0
VERTEX
  5
704
  8
0
  6
CONTINUOUS
 62
     7
 10
3802.902467541585
 20
1066.709425443102
 30
0.0
 70
    32
  0
VERTEX
  5
705
  8
0
  6
CONTINUOUS
 62
     7
 10
3802.942816021914
 20
1066.709425443102
 30
0.0
 70
    32
  0
VERTEX
  5
706
  8
0
  6
CONTINUOUS
 62
     7
 10
3802.983097836662
 20
1066.709425443102
 30
0.0
 70
    32
  0
VERTEX
  5
707
  8
0
  6
CONTINUOUS
 62
     7
 10
3803.023296319437
 20
1066.709425443102
 30
0.0
 70
    32
  0
VERTEX
  5
708
  8
0
  6
CONTINUOUS
 62
     7
 10
3803.063394803843
 20
1066.709425443102
 30
0.0
 70
    32
  0
VERTEX
  5
709
  8
0
  6
CONTINUOUS
 62
     7
 10
3803.103376623485
 20
1066.709425443102
 30
0.0
 70
    32
  0
VERTEX
  5
70A
  8
0
  6
CONTINUOUS
 62
     7
 10
3803.143225111969
 20
1066.709425443102
 30
0.0
 70
    32
  0
VERTEX
  5
70B
  8
0
  6
CONTINUOUS
 62
     7
 10
3803.1829236029
 20
1066.709425443102
 30
0.0
 70
    32
  0
VERTEX
  5
70C
  8
0
  6
CONTINUOUS
 62
     7
 10
3803.222455429882
 20
1066.709425443102
 30
0.0
 70
    32
  0
VERTEX
  5
70D
  8
0
  6
CONTINUOUS
 62
     7
 10
3803.261803926521
 20
1066.709425443102
 30
0.0
 70
    32
  0
VERTEX
  5
70E
  8
0
  6
CONTINUOUS
 62
     7
 10
3803.300952426422
 20
1066.709425443102
 30
0.0
 70
    32
  0
VERTEX
  5
70F
  8
0
  6
CONTINUOUS
 62
     7
 10
3803.339884263192
 20
1066.709425443102
 30
0.0
 70
    32
  0
VERTEX
  5
710
  8
0
  6
CONTINUOUS
 62
     7
 10
3803.378582770433
 20
1066.709425443102
 30
0.0
 70
    32
  0
VERTEX
  5
711
  8
0
  6
CONTINUOUS
 62
     7
 10
3803.417031281752
 20
1066.709425443102
 30
0.0
 70
    32
  0
VERTEX
  5
712
  8
0
  6
CONTINUOUS
 62
     7
 10
3803.455213130755
 20
1066.709425443102
 30
0.0
 70
    32
  0
VERTEX
  5
713
  8
0
  6
CONTINUOUS
 62
     7
 10
3803.493111651045
 20
1066.709425443102
 30
0.0
 70
    32
  0
VERTEX
  5
714
  8
0
  6
CONTINUOUS
 62
     7
 10
3803.530710175987
 20
1066.709425443102
 30
0.0
 70
    32
  0
VERTEX
  5
715
  8
0
  6
CONTINUOUS
 62
     7
 10
3803.56799202648
 20
1066.709425443102
 30
0.0
 70
    32
  0
VERTEX
  5
716
  8
0
  6
CONTINUOUS
 62
     7
 10
3803.604940505223
 20
1066.709425443102
 30
0.0
 70
    32
  0
VERTEX
  5
717
  8
0
  6
CONTINUOUS
 62
     7
 10
3803.641538913465
 20
1066.709425443102
 30
0.0
 70
    32
  0
VERTEX
  5
718
  8
0
  6
CONTINUOUS
 62
     7
 10
3803.67777055246
 20
1066.709425443102
 30
0.0
 70
    32
  0
VERTEX
  5
719
  8
0
  6
CONTINUOUS
 62
     7
 10
3803.713618723459
 20
1066.709425443102
 30
0.0
 70
    32
  0
VERTEX
  5
71A
  8
0
  6
CONTINUOUS
 62
     7
 10
3803.749066727714
 20
1066.709425443102
 30
0.0
 70
    32
  0
VERTEX
  5
71B
  8
0
  6
CONTINUOUS
 62
     7
 10
3803.784097866479
 20
1066.709425443102
 30
0.0
 70
    32
  0
VERTEX
  5
71C
  8
0
  6
CONTINUOUS
 62
     7
 10
3803.818695441003
 20
1066.709425443102
 30
0.0
 70
    32
  0
VERTEX
  5
71D
  8
0
  6
CONTINUOUS
 62
     7
 10
3803.852842752541
 20
1066.709425443102
 30
0.0
 70
    32
  0
VERTEX
  5
71E
  8
0
  6
CONTINUOUS
 62
     7
 10
3803.886523134939
 20
1066.709425443102
 30
0.0
 70
    32
  0
VERTEX
  5
71F
  8
0
  6
CONTINUOUS
 62
     7
 10
3803.919725481483
 20
1066.709425443102
 30
0.0
 70
    32
  0
VERTEX
  5
720
  8
0
  6
CONTINUOUS
 62
     7
 10
3803.952450483639
 20
1066.709425443102
 30
0.0
 70
    32
  0
VERTEX
  5
721
  8
0
  6
CONTINUOUS
 62
     7
 10
3803.984700339417
 20
1066.709425443102
 30
0.0
 70
    32
  0
VERTEX
  5
722
  8
0
  6
CONTINUOUS
 62
     7
 10
3804.016477246822
 20
1066.709425443102
 30
0.0
 70
    32
  0
VERTEX
  5
723
  8
0
  6
CONTINUOUS
 62
     7
 10
3804.047783403857
 20
1066.709425443102
 30
0.0
 70
    32
  0
VERTEX
  5
724
  8
0
  6
CONTINUOUS
 62
     7
 10
3804.078621008531
 20
1066.709425443102
 30
0.0
 70
    32
  0
VERTEX
  5
725
  8
0
  6
CONTINUOUS
 62
     7
 10
3804.10899225885
 20
1066.709425443102
 30
0.0
 70
    32
  0
VERTEX
  5
726
  8
0
  6
CONTINUOUS
 62
     7
 10
3804.138899352819
 20
1066.709425443102
 30
0.0
 70
    32
  0
VERTEX
  5
727
  8
0
  6
CONTINUOUS
 62
     7
 10
3804.168344488445
 20
1066.709425443102
 30
0.0
 70
    32
  0
VERTEX
  5
728
  8
0
  6
CONTINUOUS
 62
     7
 10
3804.197329860543
 20
1066.709425443102
 30
0.0
 70
    32
  0
VERTEX
  5
729
  8
0
  6
CONTINUOUS
 62
     7
 10
3804.225844790862
 20
1066.709425443102
 30
0.0
 70
    32
  0
VERTEX
  5
72A
  8
0
  6
CONTINUOUS
 62
     7
 10
3804.253836445979
 20
1066.709425443102
 30
0.0
 70
    32
  0
VERTEX
  5
72B
  8
0
  6
CONTINUOUS
 62
     7
 10
3804.281243377002
 20
1066.709425443102
 30
0.0
 70
    32
  0
VERTEX
  5
72C
  8
0
  6
CONTINUOUS
 62
     7
 10
3804.30800413504
 20
1066.709425443102
 30
0.0
 70
    32
  0
VERTEX
  5
72D
  8
0
  6
CONTINUOUS
 62
     7
 10
3804.334057271203
 20
1066.709425443102
 30
0.0
 70
    32
  0
VERTEX
  5
72E
  8
0
  6
CONTINUOUS
 62
     7
 10
3804.359341336597
 20
1066.709425443102
 30
0.0
 70
    32
  0
VERTEX
  5
72F
  8
0
  6
CONTINUOUS
 62
     7
 10
3804.383794882334
 20
1066.709425443102
 30
0.0
 70
    32
  0
VERTEX
  5
730
  8
0
  6
CONTINUOUS
 62
     7
 10
3804.40735645952
 20
1066.709425443102
 30
0.0
 70
    32
  0
VERTEX
  5
731
  8
0
  6
CONTINUOUS
 62
     7
 10
3804.429964619265
 20
1066.709425443102
 30
0.0
 70
    32
  0
VERTEX
  5
732
  8
0
  6
CONTINUOUS
 62
     7
 10
3804.451557912676
 20
1066.709425443102
 30
0.0
 70
    32
  0
VERTEX
  5
733
  8
0
  6
CONTINUOUS
 62
     7
 10
3804.472103977726
 20
1066.709425443102
 30
0.0
 70
    32
  0
VERTEX
  5
734
  8
0
  6
CONTINUOUS
 62
     7
 10
3804.491714340799
 20
1066.709425443102
 30
0.0
 70
    32
  0
VERTEX
  5
735
  8
0
  6
CONTINUOUS
 62
     7
 10
3804.510544941592
 20
1066.709425443102
 30
0.0
 70
    32
  0
VERTEX
  5
736
  8
0
  6
CONTINUOUS
 62
     7
 10
3804.528751732562
 20
1066.709425443102
 30
0.0
 70
    32
  0
VERTEX
  5
737
  8
0
  6
CONTINUOUS
 62
     7
 10
3804.546490666164
 20
1066.709425443102
 30
0.0
 70
    32
  0
VERTEX
  5
738
  8
0
  6
CONTINUOUS
 62
     7
 10
3804.563917694855
 20
1066.709425443102
 30
0.0
 70
    32
  0
VERTEX
  5
739
  8
0
  6
CONTINUOUS
 62
     7
 10
3804.581188771089
 20
1066.709425443102
 30
0.0
 70
    32
  0
SEQEND
  5
8B9
  8
0
  6
CONTINUOUS
 62
     7
  0
LINE
  5
1CE
  8
0
  6
CONTINUOUS
 62
     7
 10
3802.781188771079
 20
1010.709425443105
 30
0.0
 11
3802.781188771082
 21
1065.709425443101
 31
0.0
  0
LINE
  5
1CF
  8
0
  6
CONTINUOUS
 62
     7
 10
3802.581188771082
 20
1065.709425443101
 30
0.0
 11
3802.781188771082
 21
1065.709425443101
 31
0.0
  0
LINE
  5
1D0
  8
0
  6
CONTINUOUS
 62
     7
 10
3802.581188771079
 20
1010.709425443105
 30
0.0
 11
3802.781188771079
 21
1010.709425443105
 31
0.0
  0
LINE
  5
1D1
  8
0
  6
CONTINUOUS
 62
     7
 10
3802.581188771082
 20
1009.709425443103
 30
0.0
 11
3802.781188771082
 21
1009.709425443103
 31
0.0
  0
LINE
  5
1D2
  8
0
  6
CONTINUOUS
 62
     7
 10
3802.781188771073
 20
1066.709425443102
 30
0.0
 11
3802.581188771072
 21
1066.709425443102
 31
0.0
  0
POLYLINE
  5
1D3
  8
0
  6
CONTINUOUS
 62
     7
 10
0.0
 20
0.0
 30
0.0
 66
     1
 70
     8
  0
VERTEX
  5
73A
  8
0
  6
CONTINUOUS
 62
     7
 10
3804.581188771089
 20
2252.709425443106
 30
0.0
 70
    32
  0
VERTEX
  5
73B
  8
0
  6
CONTINUOUS
 62
     7
 10
3804.563919945709
 20
2252.709425443106
 30
0.0
 70
    32
  0
VERTEX
  5
73C
  8
0
  6
CONTINUOUS
 62
     7
 10
3804.546494862238
 20
2252.709425443105
 30
0.0
 70
    32
  0
VERTEX
  5
73D
  8
0
  6
CONTINUOUS
 62
     7
 10
3804.528757262585
 20
2252.709425443106
 30
0.0
 70
    32
  0
VERTEX
  5
73E
  8
0
  6
CONTINUOUS
 62
     7
 10
3804.510550888657
 20
2252.709425443106
 30
0.0
 70
    32
  0
VERTEX
  5
73F
  8
0
  6
CONTINUOUS
 62
     7
 10
3804.491719482364
 20
2252.709425443106
 30
0.0
 70
    32
  0
VERTEX
  5
740
  8
0
  6
CONTINUOUS
 62
     7
 10
3804.472106785614
 20
2252.709425443106
 30
0.0
 70
    32
  0
VERTEX
  5
741
  8
0
  6
CONTINUOUS
 62
     7
 10
3804.451556562325
 20
2252.709425443106
 30
0.0
 70
    32
  0
VERTEX
  5
742
  8
0
  6
CONTINUOUS
 62
     7
 10
3804.429958774707
 20
2252.709425443106
 30
0.0
 70
    32
  0
VERTEX
  5
743
  8
0
  6
CONTINUOUS
 62
     7
 10
3804.407346979386
 20
2252.709425443106
 30
0.0
 70
    32
  0
VERTEX
  5
744
  8
0
  6
CONTINUOUS
 62
     7
 10
3804.383782550604
 20
2252.709425443106
 30
0.0
 70
    32
  0
VERTEX
  5
745
  8
0
  6
CONTINUOUS
 62
     7
 10
3804.359326862604
 20
2252.709425443106
 30
0.0
 70
    32
  0
VERTEX
  5
746
  8
0
  6
CONTINUOUS
 62
     7
 10
3804.334041289626
 20
2252.709425443107
 30
0.0
 70
    32
  0
VERTEX
  5
747
  8
0
  6
CONTINUOUS
 62
     7
 10
3804.307987205911
 20
2252.709425443106
 30
0.0
 70
    32
  0
VERTEX
  5
748
  8
0
  6
CONTINUOUS
 62
     7
 10
3804.281225985701
 20
2252.709425443106
 30
0.0
 70
    32
  0
VERTEX
  5
749
  8
0
  6
CONTINUOUS
 62
     7
 10
3804.253819003236
 20
2252.709425443106
 30
0.0
 70
    32
  0
VERTEX
  5
74A
  8
0
  6
CONTINUOUS
 62
     7
 10
3804.225827632759
 20
2252.709425443106
 30
0.0
 70
    32
  0
VERTEX
  5
74B
  8
0
  6
CONTINUOUS
 62
     7
 10
3804.197313248512
 20
2252.709425443106
 30
0.0
 70
    32
  0
VERTEX
  5
74C
  8
0
  6
CONTINUOUS
 62
     7
 10
3804.168328597658
 20
2252.709425443106
 30
0.0
 70
    32
  0
VERTEX
  5
74D
  8
0
  6
CONTINUOUS
 62
     7
 10
3804.138884288778
 20
2252.709425443106
 30
0.0
 70
    32
  0
VERTEX
  5
74E
  8
0
  6
CONTINUOUS
 62
     7
 10
3804.108978084369
 20
2252.709425443106
 30
0.0
 70
    32
  0
VERTEX
  5
74F
  8
0
  6
CONTINUOUS
 62
     7
 10
3804.078607743822
 20
2252.709425443106
 30
0.0
 70
    32
  0
VERTEX
  5
750
  8
0
  6
CONTINUOUS
 62
     7
 10
3804.04777102653
 20
2252.709425443106
 30
0.0
 70
    32
  0
VERTEX
  5
751
  8
0
  6
CONTINUOUS
 62
     7
 10
3804.016465691882
 20
2252.709425443106
 30
0.0
 70
    32
  0
VERTEX
  5
752
  8
0
  6
CONTINUOUS
 62
     7
 10
3803.98468949927
 20
2252.709425443106
 30
0.0
 70
    32
  0
VERTEX
  5
753
  8
0
  6
CONTINUOUS
 62
     7
 10
3803.952440208086
 20
2252.709425443106
 30
0.0
 70
    32
  0
VERTEX
  5
754
  8
0
  6
CONTINUOUS
 62
     7
 10
3803.919715577721
 20
2252.709425443106
 30
0.0
 70
    32
  0
VERTEX
  5
755
  8
0
  6
CONTINUOUS
 62
     7
 10
3803.886513367565
 20
2252.709425443106
 30
0.0
 70
    32
  0
VERTEX
  5
756
  8
0
  6
CONTINUOUS
 62
     7
 10
3803.852832928757
 20
2252.709425443106
 30
0.0
 70
    32
  0
VERTEX
  5
757
  8
0
  6
CONTINUOUS
 62
     7
 10
3803.818685535434
 20
2252.709425443106
 30
0.0
 70
    32
  0
VERTEX
  5
758
  8
0
  6
CONTINUOUS
 62
     7
 10
3803.784087868523
 20
2252.709425443105
 30
0.0
 70
    32
  0
VERTEX
  5
759
  8
0
  6
CONTINUOUS
 62
     7
 10
3803.749056635832
 20
2252.709425443105
 30
0.0
 70
    32
  0
VERTEX
  5
75A
  8
0
  6
CONTINUOUS
 62
     7
 10
3803.713608545172
 20
2252.709425443106
 30
0.0
 70
    32
  0
VERTEX
  5
75B
  8
0
  6
CONTINUOUS
 62
     7
 10
3803.677760304345
 20
2252.709425443106
 30
0.0
 70
    32
  0
VERTEX
  5
75C
  8
0
  6
CONTINUOUS
 62
     7
 10
3803.641528621163
 20
2252.709425443105
 30
0.0
 70
    32
  0
VERTEX
  5
75D
  8
0
  6
CONTINUOUS
 62
     7
 10
3803.604930203433
 20
2252.709425443106
 30
0.0
 70
    32
  0
VERTEX
  5
75E
  8
0
  6
CONTINUOUS
 62
     7
 10
3803.567981758961
 20
2252.709425443106
 30
0.0
 70
    32
  0
VERTEX
  5
75F
  8
0
  6
CONTINUOUS
 62
     7
 10
3803.530699995555
 20
2252.709425443106
 30
0.0
 70
    32
  0
VERTEX
  5
760
  8
0
  6
CONTINUOUS
 62
     7
 10
3803.493101619018
 20
2252.709425443106
 30
0.0
 70
    32
  0
VERTEX
  5
761
  8
0
  6
CONTINUOUS
 62
     7
 10
3803.455203309876
 20
2252.709425443106
 30
0.0
 70
    32
  0
VERTEX
  5
762
  8
0
  6
CONTINUOUS
 62
     7
 10
3803.417021731368
 20
2252.709425443105
 30
0.0
 70
    32
  0
VERTEX
  5
763
  8
0
  6
CONTINUOUS
 62
     7
 10
3803.378573546399
 20
2252.709425443105
 30
0.0
 70
    32
  0
VERTEX
  5
764
  8
0
  6
CONTINUOUS
 62
     7
 10
3803.339875417872
 20
2252.709425443105
 30
0.0
 70
    32
  0
VERTEX
  5
765
  8
0
  6
CONTINUOUS
 62
     7
 10
3803.300944008691
 20
2252.709425443105
 30
0.0
 70
    32
  0
VERTEX
  5
766
  8
0
  6
CONTINUOUS
 62
     7
 10
3803.261795981759
 20
2252.709425443105
 30
0.0
 70
    32
  0
VERTEX
  5
767
  8
0
  6
CONTINUOUS
 62
     7
 10
3803.222447999983
 20
2252.709425443105
 30
0.0
 70
    32
  0
VERTEX
  5
768
  8
0
  6
CONTINUOUS
 62
     7
 10
3803.182916726263
 20
2252.709425443105
 30
0.0
 70
    32
  0
VERTEX
  5
769
  8
0
  6
CONTINUOUS
 62
     7
 10
3803.143218823505
 20
2252.709425443105
 30
0.0
 70
    32
  0
VERTEX
  5
76A
  8
0
  6
CONTINUOUS
 62
     7
 10
3803.103370954611
 20
2252.709425443105
 30
0.0
 70
    32
  0
VERTEX
  5
76B
  8
0
  6
CONTINUOUS
 62
     7
 10
3803.063389782489
 20
2252.709425443105
 30
0.0
 70
    32
  0
VERTEX
  5
76C
  8
0
  6
CONTINUOUS
 62
     7
 10
3803.023291970037
 20
2252.709425443104
 30
0.0
 70
    32
  0
VERTEX
  5
76D
  8
0
  6
CONTINUOUS
 62
     7
 10
3802.983094180164
 20
2252.709425443105
 30
0.0
 70
    32
  0
VERTEX
  5
76E
  8
0
  6
CONTINUOUS
 62
     7
 10
3802.942813075771
 20
2252.709425443104
 30
0.0
 70
    32
  0
VERTEX
  5
76F
  8
0
  6
CONTINUOUS
 62
     7
 10
3802.902465319762
 20
2252.709425443104
 30
0.0
 70
    32
  0
VERTEX
  5
770
  8
0
  6
CONTINUOUS
 62
     7
 10
3802.862067575042
 20
2252.709425443104
 30
0.0
 70
    32
  0
VERTEX
  5
771
  8
0
  6
CONTINUOUS
 62
     7
 10
3802.821636504514
 20
2252.709425443104
 30
0.0
 70
    32
  0
VERTEX
  5
772
  8
0
  6
CONTINUOUS
 62
     7
 10
3802.781188771082
 20
2252.709425443104
 30
0.0
 70
    32
  0
SEQEND
  5
8BA
  8
0
  6
CONTINUOUS
 62
     7
  0
LINE
  5
1D4
  8
0
  6
CONTINUOUS
 62
     7
 10
3802.781188771079
 20
2253.709425443106
 30
0.0
 11
3802.781188771082
 21
2252.709425443104
 31
0.0
  0
LINE
  5
1D5
  8
0
  6
CONTINUOUS
 62
     7
 10
3802.781188771073
 20
2309.709425443104
 30
0.0
 11
3802.781188771082
 21
2308.709425443102
 31
0.0
  0
POLYLINE
  5
1D6
  8
0
  6
CONTINUOUS
 62
     7
 10
0.0
 20
0.0
 30
0.0
 66
     1
 70
     8
  0
VERTEX
  5
773
  8
0
  6
CONTINUOUS
 62
     7
 10
3802.781188771073
 20
2309.709425443104
 30
0.0
 70
    32
  0
VERTEX
  5
774
  8
0
  6
CONTINUOUS
 62
     7
 10
3802.82163724977
 20
2309.709425443104
 30
0.0
 70
    32
  0
VERTEX
  5
775
  8
0
  6
CONTINUOUS
 62
     7
 10
3802.862069062072
 20
2309.709425443103
 30
0.0
 70
    32
  0
VERTEX
  5
776
  8
0
  6
CONTINUOUS
 62
     7
 10
3802.902467541585
 20
2309.709425443104
 30
0.0
 70
    32
  0
VERTEX
  5
777
  8
0
  6
CONTINUOUS
 62
     7
 10
3802.942816021914
 20
2309.709425443103
 30
0.0
 70
    32
  0
VERTEX
  5
778
  8
0
  6
CONTINUOUS
 62
     7
 10
3802.983097836663
 20
2309.709425443104
 30
0.0
 70
    32
  0
VERTEX
  5
779
  8
0
  6
CONTINUOUS
 62
     7
 10
3803.023296319438
 20
2309.709425443104
 30
0.0
 70
    32
  0
VERTEX
  5
77A
  8
0
  6
CONTINUOUS
 62
     7
 10
3803.063394803843
 20
2309.709425443104
 30
0.0
 70
    32
  0
VERTEX
  5
77B
  8
0
  6
CONTINUOUS
 62
     7
 10
3803.103376623486
 20
2309.709425443104
 30
0.0
 70
    32
  0
VERTEX
  5
77C
  8
0
  6
CONTINUOUS
 62
     7
 10
3803.14322511197
 20
2309.709425443104
 30
0.0
 70
    32
  0
VERTEX
  5
77D
  8
0
  6
CONTINUOUS
 62
     7
 10
3803.182923602899
 20
2309.709425443104
 30
0.0
 70
    32
  0
VERTEX
  5
77E
  8
0
  6
CONTINUOUS
 62
     7
 10
3803.222455429882
 20
2309.709425443104
 30
0.0
 70
    32
  0
VERTEX
  5
77F
  8
0
  6
CONTINUOUS
 62
     7
 10
3803.261803926522
 20
2309.709425443104
 30
0.0
 70
    32
  0
VERTEX
  5
780
  8
0
  6
CONTINUOUS
 62
     7
 10
3803.300952426423
 20
2309.709425443104
 30
0.0
 70
    32
  0
VERTEX
  5
781
  8
0
  6
CONTINUOUS
 62
     7
 10
3803.339884263191
 20
2309.709425443104
 30
0.0
 70
    32
  0
VERTEX
  5
782
  8
0
  6
CONTINUOUS
 62
     7
 10
3803.378582770434
 20
2309.709425443104
 30
0.0
 70
    32
  0
VERTEX
  5
783
  8
0
  6
CONTINUOUS
 62
     7
 10
3803.417031281753
 20
2309.709425443104
 30
0.0
 70
    32
  0
VERTEX
  5
784
  8
0
  6
CONTINUOUS
 62
     7
 10
3803.455213130756
 20
2309.709425443104
 30
0.0
 70
    32
  0
VERTEX
  5
785
  8
0
  6
CONTINUOUS
 62
     7
 10
3803.493111651045
 20
2309.709425443104
 30
0.0
 70
    32
  0
VERTEX
  5
786
  8
0
  6
CONTINUOUS
 62
     7
 10
3803.530710175985
 20
2309.709425443103
 30
0.0
 70
    32
  0
VERTEX
  5
787
  8
0
  6
CONTINUOUS
 62
     7
 10
3803.56799202648
 20
2309.709425443103
 30
0.0
 70
    32
  0
VERTEX
  5
788
  8
0
  6
CONTINUOUS
 62
     7
 10
3803.604940505222
 20
2309.709425443103
 30
0.0
 70
    32
  0
VERTEX
  5
789
  8
0
  6
CONTINUOUS
 62
     7
 10
3803.641538913465
 20
2309.709425443103
 30
0.0
 70
    32
  0
VERTEX
  5
78A
  8
0
  6
CONTINUOUS
 62
     7
 10
3803.67777055246
 20
2309.709425443104
 30
0.0
 70
    32
  0
VERTEX
  5
78B
  8
0
  6
CONTINUOUS
 62
     7
 10
3803.713618723459
 20
2309.709425443103
 30
0.0
 70
    32
  0
VERTEX
  5
78C
  8
0
  6
CONTINUOUS
 62
     7
 10
3803.749066727713
 20
2309.709425443103
 30
0.0
 70
    32
  0
VERTEX
  5
78D
  8
0
  6
CONTINUOUS
 62
     7
 10
3803.784097866479
 20
2309.709425443103
 30
0.0
 70
    32
  0
VERTEX
  5
78E
  8
0
  6
CONTINUOUS
 62
     7
 10
3803.818695441004
 20
2309.709425443103
 30
0.0
 70
    32
  0
VERTEX
  5
78F
  8
0
  6
CONTINUOUS
 62
     7
 10
3803.85284275254
 20
2309.709425443103
 30
0.0
 70
    32
  0
VERTEX
  5
790
  8
0
  6
CONTINUOUS
 62
     7
 10
3803.886523134939
 20
2309.709425443103
 30
0.0
 70
    32
  0
VERTEX
  5
791
  8
0
  6
CONTINUOUS
 62
     7
 10
3803.919725481482
 20
2309.709425443103
 30
0.0
 70
    32
  0
VERTEX
  5
792
  8
0
  6
CONTINUOUS
 62
     7
 10
3803.95245048364
 20
2309.709425443103
 30
0.0
 70
    32
  0
VERTEX
  5
793
  8
0
  6
CONTINUOUS
 62
     7
 10
3803.984700339417
 20
2309.709425443103
 30
0.0
 70
    32
  0
VERTEX
  5
794
  8
0
  6
CONTINUOUS
 62
     7
 10
3804.016477246821
 20
2309.709425443103
 30
0.0
 70
    32
  0
VERTEX
  5
795
  8
0
  6
CONTINUOUS
 62
     7
 10
3804.047783403857
 20
2309.709425443103
 30
0.0
 70
    32
  0
VERTEX
  5
796
  8
0
  6
CONTINUOUS
 62
     7
 10
3804.078621008531
 20
2309.709425443103
 30
0.0
 70
    32
  0
VERTEX
  5
797
  8
0
  6
CONTINUOUS
 62
     7
 10
3804.108992258851
 20
2309.709425443104
 30
0.0
 70
    32
  0
VERTEX
  5
798
  8
0
  6
CONTINUOUS
 62
     7
 10
3804.138899352819
 20
2309.709425443104
 30
0.0
 70
    32
  0
VERTEX
  5
799
  8
0
  6
CONTINUOUS
 62
     7
 10
3804.168344488445
 20
2309.709425443104
 30
0.0
 70
    32
  0
VERTEX
  5
79A
  8
0
  6
CONTINUOUS
 62
     7
 10
3804.197329860543
 20
2309.709425443104
 30
0.0
 70
    32
  0
VERTEX
  5
79B
  8
0
  6
CONTINUOUS
 62
     7
 10
3804.225844790861
 20
2309.709425443103
 30
0.0
 70
    32
  0
VERTEX
  5
79C
  8
0
  6
CONTINUOUS
 62
     7
 10
3804.253836445979
 20
2309.709425443103
 30
0.0
 70
    32
  0
VERTEX
  5
79D
  8
0
  6
CONTINUOUS
 62
     7
 10
3804.281243377002
 20
2309.709425443104
 30
0.0
 70
    32
  0
VERTEX
  5
79E
  8
0
  6
CONTINUOUS
 62
     7
 10
3804.308004135042
 20
2309.709425443104
 30
0.0
 70
    32
  0
VERTEX
  5
79F
  8
0
  6
CONTINUOUS
 62
     7
 10
3804.334057271204
 20
2309.709425443104
 30
0.0
 70
    32
  0
VERTEX
  5
7A0
  8
0
  6
CONTINUOUS
 62
     7
 10
3804.359341336598
 20
2309.709425443103
 30
0.0
 70
    32
  0
VERTEX
  5
7A1
  8
0
  6
CONTINUOUS
 62
     7
 10
3804.383794882335
 20
2309.709425443104
 30
0.0
 70
    32
  0
VERTEX
  5
7A2
  8
0
  6
CONTINUOUS
 62
     7
 10
3804.40735645952
 20
2309.709425443103
 30
0.0
 70
    32
  0
VERTEX
  5
7A3
  8
0
  6
CONTINUOUS
 62
     7
 10
3804.429964619265
 20
2309.709425443104
 30
0.0
 70
    32
  0
VERTEX
  5
7A4
  8
0
  6
CONTINUOUS
 62
     7
 10
3804.451557912677
 20
2309.709425443104
 30
0.0
 70
    32
  0
VERTEX
  5
7A5
  8
0
  6
CONTINUOUS
 62
     7
 10
3804.472103977726
 20
2309.709425443104
 30
0.0
 70
    32
  0
VERTEX
  5
7A6
  8
0
  6
CONTINUOUS
 62
     7
 10
3804.491714340798
 20
2309.709425443104
 30
0.0
 70
    32
  0
VERTEX
  5
7A7
  8
0
  6
CONTINUOUS
 62
     7
 10
3804.510544941591
 20
2309.709425443104
 30
0.0
 70
    32
  0
VERTEX
  5
7A8
  8
0
  6
CONTINUOUS
 62
     7
 10
3804.528751732561
 20
2309.709425443104
 30
0.0
 70
    32
  0
VERTEX
  5
7A9
  8
0
  6
CONTINUOUS
 62
     7
 10
3804.546490666164
 20
2309.709425443103
 30
0.0
 70
    32
  0
VERTEX
  5
7AA
  8
0
  6
CONTINUOUS
 62
     7
 10
3804.563917694854
 20
2309.709425443103
 30
0.0
 70
    32
  0
VERTEX
  5
7AB
  8
0
  6
CONTINUOUS
 62
     7
 10
3804.581188771089
 20
2309.709425443103
 30
0.0
 70
    32
  0
SEQEND
  5
8BB
  8
0
  6
CONTINUOUS
 62
     7
  0
LINE
  5
1D7
  8
0
  6
CONTINUOUS
 62
     7
 10
3802.781188771079
 20
2253.709425443106
 30
0.0
 11
3802.781188771082
 21
2308.709425443102
 31
0.0
  0
LINE
  5
1D8
  8
0
  6
CONTINUOUS
 62
     7
 10
3802.581188771082
 20
2252.709425443104
 30
0.0
 11
3802.781188771082
 21
2252.709425443104
 31
0.0
  0
LINE
  5
1D9
  8
0
  6
CONTINUOUS
 62
     7
 10
3802.581188771079
 20
2253.709425443106
 30
0.0
 11
3802.781188771079
 21
2253.709425443106
 31
0.0
  0
LINE
  5
1DA
  8
0
  6
CONTINUOUS
 62
     7
 10
3802.581188771082
 20
2308.709425443102
 30
0.0
 11
3802.781188771082
 21
2308.709425443102
 31
0.0
  0
LINE
  5
1DB
  8
0
  6
CONTINUOUS
 62
     7
 10
3802.781188771073
 20
2309.709425443104
 30
0.0
 11
3802.581188771073
 21
2309.709425443104
 31
0.0
  0
POLYLINE
  5
1DC
  8
0
  6
CONTINUOUS
 62
     7
 10
0.0
 20
0.0
 30
0.0
 66
     1
 70
     8
  0
VERTEX
  5
7AC
  8
0
  6
CONTINUOUS
 62
     7
 10
3804.581188771089
 20
1352.709425443105
 30
0.0
 70
    32
  0
VERTEX
  5
7AD
  8
0
  6
CONTINUOUS
 62
     7
 10
3804.563919945709
 20
1352.709425443105
 30
0.0
 70
    32
  0
VERTEX
  5
7AE
  8
0
  6
CONTINUOUS
 62
     7
 10
3804.546494862238
 20
1352.709425443105
 30
0.0
 70
    32
  0
VERTEX
  5
7AF
  8
0
  6
CONTINUOUS
 62
     7
 10
3804.528757262585
 20
1352.709425443105
 30
0.0
 70
    32
  0
VERTEX
  5
7B0
  8
0
  6
CONTINUOUS
 62
     7
 10
3804.510550888657
 20
1352.709425443105
 30
0.0
 70
    32
  0
VERTEX
  5
7B1
  8
0
  6
CONTINUOUS
 62
     7
 10
3804.491719482364
 20
1352.709425443105
 30
0.0
 70
    32
  0
VERTEX
  5
7B2
  8
0
  6
CONTINUOUS
 62
     7
 10
3804.472106785615
 20
1352.709425443105
 30
0.0
 70
    32
  0
VERTEX
  5
7B3
  8
0
  6
CONTINUOUS
 62
     7
 10
3804.451556562325
 20
1352.709425443105
 30
0.0
 70
    32
  0
VERTEX
  5
7B4
  8
0
  6
CONTINUOUS
 62
     7
 10
3804.429958774706
 20
1352.709425443105
 30
0.0
 70
    32
  0
VERTEX
  5
7B5
  8
0
  6
CONTINUOUS
 62
     7
 10
3804.407346979387
 20
1352.709425443105
 30
0.0
 70
    32
  0
VERTEX
  5
7B6
  8
0
  6
CONTINUOUS
 62
     7
 10
3804.383782550605
 20
1352.709425443105
 30
0.0
 70
    32
  0
VERTEX
  5
7B7
  8
0
  6
CONTINUOUS
 62
     7
 10
3804.359326862605
 20
1352.709425443105
 30
0.0
 70
    32
  0
VERTEX
  5
7B8
  8
0
  6
CONTINUOUS
 62
     7
 10
3804.334041289626
 20
1352.709425443105
 30
0.0
 70
    32
  0
VERTEX
  5
7B9
  8
0
  6
CONTINUOUS
 62
     7
 10
3804.30798720591
 20
1352.709425443105
 30
0.0
 70
    32
  0
VERTEX
  5
7BA
  8
0
  6
CONTINUOUS
 62
     7
 10
3804.281225985701
 20
1352.709425443105
 30
0.0
 70
    32
  0
VERTEX
  5
7BB
  8
0
  6
CONTINUOUS
 62
     7
 10
3804.253819003236
 20
1352.709425443105
 30
0.0
 70
    32
  0
VERTEX
  5
7BC
  8
0
  6
CONTINUOUS
 62
     7
 10
3804.22582763276
 20
1352.709425443105
 30
0.0
 70
    32
  0
VERTEX
  5
7BD
  8
0
  6
CONTINUOUS
 62
     7
 10
3804.197313248512
 20
1352.709425443105
 30
0.0
 70
    32
  0
VERTEX
  5
7BE
  8
0
  6
CONTINUOUS
 62
     7
 10
3804.168328597658
 20
1352.709425443105
 30
0.0
 70
    32
  0
VERTEX
  5
7BF
  8
0
  6
CONTINUOUS
 62
     7
 10
3804.138884288778
 20
1352.709425443105
 30
0.0
 70
    32
  0
VERTEX
  5
7C0
  8
0
  6
CONTINUOUS
 62
     7
 10
3804.108978084369
 20
1352.709425443105
 30
0.0
 70
    32
  0
VERTEX
  5
7C1
  8
0
  6
CONTINUOUS
 62
     7
 10
3804.078607743822
 20
1352.709425443105
 30
0.0
 70
    32
  0
VERTEX
  5
7C2
  8
0
  6
CONTINUOUS
 62
     7
 10
3804.047771026529
 20
1352.709425443105
 30
0.0
 70
    32
  0
VERTEX
  5
7C3
  8
0
  6
CONTINUOUS
 62
     7
 10
3804.016465691882
 20
1352.709425443105
 30
0.0
 70
    32
  0
VERTEX
  5
7C4
  8
0
  6
CONTINUOUS
 62
     7
 10
3803.98468949927
 20
1352.709425443105
 30
0.0
 70
    32
  0
VERTEX
  5
7C5
  8
0
  6
CONTINUOUS
 62
     7
 10
3803.952440208086
 20
1352.709425443105
 30
0.0
 70
    32
  0
VERTEX
  5
7C6
  8
0
  6
CONTINUOUS
 62
     7
 10
3803.919715577721
 20
1352.709425443105
 30
0.0
 70
    32
  0
VERTEX
  5
7C7
  8
0
  6
CONTINUOUS
 62
     7
 10
3803.886513367565
 20
1352.709425443105
 30
0.0
 70
    32
  0
VERTEX
  5
7C8
  8
0
  6
CONTINUOUS
 62
     7
 10
3803.852832928757
 20
1352.709425443105
 30
0.0
 70
    32
  0
VERTEX
  5
7C9
  8
0
  6
CONTINUOUS
 62
     7
 10
3803.818685535433
 20
1352.709425443105
 30
0.0
 70
    32
  0
VERTEX
  5
7CA
  8
0
  6
CONTINUOUS
 62
     7
 10
3803.784087868523
 20
1352.709425443105
 30
0.0
 70
    32
  0
VERTEX
  5
7CB
  8
0
  6
CONTINUOUS
 62
     7
 10
3803.749056635833
 20
1352.709425443105
 30
0.0
 70
    32
  0
VERTEX
  5
7CC
  8
0
  6
CONTINUOUS
 62
     7
 10
3803.71360854517
 20
1352.709425443105
 30
0.0
 70
    32
  0
VERTEX
  5
7CD
  8
0
  6
CONTINUOUS
 62
     7
 10
3803.677760304346
 20
1352.709425443105
 30
0.0
 70
    32
  0
VERTEX
  5
7CE
  8
0
  6
CONTINUOUS
 62
     7
 10
3803.641528621163
 20
1352.709425443105
 30
0.0
 70
    32
  0
VERTEX
  5
7CF
  8
0
  6
CONTINUOUS
 62
     7
 10
3803.604930203433
 20
1352.709425443105
 30
0.0
 70
    32
  0
VERTEX
  5
7D0
  8
0
  6
CONTINUOUS
 62
     7
 10
3803.56798175896
 20
1352.709425443105
 30
0.0
 70
    32
  0
VERTEX
  5
7D1
  8
0
  6
CONTINUOUS
 62
     7
 10
3803.530699995555
 20
1352.709425443105
 30
0.0
 70
    32
  0
VERTEX
  5
7D2
  8
0
  6
CONTINUOUS
 62
     7
 10
3803.493101619018
 20
1352.709425443105
 30
0.0
 70
    32
  0
VERTEX
  5
7D3
  8
0
  6
CONTINUOUS
 62
     7
 10
3803.455203309876
 20
1352.709425443105
 30
0.0
 70
    32
  0
VERTEX
  5
7D4
  8
0
  6
CONTINUOUS
 62
     7
 10
3803.417021731369
 20
1352.709425443105
 30
0.0
 70
    32
  0
VERTEX
  5
7D5
  8
0
  6
CONTINUOUS
 62
     7
 10
3803.3785735464
 20
1352.709425443105
 30
0.0
 70
    32
  0
VERTEX
  5
7D6
  8
0
  6
CONTINUOUS
 62
     7
 10
3803.339875417872
 20
1352.709425443105
 30
0.0
 70
    32
  0
VERTEX
  5
7D7
  8
0
  6
CONTINUOUS
 62
     7
 10
3803.300944008691
 20
1352.709425443104
 30
0.0
 70
    32
  0
VERTEX
  5
7D8
  8
0
  6
CONTINUOUS
 62
     7
 10
3803.26179598176
 20
1352.709425443105
 30
0.0
 70
    32
  0
VERTEX
  5
7D9
  8
0
  6
CONTINUOUS
 62
     7
 10
3803.222447999983
 20
1352.709425443104
 30
0.0
 70
    32
  0
VERTEX
  5
7DA
  8
0
  6
CONTINUOUS
 62
     7
 10
3803.182916726264
 20
1352.709425443104
 30
0.0
 70
    32
  0
VERTEX
  5
7DB
  8
0
  6
CONTINUOUS
 62
     7
 10
3803.143218823505
 20
1352.709425443104
 30
0.0
 70
    32
  0
VERTEX
  5
7DC
  8
0
  6
CONTINUOUS
 62
     7
 10
3803.103370954612
 20
1352.709425443104
 30
0.0
 70
    32
  0
VERTEX
  5
7DD
  8
0
  6
CONTINUOUS
 62
     7
 10
3803.063389782488
 20
1352.709425443104
 30
0.0
 70
    32
  0
VERTEX
  5
7DE
  8
0
  6
CONTINUOUS
 62
     7
 10
3803.023291970037
 20
1352.709425443104
 30
0.0
 70
    32
  0
VERTEX
  5
7DF
  8
0
  6
CONTINUOUS
 62
     7
 10
3802.983094180164
 20
1352.709425443104
 30
0.0
 70
    32
  0
VERTEX
  5
7E0
  8
0
  6
CONTINUOUS
 62
     7
 10
3802.94281307577
 20
1352.709425443103
 30
0.0
 70
    32
  0
VERTEX
  5
7E1
  8
0
  6
CONTINUOUS
 62
     7
 10
3802.902465319762
 20
1352.709425443103
 30
0.0
 70
    32
  0
VERTEX
  5
7E2
  8
0
  6
CONTINUOUS
 62
     7
 10
3802.862067575042
 20
1352.709425443103
 30
0.0
 70
    32
  0
VERTEX
  5
7E3
  8
0
  6
CONTINUOUS
 62
     7
 10
3802.821636504514
 20
1352.709425443103
 30
0.0
 70
    32
  0
VERTEX
  5
7E4
  8
0
  6
CONTINUOUS
 62
     7
 10
3802.781188771082
 20
1352.709425443103
 30
0.0
 70
    32
  0
SEQEND
  5
8BC
  8
0
  6
CONTINUOUS
 62
     7
  0
LINE
  5
1DD
  8
0
  6
CONTINUOUS
 62
     7
 10
3802.781188771079
 20
1353.709425443105
 30
0.0
 11
3802.781188771082
 21
1352.709425443103
 31
0.0
  0
LINE
  5
1DE
  8
0
  6
CONTINUOUS
 62
     7
 10
3802.781188771073
 20
1409.709425443103
 30
0.0
 11
3802.781188771082
 21
1408.709425443101
 31
0.0
  0
POLYLINE
  5
1DF
  8
0
  6
CONTINUOUS
 62
     7
 10
0.0
 20
0.0
 30
0.0
 66
     1
 70
     8
  0
VERTEX
  5
7E5
  8
0
  6
CONTINUOUS
 62
     7
 10
3802.781188771073
 20
1409.709425443103
 30
0.0
 70
    32
  0
VERTEX
  5
7E6
  8
0
  6
CONTINUOUS
 62
     7
 10
3802.82163724977
 20
1409.709425443103
 30
0.0
 70
    32
  0
VERTEX
  5
7E7
  8
0
  6
CONTINUOUS
 62
     7
 10
3802.862069062072
 20
1409.709425443103
 30
0.0
 70
    32
  0
VERTEX
  5
7E8
  8
0
  6
CONTINUOUS
 62
     7
 10
3802.902467541585
 20
1409.709425443103
 30
0.0
 70
    32
  0
VERTEX
  5
7E9
  8
0
  6
CONTINUOUS
 62
     7
 10
3802.942816021914
 20
1409.709425443103
 30
0.0
 70
    32
  0
VERTEX
  5
7EA
  8
0
  6
CONTINUOUS
 62
     7
 10
3802.983097836662
 20
1409.709425443103
 30
0.0
 70
    32
  0
VERTEX
  5
7EB
  8
0
  6
CONTINUOUS
 62
     7
 10
3803.023296319438
 20
1409.709425443103
 30
0.0
 70
    32
  0
VERTEX
  5
7EC
  8
0
  6
CONTINUOUS
 62
     7
 10
3803.063394803843
 20
1409.709425443102
 30
0.0
 70
    32
  0
VERTEX
  5
7ED
  8
0
  6
CONTINUOUS
 62
     7
 10
3803.103376623485
 20
1409.709425443102
 30
0.0
 70
    32
  0
VERTEX
  5
7EE
  8
0
  6
CONTINUOUS
 62
     7
 10
3803.14322511197
 20
1409.709425443102
 30
0.0
 70
    32
  0
VERTEX
  5
7EF
  8
0
  6
CONTINUOUS
 62
     7
 10
3803.1829236029
 20
1409.709425443103
 30
0.0
 70
    32
  0
VERTEX
  5
7F0
  8
0
  6
CONTINUOUS
 62
     7
 10
3803.222455429883
 20
1409.709425443103
 30
0.0
 70
    32
  0
VERTEX
  5
7F1
  8
0
  6
CONTINUOUS
 62
     7
 10
3803.261803926521
 20
1409.709425443102
 30
0.0
 70
    32
  0
VERTEX
  5
7F2
  8
0
  6
CONTINUOUS
 62
     7
 10
3803.300952426423
 20
1409.709425443102
 30
0.0
 70
    32
  0
VERTEX
  5
7F3
  8
0
  6
CONTINUOUS
 62
     7
 10
3803.339884263192
 20
1409.709425443102
 30
0.0
 70
    32
  0
VERTEX
  5
7F4
  8
0
  6
CONTINUOUS
 62
     7
 10
3803.378582770432
 20
1409.709425443102
 30
0.0
 70
    32
  0
VERTEX
  5
7F5
  8
0
  6
CONTINUOUS
 62
     7
 10
3803.417031281753
 20
1409.709425443102
 30
0.0
 70
    32
  0
VERTEX
  5
7F6
  8
0
  6
CONTINUOUS
 62
     7
 10
3803.455213130755
 20
1409.709425443102
 30
0.0
 70
    32
  0
VERTEX
  5
7F7
  8
0
  6
CONTINUOUS
 62
     7
 10
3803.493111651045
 20
1409.709425443102
 30
0.0
 70
    32
  0
VERTEX
  5
7F8
  8
0
  6
CONTINUOUS
 62
     7
 10
3803.530710175986
 20
1409.709425443102
 30
0.0
 70
    32
  0
VERTEX
  5
7F9
  8
0
  6
CONTINUOUS
 62
     7
 10
3803.567992026481
 20
1409.709425443102
 30
0.0
 70
    32
  0
VERTEX
  5
7FA
  8
0
  6
CONTINUOUS
 62
     7
 10
3803.604940505224
 20
1409.709425443102
 30
0.0
 70
    32
  0
VERTEX
  5
7FB
  8
0
  6
CONTINUOUS
 62
     7
 10
3803.641538913465
 20
1409.709425443102
 30
0.0
 70
    32
  0
VERTEX
  5
7FC
  8
0
  6
CONTINUOUS
 62
     7
 10
3803.67777055246
 20
1409.709425443102
 30
0.0
 70
    32
  0
VERTEX
  5
7FD
  8
0
  6
CONTINUOUS
 62
     7
 10
3803.713618723459
 20
1409.709425443102
 30
0.0
 70
    32
  0
VERTEX
  5
7FE
  8
0
  6
CONTINUOUS
 62
     7
 10
3803.749066727714
 20
1409.709425443102
 30
0.0
 70
    32
  0
VERTEX
  5
7FF
  8
0
  6
CONTINUOUS
 62
     7
 10
3803.784097866479
 20
1409.709425443102
 30
0.0
 70
    32
  0
VERTEX
  5
800
  8
0
  6
CONTINUOUS
 62
     7
 10
3803.818695441003
 20
1409.709425443102
 30
0.0
 70
    32
  0
VERTEX
  5
801
  8
0
  6
CONTINUOUS
 62
     7
 10
3803.85284275254
 20
1409.709425443102
 30
0.0
 70
    32
  0
VERTEX
  5
802
  8
0
  6
CONTINUOUS
 62
     7
 10
3803.88652313494
 20
1409.709425443102
 30
0.0
 70
    32
  0
VERTEX
  5
803
  8
0
  6
CONTINUOUS
 62
     7
 10
3803.919725481483
 20
1409.709425443102
 30
0.0
 70
    32
  0
VERTEX
  5
804
  8
0
  6
CONTINUOUS
 62
     7
 10
3803.95245048364
 20
1409.709425443102
 30
0.0
 70
    32
  0
VERTEX
  5
805
  8
0
  6
CONTINUOUS
 62
     7
 10
3803.984700339418
 20
1409.709425443102
 30
0.0
 70
    32
  0
VERTEX
  5
806
  8
0
  6
CONTINUOUS
 62
     7
 10
3804.016477246821
 20
1409.709425443102
 30
0.0
 70
    32
  0
VERTEX
  5
807
  8
0
  6
CONTINUOUS
 62
     7
 10
3804.047783403857
 20
1409.709425443102
 30
0.0
 70
    32
  0
VERTEX
  5
808
  8
0
  6
CONTINUOUS
 62
     7
 10
3804.078621008532
 20
1409.709425443102
 30
0.0
 70
    32
  0
VERTEX
  5
809
  8
0
  6
CONTINUOUS
 62
     7
 10
3804.10899225885
 20
1409.709425443102
 30
0.0
 70
    32
  0
VERTEX
  5
80A
  8
0
  6
CONTINUOUS
 62
     7
 10
3804.13889935282
 20
1409.709425443102
 30
0.0
 70
    32
  0
VERTEX
  5
80B
  8
0
  6
CONTINUOUS
 62
     7
 10
3804.168344488445
 20
1409.709425443102
 30
0.0
 70
    32
  0
VERTEX
  5
80C
  8
0
  6
CONTINUOUS
 62
     7
 10
3804.197329860544
 20
1409.709425443102
 30
0.0
 70
    32
  0
VERTEX
  5
80D
  8
0
  6
CONTINUOUS
 62
     7
 10
3804.225844790862
 20
1409.709425443102
 30
0.0
 70
    32
  0
VERTEX
  5
80E
  8
0
  6
CONTINUOUS
 62
     7
 10
3804.25383644598
 20
1409.709425443102
 30
0.0
 70
    32
  0
VERTEX
  5
80F
  8
0
  6
CONTINUOUS
 62
     7
 10
3804.281243377003
 20
1409.709425443102
 30
0.0
 70
    32
  0
VERTEX
  5
810
  8
0
  6
CONTINUOUS
 62
     7
 10
3804.30800413504
 20
1409.709425443102
 30
0.0
 70
    32
  0
VERTEX
  5
811
  8
0
  6
CONTINUOUS
 62
     7
 10
3804.334057271203
 20
1409.709425443102
 30
0.0
 70
    32
  0
VERTEX
  5
812
  8
0
  6
CONTINUOUS
 62
     7
 10
3804.359341336598
 20
1409.709425443102
 30
0.0
 70
    32
  0
VERTEX
  5
813
  8
0
  6
CONTINUOUS
 62
     7
 10
3804.383794882334
 20
1409.709425443102
 30
0.0
 70
    32
  0
VERTEX
  5
814
  8
0
  6
CONTINUOUS
 62
     7
 10
3804.40735645952
 20
1409.709425443102
 30
0.0
 70
    32
  0
VERTEX
  5
815
  8
0
  6
CONTINUOUS
 62
     7
 10
3804.429964619265
 20
1409.709425443102
 30
0.0
 70
    32
  0
VERTEX
  5
816
  8
0
  6
CONTINUOUS
 62
     7
 10
3804.451557912677
 20
1409.709425443102
 30
0.0
 70
    32
  0
VERTEX
  5
817
  8
0
  6
CONTINUOUS
 62
     7
 10
3804.472103977726
 20
1409.709425443102
 30
0.0
 70
    32
  0
VERTEX
  5
818
  8
0
  6
CONTINUOUS
 62
     7
 10
3804.491714340798
 20
1409.709425443102
 30
0.0
 70
    32
  0
VERTEX
  5
819
  8
0
  6
CONTINUOUS
 62
     7
 10
3804.510544941592
 20
1409.709425443102
 30
0.0
 70
    32
  0
VERTEX
  5
81A
  8
0
  6
CONTINUOUS
 62
     7
 10
3804.528751732561
 20
1409.709425443102
 30
0.0
 70
    32
  0
VERTEX
  5
81B
  8
0
  6
CONTINUOUS
 62
     7
 10
3804.546490666164
 20
1409.709425443102
 30
0.0
 70
    32
  0
VERTEX
  5
81C
  8
0
  6
CONTINUOUS
 62
     7
 10
3804.563917694854
 20
1409.709425443102
 30
0.0
 70
    32
  0
VERTEX
  5
81D
  8
0
  6
CONTINUOUS
 62
     7
 10
3804.581188771089
 20
1409.709425443102
 30
0.0
 70
    32
  0
SEQEND
  5
8BD
  8
0
  6
CONTINUOUS
 62
     7
  0
LINE
  5
1E0
  8
0
  6
CONTINUOUS
 62
     7
 10
3802.781188771079
 20
1353.709425443105
 30
0.0
 11
3802.781188771082
 21
1408.709425443101
 31
0.0
  0
LINE
  5
1E1
  8
0
  6
CONTINUOUS
 62
     7
 10
3802.581188771082
 20
1408.709425443101
 30
0.0
 11
3802.781188771082
 21
1408.709425443101
 31
0.0
  0
LINE
  5
1E2
  8
0
  6
CONTINUOUS
 62
     7
 10
3802.581188771079
 20
1353.709425443105
 30
0.0
 11
3802.781188771079
 21
1353.709425443105
 31
0.0
  0
LINE
  5
1E3
  8
0
  6
CONTINUOUS
 62
     7
 10
3802.581188771082
 20
1352.709425443103
 30
0.0
 11
3802.781188771082
 21
1352.709425443103
 31
0.0
  0
LINE
  5
1E4
  8
0
  6
CONTINUOUS
 62
     7
 10
3802.781188771073
 20
1409.709425443103
 30
0.0
 11
3802.581188771073
 21
1409.709425443103
 31
0.0
  0
LINE
  5
1E5
  8
0
  6
CONTINUOUS
 62
     8
 10
3802.781188771079
 20
667.7094254431051
 30
0.0
 11
3804.581188771088
 21
667.7094254431041
 31
0.0
  0
LINE
  5
1E6
  8
0
  6
CONTINUOUS
 62
     8
 10
3804.581188771088
 20
722.7094254430996
 30
0.0
 11
3802.781188771082
 21
722.7094254431009
 31
0.0
  0
LINE
  5
1E7
  8
0
  6
CONTINUOUS
 62
     8
 10
3802.781188771079
 20
1817.709425443105
 30
0.0
 11
3804.581188771088
 21
1817.709425443104
 31
0.0
  0
LINE
  5
1E8
  8
0
  6
CONTINUOUS
 62
     8
 10
3804.581188771088
 20
1872.7094254431
 30
0.0
 11
3802.781188771082
 21
1872.709425443101
 31
0.0
  0
LINE
  5
1E9
  8
0
  6
CONTINUOUS
 62
     8
 10
3802.781188771079
 20
1010.709425443105
 30
0.0
 11
3804.581188771088
 21
1010.709425443104
 31
0.0
  0
LINE
  5
1EA
  8
0
  6
CONTINUOUS
 62
     8
 10
3804.581188771088
 20
1065.709425443099
 30
0.0
 11
3802.781188771082
 21
1065.709425443101
 31
0.0
  0
LINE
  5
1EB
  8
0
  6
CONTINUOUS
 62
     8
 10
3802.781188771079
 20
2253.709425443106
 30
0.0
 11
3804.581188771088
 21
2253.709425443105
 31
0.0
  0
LINE
  5
1EC
  8
0
  6
CONTINUOUS
 62
     8
 10
3804.581188771088
 20
2308.709425443101
 30
0.0
 11
3802.781188771082
 21
2308.709425443102
 31
0.0
  0
LINE
  5
1ED
  8
0
  6
CONTINUOUS
 62
     8
 10
3802.781188771079
 20
1353.709425443105
 30
0.0
 11
3804.581188771088
 21
1353.709425443104
 31
0.0
  0
LINE
  5
1EE
  8
0
  6
CONTINUOUS
 62
     8
 10
3804.581188771088
 20
1408.7094254431
 30
0.0
 11
3802.781188771082
 21
1408.709425443101
 31
0.0
  0
LINE
  5
1EF
  8
0
  6
CONTINUOUS
 62
     7
 10
2616.139224452523
 20
2885.297073477715
 30
0.0
 11
2244.139224452523
 21
2885.297073477715
 31
0.0
  0
LINE
  5
1F0
  8
0
  6
CONTINUOUS
 62
     7
 10
2616.139224452523
 20
2903.297073477716
 30
0.0
 11
2244.139224452523
 21
2903.297073477716
 31
0.0
  0
LINE
  5
1F1
  8
0
  6
CONTINUOUS
 62
     7
 10
2244.139224452523
 20
2885.297073477715
 30
0.0
 11
2244.139224452523
 21
2903.297073477716
 31
0.0
  0
LINE
  5
1F2
  8
0
  6
CONTINUOUS
 62
     7
 10
2616.139224452523
 20
2885.297073477715
 30
0.0
 11
2616.139224452523
 21
2903.297073477716
 31
0.0
  0
LINE
  5
1F3
  8
0
  6
CONTINUOUS
 62
     7
 10
2617.639224452523
 20
2905.297073477716
 30
0.0
 11
2600.139224452523
 21
2905.297073477716
 31
0.0
  0
LINE
  5
1F4
  8
0
  6
CONTINUOUS
 62
     7
 10
2617.639224452523
 20
2905.297073477716
 30
0.0
 11
2617.639224452523
 21
3035.297073477716
 31
0.0
  0
LINE
  5
1F5
  8
0
  6
CONTINUOUS
 62
     7
 10
2617.639224452523
 20
3035.297073477716
 30
0.0
 11
2600.139224452523
 21
3035.297073477716
 31
0.0
  0
LINE
  5
1F6
  8
0
  6
CONTINUOUS
 62
     7
 10
2600.139224452523
 20
2905.297073477716
 30
0.0
 11
2600.139224452523
 21
3035.297073477716
 31
0.0
  0
LINE
  5
1F7
  8
0
  6
CONTINUOUS
 62
     7
 10
2260.139224452523
 20
2905.297073477716
 30
0.0
 11
2242.639224452523
 21
2905.297073477716
 31
0.0
  0
LINE
  5
1F8
  8
0
  6
CONTINUOUS
 62
     7
 10
2260.139224452523
 20
2905.297073477716
 30
0.0
 11
2260.139224452523
 21
3035.297073477716
 31
0.0
  0
LINE
  5
1F9
  8
0
  6
CONTINUOUS
 62
     7
 10
2260.139224452523
 20
3035.297073477716
 30
0.0
 11
2242.639224452523
 21
3035.297073477716
 31
0.0
  0
LINE
  5
1FA
  8
0
  6
CONTINUOUS
 62
     7
 10
2242.639224452523
 20
2905.297073477716
 30
0.0
 11
2242.639224452523
 21
3035.297073477716
 31
0.0
  0
LINE
  5
1FB
  8
0
  6
CONTINUOUS
 62
     7
 10
2281.639224456861
 20
2905.497073477711
 30
0.0
 11
2265.639224456861
 21
2905.497073477698
 31
0.0
  0
LINE
  5
1FC
  8
0
  6
CONTINUOUS
 62
     7
 10
2283.639224456861
 20
2903.497073477701
 30
0.0
 11
2283.639224456862
 21
2903.2970734777
 31
0.0
  0
LINE
  5
1FD
  8
0
  6
CONTINUOUS
 62
     7
 10
2263.63922445686
 20
2903.297073477716
 30
0.0
 11
2263.63922445686
 21
2903.497073477717
 31
0.0
  0
POLYLINE
  5
1FE
  8
0
  6
CONTINUOUS
 62
     7
 66
     1
 10
0.0
 20
0.0
 30
0.0
  0
VERTEX
  5
81E
  8
0
  6
CONTINUOUS
 62
     7
 10
2265.639224456861
 20
2905.497073477698
 30
0.0
  0
VERTEX
  5
81F
  8
0
  6
CONTINUOUS
 62
     7
 10
2265.589992803047
 20
2905.491798248303
 30
0.0
  0
VERTEX
  5
820
  8
0
  6
CONTINUOUS
 62
     7
 10
2265.540791713015
 20
2905.486423251717
 30
0.0
  0
VERTEX
  5
821
  8
0
  6
CONTINUOUS
 62
     7
 10
2265.491651750553
 20
2905.480848720755
 30
0.0
  0
VERTEX
  5
822
  8
0
  6
CONTINUOUS
 62
     7
 10
2265.442603479441
 20
2905.474974888226
 30
0.0
  0
VERTEX
  5
823
  8
0
  6
CONTINUOUS
 62
     7
 10
2265.393677463466
 20
2905.468701986944
 30
0.0
  0
VERTEX
  5
824
  8
0
  6
CONTINUOUS
 62
     7
 10
2265.34490426641
 20
2905.461930249718
 30
0.0
  0
VERTEX
  5
825
  8
0
  6
CONTINUOUS
 62
     7
 10
2265.296314452057
 20
2905.454559909359
 30
0.0
  0
VERTEX
  5
826
  8
0
  6
CONTINUOUS
 62
     7
 10
2265.247938584192
 20
2905.44649119868
 30
0.0
  0
VERTEX
  5
827
  8
0
  6
CONTINUOUS
 62
     7
 10
2265.199807226598
 20
2905.437624350493
 30
0.0
  0
VERTEX
  5
828
  8
0
  6
CONTINUOUS
 62
     7
 10
2265.15195094306
 20
2905.427859597607
 30
0.0
  0
VERTEX
  5
829
  8
0
  6
CONTINUOUS
 62
     7
 10
2265.10440029736
 20
2905.417097172835
 30
0.0
  0
VERTEX
  5
82A
  8
0
  6
CONTINUOUS
 62
     7
 10
2265.057185853284
 20
2905.405237308988
 30
0.0
  0
VERTEX
  5
82B
  8
0
  6
CONTINUOUS
 62
     7
 10
2265.010338174615
 20
2905.392180238877
 30
0.0
  0
VERTEX
  5
82C
  8
0
  6
CONTINUOUS
 62
     7
 10
2264.963887825135
 20
2905.377826195313
 30
0.0
  0
VERTEX
  5
82D
  8
0
  6
CONTINUOUS
 62
     7
 10
2264.917865368632
 20
2905.362075411109
 30
0.0
  0
VERTEX
  5
82E
  8
0
  6
CONTINUOUS
 62
     7
 10
2264.872300997524
 20
2905.344837017014
 30
0.0
  0
VERTEX
  5
82F
  8
0
  6
CONTINUOUS
 62
     7
 10
2264.827220724928
 20
2905.326120280937
 30
0.0
  0
VERTEX
  5
830
  8
0
  6
CONTINUOUS
 62
     7
 10
2264.782647931649
 20
2905.305997541562
 30
0.0
  0
VERTEX
  5
831
  8
0
  6
CONTINUOUS
 62
     7
 10
2264.738605957411
 20
2905.284542121941
 30
0.0
  0
VERTEX
  5
832
  8
0
  6
CONTINUOUS
 62
     7
 10
2264.695118141935
 20
2905.261827345124
 30
0.0
  0
VERTEX
  5
833
  8
0
  6
CONTINUOUS
 62
     7
 10
2264.652207824945
 20
2905.237926534163
 30
0.0
  0
VERTEX
  5
834
  8
0
  6
CONTINUOUS
 62
     7
 10
2264.609898346162
 20
2905.212913012109
 30
0.0
  0
VERTEX
  5
835
  8
0
  6
CONTINUOUS
 62
     7
 10
2264.568213045309
 20
2905.186860102013
 30
0.0
  0
VERTEX
  5
836
  8
0
  6
CONTINUOUS
 62
     7
 10
2264.527175263943
 20
2905.159840679464
 30
0.0
  0
VERTEX
  5
837
  8
0
  6
CONTINUOUS
 62
     7
 10
2264.486808446154
 20
2905.131902603422
 30
0.0
  0
VERTEX
  5
838
  8
0
  6
CONTINUOUS
 62
     7
 10
2264.447136190792
 20
2905.103055974863
 30
0.0
  0
VERTEX
  5
839
  8
0
  6
CONTINUOUS
 62
     7
 10
2264.40818210954
 20
2905.073307762872
 30
0.0
  0
VERTEX
  5
83A
  8
0
  6
CONTINUOUS
 62
     7
 10
2264.369969814084
 20
2905.042664936539
 30
0.0
  0
VERTEX
  5
83B
  8
0
  6
CONTINUOUS
 62
     7
 10
2264.332522916106
 20
2905.011134464947
 30
0.0
  0
VERTEX
  5
83C
  8
0
  6
CONTINUOUS
 62
     7
 10
2264.295865027294
 20
2904.978723317186
 30
0.0
  0
VERTEX
  5
83D
  8
0
  6
CONTINUOUS
 62
     7
 10
2264.260019759331
 20
2904.945438462342
 30
0.0
  0
VERTEX
  5
83E
  8
0
  6
CONTINUOUS
 62
     7
 10
2264.225010723902
 20
2904.911286869501
 30
0.0
  0
VERTEX
  5
83F
  8
0
  6
CONTINUOUS
 62
     7
 10
2264.190858753876
 20
2904.876278276701
 30
0.0
  0
VERTEX
  5
840
  8
0
  6
CONTINUOUS
 62
     7
 10
2264.157573567024
 20
2904.840433497612
 30
0.0
  0
VERTEX
  5
841
  8
0
  6
CONTINUOUS
 62
     7
 10
2264.125162102381
 20
2904.803776114771
 30
0.0
  0
VERTEX
  5
842
  8
0
  6
CONTINUOUS
 62
     7
 10
2264.093631298983
 20
2904.766329710716
 30
0.0
  0
VERTEX
  5
843
  8
0
  6
CONTINUOUS
 62
     7
 10
2264.062988095869
 20
2904.728117867987
 30
0.0
  0
VERTEX
  5
844
  8
0
  6
CONTINUOUS
 62
     7
 10
2264.033239432074
 20
2904.68916416912
 30
0.0
  0
VERTEX
  5
845
  8
0
  6
CONTINUOUS
 62
     7
 10
2264.004392246633
 20
2904.649492196653
 30
0.0
  0
VERTEX
  5
846
  8
0
  6
CONTINUOUS
 62
     7
 10
2263.976453478586
 20
2904.609125533125
 30
0.0
  0
VERTEX
  5
847
  8
0
  6
CONTINUOUS
 62
     7
 10
2263.94943335555
 20
2904.568087750481
 30
0.0
  0
VERTEX
  5
848
  8
0
  6
CONTINUOUS
 62
     7
 10
2263.923380198274
 20
2904.526402297973
 30
0.0
  0
VERTEX
  5
849
  8
0
  6
CONTINUOUS
 62
     7
 10
2263.898366838999
 20
2904.484092545906
 30
0.0
  0
VERTEX
  5
84A
  8
0
  6
CONTINUOUS
 62
     7
 10
2263.874466515592
 20
2904.441181863278
 30
0.0
  0
VERTEX
  5
84B
  8
0
  6
CONTINUOUS
 62
     7
 10
2263.851752465921
 20
2904.397693619085
 30
0.0
  0
VERTEX
  5
84C
  8
0
  6
CONTINUOUS
 62
     7
 10
2263.830297927853
 20
2904.353651182328
 30
0.0
  0
VERTEX
  5
84D
  8
0
  6
CONTINUOUS
 62
     7
 10
2263.810176139253
 20
2904.309077922002
 30
0.0
  0
VERTEX
  5
84E
  8
0
  6
CONTINUOUS
 62
     7
 10
2263.791460337991
 20
2904.263997207104
 30
0.0
  0
VERTEX
  5
84F
  8
0
  6
CONTINUOUS
 62
     7
 10
2263.774222778109
 20
2904.218432447522
 30
0.0
  0
VERTEX
  5
850
  8
0
  6
CONTINUOUS
 62
     7
 10
2263.758472677687
 20
2904.172409673032
 30
0.0
  0
VERTEX
  5
851
  8
0
  6
CONTINUOUS
 62
     7
 10
2263.744119172922
 20
2904.125959072991
 30
0.0
  0
VERTEX
  5
852
  8
0
  6
CONTINUOUS
 62
     7
 10
2263.731062506979
 20
2904.079111206366
 30
0.0
  0
VERTEX
  5
853
  8
0
  6
CONTINUOUS
 62
     7
 10
2263.719202923029
 20
2904.031896632127
 30
0.0
  0
VERTEX
  5
854
  8
0
  6
CONTINUOUS
 62
     7
 10
2263.708440664237
 20
2903.98434590924
 30
0.0
  0
VERTEX
  5
855
  8
0
  6
CONTINUOUS
 62
     7
 10
2263.698675973771
 20
2903.936489596674
 30
0.0
  0
VERTEX
  5
856
  8
0
  6
CONTINUOUS
 62
     7
 10
2263.689809094798
 20
2903.888358253396
 30
0.0
  0
VERTEX
  5
857
  8
0
  6
CONTINUOUS
 62
     7
 10
2263.681740270486
 20
2903.839982438376
 30
0.0
  0
VERTEX
  5
858
  8
0
  6
CONTINUOUS
 62
     7
 10
2263.674369744001
 20
2903.791392710579
 30
0.0
  0
VERTEX
  5
859
  8
0
  6
CONTINUOUS
 62
     7
 10
2263.667597758512
 20
2903.742619628974
 30
0.0
  0
VERTEX
  5
85A
  8
0
  6
CONTINUOUS
 62
     7
 10
2263.661324557186
 20
2903.693693752531
 30
0.0
  0
VERTEX
  5
85B
  8
0
  6
CONTINUOUS
 62
     7
 10
2263.655450383191
 20
2903.644645640215
 30
0.0
  0
VERTEX
  5
85C
  8
0
  6
CONTINUOUS
 62
     7
 10
2263.649875479693
 20
2903.595505850995
 30
0.0
  0
VERTEX
  5
85D
  8
0
  6
CONTINUOUS
 62
     7
 10
2263.64450008986
 20
2903.54630494384
 30
0.0
  0
VERTEX
  5
85E
  8
0
  6
CONTINUOUS
 62
     7
 10
2263.63922445686
 20
2903.497073477717
 30
0.0
  0
SEQEND
  5
8BE
  8
0
  6
CONTINUOUS
 62
     7
  0
POLYLINE
  5
1FF
  8
0
  6
CONTINUOUS
 62
     7
 66
     1
 10
0.0
 20
0.0
 30
0.0
  0
VERTEX
  5
85F
  8
0
  6
CONTINUOUS
 62
     7
 10
2283.639224456861
 20
2903.497073477701
 30
0.0
  0
VERTEX
  5
860
  8
0
  6
CONTINUOUS
 62
     7
 10
2283.633949227464
 20
2903.546305131515
 30
0.0
  0
VERTEX
  5
861
  8
0
  6
CONTINUOUS
 62
     7
 10
2283.628574230878
 20
2903.595506221546
 30
0.0
  0
VERTEX
  5
862
  8
0
  6
CONTINUOUS
 62
     7
 10
2283.622999699915
 20
2903.644646184009
 30
0.0
  0
VERTEX
  5
863
  8
0
  6
CONTINUOUS
 62
     7
 10
2283.617125867386
 20
2903.693694455121
 30
0.0
  0
VERTEX
  5
864
  8
0
  6
CONTINUOUS
 62
     7
 10
2283.610852966102
 20
2903.742620471096
 30
0.0
  0
VERTEX
  5
865
  8
0
  6
CONTINUOUS
 62
     7
 10
2283.604081228875
 20
2903.791393668152
 30
0.0
  0
VERTEX
  5
866
  8
0
  6
CONTINUOUS
 62
     7
 10
2283.596710888516
 20
2903.839983482504
 30
0.0
  0
VERTEX
  5
867
  8
0
  6
CONTINUOUS
 62
     7
 10
2283.588642177837
 20
2903.88835935037
 30
0.0
  0
VERTEX
  5
868
  8
0
  6
CONTINUOUS
 62
     7
 10
2283.579775329648
 20
2903.936490707963
 30
0.0
  0
VERTEX
  5
869
  8
0
  6
CONTINUOUS
 62
     7
 10
2283.570010576762
 20
2903.984346991502
 30
0.0
  0
VERTEX
  5
86A
  8
0
  6
CONTINUOUS
 62
     7
 10
2283.55924815199
 20
2904.031897637202
 30
0.0
  0
VERTEX
  5
86B
  8
0
  6
CONTINUOUS
 62
     7
 10
2283.547388288142
 20
2904.079112081279
 30
0.0
  0
VERTEX
  5
86C
  8
0
  6
CONTINUOUS
 62
     7
 10
2283.53433121803
 20
2904.125959759949
 30
0.0
  0
VERTEX
  5
86D
  8
0
  6
CONTINUOUS
 62
     7
 10
2283.519977174467
 20
2904.172410109427
 30
0.0
  0
VERTEX
  5
86E
  8
0
  6
CONTINUOUS
 62
     7
 10
2283.504226390261
 20
2904.218432565931
 30
0.0
  0
VERTEX
  5
86F
  8
0
  6
CONTINUOUS
 62
     7
 10
2283.486987996167
 20
2904.263996937039
 30
0.0
  0
VERTEX
  5
870
  8
0
  6
CONTINUOUS
 62
     7
 10
2283.468271260089
 20
2904.309077209635
 30
0.0
  0
VERTEX
  5
871
  8
0
  6
CONTINUOUS
 62
     7
 10
2283.448148520714
 20
2904.353650002914
 30
0.0
  0
VERTEX
  5
872
  8
0
  6
CONTINUOUS
 62
     7
 10
2283.426693101093
 20
2904.397691977153
 30
0.0
  0
VERTEX
  5
873
  8
0
  6
CONTINUOUS
 62
     7
 10
2283.403978324277
 20
2904.441179792629
 30
0.0
  0
VERTEX
  5
874
  8
0
  6
CONTINUOUS
 62
     7
 10
2283.380077513315
 20
2904.48409010962
 30
0.0
  0
VERTEX
  5
875
  8
0
  6
CONTINUOUS
 62
     7
 10
2283.355063991261
 20
2904.526399588403
 30
0.0
  0
VERTEX
  5
876
  8
0
  6
CONTINUOUS
 62
     7
 10
2283.329011081166
 20
2904.568084889256
 30
0.0
  0
VERTEX
  5
877
  8
0
  6
CONTINUOUS
 62
     7
 10
2283.301991658616
 20
2904.609122670623
 30
0.0
  0
VERTEX
  5
878
  8
0
  6
CONTINUOUS
 62
     7
 10
2283.274053582575
 20
2904.649489488411
 30
0.0
  0
VERTEX
  5
879
  8
0
  6
CONTINUOUS
 62
     7
 10
2283.245206954015
 20
2904.689161743774
 30
0.0
  0
VERTEX
  5
87A
  8
0
  6
CONTINUOUS
 62
     7
 10
2283.215458742025
 20
2904.728115825026
 30
0.0
  0
VERTEX
  5
87B
  8
0
  6
CONTINUOUS
 62
     7
 10
2283.184815915691
 20
2904.766328120484
 30
0.0
  0
VERTEX
  5
87C
  8
0
  6
CONTINUOUS
 62
     7
 10
2283.153285444099
 20
2904.803775018461
 30
0.0
  0
VERTEX
  5
87D
  8
0
  6
CONTINUOUS
 62
     7
 10
2283.120874296338
 20
2904.840432907273
 30
0.0
  0
VERTEX
  5
87E
  8
0
  6
CONTINUOUS
 62
     7
 10
2283.087589441493
 20
2904.876278175236
 30
0.0
  0
VERTEX
  5
87F
  8
0
  6
CONTINUOUS
 62
     7
 10
2283.053437848653
 20
2904.911287210665
 30
0.0
  0
VERTEX
  5
880
  8
0
  6
CONTINUOUS
 62
     7
 10
2283.018429255853
 20
2904.945439180691
 30
0.0
  0
VERTEX
  5
881
  8
0
  6
CONTINUOUS
 62
     7
 10
2282.982584476764
 20
2904.978724367545
 30
0.0
  0
VERTEX
  5
882
  8
0
  6
CONTINUOUS
 62
     7
 10
2282.945927093922
 20
2905.011135832188
 30
0.0
  0
VERTEX
  5
883
  8
0
  6
CONTINUOUS
 62
     7
 10
2282.908480689868
 20
2905.042666635586
 30
0.0
  0
VERTEX
  5
884
  8
0
  6
CONTINUOUS
 62
     7
 10
2282.870268847138
 20
2905.0733098387
 30
0.0
  0
VERTEX
  5
885
  8
0
  6
CONTINUOUS
 62
     7
 10
2282.831315148271
 20
2905.103058502496
 30
0.0
  0
VERTEX
  5
886
  8
0
  6
CONTINUOUS
 62
     7
 10
2282.791643175804
 20
2905.131905687936
 30
0.0
  0
VERTEX
  5
887
  8
0
  6
CONTINUOUS
 62
     7
 10
2282.751276512275
 20
2905.159844455984
 30
0.0
  0
VERTEX
  5
888
  8
0
  6
CONTINUOUS
 62
     7
 10
2282.71023872963
 20
2905.18686457902
 30
0.0
  0
VERTEX
  5
889
  8
0
  6
CONTINUOUS
 62
     7
 10
2282.668553277122
 20
2905.212917736296
 30
0.0
  0
VERTEX
  5
88A
  8
0
  6
CONTINUOUS
 62
     7
 10
2282.626243525056
 20
2905.237931095571
 30
0.0
  0
VERTEX
  5
88B
  8
0
  6
CONTINUOUS
 62
     7
 10
2282.583332842427
 20
2905.261831418977
 30
0.0
  0
VERTEX
  5
88C
  8
0
  6
CONTINUOUS
 62
     7
 10
2282.539844598235
 20
2905.284545468649
 30
0.0
  0
VERTEX
  5
88D
  8
0
  6
CONTINUOUS
 62
     7
 10
2282.495802161477
 20
2905.306000006718
 30
0.0
  0
VERTEX
  5
88E
  8
0
  6
CONTINUOUS
 62
     7
 10
2282.45122890115
 20
2905.326121795317
 30
0.0
  0
VERTEX
  5
88F
  8
0
  6
CONTINUOUS
 62
     7
 10
2282.406148186252
 20
2905.344837596579
 30
0.0
  0
VERTEX
  5
890
  8
0
  6
CONTINUOUS
 62
     7
 10
2282.36058342667
 20
2905.362075156461
 30
0.0
  0
VERTEX
  5
891
  8
0
  6
CONTINUOUS
 62
     7
 10
2282.314560652179
 20
2905.377825256882
 30
0.0
  0
VERTEX
  5
892
  8
0
  6
CONTINUOUS
 62
     7
 10
2282.268110052138
 20
2905.392178761647
 30
0.0
  0
VERTEX
  5
893
  8
0
  6
CONTINUOUS
 62
     7
 10
2282.221262185514
 20
2905.405235427589
 30
0.0
  0
VERTEX
  5
894
  8
0
  6
CONTINUOUS
 62
     7
 10
2282.174047611275
 20
2905.41709501154
 30
0.0
  0
VERTEX
  5
895
  8
0
  6
CONTINUOUS
 62
     7
 10
2282.126496888387
 20
2905.427857270332
 30
0.0
  0
VERTEX
  5
896
  8
0
  6
CONTINUOUS
 62
     7
 10
2282.07864057582
 20
2905.437621960799
 30
0.0
  0
VERTEX
  5
897
  8
0
  6
CONTINUOUS
 62
     7
 10
2282.030509232542
 20
2905.446488839772
 30
0.0
  0
VERTEX
  5
898
  8
0
  6
CONTINUOUS
 62
     7
 10
2281.982133417521
 20
2905.454557664085
 30
0.0
  0
VERTEX
  5
899
  8
0
  6
CONTINUOUS
 62
     7
 10
2281.933543689725
 20
2905.461928190569
 30
0.0
  0
VERTEX
  5
89A
  8
0
  6
CONTINUOUS
 62
     7
 10
2281.88477060812
 20
2905.468700176058
 30
0.0
  0
VERTEX
  5
89B
  8
0
  6
CONTINUOUS
 62
     7
 10
2281.835844731676
 20
2905.474973377384
 30
0.0
  0
VERTEX
  5
89C
  8
0
  6
CONTINUOUS
 62
     7
 10
2281.78679661936
 20
2905.48084755138
 30
0.0
  0
VERTEX
  5
89D
  8
0
  6
CONTINUOUS
 62
     7
 10
2281.73765683014
 20
2905.486422454877
 30
0.0
  0
VERTEX
  5
89E
  8
0
  6
CONTINUOUS
 62
     7
 10
2281.688455922985
 20
2905.491797844711
 30
0.0
  0
VERTEX
  5
89F
  8
0
  6
CONTINUOUS
 62
     7
 10
2281.639224456861
 20
2905.497073477711
 30
0.0
  0
SEQEND
  5
8BF
  8
0
  6
CONTINUOUS
 62
     7
  0
LINE
  5
200
  8
0
  6
CONTINUOUS
 62
     7
 10
2262.63922445686
 20
2903.297073477717
 30
0.0
 11
2262.63922445686
 21
2903.497073477718
 31
0.0
  0
LINE
  5
201
  8
0
  6
CONTINUOUS
 62
     7
 10
2262.63922445686
 20
2903.497073477718
 30
0.0
 11
2263.63922445686
 21
2903.497073477717
 31
0.0
  0
LINE
  5
202
  8
0
  6
CONTINUOUS
 62
     7
 10
2284.639224456862
 20
2903.29707347771
 30
0.0
 11
2284.639224456861
 21
2903.497073477709
 31
0.0
  0
LINE
  5
203
  8
0
  6
CONTINUOUS
 62
     7
 10
2283.639224456861
 20
2903.497073477701
 30
0.0
 11
2284.639224456861
 21
2903.497073477709
 31
0.0
  0
ARC
  5
204
  8
0
  6
CONTINUOUS
 62
     7
 10
2265.63922445686
 20
2903.497073477698
 30
0.0
 40
3.0
 50
129.9445051892948
 51
179.9999999996351
  0
ARC
  5
205
  8
0
  6
CONTINUOUS
 62
     7
 10
2281.639224456862
 20
2903.497073477708
 30
0.0
 40
2.999999999999601
 50
0.0000000000313143
 51
50.05549481041606
  0
LINE
  5
206
  8
0
  6
CONTINUOUS
 62
     7
 10
2262.639224456861
 20
2903.797073477717
 30
0.0
 11
2248.451549703067
 21
2903.797073477718
 31
0.0
  0
LINE
  5
207
  8
0
  6
CONTINUOUS
 62
     7
 10
2248.451549703067
 20
2903.797073477718
 30
0.0
 11
2248.451549703067
 21
2903.297073477719
 31
0.0
  0
LINE
  5
208
  8
0
  6
CONTINUOUS
 62
     7
 10
2262.63922445686
 20
2903.497073477717
 30
0.0
 11
2262.639224456861
 21
2903.797073477717
 31
0.0
  0
LINE
  5
209
  8
0
  6
CONTINUOUS
 62
     7
 10
2260.602728856255
 20
2905.797073477716
 30
0.0
 11
2260.556624144287
 21
2903.79707347771
 31
0.0
  0
LINE
  5
20A
  8
0
  6
CONTINUOUS
 62
     7
 10
2261.856969515634
 20
2903.797073477708
 30
0.0
 11
2261.903074227603
 21
2905.797073477716
 31
0.0
  0
LINE
  5
20B
  8
0
  6
CONTINUOUS
 62
     7
 10
2600.139224452523
 20
3035.297073477716
 30
0.0
 11
2260.139224452523
 21
3035.297073477716
 31
0.0
  0
LINE
  5
20C
  8
0
  6
CONTINUOUS
 62
     7
 10
2600.139224452523
 20
2905.797073477716
 30
0.0
 11
2260.139224452523
 21
2905.797073477716
 31
0.0
  0
LINE
  5
20D
  8
0
  6
CONTINUOUS
 62
     8
 10
2281.639224456861
 20
2905.497073477711
 30
0.0
 11
2281.639224456861
 21
2905.797073477716
 31
0.0
  0
LINE
  5
20E
  8
0
  6
CONTINUOUS
 62
     8
 10
2265.639224456861
 20
2905.797073477716
 30
0.0
 11
2265.639224456861
 21
2905.497073477698
 31
0.0
  0
ENDSEC
  0
EOF
