  0
SECTION
  2
HEADER
  9
$ACADVER
  1
AC1006
  9
$DWGCODEPAGE
  3
dos932
  9
$INSBASE
 10
0.0
 20
0.0
 30
0.0
  9
$EXTMIN
 10
0.0
 20
0.0
  9
$EXTMAX
 10
5000.0
 20
3500.0
  9
$LIMMIN
 10
0.0
 20
0.0
  9
$LIMMAX
 10
5000.0
 20
3500.0
  9
$ORTHOMODE
 70
     0
  9
$REGENMODE
 70
     1
  9
$FILLMODE
 70
     1
  9
$QTEXTMODE
 70
     0
  9
$MIRRTEXT
 70
     1
  9
$DRAGMODE
 70
     2
  9
$LTSCALE
 40
1.0
  9
$OSMODE
 70
    37
  9
$ATTMODE
 70
     1
  9
$TEXTSIZE
 40
3.5
  9
$TRACEWID
 40
1.0
  9
$TEXTSTYLE
  7
STANDARD
  9
$CLAYER
  8
0
  9
$CELTYPE
  6
BYLAYER
  9
$CECOLOR
 62
   256
  9
$DIMSCALE
 40
1.0
  9
$DIMASZ
 40
3.302
  9
$DIMEXO
 40
1.0
  9
$DIMDLI
 40
3.75
  9
$DIMRND
 40
0.0
  9
$DIMDLE
 40
0.0
  9
$DIMEXE
 40
1.0
  9
$DIMTP
 40
0.0
  9
$DIMTM
 40
0.0
  9
$DIMTXT
 40
3.5
  9
$DIMCEN
 40
2.5
  9
$DIMTSZ
 40
0.0
  9
$DIMTOL
 70
     0
  9
$DIMLIM
 70
     0
  9
$DIMTIH
 70
     1
  9
$DIMTOH
 70
     1
  9
$DIMSE1
 70
     0
  9
$DIMSE2
 70
     0
  9
$DIMTAD
 70
     1
  9
$DIMZIN
 70
     0
  9
$DIMBLK
  1

  9
$DIMASO
 70
     1
  9
$DIMSHO
 70
     1
  9
$DIMPOST
  1

  9
$DIMAPOST
  1

  9
$DIMALT
 70
     0
  9
$DIMALTD
 70
     3
  9
$DIMALTF
 40
0.0393700787401575
  9
$DIMLFAC
 40
1.0
  9
$DIMTOFL
 70
     1
  9
$DIMTVP
 40
0.0
  9
$DIMTIX
 70
     0
  9
$DIMSOXD
 70
     0
  9
$DIMSAH
 70
     0
  9
$DIMBLK1
  1

  9
$DIMBLK2
  1

  9
$LUNITS
 70
     2
  9
$LUPREC
 70
     3
  9
$SKETCHINC
 40
1.0
  9
$FILLETRAD
 40
10.0
  9
$AUNITS
 70
     0
  9
$AUPREC
 70
     2
  9
$MENU
  1
.
  9
$ELEVATION
 40
0.0
  9
$THICKNESS
 40
0.0
  9
$LIMCHECK
 70
     0
  9
$CHAMFERA
 40
0.0
  9
$CHAMFERB
 40
0.0
  9
$SKPOLY
 70
     0
  9
$TDCREATE
 40
2459868.376723646
  9
$TDUPDATE
 40
2460139.352148253
  9
$TDINDWG
 40
0.0000000116
  9
$TDUSRTIMER
 40
0.0000000116
  9
$USRTIMER
 70
     1
  9
$ANGBASE
 50
0.0
  9
$ANGDIR
 70
     0
  9
$PDMODE
 70
     0
  9
$PDSIZE
 40
-1.0
  9
$PLINEWID
 40
0.0
  9
$COORDS
 70
     1
  9
$SPLFRAME
 70
     0
  9
$SPLINETYPE
 70
     6
  9
$SPLINESEGS
 70
     8
  9
$ATTDIA
 70
     0
  9
$ATTREQ
 70
     1
  9
$HANDLING
 70
     1
  9
$HANDSEED
  5
7EB
  9
$SURFTAB1
 70
     6
  9
$SURFTAB2
 70
     6
  9
$SURFTYPE
 70
     6
  9
$SURFU
 70
     6
  9
$SURFV
 70
     6
  9
$UCSNAME
  2

  9
$UCSORG
 10
0.0
 20
0.0
 30
0.0
  9
$UCSXDIR
 10
1.0
 20
0.0
 30
0.0
  9
$UCSYDIR
 10
0.0
 20
1.0
 30
0.0
  9
$USERI1
 70
     0
  9
$USERI2
 70
     0
  9
$USERI3
 70
     0
  9
$USERI4
 70
     0
  9
$USERI5
 70
     0
  9
$USERR1
 40
0.0
  9
$USERR2
 40
0.0
  9
$USERR3
 40
0.0
  9
$USERR4
 40
0.0
  9
$USERR5
 40
0.0
  9
$WORLDVIEW
 70
     1
  0
ENDSEC
  0
SECTION
  2
TABLES
  0
TABLE
  2
VPORT
 70
     1
  0
VPORT
  2
*ACTIVE
 70
     0
 10
0.0
 20
0.0
 11
1.0
 21
1.0
 12
2500.0
 22
1750.0
 13
0.0
 23
0.0
 14
10.0
 24
10.0
 15
10.0
 25
10.0
 16
0.0
 26
0.0
 36
1.0
 17
0.0
 27
0.0
 37
0.0
 40
3500.0
 41
1.428571428571429
 42
50.0
 43
0.0
 44
0.0
 50
0.0
 51
0.0
 71
     0
 72
  2000
 73
     1
 74
     3
 75
     0
 76
     0
 77
     0
 78
     0
  0
ENDTAB
  0
TABLE
  2
LTYPE
 70
     6
  0
LTYPE
  2
CONTINUOUS
 70
     0
  3
Solid line
 72
    65
 73
     0
 40
0.0
  0
LTYPE
  2
HIDDEN
 70
     0
  3
Hidden __ __ __ __ __ __ __ __ __ __ __ __ __ __
 72
    65
 73
     2
 40
1.905
 49
1.27
 49
-0.635
  0
LTYPE
  2
PHANTOM
 70
     0
  3
Phantom ______  __  __  ______  __  __  ______
 72
    65
 73
     6
 40
12.7
 49
6.35
 49
-1.27
 49
1.27
 49
-1.27
 49
1.27
 49
-1.27
  0
LTYPE
  2
CENTER
 70
     0
  3
Center ____ _ ____ _ ____ _ ____ _ ____ _ ____
 72
    65
 73
     4
 40
10.16
 49
6.35
 49
-1.27
 49
1.27
 49
-1.27
  0
LTYPE
  2
CENTERX2
 70
     0
  3
Center (2x) ________  __  ________  __  _____
 72
    65
 73
     4
 40
20.32
 49
12.7
 49
-2.54
 49
2.54
 49
-2.54
  0
LTYPE
  2
DOT2
 70
     0
  3
Dot (.5x) ........................................
 72
    65
 73
     2
 40
0.635
 49
0.0
 49
-0.635
  0
ENDTAB
  0
TABLE
  2
LAYER
 70
     3
  0
LAYER
  2
0
 70
     0
 62
     7
  6
CONTINUOUS
  0
LAYER
  2
SLD-0
 70
     0
 62
   179
  6
CONTINUOUS
  0
LAYER
  2
寸法
 70
     0
 62
   179
  6
CONTINUOUS
  0
ENDTAB
  0
TABLE
  2
STYLE
 70
     2
  0
STYLE
  2
STANDARD
 70
     0
 40
0.0
 41
1.0
 50
0.0
 71
     0
 42
3.5
  3
txt
  4
bigfont
  0
STYLE
  2
SLDTEXTSTYLE0
 70
     0
 40
0.0
 41
0.75
 50
0.0
 71
     0
 42
3.5
  3
TXT
  4
bigfont
  0
ENDTAB
  0
TABLE
  2
VIEW
 70
     0
  0
ENDTAB
  0
TABLE
  2
UCS
 70
     0
  0
ENDTAB
  0
ENDSEC
  0
SECTION
  2
BLOCKS
  0
ENDSEC
  0
SECTION
  2
ENTITIES
  0
LINE
  5
75
  8
0
  6
CONTINUOUS
 62
     7
 10
4801.663086450988
 20
279.1403827252221
 30
0.0
 11
3345.906222050112
 21
279.1403827252221
 31
0.0
  0
TEXT
  5
77
  8
0
  6
CONTINUOUS
 62
     7
 10
1830.834345569533
 20
2508.347429666146
 30
0.0
 40
52.91666666666666
  1
＜正面＞
 41
0.75
  7
SLDTEXTSTYLE0
  0
TEXT
  5
78
  8
0
  6
CONTINUOUS
 62
     7
 10
3377.814243189123
 20
326.489054196763
 30
0.0
 40
52.91666666666666
  1
品名：
 41
0.75
  7
SLDTEXTSTYLE0
  0
TEXT
  5
79
  8
0
  6
CONTINUOUS
 62
     7
 10
4446.663437481703
 20
332.3177187478654
 30
0.0
 40
52.91666666666666
  1
Pamouna
 41
0.75
  7
SLDTEXTSTYLE0
  0
TEXT
  5
7A
  8
寸法
  6
CONTINUOUS
 62
     7
 10
4688.007304885427
 20
165.7088516276312
 30
0.0
 40
52.91666666666666
  1
1/1
 41
0.75
  7
SLDTEXTSTYLE0
  0
TEXT
  5
7B
  8
寸法
  6
CONTINUOUS
 62
     7
 10
3611.283129349216
 20
332.2465883182592
 30
0.0
 40
66.14583333333331
  1
MA-NT750E
 41
0.75
  7
SLDTEXTSTYLE0
  0
TEXT
  5
7C
  8
寸法
  6
CONTINUOUS
 62
     7
 10
4198.79693921183
 20
165.7088544215994
 30
0.0
 40
52.91666666666666
  1
2022/10/15
 41
0.75
  7
SLDTEXTSTYLE0
  0
TEXT
  5
7D
  8
寸法
  6
CONTINUOUS
 62
     7
 10
3675.466126650375
 20
2500.297128789739
 30
0.0
 40
52.91666666666666
  1
＜右側面＞
 41
0.75
  7
SLDTEXTSTYLE0
  0
TEXT
  5
7E
  8
0
  6
CONTINUOUS
 62
     7
 10
682.5718587193734
 20
2495.347896067605
 30
0.0
 40
52.91666666666666
  1
＜左側面＞
 41
0.75
  7
SLDTEXTSTYLE0
  0
TEXT
  5
7F
  8
0
  6
CONTINUOUS
 62
     7
 10
1852.546908235583
 20
3146.642747282924
 30
0.0
 40
52.91666666666666
  1
＜上面＞
 41
0.75
  7
SLDTEXTSTYLE0
  0
LINE
  5
80
  8
0
  6
CONTINUOUS
 62
     7
 10
2624.554975482504
 20
2355.68675069826
 30
0.0
 11
2252.554975482505
 21
2355.68675069826
 31
0.0
  0
LINE
  5
81
  8
0
  6
CONTINUOUS
 62
     7
 10
2624.554975482504
 20
609.6867506982603
 30
0.0
 11
2624.554975482504
 21
2355.68675069826
 31
0.0
  0
LINE
  5
82
  8
0
  6
CONTINUOUS
 62
     7
 10
2252.554975482505
 20
609.6867506982603
 30
0.0
 11
2624.554975482504
 21
609.6867506982603
 31
0.0
  0
LINE
  5
83
  8
0
  6
CONTINUOUS
 62
     7
 10
2252.554975482505
 20
2355.68675069826
 30
0.0
 11
2252.554975482505
 21
609.6867506982603
 31
0.0
  0
LINE
  5
84
  8
0
  6
CONTINUOUS
 62
     7
 10
2626.054975482504
 20
2357.68675069826
 30
0.0
 11
2608.554975482504
 21
2357.68675069826
 31
0.0
  0
LINE
  5
85
  8
0
  6
CONTINUOUS
 62
     7
 10
2626.054975482504
 20
607.68675069826
 30
0.0
 11
2626.054975482504
 21
2357.68675069826
 31
0.0
  0
LINE
  5
86
  8
0
  6
CONTINUOUS
 62
     7
 10
2608.554975482504
 20
607.68675069826
 30
0.0
 11
2626.054975482504
 21
607.68675069826
 31
0.0
  0
LINE
  5
87
  8
0
  6
CONTINUOUS
 62
     7
 10
2608.554975482504
 20
2357.68675069826
 30
0.0
 11
2608.554975482504
 21
2355.68675069826
 31
0.0
  0
LINE
  5
88
  8
0
  6
CONTINUOUS
 62
     7
 10
2608.554975482504
 20
609.6867506982603
 30
0.0
 11
2608.554975482504
 21
607.68675069826
 31
0.0
  0
LINE
  5
89
  8
0
  6
CONTINUOUS
 62
     7
 10
2249.554975482504
 20
2181.630879477604
 30
0.0
 11
2252.554975482505
 21
2181.630879477604
 31
0.0
  0
LINE
  5
8A
  8
0
  6
CONTINUOUS
 62
     7
 10
2252.554975482505
 20
2198.630879477603
 30
0.0
 11
2249.554975482504
 21
2198.630879477603
 31
0.0
  0
LINE
  5
8B
  8
0
  6
CONTINUOUS
 62
     7
 10
2252.554975482505
 20
868.144377294848
 30
0.0
 11
2249.554975482504
 21
868.144377294848
 31
0.0
  0
LINE
  5
8C
  8
0
  6
CONTINUOUS
 62
     7
 10
2249.554975482504
 20
851.1443772948481
 30
0.0
 11
2252.554975482505
 21
851.1443772948481
 31
0.0
  0
LINE
  5
8D
  8
0
  6
CONTINUOUS
 62
     7
 10
2252.554975482505
 20
1982.726758348078
 30
0.0
 11
2249.554975482504
 21
1982.726758348078
 31
0.0
  0
LINE
  5
8E
  8
0
  6
CONTINUOUS
 62
     7
 10
2249.554975482504
 20
1965.726758348078
 30
0.0
 11
2252.554975482505
 21
1965.726758348078
 31
0.0
  0
LINE
  5
8F
  8
0
  6
CONTINUOUS
 62
     7
 10
2252.554975482505
 20
1188.812720313646
 30
0.0
 11
2249.554975482504
 21
1188.812720313646
 31
0.0
  0
LINE
  5
90
  8
0
  6
CONTINUOUS
 62
     7
 10
2249.554975482504
 20
1171.812720313646
 30
0.0
 11
2252.554975482505
 21
1171.812720313646
 31
0.0
  0
LINE
  5
91
  8
0
  6
CONTINUOUS
 62
     7
 10
2249.554975482504
 20
1663.921861270702
 30
0.0
 11
2252.554975482505
 21
1663.921861270702
 31
0.0
  0
LINE
  5
92
  8
0
  6
CONTINUOUS
 62
     7
 10
2252.554975482505
 20
1680.921861270702
 30
0.0
 11
2249.554975482504
 21
1680.921861270702
 31
0.0
  0
LINE
  5
93
  8
0
  6
CONTINUOUS
 62
     7
 10
1877.554975482504
 20
2355.686750698259
 30
0.0
 11
1877.554975482504
 21
609.6867506982599
 31
0.0
  0
LINE
  5
94
  8
0
  6
CONTINUOUS
 62
     7
 10
2249.554975482504
 20
2355.686750698259
 30
0.0
 11
1877.554975482504
 21
2355.686750698259
 31
0.0
  0
LINE
  5
95
  8
0
  6
CONTINUOUS
 62
     7
 10
2249.554975482504
 20
609.6867506982599
 30
0.0
 11
2249.554975482504
 21
2355.686750698259
 31
0.0
  0
LINE
  5
96
  8
0
  6
CONTINUOUS
 62
     7
 10
1877.554975482504
 20
609.6867506982599
 30
0.0
 11
2249.554975482504
 21
609.6867506982599
 31
0.0
  0
LINE
  5
97
  8
0
  6
CONTINUOUS
 62
     7
 10
1893.554975482504
 20
2357.68675069826
 30
0.0
 11
1876.054975482504
 21
2357.68675069826
 31
0.0
  0
LINE
  5
98
  8
0
  6
CONTINUOUS
 62
     7
 10
1893.554975482504
 20
607.68675069826
 30
0.0
 11
1893.554975482504
 21
609.6867506982599
 31
0.0
  0
LINE
  5
99
  8
0
  6
CONTINUOUS
 62
     7
 10
1893.554975482504
 20
2355.686750698259
 30
0.0
 11
1893.554975482504
 21
2357.68675069826
 31
0.0
  0
LINE
  5
9A
  8
0
  6
CONTINUOUS
 62
     7
 10
1876.054975482504
 20
607.68675069826
 30
0.0
 11
1893.554975482504
 21
607.68675069826
 31
0.0
  0
LINE
  5
9B
  8
0
  6
CONTINUOUS
 62
     7
 10
1876.054975482504
 20
2357.68675069826
 30
0.0
 11
1876.054975482504
 21
607.68675069826
 31
0.0
  0
LINE
  5
9C
  8
0
  6
CONTINUOUS
 62
     7
 10
2252.554975482505
 20
1457.18675069826
 30
0.0
 11
2249.554975482504
 21
1457.18675069826
 31
0.0
  0
LINE
  5
9D
  8
0
  6
CONTINUOUS
 62
     7
 10
2252.554975482505
 20
1439.68675069826
 30
0.0
 11
2249.554975482504
 21
1439.68675069826
 31
0.0
  0
LINE
  5
9E
  8
0
  6
CONTINUOUS
 62
     7
 10
2252.554975482505
 20
2339.43675069826
 30
0.0
 11
2249.554975482504
 21
2339.43675069826
 31
0.0
  0
LINE
  5
9F
  8
0
  6
CONTINUOUS
 62
     7
 10
2249.554975482504
 20
1457.43675069826
 30
0.0
 11
2252.554975482505
 21
1457.43675069826
 31
0.0
  0
LINE
  5
A0
  8
0
  6
CONTINUOUS
 62
     7
 10
2252.554975482505
 20
1439.43675069826
 30
0.0
 11
2249.554975482504
 21
1439.43675069826
 31
0.0
  0
LINE
  5
A1
  8
0
  6
CONTINUOUS
 62
     7
 10
2249.554975482504
 20
625.9367506982601
 30
0.0
 11
2252.554975482505
 21
625.9367506982601
 31
0.0
  0
LINE
  5
A2
  8
0
  6
CONTINUOUS
 62
     7
 10
2252.554975482505
 20
625.68675069826
 30
0.0
 11
2249.554975482504
 21
625.68675069826
 31
0.0
  0
LINE
  5
A3
  8
0
  6
CONTINUOUS
 62
     7
 10
2608.554975482504
 20
608.1867506982599
 30
0.0
 11
1893.554975482504
 21
608.1867506982599
 31
0.0
  0
LINE
  5
A4
  8
0
  6
CONTINUOUS
 62
     7
 10
2608.554975482504
 20
2357.18675069826
 30
0.0
 11
1893.554975482504
 21
2357.18675069826
 31
0.0
  0
LINE
  5
A5
  8
0
  6
CONTINUOUS
 62
     7
 10
2252.554975482505
 20
2339.68675069826
 30
0.0
 11
2249.554975482504
 21
2339.68675069826
 31
0.0
  0
LINE
  5
A6
  8
0
  6
CONTINUOUS
 62
     7
 10
948.5165600276096
 20
1769.18675069826
 30
0.0
 11
946.5165600276096
 21
1769.18675069826
 31
0.0
  0
LINE
  5
A7
  8
0
  6
CONTINUOUS
 62
     7
 10
946.5165600276096
 20
1734.18675069826
 30
0.0
 11
948.5165600276096
 21
1734.18675069826
 31
0.0
  0
LINE
  5
A8
  8
0
  6
CONTINUOUS
 62
     7
 10
946.5165600276096
 20
2224.68675069826
 30
0.0
 11
948.5165600276096
 21
2224.68675069826
 31
0.0
  0
LINE
  5
A9
  8
0
  6
CONTINUOUS
 62
     7
 10
948.5165600276096
 20
796.6867506982599
 30
0.0
 11
946.5165600276096
 21
796.6867506982599
 31
0.0
  0
LINE
  5
AA
  8
0
  6
CONTINUOUS
 62
     7
 10
948.5165600276096
 20
1287.18675069826
 30
0.0
 11
946.5165600276096
 21
1287.18675069826
 31
0.0
  0
LINE
  5
AB
  8
0
  6
CONTINUOUS
 62
     7
 10
946.5165600276096
 20
1252.18675069826
 30
0.0
 11
948.5165600276096
 21
1252.18675069826
 31
0.0
  0
LINE
  5
AC
  8
0
  6
CONTINUOUS
 62
     7
 10
946.6513751025567
 20
1518.061750698259
 30
0.0
 11
946.6513751025561
 21
1517.136750698258
 31
0.0
  0
LINE
  5
AD
  8
0
  6
CONTINUOUS
 62
     7
 10
946.6513751025473
 20
1502.236750698257
 30
0.0
 11
946.6513751025467
 21
1501.311750698258
 31
0.0
  0
LINE
  5
AE
  8
0
  6
CONTINUOUS
 62
     7
 10
946.6513751025467
 20
1501.311750698258
 30
0.0
 11
946.5165600276097
 21
1501.311750698258
 31
0.0
  0
LINE
  5
AF
  8
0
  6
CONTINUOUS
 62
     7
 10
946.5165600276097
 20
1518.061750698259
 30
0.0
 11
946.6513751025567
 21
1518.061750698259
 31
0.0
  0
LINE
  5
B0
  8
0
  6
CONTINUOUS
 62
     7
 10
948.016560027618
 20
1501.311750698258
 30
0.0
 11
946.6513751025467
 21
1501.311750698258
 31
0.0
  0
LINE
  5
B1
  8
0
  6
CONTINUOUS
 62
     7
 10
946.6513751025567
 20
1518.061750698259
 30
0.0
 11
948.016560027608
 21
1518.061750698259
 31
0.0
  0
LINE
  5
B2
  8
0
  6
CONTINUOUS
 62
     7
 10
946.6513751025567
 20
698.0617506982591
 30
0.0
 11
946.6513751025561
 21
697.136750698258
 31
0.0
  0
LINE
  5
B3
  8
0
  6
CONTINUOUS
 62
     7
 10
946.6513751025473
 20
682.2367506982571
 30
0.0
 11
946.6513751025467
 21
681.3117506982582
 31
0.0
  0
LINE
  5
B4
  8
0
  6
CONTINUOUS
 62
     7
 10
946.6513751025467
 20
681.3117506982582
 30
0.0
 11
946.5165600276097
 21
681.3117506982583
 31
0.0
  0
LINE
  5
B5
  8
0
  6
CONTINUOUS
 62
     7
 10
946.5165600276097
 20
698.0617506982587
 30
0.0
 11
946.6513751025567
 21
698.0617506982591
 31
0.0
  0
LINE
  5
B6
  8
0
  6
CONTINUOUS
 62
     7
 10
948.0165600276208
 20
681.3117506982584
 30
0.0
 11
946.6513751025467
 21
681.3117506982582
 31
0.0
  0
LINE
  5
B7
  8
0
  6
CONTINUOUS
 62
     7
 10
946.6513751025567
 20
698.0617506982591
 30
0.0
 11
948.016560027608
 21
698.0617506982587
 31
0.0
  0
LINE
  5
B8
  8
0
  6
CONTINUOUS
 62
     7
 10
946.6513751025567
 20
2284.061750698259
 30
0.0
 11
946.6513751025561
 21
2283.136750698258
 31
0.0
  0
LINE
  5
B9
  8
0
  6
CONTINUOUS
 62
     7
 10
946.6513751025473
 20
2268.236750698257
 30
0.0
 11
946.6513751025467
 21
2267.311750698258
 31
0.0
  0
LINE
  5
BA
  8
0
  6
CONTINUOUS
 62
     7
 10
946.6513751025467
 20
2267.311750698258
 30
0.0
 11
946.5165600276097
 21
2267.311750698258
 31
0.0
  0
LINE
  5
BB
  8
0
  6
CONTINUOUS
 62
     7
 10
946.5165600276097
 20
2284.061750698258
 30
0.0
 11
946.6513751025567
 21
2284.061750698259
 31
0.0
  0
LINE
  5
BC
  8
0
  6
CONTINUOUS
 62
     7
 10
948.0165600276208
 20
2267.311750698258
 30
0.0
 11
946.6513751025467
 21
2267.311750698258
 31
0.0
  0
LINE
  5
BD
  8
0
  6
CONTINUOUS
 62
     7
 10
946.6513751025567
 20
2284.061750698259
 30
0.0
 11
948.016560027608
 21
2284.061750698258
 31
0.0
  0
LINE
  5
BE
  8
0
  6
CONTINUOUS
 62
     7
 10
948.0165600276082
 20
698.6427088373176
 30
0.0
 11
948.5165600276097
 21
698.642708837318
 31
0.0
  0
LINE
  5
BF
  8
0
  6
CONTINUOUS
 62
     7
 10
948.0165600276073
 20
697.0867506980253
 30
0.0
 11
948.5165600276072
 21
697.0867506980253
 31
0.0
  0
LINE
  5
C0
  8
0
  6
CONTINUOUS
 62
     7
 10
948.0165600276073
 20
697.0867506980253
 30
0.0
 11
948.0165600276082
 21
698.6427088373176
 31
0.0
  0
LINE
  5
C1
  8
0
  6
CONTINUOUS
 62
     7
 10
948.5165600276097
 20
680.7307925591889
 30
0.0
 11
948.0165600276149
 21
680.73079255919
 31
0.0
  0
LINE
  5
C2
  8
0
  6
CONTINUOUS
 62
     7
 10
948.0165600276149
 20
680.73079255919
 30
0.0
 11
948.016560027623
 21
682.2867506984763
 31
0.0
  0
LINE
  5
C3
  8
0
  6
CONTINUOUS
 62
     7
 10
948.516560027623
 20
682.2867506984763
 30
0.0
 11
948.016560027623
 21
682.2867506984763
 31
0.0
  0
LINE
  5
C4
  8
0
  6
CONTINUOUS
 62
     7
 10
948.3165600276093
 20
708.07832485601
 30
0.0
 11
948.0165600276091
 21
708.07832485601
 31
0.0
  0
LINE
  5
C5
  8
0
  6
CONTINUOUS
 62
     7
 10
948.5165600276093
 20
708.07832485601
 30
0.0
 11
948.3165600276093
 21
708.07832485601
 31
0.0
  0
LINE
  5
C6
  8
0
  6
CONTINUOUS
 62
     7
 10
948.0165600276091
 20
708.07832485601
 30
0.0
 11
948.0165600276082
 21
698.6427088373176
 31
0.0
  0
LINE
  5
C7
  8
0
  6
CONTINUOUS
 62
     7
 10
948.316560027615
 20
671.2951765405105
 30
0.0
 11
948.516560027615
 21
671.2951765405105
 31
0.0
  0
LINE
  5
C8
  8
0
  6
CONTINUOUS
 62
     7
 10
948.016560027615
 20
671.2951765405105
 30
0.0
 11
948.316560027615
 21
671.2951765405105
 31
0.0
  0
LINE
  5
C9
  8
0
  6
CONTINUOUS
 62
     7
 10
948.0165600276149
 20
680.73079255919
 30
0.0
 11
948.016560027615
 21
671.2951765405105
 31
0.0
  0
POLYLINE
  5
CA
  8
0
  6
CONTINUOUS
 62
     7
 10
0.0
 20
0.0
 30
0.0
 66
     1
 70
     8
  0
VERTEX
  5
263
  8
0
  6
CONTINUOUS
 62
     7
 10
946.5165600276097
 20
718.1867506982592
 30
0.0
 70
    32
  0
VERTEX
  5
264
  8
0
  6
CONTINUOUS
 62
     7
 10
946.533828852989
 20
718.1867506982592
 30
0.0
 70
    32
  0
VERTEX
  5
265
  8
0
  6
CONTINUOUS
 62
     7
 10
946.5512539364596
 20
718.1867506982591
 30
0.0
 70
    32
  0
VERTEX
  5
266
  8
0
  6
CONTINUOUS
 62
     7
 10
946.5689915361133
 20
718.1867506982592
 30
0.0
 70
    32
  0
VERTEX
  5
267
  8
0
  6
CONTINUOUS
 62
     7
 10
946.5871979100408
 20
718.1867506982592
 30
0.0
 70
    32
  0
VERTEX
  5
268
  8
0
  6
CONTINUOUS
 62
     7
 10
946.606029316334
 20
718.1867506982591
 30
0.0
 70
    32
  0
VERTEX
  5
269
  8
0
  6
CONTINUOUS
 62
     7
 10
946.625642013084
 20
718.1867506982593
 30
0.0
 70
    32
  0
VERTEX
  5
26A
  8
0
  6
CONTINUOUS
 62
     7
 10
946.6461922363726
 20
718.1867506982592
 30
0.0
 70
    32
  0
VERTEX
  5
26B
  8
0
  6
CONTINUOUS
 62
     7
 10
946.6677900239914
 20
718.1867506982591
 30
0.0
 70
    32
  0
VERTEX
  5
26C
  8
0
  6
CONTINUOUS
 62
     7
 10
946.6904018193123
 20
718.1867506982592
 30
0.0
 70
    32
  0
VERTEX
  5
26D
  8
0
  6
CONTINUOUS
 62
     7
 10
946.7139662480937
 20
718.1867506982592
 30
0.0
 70
    32
  0
VERTEX
  5
26E
  8
0
  6
CONTINUOUS
 62
     7
 10
946.7384219360943
 20
718.1867506982592
 30
0.0
 70
    32
  0
VERTEX
  5
26F
  8
0
  6
CONTINUOUS
 62
     7
 10
946.7637075090727
 20
718.1867506982592
 30
0.0
 70
    32
  0
VERTEX
  5
270
  8
0
  6
CONTINUOUS
 62
     7
 10
946.7897615927875
 20
718.1867506982592
 30
0.0
 70
    32
  0
VERTEX
  5
271
  8
0
  6
CONTINUOUS
 62
     7
 10
946.8165228129977
 20
718.1867506982593
 30
0.0
 70
    32
  0
VERTEX
  5
272
  8
0
  6
CONTINUOUS
 62
     7
 10
946.8439297954617
 20
718.1867506982593
 30
0.0
 70
    32
  0
VERTEX
  5
273
  8
0
  6
CONTINUOUS
 62
     7
 10
946.8719211659383
 20
718.1867506982592
 30
0.0
 70
    32
  0
VERTEX
  5
274
  8
0
  6
CONTINUOUS
 62
     7
 10
946.9004355501861
 20
718.1867506982592
 30
0.0
 70
    32
  0
VERTEX
  5
275
  8
0
  6
CONTINUOUS
 62
     7
 10
946.9294202010398
 20
718.1867506982593
 30
0.0
 70
    32
  0
VERTEX
  5
276
  8
0
  6
CONTINUOUS
 62
     7
 10
946.95886450992
 20
718.1867506982593
 30
0.0
 70
    32
  0
VERTEX
  5
277
  8
0
  6
CONTINUOUS
 62
     7
 10
946.9887707143288
 20
718.1867506982591
 30
0.0
 70
    32
  0
VERTEX
  5
278
  8
0
  6
CONTINUOUS
 62
     7
 10
947.0191410548756
 20
718.1867506982592
 30
0.0
 70
    32
  0
VERTEX
  5
279
  8
0
  6
CONTINUOUS
 62
     7
 10
947.0499777721683
 20
718.1867506982593
 30
0.0
 70
    32
  0
VERTEX
  5
27A
  8
0
  6
CONTINUOUS
 62
     7
 10
947.0812831068159
 20
718.1867506982593
 30
0.0
 70
    32
  0
VERTEX
  5
27B
  8
0
  6
CONTINUOUS
 62
     7
 10
947.1130592994274
 20
718.1867506982592
 30
0.0
 70
    32
  0
VERTEX
  5
27C
  8
0
  6
CONTINUOUS
 62
     7
 10
947.1453085906113
 20
718.1867506982592
 30
0.0
 70
    32
  0
VERTEX
  5
27D
  8
0
  6
CONTINUOUS
 62
     7
 10
947.1780332209764
 20
718.1867506982592
 30
0.0
 70
    32
  0
VERTEX
  5
27E
  8
0
  6
CONTINUOUS
 62
     7
 10
947.2112354311314
 20
718.1867506982592
 30
0.0
 70
    32
  0
VERTEX
  5
27F
  8
0
  6
CONTINUOUS
 62
     7
 10
947.24491586994
 20
718.1867506982592
 30
0.0
 70
    32
  0
VERTEX
  5
280
  8
0
  6
CONTINUOUS
 62
     7
 10
947.2790632632631
 20
718.1867506982591
 30
0.0
 70
    32
  0
VERTEX
  5
281
  8
0
  6
CONTINUOUS
 62
     7
 10
947.3136609301738
 20
718.1867506982593
 30
0.0
 70
    32
  0
VERTEX
  5
282
  8
0
  6
CONTINUOUS
 62
     7
 10
947.3486921628635
 20
718.1867506982592
 30
0.0
 70
    32
  0
VERTEX
  5
283
  8
0
  6
CONTINUOUS
 62
     7
 10
947.3841402535248
 20
718.186750698259
 30
0.0
 70
    32
  0
VERTEX
  5
284
  8
0
  6
CONTINUOUS
 62
     7
 10
947.4199884943504
 20
718.186750698259
 30
0.0
 70
    32
  0
VERTEX
  5
285
  8
0
  6
CONTINUOUS
 62
     7
 10
947.4562201775325
 20
718.1867506982591
 30
0.0
 70
    32
  0
VERTEX
  5
286
  8
0
  6
CONTINUOUS
 62
     7
 10
947.4928185952632
 20
718.1867506982592
 30
0.0
 70
    32
  0
VERTEX
  5
287
  8
0
  6
CONTINUOUS
 62
     7
 10
947.5297670397351
 20
718.1867506982592
 30
0.0
 70
    32
  0
VERTEX
  5
288
  8
0
  6
CONTINUOUS
 62
     7
 10
947.5670488031403
 20
718.1867506982592
 30
0.0
 70
    32
  0
VERTEX
  5
289
  8
0
  6
CONTINUOUS
 62
     7
 10
947.6046471796772
 20
718.1867506982594
 30
0.0
 70
    32
  0
VERTEX
  5
28A
  8
0
  6
CONTINUOUS
 62
     7
 10
947.642545488819
 20
718.1867506982595
 30
0.0
 70
    32
  0
VERTEX
  5
28B
  8
0
  6
CONTINUOUS
 62
     7
 10
947.6807270673261
 20
718.1867506982594
 30
0.0
 70
    32
  0
VERTEX
  5
28C
  8
0
  6
CONTINUOUS
 62
     7
 10
947.7191752522951
 20
718.1867506982597
 30
0.0
 70
    32
  0
VERTEX
  5
28D
  8
0
  6
CONTINUOUS
 62
     7
 10
947.7578733808222
 20
718.18675069826
 30
0.0
 70
    32
  0
VERTEX
  5
28E
  8
0
  6
CONTINUOUS
 62
     7
 10
947.7968047900029
 20
718.1867506982602
 30
0.0
 70
    32
  0
VERTEX
  5
28F
  8
0
  6
CONTINUOUS
 62
     7
 10
947.8359528169337
 20
718.1867506982607
 30
0.0
 70
    32
  0
VERTEX
  5
290
  8
0
  6
CONTINUOUS
 62
     7
 10
947.8753007987109
 20
718.186750698261
 30
0.0
 70
    32
  0
VERTEX
  5
291
  8
0
  6
CONTINUOUS
 62
     7
 10
947.9148320724303
 20
718.1867506982611
 30
0.0
 70
    32
  0
VERTEX
  5
292
  8
0
  6
CONTINUOUS
 62
     7
 10
947.9545299751883
 20
718.1867506982616
 30
0.0
 70
    32
  0
VERTEX
  5
293
  8
0
  6
CONTINUOUS
 62
     7
 10
947.994377844081
 20
718.1867506982618
 30
0.0
 70
    32
  0
VERTEX
  5
294
  8
0
  6
CONTINUOUS
 62
     7
 10
948.0343590162047
 20
718.1867506982621
 30
0.0
 70
    32
  0
VERTEX
  5
295
  8
0
  6
CONTINUOUS
 62
     7
 10
948.0744568286552
 20
718.1867506982625
 30
0.0
 70
    32
  0
VERTEX
  5
296
  8
0
  6
CONTINUOUS
 62
     7
 10
948.1146546185287
 20
718.1867506982628
 30
0.0
 70
    32
  0
VERTEX
  5
297
  8
0
  6
CONTINUOUS
 62
     7
 10
948.1549357229219
 20
718.1867506982633
 30
0.0
 70
    32
  0
VERTEX
  5
298
  8
0
  6
CONTINUOUS
 62
     7
 10
948.1952834789302
 20
718.1867506982636
 30
0.0
 70
    32
  0
VERTEX
  5
299
  8
0
  6
CONTINUOUS
 62
     7
 10
948.23568122365
 20
718.186750698264
 30
0.0
 70
    32
  0
VERTEX
  5
29A
  8
0
  6
CONTINUOUS
 62
     7
 10
948.2761122941777
 20
718.1867506982644
 30
0.0
 70
    32
  0
VERTEX
  5
29B
  8
0
  6
CONTINUOUS
 62
     7
 10
948.3165600276091
 20
718.1867506982647
 30
0.0
 70
    32
  0
SEQEND
  5
7CF
  8
0
  6
CONTINUOUS
 62
     7
  0
LINE
  5
CB
  8
0
  6
CONTINUOUS
 62
     7
 10
948.3165600276088
 20
717.1867506982655
 30
0.0
 11
948.3165600276091
 21
718.1867506982647
 31
0.0
  0
POLYLINE
  5
CC
  8
0
  6
CONTINUOUS
 62
     7
 10
0.0
 20
0.0
 30
0.0
 66
     1
 70
     8
  0
VERTEX
  5
29C
  8
0
  6
CONTINUOUS
 62
     7
 10
948.3165600276325
 20
661.1867506982621
 30
0.0
 70
    32
  0
VERTEX
  5
29D
  8
0
  6
CONTINUOUS
 62
     7
 10
948.2761115489351
 20
661.186750698262
 30
0.0
 70
    32
  0
VERTEX
  5
29E
  8
0
  6
CONTINUOUS
 62
     7
 10
948.2356797366326
 20
661.1867506982621
 30
0.0
 70
    32
  0
VERTEX
  5
29F
  8
0
  6
CONTINUOUS
 62
     7
 10
948.1952812571196
 20
661.186750698262
 30
0.0
 70
    32
  0
VERTEX
  5
2A0
  8
0
  6
CONTINUOUS
 62
     7
 10
948.1549327767915
 20
661.186750698262
 30
0.0
 70
    32
  0
VERTEX
  5
2A1
  8
0
  6
CONTINUOUS
 62
     7
 10
948.1146509620422
 20
661.186750698262
 30
0.0
 70
    32
  0
VERTEX
  5
2A2
  8
0
  6
CONTINUOUS
 62
     7
 10
948.0744524792673
 20
661.1867506982621
 30
0.0
 70
    32
  0
VERTEX
  5
2A3
  8
0
  6
CONTINUOUS
 62
     7
 10
948.0343539948612
 20
661.186750698262
 30
0.0
 70
    32
  0
VERTEX
  5
2A4
  8
0
  6
CONTINUOUS
 62
     7
 10
947.9943721752185
 20
661.1867506982619
 30
0.0
 70
    32
  0
VERTEX
  5
2A5
  8
0
  6
CONTINUOUS
 62
     7
 10
947.9545236867348
 20
661.1867506982621
 30
0.0
 70
    32
  0
VERTEX
  5
2A6
  8
0
  6
CONTINUOUS
 62
     7
 10
947.914825195804
 20
661.186750698262
 30
0.0
 70
    32
  0
VERTEX
  5
2A7
  8
0
  6
CONTINUOUS
 62
     7
 10
947.8752933688218
 20
661.1867506982621
 30
0.0
 70
    32
  0
VERTEX
  5
2A8
  8
0
  6
CONTINUOUS
 62
     7
 10
947.8359448721822
 20
661.1867506982619
 30
0.0
 70
    32
  0
VERTEX
  5
2A9
  8
0
  6
CONTINUOUS
 62
     7
 10
947.7967963722806
 20
661.1867506982619
 30
0.0
 70
    32
  0
VERTEX
  5
2AA
  8
0
  6
CONTINUOUS
 62
     7
 10
947.7578645355114
 20
661.186750698262
 30
0.0
 70
    32
  0
VERTEX
  5
2AB
  8
0
  6
CONTINUOUS
 62
     7
 10
947.7191660282698
 20
661.1867506982619
 30
0.0
 70
    32
  0
VERTEX
  5
2AC
  8
0
  6
CONTINUOUS
 62
     7
 10
947.6807175169503
 20
661.1867506982618
 30
0.0
 70
    32
  0
VERTEX
  5
2AD
  8
0
  6
CONTINUOUS
 62
     7
 10
947.6425356679479
 20
661.1867506982619
 30
0.0
 70
    32
  0
VERTEX
  5
2AE
  8
0
  6
CONTINUOUS
 62
     7
 10
947.6046371476575
 20
661.1867506982619
 30
0.0
 70
    32
  0
VERTEX
  5
2AF
  8
0
  6
CONTINUOUS
 62
     7
 10
947.5670386227159
 20
661.1867506982618
 30
0.0
 70
    32
  0
VERTEX
  5
2B0
  8
0
  6
CONTINUOUS
 62
     7
 10
947.5297567722216
 20
661.1867506982619
 30
0.0
 70
    32
  0
VERTEX
  5
2B1
  8
0
  6
CONTINUOUS
 62
     7
 10
947.4928082934792
 20
661.1867506982618
 30
0.0
 70
    32
  0
VERTEX
  5
2B2
  8
0
  6
CONTINUOUS
 62
     7
 10
947.456209885237
 20
661.1867506982619
 30
0.0
 70
    32
  0
VERTEX
  5
2B3
  8
0
  6
CONTINUOUS
 62
     7
 10
947.4199782462422
 20
661.1867506982619
 30
0.0
 70
    32
  0
VERTEX
  5
2B4
  8
0
  6
CONTINUOUS
 62
     7
 10
947.384130075243
 20
661.1867506982619
 30
0.0
 70
    32
  0
VERTEX
  5
2B5
  8
0
  6
CONTINUOUS
 62
     7
 10
947.348682070987
 20
661.1867506982619
 30
0.0
 70
    32
  0
VERTEX
  5
2B6
  8
0
  6
CONTINUOUS
 62
     7
 10
947.3136509322229
 20
661.186750698262
 30
0.0
 70
    32
  0
VERTEX
  5
2B7
  8
0
  6
CONTINUOUS
 62
     7
 10
947.279053357698
 20
661.1867506982619
 30
0.0
 70
    32
  0
VERTEX
  5
2B8
  8
0
  6
CONTINUOUS
 62
     7
 10
947.2449060461602
 20
661.1867506982619
 30
0.0
 70
    32
  0
VERTEX
  5
2B9
  8
0
  6
CONTINUOUS
 62
     7
 10
947.2112256637616
 20
661.1867506982619
 30
0.0
 70
    32
  0
VERTEX
  5
2BA
  8
0
  6
CONTINUOUS
 62
     7
 10
947.1780233172185
 20
661.1867506982619
 30
0.0
 70
    32
  0
VERTEX
  5
2BB
  8
0
  6
CONTINUOUS
 62
     7
 10
947.1452983150608
 20
661.1867506982619
 30
0.0
 70
    32
  0
VERTEX
  5
2BC
  8
0
  6
CONTINUOUS
 62
     7
 10
947.1130484592834
 20
661.1867506982619
 30
0.0
 70
    32
  0
VERTEX
  5
2BD
  8
0
  6
CONTINUOUS
 62
     7
 10
947.0812715518791
 20
661.1867506982618
 30
0.0
 70
    32
  0
VERTEX
  5
2BE
  8
0
  6
CONTINUOUS
 62
     7
 10
947.0499653948433
 20
661.186750698262
 30
0.0
 70
    32
  0
VERTEX
  5
2BF
  8
0
  6
CONTINUOUS
 62
     7
 10
947.0191277901688
 20
661.1867506982618
 30
0.0
 70
    32
  0
VERTEX
  5
2C0
  8
0
  6
CONTINUOUS
 62
     7
 10
946.9887565398501
 20
661.186750698262
 30
0.0
 70
    32
  0
VERTEX
  5
2C1
  8
0
  6
CONTINUOUS
 62
     7
 10
946.9588494458808
 20
661.1867506982618
 30
0.0
 70
    32
  0
VERTEX
  5
2C2
  8
0
  6
CONTINUOUS
 62
     7
 10
946.9294043102554
 20
661.186750698262
 30
0.0
 70
    32
  0
VERTEX
  5
2C3
  8
0
  6
CONTINUOUS
 62
     7
 10
946.9004189381571
 20
661.1867506982619
 30
0.0
 70
    32
  0
VERTEX
  5
2C4
  8
0
  6
CONTINUOUS
 62
     7
 10
946.8719040078379
 20
661.1867506982619
 30
0.0
 70
    32
  0
VERTEX
  5
2C5
  8
0
  6
CONTINUOUS
 62
     7
 10
946.8439123527208
 20
661.186750698262
 30
0.0
 70
    32
  0
VERTEX
  5
2C6
  8
0
  6
CONTINUOUS
 62
     7
 10
946.8165054216972
 20
661.186750698262
 30
0.0
 70
    32
  0
VERTEX
  5
2C7
  8
0
  6
CONTINUOUS
 62
     7
 10
946.7897446636584
 20
661.1867506982619
 30
0.0
 70
    32
  0
VERTEX
  5
2C8
  8
0
  6
CONTINUOUS
 62
     7
 10
946.7636915274959
 20
661.1867506982619
 30
0.0
 70
    32
  0
VERTEX
  5
2C9
  8
0
  6
CONTINUOUS
 62
     7
 10
946.7384074621009
 20
661.1867506982619
 30
0.0
 70
    32
  0
VERTEX
  5
2CA
  8
0
  6
CONTINUOUS
 62
     7
 10
946.7139539163643
 20
661.1867506982619
 30
0.0
 70
    32
  0
VERTEX
  5
2CB
  8
0
  6
CONTINUOUS
 62
     7
 10
946.6903923391781
 20
661.1867506982619
 30
0.0
 70
    32
  0
VERTEX
  5
2CC
  8
0
  6
CONTINUOUS
 62
     7
 10
946.6677841794334
 20
661.1867506982619
 30
0.0
 70
    32
  0
VERTEX
  5
2CD
  8
0
  6
CONTINUOUS
 62
     7
 10
946.646190886021
 20
661.1867506982618
 30
0.0
 70
    32
  0
VERTEX
  5
2CE
  8
0
  6
CONTINUOUS
 62
     7
 10
946.6256448209722
 20
661.1867506982619
 30
0.0
 70
    32
  0
VERTEX
  5
2CF
  8
0
  6
CONTINUOUS
 62
     7
 10
946.6060344578997
 20
661.186750698262
 30
0.0
 70
    32
  0
VERTEX
  5
2D0
  8
0
  6
CONTINUOUS
 62
     7
 10
946.5872038571063
 20
661.1867506982619
 30
0.0
 70
    32
  0
VERTEX
  5
2D1
  8
0
  6
CONTINUOUS
 62
     7
 10
946.5689970661366
 20
661.1867506982619
 30
0.0
 70
    32
  0
VERTEX
  5
2D2
  8
0
  6
CONTINUOUS
 62
     7
 10
946.5512581325346
 20
661.1867506982619
 30
0.0
 70
    32
  0
VERTEX
  5
2D3
  8
0
  6
CONTINUOUS
 62
     7
 10
946.5338311038441
 20
661.1867506982619
 30
0.0
 70
    32
  0
VERTEX
  5
2D4
  8
0
  6
CONTINUOUS
 62
     7
 10
946.5165600276097
 20
661.1867506982619
 30
0.0
 70
    32
  0
SEQEND
  5
7D0
  8
0
  6
CONTINUOUS
 62
     7
  0
LINE
  5
CD
  8
0
  6
CONTINUOUS
 62
     7
 10
948.316560027618
 20
662.186750698261
 30
0.0
 11
948.3165600276325
 21
661.1867506982621
 31
0.0
  0
LINE
  5
CE
  8
0
  6
CONTINUOUS
 62
     7
 10
948.5165600276088
 20
717.1867506982655
 30
0.0
 11
948.3165600276088
 21
717.1867506982655
 31
0.0
  0
LINE
  5
CF
  8
0
  6
CONTINUOUS
 62
     7
 10
948.3165600276088
 20
717.1867506982655
 30
0.0
 11
948.3165600276093
 21
708.07832485601
 31
0.0
  0
POLYLINE
  5
D0
  8
0
  6
CONTINUOUS
 62
     7
 66
     1
 10
0.0
 20
0.0
 30
0.0
  0
VERTEX
  5
2D5
  8
0
  6
CONTINUOUS
 62
     7
 10
946.5165600276097
 20
699.9325150384411
 30
0.0
  0
VERTEX
  5
2D6
  8
0
  6
CONTINUOUS
 62
     7
 10
946.5279712126295
 20
699.9190066292515
 30
0.0
  0
VERTEX
  5
2D7
  8
0
  6
CONTINUOUS
 62
     7
 10
946.5396973060291
 20
699.9058599751459
 30
0.0
  0
VERTEX
  5
2D8
  8
0
  6
CONTINUOUS
 62
     7
 10
946.5518859311574
 20
699.8932495339938
 30
0.0
  0
VERTEX
  5
2D9
  8
0
  6
CONTINUOUS
 62
     7
 10
946.5645237422292
 20
699.8811695379136
 30
0.0
  0
VERTEX
  5
2DA
  8
0
  6
CONTINUOUS
 62
     7
 10
946.577590869934
 20
699.8696069150934
 30
0.0
  0
VERTEX
  5
2DB
  8
0
  6
CONTINUOUS
 62
     7
 10
946.5910674449602
 20
699.8585485937203
 30
0.0
  0
VERTEX
  5
2DC
  8
0
  6
CONTINUOUS
 62
     7
 10
946.604933597997
 20
699.8479815019826
 30
0.0
  0
VERTEX
  5
2DD
  8
0
  6
CONTINUOUS
 62
     7
 10
946.6191694597336
 20
699.837892568068
 30
0.0
  0
VERTEX
  5
2DE
  8
0
  6
CONTINUOUS
 62
     7
 10
946.6337551608589
 20
699.828268720164
 30
0.0
  0
VERTEX
  5
2DF
  8
0
  6
CONTINUOUS
 62
     7
 10
946.6486708320616
 20
699.8190968864585
 30
0.0
  0
VERTEX
  5
2E0
  8
0
  6
CONTINUOUS
 62
     7
 10
946.6638966040308
 20
699.8103639951395
 30
0.0
  0
VERTEX
  5
2E1
  8
0
  6
CONTINUOUS
 62
     7
 10
946.6794126074559
 20
699.8020569743945
 30
0.0
  0
VERTEX
  5
2E2
  8
0
  6
CONTINUOUS
 62
     7
 10
946.6951989730252
 20
699.7941627524112
 30
0.0
  0
VERTEX
  5
2E3
  8
0
  6
CONTINUOUS
 62
     7
 10
946.7112358314286
 20
699.786668257378
 30
0.0
  0
VERTEX
  5
2E4
  8
0
  6
CONTINUOUS
 62
     7
 10
946.7275033133542
 20
699.7795604174819
 30
0.0
  0
VERTEX
  5
2E5
  8
0
  6
CONTINUOUS
 62
     7
 10
946.7439815494915
 20
699.772826160911
 30
0.0
  0
VERTEX
  5
2E6
  8
0
  6
CONTINUOUS
 62
     7
 10
946.7606506705293
 20
699.7664524158532
 30
0.0
  0
VERTEX
  5
2E7
  8
0
  6
CONTINUOUS
 62
     7
 10
946.7774908071566
 20
699.7604261104962
 30
0.0
  0
VERTEX
  5
2E8
  8
0
  6
CONTINUOUS
 62
     7
 10
946.794482090063
 20
699.7547341730277
 30
0.0
  0
VERTEX
  5
2E9
  8
0
  6
CONTINUOUS
 62
     7
 10
946.8116046499364
 20
699.7493635316354
 30
0.0
  0
VERTEX
  5
2EA
  8
0
  6
CONTINUOUS
 62
     7
 10
946.8288386174663
 20
699.7443011145073
 30
0.0
  0
VERTEX
  5
2EB
  8
0
  6
CONTINUOUS
 62
     7
 10
946.8461641237463
 20
699.7395338497649
 30
0.0
  0
VERTEX
  5
2EC
  8
0
  6
CONTINUOUS
 62
     7
 10
946.8635643850556
 20
699.7350481607726
 30
0.0
  0
VERTEX
  5
2ED
  8
0
  6
CONTINUOUS
 62
     7
 10
946.8810331339869
 20
699.7308287503549
 30
0.0
  0
VERTEX
  5
2EE
  8
0
  6
CONTINUOUS
 62
     7
 10
946.8985663418567
 20
699.7268599550667
 30
0.0
  0
VERTEX
  5
2EF
  8
0
  6
CONTINUOUS
 62
     7
 10
946.9161599799813
 20
699.7231261114622
 30
0.0
  0
VERTEX
  5
2F0
  8
0
  6
CONTINUOUS
 62
     7
 10
946.9338100196767
 20
699.7196115560955
 30
0.0
  0
VERTEX
  5
2F1
  8
0
  6
CONTINUOUS
 62
     7
 10
946.9515124322594
 20
699.7163006255214
 30
0.0
  0
VERTEX
  5
2F2
  8
0
  6
CONTINUOUS
 62
     7
 10
946.9692631890463
 20
699.7131776562944
 30
0.0
  0
VERTEX
  5
2F3
  8
0
  6
CONTINUOUS
 62
     7
 10
946.987058261353
 20
699.7102269849686
 30
0.0
  0
VERTEX
  5
2F4
  8
0
  6
CONTINUOUS
 62
     7
 10
947.004893620496
 20
699.7074329480985
 30
0.0
  0
VERTEX
  5
2F5
  8
0
  6
CONTINUOUS
 62
     7
 10
947.0227652377921
 20
699.7047798822388
 30
0.0
  0
VERTEX
  5
2F6
  8
0
  6
CONTINUOUS
 62
     7
 10
947.0406690845572
 20
699.7022521239436
 30
0.0
  0
VERTEX
  5
2F7
  8
0
  6
CONTINUOUS
 62
     7
 10
947.0586011321078
 20
699.6998340097674
 30
0.0
  0
VERTEX
  5
2F8
  8
0
  6
CONTINUOUS
 62
     7
 10
947.0765573517605
 20
699.6975098762648
 30
0.0
  0
VERTEX
  5
2F9
  8
0
  6
CONTINUOUS
 62
     7
 10
947.0945337148313
 20
699.6952640599899
 30
0.0
  0
VERTEX
  5
2FA
  8
0
  6
CONTINUOUS
 62
     7
 10
947.1125261926367
 20
699.6930808974973
 30
0.0
  0
VERTEX
  5
2FB
  8
0
  6
CONTINUOUS
 62
     7
 10
947.130530756493
 20
699.6909447253416
 30
0.0
  0
VERTEX
  5
2FC
  8
0
  6
CONTINUOUS
 62
     7
 10
947.1485433777168
 20
699.688839880077
 30
0.0
  0
VERTEX
  5
2FD
  8
0
  6
CONTINUOUS
 62
     7
 10
947.1665600276239
 20
699.6867506982579
 30
0.0
  0
SEQEND
  5
7D1
  8
0
  6
CONTINUOUS
 62
     7
  0
LINE
  5
D1
  8
0
  6
CONTINUOUS
 62
     7
 10
948.0165600276241
 20
699.6867506982577
 30
0.0
 11
947.1665600276239
 21
699.6867506982579
 31
0.0
  0
LINE
  5
D2
  8
0
  6
CONTINUOUS
 62
     7
 10
948.516560027618
 20
662.186750698261
 30
0.0
 11
948.316560027618
 21
662.186750698261
 31
0.0
  0
LINE
  5
D3
  8
0
  6
CONTINUOUS
 62
     7
 10
948.316560027615
 20
671.2951765405105
 30
0.0
 11
948.316560027618
 21
662.186750698261
 31
0.0
  0
POLYLINE
  5
D4
  8
0
  6
CONTINUOUS
 62
     7
 66
     1
 10
0.0
 20
0.0
 30
0.0
  0
VERTEX
  5
2FE
  8
0
  6
CONTINUOUS
 62
     7
 10
947.166560027613
 20
679.6867506982582
 30
0.0
  0
VERTEX
  5
2FF
  8
0
  6
CONTINUOUS
 62
     7
 10
947.1436745689823
 20
679.6844753752661
 30
0.0
  0
VERTEX
  5
300
  8
0
  6
CONTINUOUS
 62
     7
 10
947.1208091047819
 20
679.6821591247917
 30
0.0
  0
VERTEX
  5
301
  8
0
  6
CONTINUOUS
 62
     7
 10
947.0979836294398
 20
679.6797610193526
 30
0.0
  0
VERTEX
  5
302
  8
0
  6
CONTINUOUS
 62
     7
 10
947.0752181373866
 20
679.6772401314668
 30
0.0
  0
VERTEX
  5
303
  8
0
  6
CONTINUOUS
 62
     7
 10
947.0525326230511
 20
679.6745555336515
 30
0.0
  0
VERTEX
  5
304
  8
0
  6
CONTINUOUS
 62
     7
 10
947.0299470808636
 20
679.6716662984248
 30
0.0
  0
VERTEX
  5
305
  8
0
  6
CONTINUOUS
 62
     7
 10
947.0074815052533
 20
679.6685314983044
 30
0.0
  0
VERTEX
  5
306
  8
0
  6
CONTINUOUS
 62
     7
 10
946.985155890649
 20
679.6651102058078
 30
0.0
  0
VERTEX
  5
307
  8
0
  6
CONTINUOUS
 62
     7
 10
946.9629902314811
 20
679.6613614934525
 30
0.0
  0
VERTEX
  5
308
  8
0
  6
CONTINUOUS
 62
     7
 10
946.9410045221784
 20
679.6572444337567
 30
0.0
  0
VERTEX
  5
309
  8
0
  6
CONTINUOUS
 62
     7
 10
946.9192187571708
 20
679.6527180992376
 30
0.0
  0
VERTEX
  5
30A
  8
0
  6
CONTINUOUS
 62
     7
 10
946.8976529308882
 20
679.6477415624132
 30
0.0
  0
VERTEX
  5
30B
  8
0
  6
CONTINUOUS
 62
     7
 10
946.8763270377594
 20
679.6422738958012
 30
0.0
  0
VERTEX
  5
30C
  8
0
  6
CONTINUOUS
 62
     7
 10
946.8552610722144
 20
679.636274171919
 30
0.0
  0
VERTEX
  5
30D
  8
0
  6
CONTINUOUS
 62
     7
 10
946.8344750286825
 20
679.6297014632847
 30
0.0
  0
VERTEX
  5
30E
  8
0
  6
CONTINUOUS
 62
     7
 10
946.8139889015928
 20
679.6225148424155
 30
0.0
  0
VERTEX
  5
30F
  8
0
  6
CONTINUOUS
 62
     7
 10
946.7938186988541
 20
679.6146815420174
 30
0.0
  0
VERTEX
  5
310
  8
0
  6
CONTINUOUS
 62
     7
 10
946.7739544537135
 20
679.6062219634752
 30
0.0
  0
VERTEX
  5
311
  8
0
  6
CONTINUOUS
 62
     7
 10
946.7543757948607
 20
679.5971778057265
 30
0.0
  0
VERTEX
  5
312
  8
0
  6
CONTINUOUS
 62
     7
 10
946.7350623232752
 20
679.5875908244284
 30
0.0
  0
VERTEX
  5
313
  8
0
  6
CONTINUOUS
 62
     7
 10
946.7159936399365
 20
679.5775027752393
 30
0.0
  0
VERTEX
  5
314
  8
0
  6
CONTINUOUS
 62
     7
 10
946.6971493458235
 20
679.566955413816
 30
0.0
  0
VERTEX
  5
315
  8
0
  6
CONTINUOUS
 62
     7
 10
946.6785090419165
 20
679.5559904958168
 30
0.0
  0
VERTEX
  5
316
  8
0
  6
CONTINUOUS
 62
     7
 10
946.6600523291943
 20
679.5446497768988
 30
0.0
  0
VERTEX
  5
317
  8
0
  6
CONTINUOUS
 62
     7
 10
946.6417588086364
 20
679.5329750127199
 30
0.0
  0
VERTEX
  5
318
  8
0
  6
CONTINUOUS
 62
     7
 10
946.6236080812224
 20
679.5210079589376
 30
0.0
  0
VERTEX
  5
319
  8
0
  6
CONTINUOUS
 62
     7
 10
946.605579747932
 20
679.5087903712096
 30
0.0
  0
VERTEX
  5
31A
  8
0
  6
CONTINUOUS
 62
     7
 10
946.587653409744
 20
679.4963640051935
 30
0.0
  0
VERTEX
  5
31B
  8
0
  6
CONTINUOUS
 62
     7
 10
946.5698086676385
 20
679.483770616547
 30
0.0
  0
VERTEX
  5
31C
  8
0
  6
CONTINUOUS
 62
     7
 10
946.5520251225946
 20
679.4710519609274
 30
0.0
  0
VERTEX
  5
31D
  8
0
  6
CONTINUOUS
 62
     7
 10
946.5342823755919
 20
679.4582497939928
 30
0.0
  0
VERTEX
  5
31E
  8
0
  6
CONTINUOUS
 62
     7
 10
946.5165600276097
 20
679.4454058714005
 30
0.0
  0
SEQEND
  5
7D2
  8
0
  6
CONTINUOUS
 62
     7
  0
LINE
  5
D5
  8
0
  6
CONTINUOUS
 62
     7
 10
947.166560027613
 20
679.6867506982582
 30
0.0
 11
948.0165600276157
 21
679.686750698261
 31
0.0
  0
LINE
  5
D6
  8
0
  6
CONTINUOUS
 62
     7
 10
948.516560027609
 20
718.1867506982647
 30
0.0
 11
948.3165600276091
 21
718.1867506982647
 31
0.0
  0
LINE
  5
D7
  8
0
  6
CONTINUOUS
 62
     7
 10
948.5165600276324
 20
661.1867506982621
 30
0.0
 11
948.3165600276325
 21
661.1867506982621
 31
0.0
  0
LINE
  5
D8
  8
0
  6
CONTINUOUS
 62
     7
 10
948.0165600276082
 20
2284.642708837318
 30
0.0
 11
948.5165600276097
 21
2284.642708837318
 31
0.0
  0
LINE
  5
D9
  8
0
  6
CONTINUOUS
 62
     7
 10
948.0165600276073
 20
2283.086750698025
 30
0.0
 11
948.5165600276072
 21
2283.086750698025
 31
0.0
  0
LINE
  5
DA
  8
0
  6
CONTINUOUS
 62
     7
 10
948.0165600276073
 20
2283.086750698025
 30
0.0
 11
948.0165600276082
 21
2284.642708837318
 31
0.0
  0
LINE
  5
DB
  8
0
  6
CONTINUOUS
 62
     7
 10
948.5165600276097
 20
2266.730792559189
 30
0.0
 11
948.0165600276149
 21
2266.73079255919
 31
0.0
  0
LINE
  5
DC
  8
0
  6
CONTINUOUS
 62
     7
 10
948.0165600276149
 20
2266.73079255919
 30
0.0
 11
948.016560027623
 21
2268.286750698477
 31
0.0
  0
LINE
  5
DD
  8
0
  6
CONTINUOUS
 62
     7
 10
948.516560027623
 20
2268.286750698477
 30
0.0
 11
948.016560027623
 21
2268.286750698477
 31
0.0
  0
LINE
  5
DE
  8
0
  6
CONTINUOUS
 62
     7
 10
948.3165600276093
 20
2294.07832485601
 30
0.0
 11
948.0165600276091
 21
2294.07832485601
 31
0.0
  0
LINE
  5
DF
  8
0
  6
CONTINUOUS
 62
     7
 10
948.5165600276093
 20
2294.07832485601
 30
0.0
 11
948.3165600276093
 21
2294.07832485601
 31
0.0
  0
LINE
  5
E0
  8
0
  6
CONTINUOUS
 62
     7
 10
948.0165600276091
 20
2294.07832485601
 30
0.0
 11
948.0165600276082
 21
2284.642708837318
 31
0.0
  0
LINE
  5
E1
  8
0
  6
CONTINUOUS
 62
     7
 10
948.316560027615
 20
2257.29517654051
 30
0.0
 11
948.516560027615
 21
2257.29517654051
 31
0.0
  0
LINE
  5
E2
  8
0
  6
CONTINUOUS
 62
     7
 10
948.016560027615
 20
2257.29517654051
 30
0.0
 11
948.316560027615
 21
2257.29517654051
 31
0.0
  0
LINE
  5
E3
  8
0
  6
CONTINUOUS
 62
     7
 10
948.0165600276149
 20
2266.73079255919
 30
0.0
 11
948.016560027615
 21
2257.29517654051
 31
0.0
  0
POLYLINE
  5
E4
  8
0
  6
CONTINUOUS
 62
     7
 10
0.0
 20
0.0
 30
0.0
 66
     1
 70
     8
  0
VERTEX
  5
31F
  8
0
  6
CONTINUOUS
 62
     7
 10
946.5165600276097
 20
2304.186750698259
 30
0.0
 70
    32
  0
VERTEX
  5
320
  8
0
  6
CONTINUOUS
 62
     7
 10
946.533828852989
 20
2304.186750698259
 30
0.0
 70
    32
  0
VERTEX
  5
321
  8
0
  6
CONTINUOUS
 62
     7
 10
946.5512539364596
 20
2304.186750698259
 30
0.0
 70
    32
  0
VERTEX
  5
322
  8
0
  6
CONTINUOUS
 62
     7
 10
946.5689915361133
 20
2304.186750698259
 30
0.0
 70
    32
  0
VERTEX
  5
323
  8
0
  6
CONTINUOUS
 62
     7
 10
946.5871979100408
 20
2304.186750698259
 30
0.0
 70
    32
  0
VERTEX
  5
324
  8
0
  6
CONTINUOUS
 62
     7
 10
946.606029316334
 20
2304.186750698259
 30
0.0
 70
    32
  0
VERTEX
  5
325
  8
0
  6
CONTINUOUS
 62
     7
 10
946.625642013084
 20
2304.186750698259
 30
0.0
 70
    32
  0
VERTEX
  5
326
  8
0
  6
CONTINUOUS
 62
     7
 10
946.6461922363726
 20
2304.186750698259
 30
0.0
 70
    32
  0
VERTEX
  5
327
  8
0
  6
CONTINUOUS
 62
     7
 10
946.6677900239914
 20
2304.186750698259
 30
0.0
 70
    32
  0
VERTEX
  5
328
  8
0
  6
CONTINUOUS
 62
     7
 10
946.6904018193123
 20
2304.186750698259
 30
0.0
 70
    32
  0
VERTEX
  5
329
  8
0
  6
CONTINUOUS
 62
     7
 10
946.7139662480937
 20
2304.186750698259
 30
0.0
 70
    32
  0
VERTEX
  5
32A
  8
0
  6
CONTINUOUS
 62
     7
 10
946.7384219360943
 20
2304.186750698259
 30
0.0
 70
    32
  0
VERTEX
  5
32B
  8
0
  6
CONTINUOUS
 62
     7
 10
946.7637075090727
 20
2304.18675069826
 30
0.0
 70
    32
  0
VERTEX
  5
32C
  8
0
  6
CONTINUOUS
 62
     7
 10
946.7897615927875
 20
2304.186750698259
 30
0.0
 70
    32
  0
VERTEX
  5
32D
  8
0
  6
CONTINUOUS
 62
     7
 10
946.8165228129977
 20
2304.186750698259
 30
0.0
 70
    32
  0
VERTEX
  5
32E
  8
0
  6
CONTINUOUS
 62
     7
 10
946.8439297954617
 20
2304.186750698259
 30
0.0
 70
    32
  0
VERTEX
  5
32F
  8
0
  6
CONTINUOUS
 62
     7
 10
946.8719211659383
 20
2304.186750698259
 30
0.0
 70
    32
  0
VERTEX
  5
330
  8
0
  6
CONTINUOUS
 62
     7
 10
946.9004355501861
 20
2304.186750698259
 30
0.0
 70
    32
  0
VERTEX
  5
331
  8
0
  6
CONTINUOUS
 62
     7
 10
946.9294202010398
 20
2304.18675069826
 30
0.0
 70
    32
  0
VERTEX
  5
332
  8
0
  6
CONTINUOUS
 62
     7
 10
946.95886450992
 20
2304.186750698259
 30
0.0
 70
    32
  0
VERTEX
  5
333
  8
0
  6
CONTINUOUS
 62
     7
 10
946.9887707143288
 20
2304.186750698258
 30
0.0
 70
    32
  0
VERTEX
  5
334
  8
0
  6
CONTINUOUS
 62
     7
 10
947.0191410548756
 20
2304.186750698259
 30
0.0
 70
    32
  0
VERTEX
  5
335
  8
0
  6
CONTINUOUS
 62
     7
 10
947.0499777721683
 20
2304.186750698259
 30
0.0
 70
    32
  0
VERTEX
  5
336
  8
0
  6
CONTINUOUS
 62
     7
 10
947.0812831068159
 20
2304.186750698259
 30
0.0
 70
    32
  0
VERTEX
  5
337
  8
0
  6
CONTINUOUS
 62
     7
 10
947.1130592994274
 20
2304.186750698259
 30
0.0
 70
    32
  0
VERTEX
  5
338
  8
0
  6
CONTINUOUS
 62
     7
 10
947.1453085906113
 20
2304.186750698259
 30
0.0
 70
    32
  0
VERTEX
  5
339
  8
0
  6
CONTINUOUS
 62
     7
 10
947.1780332209764
 20
2304.186750698259
 30
0.0
 70
    32
  0
VERTEX
  5
33A
  8
0
  6
CONTINUOUS
 62
     7
 10
947.2112354311314
 20
2304.186750698259
 30
0.0
 70
    32
  0
VERTEX
  5
33B
  8
0
  6
CONTINUOUS
 62
     7
 10
947.24491586994
 20
2304.186750698259
 30
0.0
 70
    32
  0
VERTEX
  5
33C
  8
0
  6
CONTINUOUS
 62
     7
 10
947.2790632632631
 20
2304.186750698258
 30
0.0
 70
    32
  0
VERTEX
  5
33D
  8
0
  6
CONTINUOUS
 62
     7
 10
947.3136609301738
 20
2304.186750698259
 30
0.0
 70
    32
  0
VERTEX
  5
33E
  8
0
  6
CONTINUOUS
 62
     7
 10
947.3486921628635
 20
2304.186750698259
 30
0.0
 70
    32
  0
VERTEX
  5
33F
  8
0
  6
CONTINUOUS
 62
     7
 10
947.3841402535248
 20
2304.186750698259
 30
0.0
 70
    32
  0
VERTEX
  5
340
  8
0
  6
CONTINUOUS
 62
     7
 10
947.4199884943504
 20
2304.186750698258
 30
0.0
 70
    32
  0
VERTEX
  5
341
  8
0
  6
CONTINUOUS
 62
     7
 10
947.4562201775325
 20
2304.186750698259
 30
0.0
 70
    32
  0
VERTEX
  5
342
  8
0
  6
CONTINUOUS
 62
     7
 10
947.4928185952632
 20
2304.186750698259
 30
0.0
 70
    32
  0
VERTEX
  5
343
  8
0
  6
CONTINUOUS
 62
     7
 10
947.5297670397351
 20
2304.186750698259
 30
0.0
 70
    32
  0
VERTEX
  5
344
  8
0
  6
CONTINUOUS
 62
     7
 10
947.5670488031403
 20
2304.186750698259
 30
0.0
 70
    32
  0
VERTEX
  5
345
  8
0
  6
CONTINUOUS
 62
     7
 10
947.6046471796772
 20
2304.186750698259
 30
0.0
 70
    32
  0
VERTEX
  5
346
  8
0
  6
CONTINUOUS
 62
     7
 10
947.642545488819
 20
2304.18675069826
 30
0.0
 70
    32
  0
VERTEX
  5
347
  8
0
  6
CONTINUOUS
 62
     7
 10
947.6807270673261
 20
2304.186750698259
 30
0.0
 70
    32
  0
VERTEX
  5
348
  8
0
  6
CONTINUOUS
 62
     7
 10
947.7191752522951
 20
2304.186750698259
 30
0.0
 70
    32
  0
VERTEX
  5
349
  8
0
  6
CONTINUOUS
 62
     7
 10
947.7578733808222
 20
2304.18675069826
 30
0.0
 70
    32
  0
VERTEX
  5
34A
  8
0
  6
CONTINUOUS
 62
     7
 10
947.7968047900029
 20
2304.18675069826
 30
0.0
 70
    32
  0
VERTEX
  5
34B
  8
0
  6
CONTINUOUS
 62
     7
 10
947.8359528169337
 20
2304.186750698261
 30
0.0
 70
    32
  0
VERTEX
  5
34C
  8
0
  6
CONTINUOUS
 62
     7
 10
947.8753007987109
 20
2304.186750698262
 30
0.0
 70
    32
  0
VERTEX
  5
34D
  8
0
  6
CONTINUOUS
 62
     7
 10
947.9148320724303
 20
2304.186750698262
 30
0.0
 70
    32
  0
VERTEX
  5
34E
  8
0
  6
CONTINUOUS
 62
     7
 10
947.9545299751883
 20
2304.186750698262
 30
0.0
 70
    32
  0
VERTEX
  5
34F
  8
0
  6
CONTINUOUS
 62
     7
 10
947.994377844081
 20
2304.186750698262
 30
0.0
 70
    32
  0
VERTEX
  5
350
  8
0
  6
CONTINUOUS
 62
     7
 10
948.0343590162047
 20
2304.186750698262
 30
0.0
 70
    32
  0
VERTEX
  5
351
  8
0
  6
CONTINUOUS
 62
     7
 10
948.0744568286552
 20
2304.186750698263
 30
0.0
 70
    32
  0
VERTEX
  5
352
  8
0
  6
CONTINUOUS
 62
     7
 10
948.1146546185287
 20
2304.186750698263
 30
0.0
 70
    32
  0
VERTEX
  5
353
  8
0
  6
CONTINUOUS
 62
     7
 10
948.1549357229219
 20
2304.186750698263
 30
0.0
 70
    32
  0
VERTEX
  5
354
  8
0
  6
CONTINUOUS
 62
     7
 10
948.1952834789302
 20
2304.186750698264
 30
0.0
 70
    32
  0
VERTEX
  5
355
  8
0
  6
CONTINUOUS
 62
     7
 10
948.23568122365
 20
2304.186750698264
 30
0.0
 70
    32
  0
VERTEX
  5
356
  8
0
  6
CONTINUOUS
 62
     7
 10
948.2761122941777
 20
2304.186750698264
 30
0.0
 70
    32
  0
VERTEX
  5
357
  8
0
  6
CONTINUOUS
 62
     7
 10
948.3165600276091
 20
2304.186750698265
 30
0.0
 70
    32
  0
SEQEND
  5
7D3
  8
0
  6
CONTINUOUS
 62
     7
  0
LINE
  5
E5
  8
0
  6
CONTINUOUS
 62
     7
 10
948.3165600276088
 20
2303.186750698265
 30
0.0
 11
948.3165600276091
 21
2304.186750698265
 31
0.0
  0
POLYLINE
  5
E6
  8
0
  6
CONTINUOUS
 62
     7
 10
0.0
 20
0.0
 30
0.0
 66
     1
 70
     8
  0
VERTEX
  5
358
  8
0
  6
CONTINUOUS
 62
     7
 10
948.3165600276325
 20
2247.186750698262
 30
0.0
 70
    32
  0
VERTEX
  5
359
  8
0
  6
CONTINUOUS
 62
     7
 10
948.2761115489351
 20
2247.186750698261
 30
0.0
 70
    32
  0
VERTEX
  5
35A
  8
0
  6
CONTINUOUS
 62
     7
 10
948.2356797366326
 20
2247.186750698262
 30
0.0
 70
    32
  0
VERTEX
  5
35B
  8
0
  6
CONTINUOUS
 62
     7
 10
948.1952812571196
 20
2247.186750698261
 30
0.0
 70
    32
  0
VERTEX
  5
35C
  8
0
  6
CONTINUOUS
 62
     7
 10
948.1549327767915
 20
2247.186750698262
 30
0.0
 70
    32
  0
VERTEX
  5
35D
  8
0
  6
CONTINUOUS
 62
     7
 10
948.1146509620422
 20
2247.186750698262
 30
0.0
 70
    32
  0
VERTEX
  5
35E
  8
0
  6
CONTINUOUS
 62
     7
 10
948.0744524792673
 20
2247.186750698262
 30
0.0
 70
    32
  0
VERTEX
  5
35F
  8
0
  6
CONTINUOUS
 62
     7
 10
948.0343539948612
 20
2247.186750698262
 30
0.0
 70
    32
  0
VERTEX
  5
360
  8
0
  6
CONTINUOUS
 62
     7
 10
947.9943721752185
 20
2247.186750698262
 30
0.0
 70
    32
  0
VERTEX
  5
361
  8
0
  6
CONTINUOUS
 62
     7
 10
947.9545236867348
 20
2247.186750698262
 30
0.0
 70
    32
  0
VERTEX
  5
362
  8
0
  6
CONTINUOUS
 62
     7
 10
947.914825195804
 20
2247.186750698262
 30
0.0
 70
    32
  0
VERTEX
  5
363
  8
0
  6
CONTINUOUS
 62
     7
 10
947.8752933688218
 20
2247.186750698262
 30
0.0
 70
    32
  0
VERTEX
  5
364
  8
0
  6
CONTINUOUS
 62
     7
 10
947.8359448721822
 20
2247.186750698262
 30
0.0
 70
    32
  0
VERTEX
  5
365
  8
0
  6
CONTINUOUS
 62
     7
 10
947.7967963722806
 20
2247.186750698262
 30
0.0
 70
    32
  0
VERTEX
  5
366
  8
0
  6
CONTINUOUS
 62
     7
 10
947.7578645355114
 20
2247.186750698262
 30
0.0
 70
    32
  0
VERTEX
  5
367
  8
0
  6
CONTINUOUS
 62
     7
 10
947.7191660282698
 20
2247.186750698262
 30
0.0
 70
    32
  0
VERTEX
  5
368
  8
0
  6
CONTINUOUS
 62
     7
 10
947.6807175169503
 20
2247.186750698262
 30
0.0
 70
    32
  0
VERTEX
  5
369
  8
0
  6
CONTINUOUS
 62
     7
 10
947.6425356679479
 20
2247.186750698262
 30
0.0
 70
    32
  0
VERTEX
  5
36A
  8
0
  6
CONTINUOUS
 62
     7
 10
947.6046371476575
 20
2247.186750698262
 30
0.0
 70
    32
  0
VERTEX
  5
36B
  8
0
  6
CONTINUOUS
 62
     7
 10
947.5670386227159
 20
2247.186750698262
 30
0.0
 70
    32
  0
VERTEX
  5
36C
  8
0
  6
CONTINUOUS
 62
     7
 10
947.5297567722216
 20
2247.186750698262
 30
0.0
 70
    32
  0
VERTEX
  5
36D
  8
0
  6
CONTINUOUS
 62
     7
 10
947.4928082934792
 20
2247.186750698262
 30
0.0
 70
    32
  0
VERTEX
  5
36E
  8
0
  6
CONTINUOUS
 62
     7
 10
947.456209885237
 20
2247.186750698262
 30
0.0
 70
    32
  0
VERTEX
  5
36F
  8
0
  6
CONTINUOUS
 62
     7
 10
947.4199782462422
 20
2247.186750698263
 30
0.0
 70
    32
  0
VERTEX
  5
370
  8
0
  6
CONTINUOUS
 62
     7
 10
947.384130075243
 20
2247.186750698263
 30
0.0
 70
    32
  0
VERTEX
  5
371
  8
0
  6
CONTINUOUS
 62
     7
 10
947.348682070987
 20
2247.186750698262
 30
0.0
 70
    32
  0
VERTEX
  5
372
  8
0
  6
CONTINUOUS
 62
     7
 10
947.3136509322229
 20
2247.186750698262
 30
0.0
 70
    32
  0
VERTEX
  5
373
  8
0
  6
CONTINUOUS
 62
     7
 10
947.279053357698
 20
2247.186750698262
 30
0.0
 70
    32
  0
VERTEX
  5
374
  8
0
  6
CONTINUOUS
 62
     7
 10
947.2449060461602
 20
2247.186750698262
 30
0.0
 70
    32
  0
VERTEX
  5
375
  8
0
  6
CONTINUOUS
 62
     7
 10
947.2112256637616
 20
2247.186750698262
 30
0.0
 70
    32
  0
VERTEX
  5
376
  8
0
  6
CONTINUOUS
 62
     7
 10
947.1780233172185
 20
2247.186750698262
 30
0.0
 70
    32
  0
VERTEX
  5
377
  8
0
  6
CONTINUOUS
 62
     7
 10
947.1452983150608
 20
2247.186750698262
 30
0.0
 70
    32
  0
VERTEX
  5
378
  8
0
  6
CONTINUOUS
 62
     7
 10
947.1130484592834
 20
2247.186750698262
 30
0.0
 70
    32
  0
VERTEX
  5
379
  8
0
  6
CONTINUOUS
 62
     7
 10
947.0812715518791
 20
2247.186750698261
 30
0.0
 70
    32
  0
VERTEX
  5
37A
  8
0
  6
CONTINUOUS
 62
     7
 10
947.0499653948433
 20
2247.186750698263
 30
0.0
 70
    32
  0
VERTEX
  5
37B
  8
0
  6
CONTINUOUS
 62
     7
 10
947.0191277901688
 20
2247.186750698262
 30
0.0
 70
    32
  0
VERTEX
  5
37C
  8
0
  6
CONTINUOUS
 62
     7
 10
946.9887565398501
 20
2247.186750698262
 30
0.0
 70
    32
  0
VERTEX
  5
37D
  8
0
  6
CONTINUOUS
 62
     7
 10
946.9588494458808
 20
2247.186750698262
 30
0.0
 70
    32
  0
VERTEX
  5
37E
  8
0
  6
CONTINUOUS
 62
     7
 10
946.9294043102554
 20
2247.186750698262
 30
0.0
 70
    32
  0
VERTEX
  5
37F
  8
0
  6
CONTINUOUS
 62
     7
 10
946.9004189381571
 20
2247.186750698262
 30
0.0
 70
    32
  0
VERTEX
  5
380
  8
0
  6
CONTINUOUS
 62
     7
 10
946.8719040078379
 20
2247.186750698262
 30
0.0
 70
    32
  0
VERTEX
  5
381
  8
0
  6
CONTINUOUS
 62
     7
 10
946.8439123527208
 20
2247.186750698262
 30
0.0
 70
    32
  0
VERTEX
  5
382
  8
0
  6
CONTINUOUS
 62
     7
 10
946.8165054216972
 20
2247.186750698262
 30
0.0
 70
    32
  0
VERTEX
  5
383
  8
0
  6
CONTINUOUS
 62
     7
 10
946.7897446636584
 20
2247.186750698262
 30
0.0
 70
    32
  0
VERTEX
  5
384
  8
0
  6
CONTINUOUS
 62
     7
 10
946.7636915274959
 20
2247.186750698262
 30
0.0
 70
    32
  0
VERTEX
  5
385
  8
0
  6
CONTINUOUS
 62
     7
 10
946.7384074621009
 20
2247.186750698262
 30
0.0
 70
    32
  0
VERTEX
  5
386
  8
0
  6
CONTINUOUS
 62
     7
 10
946.7139539163643
 20
2247.186750698262
 30
0.0
 70
    32
  0
VERTEX
  5
387
  8
0
  6
CONTINUOUS
 62
     7
 10
946.6903923391781
 20
2247.186750698262
 30
0.0
 70
    32
  0
VERTEX
  5
388
  8
0
  6
CONTINUOUS
 62
     7
 10
946.6677841794334
 20
2247.186750698262
 30
0.0
 70
    32
  0
VERTEX
  5
389
  8
0
  6
CONTINUOUS
 62
     7
 10
946.646190886021
 20
2247.186750698262
 30
0.0
 70
    32
  0
VERTEX
  5
38A
  8
0
  6
CONTINUOUS
 62
     7
 10
946.6256448209722
 20
2247.186750698262
 30
0.0
 70
    32
  0
VERTEX
  5
38B
  8
0
  6
CONTINUOUS
 62
     7
 10
946.6060344578997
 20
2247.186750698262
 30
0.0
 70
    32
  0
VERTEX
  5
38C
  8
0
  6
CONTINUOUS
 62
     7
 10
946.5872038571063
 20
2247.186750698262
 30
0.0
 70
    32
  0
VERTEX
  5
38D
  8
0
  6
CONTINUOUS
 62
     7
 10
946.5689970661366
 20
2247.186750698262
 30
0.0
 70
    32
  0
VERTEX
  5
38E
  8
0
  6
CONTINUOUS
 62
     7
 10
946.5512581325346
 20
2247.186750698262
 30
0.0
 70
    32
  0
VERTEX
  5
38F
  8
0
  6
CONTINUOUS
 62
     7
 10
946.5338311038441
 20
2247.186750698262
 30
0.0
 70
    32
  0
VERTEX
  5
390
  8
0
  6
CONTINUOUS
 62
     7
 10
946.5165600276097
 20
2247.186750698262
 30
0.0
 70
    32
  0
SEQEND
  5
7D4
  8
0
  6
CONTINUOUS
 62
     7
  0
LINE
  5
E7
  8
0
  6
CONTINUOUS
 62
     7
 10
948.316560027618
 20
2248.186750698261
 30
0.0
 11
948.3165600276325
 21
2247.186750698262
 31
0.0
  0
LINE
  5
E8
  8
0
  6
CONTINUOUS
 62
     7
 10
948.5165600276088
 20
2303.186750698265
 30
0.0
 11
948.3165600276088
 21
2303.186750698265
 31
0.0
  0
LINE
  5
E9
  8
0
  6
CONTINUOUS
 62
     7
 10
948.3165600276088
 20
2303.186750698265
 30
0.0
 11
948.3165600276093
 21
2294.07832485601
 31
0.0
  0
POLYLINE
  5
EA
  8
0
  6
CONTINUOUS
 62
     7
 66
     1
 10
0.0
 20
0.0
 30
0.0
  0
VERTEX
  5
391
  8
0
  6
CONTINUOUS
 62
     7
 10
946.5165600276097
 20
2285.932515038441
 30
0.0
  0
VERTEX
  5
392
  8
0
  6
CONTINUOUS
 62
     7
 10
946.5279712126295
 20
2285.919006629252
 30
0.0
  0
VERTEX
  5
393
  8
0
  6
CONTINUOUS
 62
     7
 10
946.5396973060289
 20
2285.905859975145
 30
0.0
  0
VERTEX
  5
394
  8
0
  6
CONTINUOUS
 62
     7
 10
946.5518859311574
 20
2285.893249533994
 30
0.0
  0
VERTEX
  5
395
  8
0
  6
CONTINUOUS
 62
     7
 10
946.5645237422293
 20
2285.881169537914
 30
0.0
  0
VERTEX
  5
396
  8
0
  6
CONTINUOUS
 62
     7
 10
946.5775908699338
 20
2285.869606915093
 30
0.0
  0
VERTEX
  5
397
  8
0
  6
CONTINUOUS
 62
     7
 10
946.5910674449602
 20
2285.85854859372
 30
0.0
  0
VERTEX
  5
398
  8
0
  6
CONTINUOUS
 62
     7
 10
946.604933597997
 20
2285.847981501982
 30
0.0
  0
VERTEX
  5
399
  8
0
  6
CONTINUOUS
 62
     7
 10
946.6191694597334
 20
2285.837892568068
 30
0.0
  0
VERTEX
  5
39A
  8
0
  6
CONTINUOUS
 62
     7
 10
946.6337551608585
 20
2285.828268720163
 30
0.0
  0
VERTEX
  5
39B
  8
0
  6
CONTINUOUS
 62
     7
 10
946.6486708320613
 20
2285.819096886458
 30
0.0
  0
VERTEX
  5
39C
  8
0
  6
CONTINUOUS
 62
     7
 10
946.6638966040308
 20
2285.810363995139
 30
0.0
  0
VERTEX
  5
39D
  8
0
  6
CONTINUOUS
 62
     7
 10
946.6794126074556
 20
2285.802056974394
 30
0.0
  0
VERTEX
  5
39E
  8
0
  6
CONTINUOUS
 62
     7
 10
946.6951989730253
 20
2285.794162752411
 30
0.0
  0
VERTEX
  5
39F
  8
0
  6
CONTINUOUS
 62
     7
 10
946.7112358314284
 20
2285.786668257377
 30
0.0
  0
VERTEX
  5
3A0
  8
0
  6
CONTINUOUS
 62
     7
 10
946.727503313354
 20
2285.779560417482
 30
0.0
  0
VERTEX
  5
3A1
  8
0
  6
CONTINUOUS
 62
     7
 10
946.7439815494913
 20
2285.772826160911
 30
0.0
  0
VERTEX
  5
3A2
  8
0
  6
CONTINUOUS
 62
     7
 10
946.7606506705292
 20
2285.766452415853
 30
0.0
  0
VERTEX
  5
3A3
  8
0
  6
CONTINUOUS
 62
     7
 10
946.7774908071567
 20
2285.760426110496
 30
0.0
  0
VERTEX
  5
3A4
  8
0
  6
CONTINUOUS
 62
     7
 10
946.7944820900625
 20
2285.754734173027
 30
0.0
  0
VERTEX
  5
3A5
  8
0
  6
CONTINUOUS
 62
     7
 10
946.8116046499363
 20
2285.749363531635
 30
0.0
  0
VERTEX
  5
3A6
  8
0
  6
CONTINUOUS
 62
     7
 10
946.8288386174665
 20
2285.744301114507
 30
0.0
  0
VERTEX
  5
3A7
  8
0
  6
CONTINUOUS
 62
     7
 10
946.8461641237461
 20
2285.739533849765
 30
0.0
  0
VERTEX
  5
3A8
  8
0
  6
CONTINUOUS
 62
     7
 10
946.8635643850556
 20
2285.735048160772
 30
0.0
  0
VERTEX
  5
3A9
  8
0
  6
CONTINUOUS
 62
     7
 10
946.8810331339871
 20
2285.730828750355
 30
0.0
  0
VERTEX
  5
3AA
  8
0
  6
CONTINUOUS
 62
     7
 10
946.8985663418568
 20
2285.726859955067
 30
0.0
  0
VERTEX
  5
3AB
  8
0
  6
CONTINUOUS
 62
     7
 10
946.9161599799812
 20
2285.723126111462
 30
0.0
  0
VERTEX
  5
3AC
  8
0
  6
CONTINUOUS
 62
     7
 10
946.9338100196768
 20
2285.719611556096
 30
0.0
  0
VERTEX
  5
3AD
  8
0
  6
CONTINUOUS
 62
     7
 10
946.9515124322595
 20
2285.716300625522
 30
0.0
  0
VERTEX
  5
3AE
  8
0
  6
CONTINUOUS
 62
     7
 10
946.9692631890462
 20
2285.713177656295
 30
0.0
  0
VERTEX
  5
3AF
  8
0
  6
CONTINUOUS
 62
     7
 10
946.9870582613528
 20
2285.710226984969
 30
0.0
  0
VERTEX
  5
3B0
  8
0
  6
CONTINUOUS
 62
     7
 10
947.0048936204962
 20
2285.707432948099
 30
0.0
  0
VERTEX
  5
3B1
  8
0
  6
CONTINUOUS
 62
     7
 10
947.0227652377921
 20
2285.70477988224
 30
0.0
  0
VERTEX
  5
3B2
  8
0
  6
CONTINUOUS
 62
     7
 10
947.0406690845572
 20
2285.702252123944
 30
0.0
  0
VERTEX
  5
3B3
  8
0
  6
CONTINUOUS
 62
     7
 10
947.0586011321078
 20
2285.699834009768
 30
0.0
  0
VERTEX
  5
3B4
  8
0
  6
CONTINUOUS
 62
     7
 10
947.0765573517606
 20
2285.697509876265
 30
0.0
  0
VERTEX
  5
3B5
  8
0
  6
CONTINUOUS
 62
     7
 10
947.0945337148314
 20
2285.695264059991
 30
0.0
  0
VERTEX
  5
3B6
  8
0
  6
CONTINUOUS
 62
     7
 10
947.1125261926368
 20
2285.693080897498
 30
0.0
  0
VERTEX
  5
3B7
  8
0
  6
CONTINUOUS
 62
     7
 10
947.130530756493
 20
2285.690944725342
 30
0.0
  0
VERTEX
  5
3B8
  8
0
  6
CONTINUOUS
 62
     7
 10
947.1485433777166
 20
2285.688839880077
 30
0.0
  0
VERTEX
  5
3B9
  8
0
  6
CONTINUOUS
 62
     7
 10
947.166560027624
 20
2285.686750698258
 30
0.0
  0
SEQEND
  5
7D5
  8
0
  6
CONTINUOUS
 62
     7
  0
LINE
  5
EB
  8
0
  6
CONTINUOUS
 62
     7
 10
948.0165600276241
 20
2285.686750698258
 30
0.0
 11
947.1665600276239
 21
2285.686750698258
 31
0.0
  0
LINE
  5
EC
  8
0
  6
CONTINUOUS
 62
     7
 10
948.516560027618
 20
2248.186750698261
 30
0.0
 11
948.316560027618
 21
2248.186750698261
 31
0.0
  0
LINE
  5
ED
  8
0
  6
CONTINUOUS
 62
     7
 10
948.316560027615
 20
2257.29517654051
 30
0.0
 11
948.316560027618
 21
2248.186750698261
 31
0.0
  0
POLYLINE
  5
EE
  8
0
  6
CONTINUOUS
 62
     7
 66
     1
 10
0.0
 20
0.0
 30
0.0
  0
VERTEX
  5
3BA
  8
0
  6
CONTINUOUS
 62
     7
 10
947.166560027613
 20
2265.686750698258
 30
0.0
  0
VERTEX
  5
3BB
  8
0
  6
CONTINUOUS
 62
     7
 10
947.1436745689825
 20
2265.684475375266
 30
0.0
  0
VERTEX
  5
3BC
  8
0
  6
CONTINUOUS
 62
     7
 10
947.1208091047816
 20
2265.682159124792
 30
0.0
  0
VERTEX
  5
3BD
  8
0
  6
CONTINUOUS
 62
     7
 10
947.09798362944
 20
2265.679761019353
 30
0.0
  0
VERTEX
  5
3BE
  8
0
  6
CONTINUOUS
 62
     7
 10
947.0752181373867
 20
2265.677240131467
 30
0.0
  0
VERTEX
  5
3BF
  8
0
  6
CONTINUOUS
 62
     7
 10
947.0525326230515
 20
2265.674555533652
 30
0.0
  0
VERTEX
  5
3C0
  8
0
  6
CONTINUOUS
 62
     7
 10
947.0299470808638
 20
2265.671666298425
 30
0.0
  0
VERTEX
  5
3C1
  8
0
  6
CONTINUOUS
 62
     7
 10
947.007481505253
 20
2265.668531498305
 30
0.0
  0
VERTEX
  5
3C2
  8
0
  6
CONTINUOUS
 62
     7
 10
946.9851558906491
 20
2265.665110205808
 30
0.0
  0
VERTEX
  5
3C3
  8
0
  6
CONTINUOUS
 62
     7
 10
946.962990231481
 20
2265.661361493453
 30
0.0
  0
VERTEX
  5
3C4
  8
0
  6
CONTINUOUS
 62
     7
 10
946.9410045221783
 20
2265.657244433757
 30
0.0
  0
VERTEX
  5
3C5
  8
0
  6
CONTINUOUS
 62
     7
 10
946.9192187571712
 20
2265.652718099238
 30
0.0
  0
VERTEX
  5
3C6
  8
0
  6
CONTINUOUS
 62
     7
 10
946.8976529308882
 20
2265.647741562413
 30
0.0
  0
VERTEX
  5
3C7
  8
0
  6
CONTINUOUS
 62
     7
 10
946.8763270377597
 20
2265.642273895801
 30
0.0
  0
VERTEX
  5
3C8
  8
0
  6
CONTINUOUS
 62
     7
 10
946.8552610722144
 20
2265.636274171919
 30
0.0
  0
VERTEX
  5
3C9
  8
0
  6
CONTINUOUS
 62
     7
 10
946.8344750286824
 20
2265.629701463285
 30
0.0
  0
VERTEX
  5
3CA
  8
0
  6
CONTINUOUS
 62
     7
 10
946.813988901593
 20
2265.622514842416
 30
0.0
  0
VERTEX
  5
3CB
  8
0
  6
CONTINUOUS
 62
     7
 10
946.7938186988541
 20
2265.614681542017
 30
0.0
  0
VERTEX
  5
3CC
  8
0
  6
CONTINUOUS
 62
     7
 10
946.7739544537137
 20
2265.606221963475
 30
0.0
  0
VERTEX
  5
3CD
  8
0
  6
CONTINUOUS
 62
     7
 10
946.754375794861
 20
2265.597177805726
 30
0.0
  0
VERTEX
  5
3CE
  8
0
  6
CONTINUOUS
 62
     7
 10
946.7350623232753
 20
2265.587590824429
 30
0.0
  0
VERTEX
  5
3CF
  8
0
  6
CONTINUOUS
 62
     7
 10
946.7159936399363
 20
2265.57750277524
 30
0.0
  0
VERTEX
  5
3D0
  8
0
  6
CONTINUOUS
 62
     7
 10
946.6971493458237
 20
2265.566955413816
 30
0.0
  0
VERTEX
  5
3D1
  8
0
  6
CONTINUOUS
 62
     7
 10
946.6785090419164
 20
2265.555990495817
 30
0.0
  0
VERTEX
  5
3D2
  8
0
  6
CONTINUOUS
 62
     7
 10
946.6600523291944
 20
2265.544649776899
 30
0.0
  0
VERTEX
  5
3D3
  8
0
  6
CONTINUOUS
 62
     7
 10
946.6417588086365
 20
2265.53297501272
 30
0.0
  0
VERTEX
  5
3D4
  8
0
  6
CONTINUOUS
 62
     7
 10
946.6236080812226
 20
2265.521007958938
 30
0.0
  0
VERTEX
  5
3D5
  8
0
  6
CONTINUOUS
 62
     7
 10
946.6055797479319
 20
2265.50879037121
 30
0.0
  0
VERTEX
  5
3D6
  8
0
  6
CONTINUOUS
 62
     7
 10
946.587653409744
 20
2265.496364005193
 30
0.0
  0
VERTEX
  5
3D7
  8
0
  6
CONTINUOUS
 62
     7
 10
946.5698086676387
 20
2265.483770616547
 30
0.0
  0
VERTEX
  5
3D8
  8
0
  6
CONTINUOUS
 62
     7
 10
946.5520251225946
 20
2265.471051960927
 30
0.0
  0
VERTEX
  5
3D9
  8
0
  6
CONTINUOUS
 62
     7
 10
946.5342823755918
 20
2265.458249793992
 30
0.0
  0
VERTEX
  5
3DA
  8
0
  6
CONTINUOUS
 62
     7
 10
946.5165600276097
 20
2265.4454058714
 30
0.0
  0
SEQEND
  5
7D6
  8
0
  6
CONTINUOUS
 62
     7
  0
LINE
  5
EF
  8
0
  6
CONTINUOUS
 62
     7
 10
947.166560027613
 20
2265.686750698258
 30
0.0
 11
948.0165600276157
 21
2265.686750698261
 31
0.0
  0
LINE
  5
F0
  8
0
  6
CONTINUOUS
 62
     7
 10
948.516560027609
 20
2304.186750698265
 30
0.0
 11
948.3165600276091
 21
2304.186750698265
 31
0.0
  0
LINE
  5
F1
  8
0
  6
CONTINUOUS
 62
     7
 10
948.5165600276324
 20
2247.186750698262
 30
0.0
 11
948.3165600276325
 21
2247.186750698262
 31
0.0
  0
LINE
  5
F2
  8
0
  6
CONTINUOUS
 62
     7
 10
948.0165600276082
 20
1518.642708837318
 30
0.0
 11
948.5165600276097
 21
1518.642708837318
 31
0.0
  0
LINE
  5
F3
  8
0
  6
CONTINUOUS
 62
     7
 10
948.0165600276073
 20
1517.086750698026
 30
0.0
 11
948.5165600276072
 21
1517.086750698026
 31
0.0
  0
LINE
  5
F4
  8
0
  6
CONTINUOUS
 62
     7
 10
948.0165600276073
 20
1517.086750698026
 30
0.0
 11
948.0165600276082
 21
1518.642708837318
 31
0.0
  0
LINE
  5
F5
  8
0
  6
CONTINUOUS
 62
     7
 10
948.5165600276097
 20
1500.730792559189
 30
0.0
 11
948.0165600276149
 21
1500.73079255919
 31
0.0
  0
LINE
  5
F6
  8
0
  6
CONTINUOUS
 62
     7
 10
948.0165600276149
 20
1500.73079255919
 30
0.0
 11
948.016560027623
 21
1502.286750698476
 31
0.0
  0
LINE
  5
F7
  8
0
  6
CONTINUOUS
 62
     7
 10
948.516560027623
 20
1502.286750698476
 30
0.0
 11
948.016560027623
 21
1502.286750698476
 31
0.0
  0
LINE
  5
F8
  8
0
  6
CONTINUOUS
 62
     7
 10
948.3165600276093
 20
1528.07832485601
 30
0.0
 11
948.0165600276091
 21
1528.07832485601
 31
0.0
  0
LINE
  5
F9
  8
0
  6
CONTINUOUS
 62
     7
 10
948.5165600276093
 20
1528.07832485601
 30
0.0
 11
948.3165600276093
 21
1528.07832485601
 31
0.0
  0
LINE
  5
FA
  8
0
  6
CONTINUOUS
 62
     7
 10
948.0165600276091
 20
1528.07832485601
 30
0.0
 11
948.0165600276082
 21
1518.642708837318
 31
0.0
  0
LINE
  5
FB
  8
0
  6
CONTINUOUS
 62
     7
 10
948.316560027615
 20
1491.295176540511
 30
0.0
 11
948.516560027615
 21
1491.295176540511
 31
0.0
  0
LINE
  5
FC
  8
0
  6
CONTINUOUS
 62
     7
 10
948.016560027615
 20
1491.295176540511
 30
0.0
 11
948.316560027615
 21
1491.295176540511
 31
0.0
  0
LINE
  5
FD
  8
0
  6
CONTINUOUS
 62
     7
 10
948.0165600276149
 20
1500.73079255919
 30
0.0
 11
948.016560027615
 21
1491.295176540511
 31
0.0
  0
POLYLINE
  5
FE
  8
0
  6
CONTINUOUS
 62
     7
 10
0.0
 20
0.0
 30
0.0
 66
     1
 70
     8
  0
VERTEX
  5
3DB
  8
0
  6
CONTINUOUS
 62
     7
 10
946.5165600276098
 20
1538.18675069826
 30
0.0
 70
    32
  0
VERTEX
  5
3DC
  8
0
  6
CONTINUOUS
 62
     7
 10
946.5338288529891
 20
1538.18675069826
 30
0.0
 70
    32
  0
VERTEX
  5
3DD
  8
0
  6
CONTINUOUS
 62
     7
 10
946.5512539364597
 20
1538.186750698259
 30
0.0
 70
    32
  0
VERTEX
  5
3DE
  8
0
  6
CONTINUOUS
 62
     7
 10
946.5689915361136
 20
1538.18675069826
 30
0.0
 70
    32
  0
VERTEX
  5
3DF
  8
0
  6
CONTINUOUS
 62
     7
 10
946.5871979100411
 20
1538.18675069826
 30
0.0
 70
    32
  0
VERTEX
  5
3E0
  8
0
  6
CONTINUOUS
 62
     7
 10
946.6060293163341
 20
1538.18675069826
 30
0.0
 70
    32
  0
VERTEX
  5
3E1
  8
0
  6
CONTINUOUS
 62
     7
 10
946.6256420130838
 20
1538.18675069826
 30
0.0
 70
    32
  0
VERTEX
  5
3E2
  8
0
  6
CONTINUOUS
 62
     7
 10
946.6461922363727
 20
1538.18675069826
 30
0.0
 70
    32
  0
VERTEX
  5
3E3
  8
0
  6
CONTINUOUS
 62
     7
 10
946.6677900239915
 20
1538.186750698259
 30
0.0
 70
    32
  0
VERTEX
  5
3E4
  8
0
  6
CONTINUOUS
 62
     7
 10
946.6904018193125
 20
1538.18675069826
 30
0.0
 70
    32
  0
VERTEX
  5
3E5
  8
0
  6
CONTINUOUS
 62
     7
 10
946.7139662480937
 20
1538.18675069826
 30
0.0
 70
    32
  0
VERTEX
  5
3E6
  8
0
  6
CONTINUOUS
 62
     7
 10
946.7384219360944
 20
1538.18675069826
 30
0.0
 70
    32
  0
VERTEX
  5
3E7
  8
0
  6
CONTINUOUS
 62
     7
 10
946.7637075090727
 20
1538.186750698259
 30
0.0
 70
    32
  0
VERTEX
  5
3E8
  8
0
  6
CONTINUOUS
 62
     7
 10
946.7897615927877
 20
1538.18675069826
 30
0.0
 70
    32
  0
VERTEX
  5
3E9
  8
0
  6
CONTINUOUS
 62
     7
 10
946.8165228129977
 20
1538.186750698259
 30
0.0
 70
    32
  0
VERTEX
  5
3EA
  8
0
  6
CONTINUOUS
 62
     7
 10
946.8439297954617
 20
1538.186750698259
 30
0.0
 70
    32
  0
VERTEX
  5
3EB
  8
0
  6
CONTINUOUS
 62
     7
 10
946.8719211659385
 20
1538.18675069826
 30
0.0
 70
    32
  0
VERTEX
  5
3EC
  8
0
  6
CONTINUOUS
 62
     7
 10
946.9004355501859
 20
1538.186750698259
 30
0.0
 70
    32
  0
VERTEX
  5
3ED
  8
0
  6
CONTINUOUS
 62
     7
 10
946.9294202010399
 20
1538.18675069826
 30
0.0
 70
    32
  0
VERTEX
  5
3EE
  8
0
  6
CONTINUOUS
 62
     7
 10
946.9588645099201
 20
1538.186750698259
 30
0.0
 70
    32
  0
VERTEX
  5
3EF
  8
0
  6
CONTINUOUS
 62
     7
 10
946.9887707143291
 20
1538.18675069826
 30
0.0
 70
    32
  0
VERTEX
  5
3F0
  8
0
  6
CONTINUOUS
 62
     7
 10
947.0191410548755
 20
1538.186750698259
 30
0.0
 70
    32
  0
VERTEX
  5
3F1
  8
0
  6
CONTINUOUS
 62
     7
 10
947.0499777721685
 20
1538.18675069826
 30
0.0
 70
    32
  0
VERTEX
  5
3F2
  8
0
  6
CONTINUOUS
 62
     7
 10
947.0812831068162
 20
1538.18675069826
 30
0.0
 70
    32
  0
VERTEX
  5
3F3
  8
0
  6
CONTINUOUS
 62
     7
 10
947.1130592994275
 20
1538.18675069826
 30
0.0
 70
    32
  0
VERTEX
  5
3F4
  8
0
  6
CONTINUOUS
 62
     7
 10
947.1453085906114
 20
1538.186750698259
 30
0.0
 70
    32
  0
VERTEX
  5
3F5
  8
0
  6
CONTINUOUS
 62
     7
 10
947.1780332209765
 20
1538.18675069826
 30
0.0
 70
    32
  0
VERTEX
  5
3F6
  8
0
  6
CONTINUOUS
 62
     7
 10
947.2112354311312
 20
1538.186750698259
 30
0.0
 70
    32
  0
VERTEX
  5
3F7
  8
0
  6
CONTINUOUS
 62
     7
 10
947.2449158699402
 20
1538.18675069826
 30
0.0
 70
    32
  0
VERTEX
  5
3F8
  8
0
  6
CONTINUOUS
 62
     7
 10
947.2790632632635
 20
1538.18675069826
 30
0.0
 70
    32
  0
VERTEX
  5
3F9
  8
0
  6
CONTINUOUS
 62
     7
 10
947.3136609301737
 20
1538.186750698259
 30
0.0
 70
    32
  0
VERTEX
  5
3FA
  8
0
  6
CONTINUOUS
 62
     7
 10
947.3486921628635
 20
1538.18675069826
 30
0.0
 70
    32
  0
VERTEX
  5
3FB
  8
0
  6
CONTINUOUS
 62
     7
 10
947.384140253525
 20
1538.18675069826
 30
0.0
 70
    32
  0
VERTEX
  5
3FC
  8
0
  6
CONTINUOUS
 62
     7
 10
947.4199884943505
 20
1538.18675069826
 30
0.0
 70
    32
  0
VERTEX
  5
3FD
  8
0
  6
CONTINUOUS
 62
     7
 10
947.4562201775325
 20
1538.18675069826
 30
0.0
 70
    32
  0
VERTEX
  5
3FE
  8
0
  6
CONTINUOUS
 62
     7
 10
947.4928185952633
 20
1538.18675069826
 30
0.0
 70
    32
  0
VERTEX
  5
3FF
  8
0
  6
CONTINUOUS
 62
     7
 10
947.5297670397351
 20
1538.18675069826
 30
0.0
 70
    32
  0
VERTEX
  5
400
  8
0
  6
CONTINUOUS
 62
     7
 10
947.5670488031403
 20
1538.18675069826
 30
0.0
 70
    32
  0
VERTEX
  5
401
  8
0
  6
CONTINUOUS
 62
     7
 10
947.6046471796773
 20
1538.18675069826
 30
0.0
 70
    32
  0
VERTEX
  5
402
  8
0
  6
CONTINUOUS
 62
     7
 10
947.6425454888192
 20
1538.18675069826
 30
0.0
 70
    32
  0
VERTEX
  5
403
  8
0
  6
CONTINUOUS
 62
     7
 10
947.6807270673263
 20
1538.18675069826
 30
0.0
 70
    32
  0
VERTEX
  5
404
  8
0
  6
CONTINUOUS
 62
     7
 10
947.7191752522955
 20
1538.186750698261
 30
0.0
 70
    32
  0
VERTEX
  5
405
  8
0
  6
CONTINUOUS
 62
     7
 10
947.7578733808219
 20
1538.186750698261
 30
0.0
 70
    32
  0
VERTEX
  5
406
  8
0
  6
CONTINUOUS
 62
     7
 10
947.796804790003
 20
1538.186750698261
 30
0.0
 70
    32
  0
VERTEX
  5
407
  8
0
  6
CONTINUOUS
 62
     7
 10
947.8359528169337
 20
1538.186750698261
 30
0.0
 70
    32
  0
VERTEX
  5
408
  8
0
  6
CONTINUOUS
 62
     7
 10
947.8753007987109
 20
1538.186750698262
 30
0.0
 70
    32
  0
VERTEX
  5
409
  8
0
  6
CONTINUOUS
 62
     7
 10
947.9148320724304
 20
1538.186750698262
 30
0.0
 70
    32
  0
VERTEX
  5
40A
  8
0
  6
CONTINUOUS
 62
     7
 10
947.9545299751885
 20
1538.186750698262
 30
0.0
 70
    32
  0
VERTEX
  5
40B
  8
0
  6
CONTINUOUS
 62
     7
 10
947.9943778440812
 20
1538.186750698262
 30
0.0
 70
    32
  0
VERTEX
  5
40C
  8
0
  6
CONTINUOUS
 62
     7
 10
948.0343590162047
 20
1538.186750698263
 30
0.0
 70
    32
  0
VERTEX
  5
40D
  8
0
  6
CONTINUOUS
 62
     7
 10
948.0744568286552
 20
1538.186750698263
 30
0.0
 70
    32
  0
VERTEX
  5
40E
  8
0
  6
CONTINUOUS
 62
     7
 10
948.1146546185289
 20
1538.186750698263
 30
0.0
 70
    32
  0
VERTEX
  5
40F
  8
0
  6
CONTINUOUS
 62
     7
 10
948.1549357229218
 20
1538.186750698263
 30
0.0
 70
    32
  0
VERTEX
  5
410
  8
0
  6
CONTINUOUS
 62
     7
 10
948.1952834789302
 20
1538.186750698264
 30
0.0
 70
    32
  0
VERTEX
  5
411
  8
0
  6
CONTINUOUS
 62
     7
 10
948.2356812236499
 20
1538.186750698264
 30
0.0
 70
    32
  0
VERTEX
  5
412
  8
0
  6
CONTINUOUS
 62
     7
 10
948.2761122941777
 20
1538.186750698265
 30
0.0
 70
    32
  0
VERTEX
  5
413
  8
0
  6
CONTINUOUS
 62
     7
 10
948.3165600276091
 20
1538.186750698265
 30
0.0
 70
    32
  0
SEQEND
  5
7D7
  8
0
  6
CONTINUOUS
 62
     7
  0
LINE
  5
FF
  8
0
  6
CONTINUOUS
 62
     7
 10
948.3165600276088
 20
1537.186750698266
 30
0.0
 11
948.3165600276091
 21
1538.186750698265
 31
0.0
  0
POLYLINE
  5
100
  8
0
  6
CONTINUOUS
 62
     7
 10
0.0
 20
0.0
 30
0.0
 66
     1
 70
     8
  0
VERTEX
  5
414
  8
0
  6
CONTINUOUS
 62
     7
 10
948.3165600276326
 20
1481.186750698262
 30
0.0
 70
    32
  0
VERTEX
  5
415
  8
0
  6
CONTINUOUS
 62
     7
 10
948.276111548935
 20
1481.186750698262
 30
0.0
 70
    32
  0
VERTEX
  5
416
  8
0
  6
CONTINUOUS
 62
     7
 10
948.2356797366327
 20
1481.186750698262
 30
0.0
 70
    32
  0
VERTEX
  5
417
  8
0
  6
CONTINUOUS
 62
     7
 10
948.19528125712
 20
1481.186750698262
 30
0.0
 70
    32
  0
VERTEX
  5
418
  8
0
  6
CONTINUOUS
 62
     7
 10
948.1549327767914
 20
1481.186750698262
 30
0.0
 70
    32
  0
VERTEX
  5
419
  8
0
  6
CONTINUOUS
 62
     7
 10
948.1146509620426
 20
1481.186750698263
 30
0.0
 70
    32
  0
VERTEX
  5
41A
  8
0
  6
CONTINUOUS
 62
     7
 10
948.0744524792673
 20
1481.186750698263
 30
0.0
 70
    32
  0
VERTEX
  5
41B
  8
0
  6
CONTINUOUS
 62
     7
 10
948.0343539948612
 20
1481.186750698262
 30
0.0
 70
    32
  0
VERTEX
  5
41C
  8
0
  6
CONTINUOUS
 62
     7
 10
947.9943721752189
 20
1481.186750698263
 30
0.0
 70
    32
  0
VERTEX
  5
41D
  8
0
  6
CONTINUOUS
 62
     7
 10
947.9545236867349
 20
1481.186750698262
 30
0.0
 70
    32
  0
VERTEX
  5
41E
  8
0
  6
CONTINUOUS
 62
     7
 10
947.9148251958044
 20
1481.186750698263
 30
0.0
 70
    32
  0
VERTEX
  5
41F
  8
0
  6
CONTINUOUS
 62
     7
 10
947.8752933688219
 20
1481.186750698262
 30
0.0
 70
    32
  0
VERTEX
  5
420
  8
0
  6
CONTINUOUS
 62
     7
 10
947.8359448721824
 20
1481.186750698262
 30
0.0
 70
    32
  0
VERTEX
  5
421
  8
0
  6
CONTINUOUS
 62
     7
 10
947.7967963722806
 20
1481.186750698262
 30
0.0
 70
    32
  0
VERTEX
  5
422
  8
0
  6
CONTINUOUS
 62
     7
 10
947.7578645355114
 20
1481.186750698262
 30
0.0
 70
    32
  0
VERTEX
  5
423
  8
0
  6
CONTINUOUS
 62
     7
 10
947.7191660282698
 20
1481.186750698262
 30
0.0
 70
    32
  0
VERTEX
  5
424
  8
0
  6
CONTINUOUS
 62
     7
 10
947.6807175169504
 20
1481.186750698262
 30
0.0
 70
    32
  0
VERTEX
  5
425
  8
0
  6
CONTINUOUS
 62
     7
 10
947.6425356679479
 20
1481.186750698262
 30
0.0
 70
    32
  0
VERTEX
  5
426
  8
0
  6
CONTINUOUS
 62
     7
 10
947.6046371476574
 20
1481.186750698262
 30
0.0
 70
    32
  0
VERTEX
  5
427
  8
0
  6
CONTINUOUS
 62
     7
 10
947.5670386227156
 20
1481.186750698262
 30
0.0
 70
    32
  0
VERTEX
  5
428
  8
0
  6
CONTINUOUS
 62
     7
 10
947.5297567722216
 20
1481.186750698262
 30
0.0
 70
    32
  0
VERTEX
  5
429
  8
0
  6
CONTINUOUS
 62
     7
 10
947.4928082934791
 20
1481.186750698262
 30
0.0
 70
    32
  0
VERTEX
  5
42A
  8
0
  6
CONTINUOUS
 62
     7
 10
947.4562098852367
 20
1481.186750698262
 30
0.0
 70
    32
  0
VERTEX
  5
42B
  8
0
  6
CONTINUOUS
 62
     7
 10
947.4199782462422
 20
1481.186750698263
 30
0.0
 70
    32
  0
VERTEX
  5
42C
  8
0
  6
CONTINUOUS
 62
     7
 10
947.3841300752429
 20
1481.186750698262
 30
0.0
 70
    32
  0
VERTEX
  5
42D
  8
0
  6
CONTINUOUS
 62
     7
 10
947.348682070987
 20
1481.186750698262
 30
0.0
 70
    32
  0
VERTEX
  5
42E
  8
0
  6
CONTINUOUS
 62
     7
 10
947.3136509322229
 20
1481.186750698263
 30
0.0
 70
    32
  0
VERTEX
  5
42F
  8
0
  6
CONTINUOUS
 62
     7
 10
947.2790533576978
 20
1481.186750698262
 30
0.0
 70
    32
  0
VERTEX
  5
430
  8
0
  6
CONTINUOUS
 62
     7
 10
947.2449060461602
 20
1481.186750698262
 30
0.0
 70
    32
  0
VERTEX
  5
431
  8
0
  6
CONTINUOUS
 62
     7
 10
947.2112256637618
 20
1481.186750698262
 30
0.0
 70
    32
  0
VERTEX
  5
432
  8
0
  6
CONTINUOUS
 62
     7
 10
947.1780233172184
 20
1481.186750698262
 30
0.0
 70
    32
  0
VERTEX
  5
433
  8
0
  6
CONTINUOUS
 62
     7
 10
947.1452983150612
 20
1481.186750698262
 30
0.0
 70
    32
  0
VERTEX
  5
434
  8
0
  6
CONTINUOUS
 62
     7
 10
947.113048459283
 20
1481.186750698262
 30
0.0
 70
    32
  0
VERTEX
  5
435
  8
0
  6
CONTINUOUS
 62
     7
 10
947.0812715518794
 20
1481.186750698262
 30
0.0
 70
    32
  0
VERTEX
  5
436
  8
0
  6
CONTINUOUS
 62
     7
 10
947.0499653948431
 20
1481.186750698262
 30
0.0
 70
    32
  0
VERTEX
  5
437
  8
0
  6
CONTINUOUS
 62
     7
 10
947.0191277901688
 20
1481.186750698262
 30
0.0
 70
    32
  0
VERTEX
  5
438
  8
0
  6
CONTINUOUS
 62
     7
 10
946.9887565398501
 20
1481.186750698262
 30
0.0
 70
    32
  0
VERTEX
  5
439
  8
0
  6
CONTINUOUS
 62
     7
 10
946.9588494458809
 20
1481.186750698262
 30
0.0
 70
    32
  0
VERTEX
  5
43A
  8
0
  6
CONTINUOUS
 62
     7
 10
946.9294043102554
 20
1481.186750698262
 30
0.0
 70
    32
  0
VERTEX
  5
43B
  8
0
  6
CONTINUOUS
 62
     7
 10
946.9004189381573
 20
1481.186750698262
 30
0.0
 70
    32
  0
VERTEX
  5
43C
  8
0
  6
CONTINUOUS
 62
     7
 10
946.871904007838
 20
1481.186750698262
 30
0.0
 70
    32
  0
VERTEX
  5
43D
  8
0
  6
CONTINUOUS
 62
     7
 10
946.8439123527206
 20
1481.186750698262
 30
0.0
 70
    32
  0
VERTEX
  5
43E
  8
0
  6
CONTINUOUS
 62
     7
 10
946.8165054216971
 20
1481.186750698262
 30
0.0
 70
    32
  0
VERTEX
  5
43F
  8
0
  6
CONTINUOUS
 62
     7
 10
946.7897446636584
 20
1481.186750698262
 30
0.0
 70
    32
  0
VERTEX
  5
440
  8
0
  6
CONTINUOUS
 62
     7
 10
946.7636915274961
 20
1481.186750698262
 30
0.0
 70
    32
  0
VERTEX
  5
441
  8
0
  6
CONTINUOUS
 62
     7
 10
946.7384074621007
 20
1481.186750698262
 30
0.0
 70
    32
  0
VERTEX
  5
442
  8
0
  6
CONTINUOUS
 62
     7
 10
946.7139539163643
 20
1481.186750698262
 30
0.0
 70
    32
  0
VERTEX
  5
443
  8
0
  6
CONTINUOUS
 62
     7
 10
946.6903923391781
 20
1481.186750698262
 30
0.0
 70
    32
  0
VERTEX
  5
444
  8
0
  6
CONTINUOUS
 62
     7
 10
946.6677841794333
 20
1481.186750698262
 30
0.0
 70
    32
  0
VERTEX
  5
445
  8
0
  6
CONTINUOUS
 62
     7
 10
946.6461908860213
 20
1481.186750698262
 30
0.0
 70
    32
  0
VERTEX
  5
446
  8
0
  6
CONTINUOUS
 62
     7
 10
946.6256448209723
 20
1481.186750698262
 30
0.0
 70
    32
  0
VERTEX
  5
447
  8
0
  6
CONTINUOUS
 62
     7
 10
946.6060344578997
 20
1481.186750698262
 30
0.0
 70
    32
  0
VERTEX
  5
448
  8
0
  6
CONTINUOUS
 62
     7
 10
946.5872038571063
 20
1481.186750698262
 30
0.0
 70
    32
  0
VERTEX
  5
449
  8
0
  6
CONTINUOUS
 62
     7
 10
946.5689970661365
 20
1481.186750698262
 30
0.0
 70
    32
  0
VERTEX
  5
44A
  8
0
  6
CONTINUOUS
 62
     7
 10
946.5512581325345
 20
1481.186750698262
 30
0.0
 70
    32
  0
VERTEX
  5
44B
  8
0
  6
CONTINUOUS
 62
     7
 10
946.533831103844
 20
1481.186750698262
 30
0.0
 70
    32
  0
VERTEX
  5
44C
  8
0
  6
CONTINUOUS
 62
     7
 10
946.5165600276097
 20
1481.186750698262
 30
0.0
 70
    32
  0
SEQEND
  5
7D8
  8
0
  6
CONTINUOUS
 62
     7
  0
LINE
  5
101
  8
0
  6
CONTINUOUS
 62
     7
 10
948.316560027618
 20
1482.186750698261
 30
0.0
 11
948.3165600276325
 21
1481.186750698262
 31
0.0
  0
LINE
  5
102
  8
0
  6
CONTINUOUS
 62
     7
 10
948.5165600276088
 20
1537.186750698266
 30
0.0
 11
948.3165600276088
 21
1537.186750698266
 31
0.0
  0
LINE
  5
103
  8
0
  6
CONTINUOUS
 62
     7
 10
948.3165600276088
 20
1537.186750698266
 30
0.0
 11
948.3165600276093
 21
1528.07832485601
 31
0.0
  0
POLYLINE
  5
104
  8
0
  6
CONTINUOUS
 62
     7
 66
     1
 10
0.0
 20
0.0
 30
0.0
  0
VERTEX
  5
44D
  8
0
  6
CONTINUOUS
 62
     7
 10
946.5165600276097
 20
1519.932515038441
 30
0.0
  0
VERTEX
  5
44E
  8
0
  6
CONTINUOUS
 62
     7
 10
946.5279712126295
 20
1519.919006629251
 30
0.0
  0
VERTEX
  5
44F
  8
0
  6
CONTINUOUS
 62
     7
 10
946.5396973060289
 20
1519.905859975146
 30
0.0
  0
VERTEX
  5
450
  8
0
  6
CONTINUOUS
 62
     7
 10
946.5518859311574
 20
1519.893249533994
 30
0.0
  0
VERTEX
  5
451
  8
0
  6
CONTINUOUS
 62
     7
 10
946.5645237422293
 20
1519.881169537914
 30
0.0
  0
VERTEX
  5
452
  8
0
  6
CONTINUOUS
 62
     7
 10
946.5775908699338
 20
1519.869606915093
 30
0.0
  0
VERTEX
  5
453
  8
0
  6
CONTINUOUS
 62
     7
 10
946.5910674449602
 20
1519.85854859372
 30
0.0
  0
VERTEX
  5
454
  8
0
  6
CONTINUOUS
 62
     7
 10
946.604933597997
 20
1519.847981501983
 30
0.0
  0
VERTEX
  5
455
  8
0
  6
CONTINUOUS
 62
     7
 10
946.6191694597334
 20
1519.837892568068
 30
0.0
  0
VERTEX
  5
456
  8
0
  6
CONTINUOUS
 62
     7
 10
946.6337551608585
 20
1519.828268720164
 30
0.0
  0
VERTEX
  5
457
  8
0
  6
CONTINUOUS
 62
     7
 10
946.6486708320613
 20
1519.819096886458
 30
0.0
  0
VERTEX
  5
458
  8
0
  6
CONTINUOUS
 62
     7
 10
946.6638966040308
 20
1519.81036399514
 30
0.0
  0
VERTEX
  5
459
  8
0
  6
CONTINUOUS
 62
     7
 10
946.6794126074556
 20
1519.802056974394
 30
0.0
  0
VERTEX
  5
45A
  8
0
  6
CONTINUOUS
 62
     7
 10
946.6951989730253
 20
1519.794162752412
 30
0.0
  0
VERTEX
  5
45B
  8
0
  6
CONTINUOUS
 62
     7
 10
946.7112358314284
 20
1519.786668257378
 30
0.0
  0
VERTEX
  5
45C
  8
0
  6
CONTINUOUS
 62
     7
 10
946.727503313354
 20
1519.779560417482
 30
0.0
  0
VERTEX
  5
45D
  8
0
  6
CONTINUOUS
 62
     7
 10
946.7439815494913
 20
1519.772826160911
 30
0.0
  0
VERTEX
  5
45E
  8
0
  6
CONTINUOUS
 62
     7
 10
946.7606506705292
 20
1519.766452415853
 30
0.0
  0
VERTEX
  5
45F
  8
0
  6
CONTINUOUS
 62
     7
 10
946.7774908071567
 20
1519.760426110496
 30
0.0
  0
VERTEX
  5
460
  8
0
  6
CONTINUOUS
 62
     7
 10
946.7944820900625
 20
1519.754734173028
 30
0.0
  0
VERTEX
  5
461
  8
0
  6
CONTINUOUS
 62
     7
 10
946.8116046499363
 20
1519.749363531635
 30
0.0
  0
VERTEX
  5
462
  8
0
  6
CONTINUOUS
 62
     7
 10
946.8288386174665
 20
1519.744301114507
 30
0.0
  0
VERTEX
  5
463
  8
0
  6
CONTINUOUS
 62
     7
 10
946.8461641237461
 20
1519.739533849765
 30
0.0
  0
VERTEX
  5
464
  8
0
  6
CONTINUOUS
 62
     7
 10
946.8635643850556
 20
1519.735048160773
 30
0.0
  0
VERTEX
  5
465
  8
0
  6
CONTINUOUS
 62
     7
 10
946.8810331339871
 20
1519.730828750355
 30
0.0
  0
VERTEX
  5
466
  8
0
  6
CONTINUOUS
 62
     7
 10
946.8985663418568
 20
1519.726859955067
 30
0.0
  0
VERTEX
  5
467
  8
0
  6
CONTINUOUS
 62
     7
 10
946.9161599799812
 20
1519.723126111462
 30
0.0
  0
VERTEX
  5
468
  8
0
  6
CONTINUOUS
 62
     7
 10
946.9338100196768
 20
1519.719611556096
 30
0.0
  0
VERTEX
  5
469
  8
0
  6
CONTINUOUS
 62
     7
 10
946.9515124322595
 20
1519.716300625521
 30
0.0
  0
VERTEX
  5
46A
  8
0
  6
CONTINUOUS
 62
     7
 10
946.9692631890462
 20
1519.713177656295
 30
0.0
  0
VERTEX
  5
46B
  8
0
  6
CONTINUOUS
 62
     7
 10
946.9870582613528
 20
1519.710226984969
 30
0.0
  0
VERTEX
  5
46C
  8
0
  6
CONTINUOUS
 62
     7
 10
947.0048936204962
 20
1519.707432948099
 30
0.0
  0
VERTEX
  5
46D
  8
0
  6
CONTINUOUS
 62
     7
 10
947.0227652377921
 20
1519.704779882239
 30
0.0
  0
VERTEX
  5
46E
  8
0
  6
CONTINUOUS
 62
     7
 10
947.0406690845572
 20
1519.702252123944
 30
0.0
  0
VERTEX
  5
46F
  8
0
  6
CONTINUOUS
 62
     7
 10
947.0586011321078
 20
1519.699834009768
 30
0.0
  0
VERTEX
  5
470
  8
0
  6
CONTINUOUS
 62
     7
 10
947.0765573517606
 20
1519.697509876265
 30
0.0
  0
VERTEX
  5
471
  8
0
  6
CONTINUOUS
 62
     7
 10
947.0945337148314
 20
1519.69526405999
 30
0.0
  0
VERTEX
  5
472
  8
0
  6
CONTINUOUS
 62
     7
 10
947.1125261926368
 20
1519.693080897498
 30
0.0
  0
VERTEX
  5
473
  8
0
  6
CONTINUOUS
 62
     7
 10
947.130530756493
 20
1519.690944725342
 30
0.0
  0
VERTEX
  5
474
  8
0
  6
CONTINUOUS
 62
     7
 10
947.1485433777166
 20
1519.688839880077
 30
0.0
  0
VERTEX
  5
475
  8
0
  6
CONTINUOUS
 62
     7
 10
947.166560027624
 20
1519.686750698258
 30
0.0
  0
SEQEND
  5
7D9
  8
0
  6
CONTINUOUS
 62
     7
  0
LINE
  5
105
  8
0
  6
CONTINUOUS
 62
     7
 10
948.0165600276179
 20
1519.686750698258
 30
0.0
 11
947.1665600276239
 21
1519.686750698258
 31
0.0
  0
LINE
  5
106
  8
0
  6
CONTINUOUS
 62
     7
 10
948.516560027618
 20
1482.186750698261
 30
0.0
 11
948.316560027618
 21
1482.186750698261
 31
0.0
  0
LINE
  5
107
  8
0
  6
CONTINUOUS
 62
     7
 10
948.316560027615
 20
1491.295176540511
 30
0.0
 11
948.316560027618
 21
1482.186750698261
 31
0.0
  0
POLYLINE
  5
108
  8
0
  6
CONTINUOUS
 62
     7
 66
     1
 10
0.0
 20
0.0
 30
0.0
  0
VERTEX
  5
476
  8
0
  6
CONTINUOUS
 62
     7
 10
947.166560027613
 20
1499.686750698258
 30
0.0
  0
VERTEX
  5
477
  8
0
  6
CONTINUOUS
 62
     7
 10
947.1436745689826
 20
1499.684475375266
 30
0.0
  0
VERTEX
  5
478
  8
0
  6
CONTINUOUS
 62
     7
 10
947.1208091047821
 20
1499.682159124792
 30
0.0
  0
VERTEX
  5
479
  8
0
  6
CONTINUOUS
 62
     7
 10
947.0979836294403
 20
1499.679761019353
 30
0.0
  0
VERTEX
  5
47A
  8
0
  6
CONTINUOUS
 62
     7
 10
947.0752181373869
 20
1499.677240131467
 30
0.0
  0
VERTEX
  5
47B
  8
0
  6
CONTINUOUS
 62
     7
 10
947.0525326230515
 20
1499.674555533652
 30
0.0
  0
VERTEX
  5
47C
  8
0
  6
CONTINUOUS
 62
     7
 10
947.0299470808638
 20
1499.671666298425
 30
0.0
  0
VERTEX
  5
47D
  8
0
  6
CONTINUOUS
 62
     7
 10
947.0074815052532
 20
1499.668531498304
 30
0.0
  0
VERTEX
  5
47E
  8
0
  6
CONTINUOUS
 62
     7
 10
946.9851558906491
 20
1499.665110205808
 30
0.0
  0
VERTEX
  5
47F
  8
0
  6
CONTINUOUS
 62
     7
 10
946.9629902314808
 20
1499.661361493452
 30
0.0
  0
VERTEX
  5
480
  8
0
  6
CONTINUOUS
 62
     7
 10
946.9410045221784
 20
1499.657244433757
 30
0.0
  0
VERTEX
  5
481
  8
0
  6
CONTINUOUS
 62
     7
 10
946.9192187571712
 20
1499.652718099238
 30
0.0
  0
VERTEX
  5
482
  8
0
  6
CONTINUOUS
 62
     7
 10
946.8976529308882
 20
1499.647741562414
 30
0.0
  0
VERTEX
  5
483
  8
0
  6
CONTINUOUS
 62
     7
 10
946.8763270377597
 20
1499.642273895801
 30
0.0
  0
VERTEX
  5
484
  8
0
  6
CONTINUOUS
 62
     7
 10
946.8552610722144
 20
1499.636274171919
 30
0.0
  0
VERTEX
  5
485
  8
0
  6
CONTINUOUS
 62
     7
 10
946.8344750286823
 20
1499.629701463285
 30
0.0
  0
VERTEX
  5
486
  8
0
  6
CONTINUOUS
 62
     7
 10
946.8139889015931
 20
1499.622514842416
 30
0.0
  0
VERTEX
  5
487
  8
0
  6
CONTINUOUS
 62
     7
 10
946.7938186988541
 20
1499.614681542017
 30
0.0
  0
VERTEX
  5
488
  8
0
  6
CONTINUOUS
 62
     7
 10
946.7739544537136
 20
1499.606221963475
 30
0.0
  0
VERTEX
  5
489
  8
0
  6
CONTINUOUS
 62
     7
 10
946.7543757948608
 20
1499.597177805727
 30
0.0
  0
VERTEX
  5
48A
  8
0
  6
CONTINUOUS
 62
     7
 10
946.7350623232753
 20
1499.587590824429
 30
0.0
  0
VERTEX
  5
48B
  8
0
  6
CONTINUOUS
 62
     7
 10
946.7159936399364
 20
1499.57750277524
 30
0.0
  0
VERTEX
  5
48C
  8
0
  6
CONTINUOUS
 62
     7
 10
946.6971493458237
 20
1499.566955413816
 30
0.0
  0
VERTEX
  5
48D
  8
0
  6
CONTINUOUS
 62
     7
 10
946.6785090419165
 20
1499.555990495817
 30
0.0
  0
VERTEX
  5
48E
  8
0
  6
CONTINUOUS
 62
     7
 10
946.6600523291943
 20
1499.544649776899
 30
0.0
  0
VERTEX
  5
48F
  8
0
  6
CONTINUOUS
 62
     7
 10
946.6417588086364
 20
1499.53297501272
 30
0.0
  0
VERTEX
  5
490
  8
0
  6
CONTINUOUS
 62
     7
 10
946.6236080812225
 20
1499.521007958938
 30
0.0
  0
VERTEX
  5
491
  8
0
  6
CONTINUOUS
 62
     7
 10
946.605579747932
 20
1499.50879037121
 30
0.0
  0
VERTEX
  5
492
  8
0
  6
CONTINUOUS
 62
     7
 10
946.5876534097442
 20
1499.496364005194
 30
0.0
  0
VERTEX
  5
493
  8
0
  6
CONTINUOUS
 62
     7
 10
946.5698086676387
 20
1499.483770616547
 30
0.0
  0
VERTEX
  5
494
  8
0
  6
CONTINUOUS
 62
     7
 10
946.5520251225947
 20
1499.471051960928
 30
0.0
  0
VERTEX
  5
495
  8
0
  6
CONTINUOUS
 62
     7
 10
946.534282375592
 20
1499.458249793993
 30
0.0
  0
VERTEX
  5
496
  8
0
  6
CONTINUOUS
 62
     7
 10
946.5165600276097
 20
1499.445405871401
 30
0.0
  0
SEQEND
  5
7DA
  8
0
  6
CONTINUOUS
 62
     7
  0
LINE
  5
109
  8
0
  6
CONTINUOUS
 62
     7
 10
947.166560027613
 20
1499.686750698258
 30
0.0
 11
948.0165600276177
 21
1499.686750698261
 31
0.0
  0
LINE
  5
10A
  8
0
  6
CONTINUOUS
 62
     7
 10
948.5165600276091
 20
1538.186750698265
 30
0.0
 11
948.3165600276091
 21
1538.186750698265
 31
0.0
  0
LINE
  5
10B
  8
0
  6
CONTINUOUS
 62
     7
 10
948.5165600276324
 20
1481.186750698262
 30
0.0
 11
948.3165600276325
 21
1481.186750698262
 31
0.0
  0
LINE
  5
10C
  8
0
  6
CONTINUOUS
 62
     7
 10
946.5165600276097
 20
1516.186750698258
 30
0.0
 11
948.516560027616
 21
1516.186750698258
 31
0.0
  0
LINE
  5
10D
  8
0
  6
CONTINUOUS
 62
     7
 10
948.5165600276159
 20
1503.186750698257
 30
0.0
 11
946.5165600276097
 21
1503.18675069826
 31
0.0
  0
LINE
  5
10E
  8
0
  6
CONTINUOUS
 62
     7
 10
947.2452774824302
 20
1502.236750698258
 30
0.0
 11
947.2452774824299
 21
1503.18675069826
 31
0.0
  0
LINE
  5
10F
  8
0
  6
CONTINUOUS
 62
     7
 10
947.2452774824247
 20
1516.186750698259
 30
0.0
 11
947.2452774824244
 21
1517.136750698258
 31
0.0
  0
LINE
  5
110
  8
0
  6
CONTINUOUS
 62
     7
 10
947.2452774824302
 20
1502.236750698258
 30
0.0
 11
946.5165600276097
 21
1502.236750698257
 31
0.0
  0
LINE
  5
111
  8
0
  6
CONTINUOUS
 62
     7
 10
947.2452774824244
 20
1517.136750698258
 30
0.0
 11
946.5165600276097
 21
1517.136750698258
 31
0.0
  0
LINE
  5
112
  8
0
  6
CONTINUOUS
 62
     7
 10
947.3066469780254
 20
1502.23675069826
 30
0.0
 11
947.3066469780257
 21
1503.18675069826
 31
0.0
  0
LINE
  5
113
  8
0
  6
CONTINUOUS
 62
     7
 10
947.3066469780301
 20
1516.186750698259
 30
0.0
 11
947.3066469780305
 21
1517.136750698256
 31
0.0
  0
LINE
  5
114
  8
0
  6
CONTINUOUS
 62
     7
 10
947.3066469780254
 20
1502.23675069826
 30
0.0
 11
947.2452774824302
 21
1502.236750698258
 31
0.0
  0
LINE
  5
115
  8
0
  6
CONTINUOUS
 62
     7
 10
947.3066469780305
 20
1517.136750698256
 30
0.0
 11
947.2452774824244
 21
1517.136750698258
 31
0.0
  0
LINE
  5
116
  8
0
  6
CONTINUOUS
 62
     7
 10
946.5165600276097
 20
696.186750698258
 30
0.0
 11
948.5165600276097
 21
696.1867506982596
 31
0.0
  0
LINE
  5
117
  8
0
  6
CONTINUOUS
 62
     7
 10
948.5165600276097
 20
683.18675069826
 30
0.0
 11
946.5165600276097
 21
683.18675069826
 31
0.0
  0
LINE
  5
118
  8
0
  6
CONTINUOUS
 62
     7
 10
947.2452774824302
 20
682.2367506982573
 30
0.0
 11
947.2452774824297
 21
683.18675069826
 31
0.0
  0
LINE
  5
119
  8
0
  6
CONTINUOUS
 62
     7
 10
947.2452774824247
 20
696.1867506982586
 30
0.0
 11
947.2452774824244
 21
697.1367506982581
 31
0.0
  0
LINE
  5
11A
  8
0
  6
CONTINUOUS
 62
     7
 10
947.2452774824302
 20
682.2367506982573
 30
0.0
 11
946.5165600276097
 21
682.236750698257
 31
0.0
  0
LINE
  5
11B
  8
0
  6
CONTINUOUS
 62
     7
 10
947.2452774824244
 20
697.1367506982581
 30
0.0
 11
946.5165600276097
 21
697.136750698258
 31
0.0
  0
LINE
  5
11C
  8
0
  6
CONTINUOUS
 62
     7
 10
947.3066469780254
 20
682.2367506982597
 30
0.0
 11
947.3066469780257
 21
683.18675069826
 31
0.0
  0
LINE
  5
11D
  8
0
  6
CONTINUOUS
 62
     7
 10
947.3066469780301
 20
696.1867506982587
 30
0.0
 11
947.3066469780305
 21
697.1367506982563
 31
0.0
  0
LINE
  5
11E
  8
0
  6
CONTINUOUS
 62
     7
 10
947.3066469780254
 20
682.2367506982597
 30
0.0
 11
947.2452774824302
 21
682.2367506982573
 31
0.0
  0
LINE
  5
11F
  8
0
  6
CONTINUOUS
 62
     7
 10
947.3066469780305
 20
697.1367506982563
 30
0.0
 11
947.2452774824244
 21
697.1367506982581
 31
0.0
  0
LINE
  5
120
  8
0
  6
CONTINUOUS
 62
     7
 10
946.5165600276097
 20
2282.186750698258
 30
0.0
 11
948.516560027616
 21
2282.186750698258
 31
0.0
  0
LINE
  5
121
  8
0
  6
CONTINUOUS
 62
     7
 10
948.5165600276159
 20
2269.186750698257
 30
0.0
 11
946.5165600276097
 21
2269.18675069826
 31
0.0
  0
LINE
  5
122
  8
0
  6
CONTINUOUS
 62
     7
 10
947.2452774824302
 20
2268.236750698257
 30
0.0
 11
947.2452774824297
 21
2269.18675069826
 31
0.0
  0
LINE
  5
123
  8
0
  6
CONTINUOUS
 62
     7
 10
947.2452774824247
 20
2282.186750698258
 30
0.0
 11
947.2452774824244
 21
2283.136750698258
 31
0.0
  0
LINE
  5
124
  8
0
  6
CONTINUOUS
 62
     7
 10
947.2452774824302
 20
2268.236750698257
 30
0.0
 11
946.5165600276097
 21
2268.236750698257
 31
0.0
  0
LINE
  5
125
  8
0
  6
CONTINUOUS
 62
     7
 10
947.2452774824244
 20
2283.136750698258
 30
0.0
 11
946.5165600276097
 21
2283.136750698258
 31
0.0
  0
LINE
  5
126
  8
0
  6
CONTINUOUS
 62
     7
 10
947.3066469780254
 20
2268.23675069826
 30
0.0
 11
947.3066469780257
 21
2269.18675069826
 31
0.0
  0
LINE
  5
127
  8
0
  6
CONTINUOUS
 62
     7
 10
947.3066469780301
 20
2282.186750698258
 30
0.0
 11
947.3066469780305
 21
2283.136750698256
 31
0.0
  0
LINE
  5
128
  8
0
  6
CONTINUOUS
 62
     7
 10
947.3066469780254
 20
2268.23675069826
 30
0.0
 11
947.2452774824302
 21
2268.236750698257
 31
0.0
  0
LINE
  5
129
  8
0
  6
CONTINUOUS
 62
     7
 10
947.3066469780305
 20
2283.136750698256
 30
0.0
 11
947.2452774824244
 21
2283.136750698258
 31
0.0
  0
LINE
  5
12A
  8
0
  6
CONTINUOUS
 62
     7
 10
948.016560027616
 20
2268.211750698258
 30
0.0
 11
947.7049942247855
 21
2268.211750698257
 31
0.0
  0
LINE
  5
12B
  8
0
  6
CONTINUOUS
 62
     7
 10
947.7049942247885
 20
2283.161750698257
 30
0.0
 11
947.7049942247883
 21
2282.186750698259
 31
0.0
  0
LINE
  5
12C
  8
0
  6
CONTINUOUS
 62
     7
 10
947.7049942247858
 20
2269.18675069826
 30
0.0
 11
947.7049942247855
 21
2268.211750698257
 31
0.0
  0
LINE
  5
12D
  8
0
  6
CONTINUOUS
 62
     7
 10
948.0165600276074
 20
2283.161750698258
 30
0.0
 11
947.7049942247885
 21
2283.161750698257
 31
0.0
  0
LINE
  5
12E
  8
0
  6
CONTINUOUS
 62
     7
 10
947.7049942247855
 20
2268.211750698257
 30
0.0
 11
947.665851630326
 21
2268.211750698257
 31
0.0
  0
LINE
  5
12F
  8
0
  6
CONTINUOUS
 62
     7
 10
947.7049942247885
 20
2283.161750698257
 30
0.0
 11
947.6658516303288
 21
2283.161750698257
 31
0.0
  0
LINE
  5
130
  8
0
  6
CONTINUOUS
 62
     7
 10
948.0165600276227
 20
1502.211750698258
 30
0.0
 11
947.7049942247855
 21
1502.211750698258
 31
0.0
  0
LINE
  5
131
  8
0
  6
CONTINUOUS
 62
     7
 10
947.7049942247885
 20
1517.161750698258
 30
0.0
 11
947.7049942247884
 21
1516.186750698259
 31
0.0
  0
LINE
  5
132
  8
0
  6
CONTINUOUS
 62
     7
 10
947.7049942247858
 20
1503.18675069826
 30
0.0
 11
947.7049942247855
 21
1502.211750698258
 31
0.0
  0
LINE
  5
133
  8
0
  6
CONTINUOUS
 62
     7
 10
948.0165600276074
 20
1517.161750698258
 30
0.0
 11
947.7049942247885
 21
1517.161750698258
 31
0.0
  0
LINE
  5
134
  8
0
  6
CONTINUOUS
 62
     7
 10
947.7049942247855
 20
1502.211750698258
 30
0.0
 11
947.665851630326
 21
1502.211750698258
 31
0.0
  0
LINE
  5
135
  8
0
  6
CONTINUOUS
 62
     7
 10
947.7049942247885
 20
1517.161750698258
 30
0.0
 11
947.6658516303288
 21
1517.161750698258
 31
0.0
  0
LINE
  5
136
  8
0
  6
CONTINUOUS
 62
     7
 10
948.016560027616
 20
682.2117506982577
 30
0.0
 11
947.7049942247855
 21
682.2117506982576
 31
0.0
  0
LINE
  5
137
  8
0
  6
CONTINUOUS
 62
     7
 10
947.7049942247885
 20
697.1617506982576
 30
0.0
 11
947.7049942247883
 21
696.1867506982591
 31
0.0
  0
LINE
  5
138
  8
0
  6
CONTINUOUS
 62
     7
 10
947.7049942247858
 20
683.18675069826
 30
0.0
 11
947.7049942247855
 21
682.2117506982576
 31
0.0
  0
LINE
  5
139
  8
0
  6
CONTINUOUS
 62
     7
 10
948.0165600276074
 20
697.1617506982577
 30
0.0
 11
947.7049942247885
 21
697.1617506982576
 31
0.0
  0
LINE
  5
13A
  8
0
  6
CONTINUOUS
 62
     7
 10
947.7049942247855
 20
682.2117506982576
 30
0.0
 11
947.665851630326
 21
682.2117506982576
 31
0.0
  0
LINE
  5
13B
  8
0
  6
CONTINUOUS
 62
     7
 10
947.7049942247885
 20
697.1617506982576
 30
0.0
 11
947.6658516303288
 21
697.1617506982576
 31
0.0
  0
LINE
  5
13C
  8
0
  6
CONTINUOUS
 62
     7
 10
946.5165600276096
 20
2244.68675069826
 30
0.0
 11
948.5165600276096
 21
2244.68675069826
 31
0.0
  0
LINE
  5
13D
  8
0
  6
CONTINUOUS
 62
     7
 10
946.5165600276096
 20
776.6867506982599
 30
0.0
 11
948.5165600276096
 21
776.6867506982599
 31
0.0
  0
LINE
  5
13E
  8
0
  6
CONTINUOUS
 62
     7
 10
966.5165600276096
 20
2355.68675069826
 30
0.0
 11
948.5165600276096
 21
2355.68675069826
 31
0.0
  0
LINE
  5
13F
  8
0
  6
CONTINUOUS
 62
     7
 10
966.5165600276096
 20
2355.68675069826
 30
0.0
 11
966.5165600276096
 21
609.6867506982601
 31
0.0
  0
LINE
  5
140
  8
0
  6
CONTINUOUS
 62
     7
 10
966.5165600276096
 20
609.6867506982601
 30
0.0
 11
948.5165600276096
 21
609.6867506982601
 31
0.0
  0
LINE
  5
141
  8
0
  6
CONTINUOUS
 62
     7
 10
948.5165600276096
 20
2355.68675069826
 30
0.0
 11
948.5165600276096
 21
609.6867506982601
 31
0.0
  0
LINE
  5
142
  8
0
  6
CONTINUOUS
 62
     7
 10
946.5165600276096
 20
2357.68675069826
 30
0.0
 11
816.5165600276096
 21
2357.68675069826
 31
0.0
  0
LINE
  5
143
  8
0
  6
CONTINUOUS
 62
     7
 10
946.5165600276096
 20
2357.68675069826
 30
0.0
 11
946.5165600276096
 21
607.6867506982602
 31
0.0
  0
LINE
  5
144
  8
0
  6
CONTINUOUS
 62
     7
 10
946.5165600276096
 20
607.6867506982602
 30
0.0
 11
816.5165600276096
 21
607.6867506982602
 31
0.0
  0
LINE
  5
145
  8
0
  6
CONTINUOUS
 62
     7
 10
816.5165600276096
 20
2357.68675069826
 30
0.0
 11
816.5165600276096
 21
607.6867506982602
 31
0.0
  0
LINE
  5
146
  8
0
  6
CONTINUOUS
 62
     8
 10
948.3165600276088
 20
717.1867506982655
 30
0.0
 11
946.5165600276094
 21
717.1867506982662
 31
0.0
  0
LINE
  5
147
  8
0
  6
CONTINUOUS
 62
     8
 10
948.316560027618
 20
662.186750698261
 30
0.0
 11
946.5165600276094
 21
662.1867506982618
 31
0.0
  0
LINE
  5
148
  8
0
  6
CONTINUOUS
 62
     8
 10
947.1665600276182
 20
698.0617506982584
 30
0.0
 11
947.166560027615
 21
699.6867506982554
 31
0.0
  0
LINE
  5
149
  8
0
  6
CONTINUOUS
 62
     8
 10
947.1665600276302
 20
679.6867506982594
 30
0.0
 11
947.1665600276181
 21
681.3117506982596
 31
0.0
  0
LINE
  5
14A
  8
0
  6
CONTINUOUS
 62
     8
 10
948.3165600276088
 20
2303.186750698265
 30
0.0
 11
946.5165600276094
 21
2303.186750698266
 31
0.0
  0
LINE
  5
14B
  8
0
  6
CONTINUOUS
 62
     8
 10
948.316560027618
 20
2248.186750698261
 30
0.0
 11
946.5165600276094
 21
2248.186750698262
 31
0.0
  0
LINE
  5
14C
  8
0
  6
CONTINUOUS
 62
     8
 10
947.1665600276182
 20
2284.061750698258
 30
0.0
 11
947.166560027615
 21
2285.686750698256
 31
0.0
  0
LINE
  5
14D
  8
0
  6
CONTINUOUS
 62
     8
 10
947.1665600276302
 20
2265.68675069826
 30
0.0
 11
947.1665600276181
 21
2267.311750698259
 31
0.0
  0
LINE
  5
14E
  8
0
  6
CONTINUOUS
 62
     8
 10
948.3165600276088
 20
1537.186750698266
 30
0.0
 11
946.5165600276094
 21
1537.186750698266
 31
0.0
  0
LINE
  5
14F
  8
0
  6
CONTINUOUS
 62
     8
 10
948.316560027618
 20
1482.186750698261
 30
0.0
 11
946.5165600276094
 21
1482.186750698262
 31
0.0
  0
LINE
  5
150
  8
0
  6
CONTINUOUS
 62
     8
 10
947.1665600276182
 20
1518.061750698258
 30
0.0
 11
947.166560027615
 21
1519.686750698256
 31
0.0
  0
LINE
  5
151
  8
0
  6
CONTINUOUS
 62
     8
 10
947.1665600276302
 20
1499.68675069826
 30
0.0
 11
947.1665600276181
 21
1501.31175069826
 31
0.0
  0
LINE
  5
152
  8
0
  6
CONTINUOUS
 62
     7
 10
3873.241066353337
 20
1734.18675069826
 30
0.0
 11
3875.241066353336
 21
1734.18675069826
 31
0.0
  0
LINE
  5
153
  8
0
  6
CONTINUOUS
 62
     7
 10
3875.241066353336
 20
1769.18675069826
 30
0.0
 11
3873.241066353337
 21
1769.18675069826
 31
0.0
  0
LINE
  5
154
  8
0
  6
CONTINUOUS
 62
     7
 10
3873.241066353337
 20
2224.68675069826
 30
0.0
 11
3875.241066353336
 21
2224.68675069826
 31
0.0
  0
LINE
  5
155
  8
0
  6
CONTINUOUS
 62
     7
 10
3875.241066353336
 20
796.6867506982599
 30
0.0
 11
3873.241066353337
 21
796.6867506982599
 31
0.0
  0
LINE
  5
156
  8
0
  6
CONTINUOUS
 62
     7
 10
3873.241066353337
 20
1252.18675069826
 30
0.0
 11
3875.241066353336
 21
1252.18675069826
 31
0.0
  0
LINE
  5
157
  8
0
  6
CONTINUOUS
 62
     7
 10
3875.241066353336
 20
1287.18675069826
 30
0.0
 11
3873.241066353337
 21
1287.18675069826
 31
0.0
  0
LINE
  5
158
  8
0
  6
CONTINUOUS
 62
     7
 10
3855.241066353336
 20
609.6867506982605
 30
0.0
 11
3855.241066353336
 21
2355.68675069826
 31
0.0
  0
LINE
  5
159
  8
0
  6
CONTINUOUS
 62
     7
 10
3855.241066353336
 20
609.6867506982605
 30
0.0
 11
3873.241066353337
 21
609.6867506982605
 31
0.0
  0
LINE
  5
15A
  8
0
  6
CONTINUOUS
 62
     7
 10
3855.241066353336
 20
2355.68675069826
 30
0.0
 11
3873.241066353337
 21
2355.68675069826
 31
0.0
  0
LINE
  5
15B
  8
0
  6
CONTINUOUS
 62
     7
 10
3873.241066353337
 20
609.6867506982605
 30
0.0
 11
3873.241066353337
 21
2355.68675069826
 31
0.0
  0
LINE
  5
15C
  8
0
  6
CONTINUOUS
 62
     7
 10
3875.241066353336
 20
607.6867506982602
 30
0.0
 11
4005.241066353337
 21
607.6867506982602
 31
0.0
  0
LINE
  5
15D
  8
0
  6
CONTINUOUS
 62
     7
 10
3875.241066353336
 20
607.6867506982602
 30
0.0
 11
3875.241066353336
 21
2357.68675069826
 31
0.0
  0
LINE
  5
15E
  8
0
  6
CONTINUOUS
 62
     7
 10
4005.241066353337
 20
607.6867506982602
 30
0.0
 11
4005.241066353337
 21
2357.68675069826
 31
0.0
  0
LINE
  5
15F
  8
0
  6
CONTINUOUS
 62
     7
 10
3875.241066353336
 20
2357.68675069826
 30
0.0
 11
4005.241066353337
 21
2357.68675069826
 31
0.0
  0
LINE
  5
160
  8
0
  6
CONTINUOUS
 62
     7
 10
3875.106251278381
 20
1501.311750698261
 30
0.0
 11
3875.106251278381
 21
1502.236750698262
 31
0.0
  0
LINE
  5
161
  8
0
  6
CONTINUOUS
 62
     7
 10
3875.10625127839
 20
1517.136750698263
 30
0.0
 11
3875.106251278391
 21
1518.061750698262
 31
0.0
  0
LINE
  5
162
  8
0
  6
CONTINUOUS
 62
     7
 10
3875.106251278391
 20
1518.061750698262
 30
0.0
 11
3875.241066353339
 21
1518.061750698262
 31
0.0
  0
LINE
  5
163
  8
0
  6
CONTINUOUS
 62
     7
 10
3875.241066353339
 20
1501.311750698261
 30
0.0
 11
3875.106251278381
 21
1501.311750698261
 31
0.0
  0
LINE
  5
164
  8
0
  6
CONTINUOUS
 62
     7
 10
3873.741066353319
 20
1518.061750698262
 30
0.0
 11
3875.106251278391
 21
1518.061750698262
 31
0.0
  0
LINE
  5
165
  8
0
  6
CONTINUOUS
 62
     7
 10
3875.106251278381
 20
1501.311750698261
 30
0.0
 11
3873.741066353329
 21
1501.311750698261
 31
0.0
  0
LINE
  5
166
  8
0
  6
CONTINUOUS
 62
     7
 10
3875.106251278381
 20
2267.311750698261
 30
0.0
 11
3875.106251278381
 21
2268.236750698262
 31
0.0
  0
LINE
  5
167
  8
0
  6
CONTINUOUS
 62
     7
 10
3875.10625127839
 20
2283.136750698262
 30
0.0
 11
3875.106251278391
 21
2284.061750698262
 31
0.0
  0
LINE
  5
168
  8
0
  6
CONTINUOUS
 62
     7
 10
3875.106251278391
 20
2284.061750698262
 30
0.0
 11
3875.241066353339
 21
2284.061750698262
 31
0.0
  0
LINE
  5
169
  8
0
  6
CONTINUOUS
 62
     7
 10
3875.241066353339
 20
2267.311750698261
 30
0.0
 11
3875.106251278381
 21
2267.311750698261
 31
0.0
  0
LINE
  5
16A
  8
0
  6
CONTINUOUS
 62
     7
 10
3873.741066353319
 20
2284.061750698261
 30
0.0
 11
3875.106251278391
 21
2284.061750698262
 31
0.0
  0
LINE
  5
16B
  8
0
  6
CONTINUOUS
 62
     7
 10
3875.106251278381
 20
2267.311750698261
 30
0.0
 11
3873.741066353329
 21
2267.311750698261
 31
0.0
  0
LINE
  5
16C
  8
0
  6
CONTINUOUS
 62
     7
 10
3875.106251278381
 20
681.3117506982609
 30
0.0
 11
3875.106251278381
 21
682.236750698262
 31
0.0
  0
LINE
  5
16D
  8
0
  6
CONTINUOUS
 62
     7
 10
3875.10625127839
 20
697.1367506982629
 30
0.0
 11
3875.106251278391
 21
698.0617506982618
 31
0.0
  0
LINE
  5
16E
  8
0
  6
CONTINUOUS
 62
     7
 10
3875.106251278391
 20
698.0617506982618
 30
0.0
 11
3875.241066353339
 21
698.0617506982617
 31
0.0
  0
LINE
  5
16F
  8
0
  6
CONTINUOUS
 62
     7
 10
3875.241066353339
 20
681.3117506982612
 30
0.0
 11
3875.106251278381
 21
681.3117506982609
 31
0.0
  0
LINE
  5
170
  8
0
  6
CONTINUOUS
 62
     7
 10
3873.741066353319
 20
698.0617506982616
 30
0.0
 11
3875.106251278391
 21
698.0617506982618
 31
0.0
  0
LINE
  5
171
  8
0
  6
CONTINUOUS
 62
     7
 10
3875.106251278381
 20
681.3117506982609
 30
0.0
 11
3873.741066353329
 21
681.3117506982612
 31
0.0
  0
LINE
  5
172
  8
0
  6
CONTINUOUS
 62
     7
 10
3873.741066353329
 20
1500.730792559202
 30
0.0
 11
3873.241066353337
 21
1500.730792559202
 31
0.0
  0
LINE
  5
173
  8
0
  6
CONTINUOUS
 62
     7
 10
3873.74106635333
 20
1502.286750698495
 30
0.0
 11
3873.24106635333
 21
1502.286750698495
 31
0.0
  0
LINE
  5
174
  8
0
  6
CONTINUOUS
 62
     7
 10
3873.74106635333
 20
1502.286750698495
 30
0.0
 11
3873.741066353329
 21
1500.730792559202
 31
0.0
  0
LINE
  5
175
  8
0
  6
CONTINUOUS
 62
     7
 10
3873.241066353337
 20
1518.642708837331
 30
0.0
 11
3873.741066353322
 21
1518.64270883733
 31
0.0
  0
LINE
  5
176
  8
0
  6
CONTINUOUS
 62
     7
 10
3873.741066353322
 20
1518.64270883733
 30
0.0
 11
3873.741066353314
 21
1517.086750698044
 31
0.0
  0
LINE
  5
177
  8
0
  6
CONTINUOUS
 62
     7
 10
3873.241066353314
 20
1517.086750698044
 30
0.0
 11
3873.741066353314
 21
1517.086750698044
 31
0.0
  0
LINE
  5
178
  8
0
  6
CONTINUOUS
 62
     7
 10
3873.441066353328
 20
1491.29517654051
 30
0.0
 11
3873.741066353328
 21
1491.29517654051
 31
0.0
  0
LINE
  5
179
  8
0
  6
CONTINUOUS
 62
     7
 10
3873.241066353328
 20
1491.29517654051
 30
0.0
 11
3873.441066353328
 21
1491.29517654051
 31
0.0
  0
LINE
  5
17A
  8
0
  6
CONTINUOUS
 62
     7
 10
3873.741066353328
 20
1491.29517654051
 30
0.0
 11
3873.741066353329
 21
1500.730792559202
 31
0.0
  0
LINE
  5
17B
  8
0
  6
CONTINUOUS
 62
     7
 10
3873.441066353323
 20
1528.078324856009
 30
0.0
 11
3873.241066353322
 21
1528.078324856009
 31
0.0
  0
LINE
  5
17C
  8
0
  6
CONTINUOUS
 62
     7
 10
3873.741066353322
 20
1528.078324856009
 30
0.0
 11
3873.441066353323
 21
1528.078324856009
 31
0.0
  0
LINE
  5
17D
  8
0
  6
CONTINUOUS
 62
     7
 10
3873.741066353322
 20
1518.64270883733
 30
0.0
 11
3873.741066353322
 21
1528.078324856009
 31
0.0
  0
POLYLINE
  5
17E
  8
0
  6
CONTINUOUS
 62
     7
 10
0.0
 20
0.0
 30
0.0
 66
     1
 70
     8
  0
VERTEX
  5
497
  8
0
  6
CONTINUOUS
 62
     7
 10
3875.241066353339
 20
1481.186750698261
 30
0.0
 70
    32
  0
VERTEX
  5
498
  8
0
  6
CONTINUOUS
 62
     7
 10
3875.22379752796
 20
1481.186750698261
 30
0.0
 70
    32
  0
VERTEX
  5
499
  8
0
  6
CONTINUOUS
 62
     7
 10
3875.206372444488
 20
1481.186750698261
 30
0.0
 70
    32
  0
VERTEX
  5
49A
  8
0
  6
CONTINUOUS
 62
     7
 10
3875.188634844835
 20
1481.186750698261
 30
0.0
 70
    32
  0
VERTEX
  5
49B
  8
0
  6
CONTINUOUS
 62
     7
 10
3875.170428470908
 20
1481.186750698261
 30
0.0
 70
    32
  0
VERTEX
  5
49C
  8
0
  6
CONTINUOUS
 62
     7
 10
3875.151597064614
 20
1481.186750698261
 30
0.0
 70
    32
  0
VERTEX
  5
49D
  8
0
  6
CONTINUOUS
 62
     7
 10
3875.131984367865
 20
1481.186750698261
 30
0.0
 70
    32
  0
VERTEX
  5
49E
  8
0
  6
CONTINUOUS
 62
     7
 10
3875.111434144576
 20
1481.186750698261
 30
0.0
 70
    32
  0
VERTEX
  5
49F
  8
0
  6
CONTINUOUS
 62
     7
 10
3875.089836356958
 20
1481.186750698261
 30
0.0
 70
    32
  0
VERTEX
  5
4A0
  8
0
  6
CONTINUOUS
 62
     7
 10
3875.067224561637
 20
1481.186750698261
 30
0.0
 70
    32
  0
VERTEX
  5
4A1
  8
0
  6
CONTINUOUS
 62
     7
 10
3875.043660132856
 20
1481.186750698261
 30
0.0
 70
    32
  0
VERTEX
  5
4A2
  8
0
  6
CONTINUOUS
 62
     7
 10
3875.019204444856
 20
1481.186750698261
 30
0.0
 70
    32
  0
VERTEX
  5
4A3
  8
0
  6
CONTINUOUS
 62
     7
 10
3874.993918871877
 20
1481.186750698261
 30
0.0
 70
    32
  0
VERTEX
  5
4A4
  8
0
  6
CONTINUOUS
 62
     7
 10
3874.967864788162
 20
1481.186750698261
 30
0.0
 70
    32
  0
VERTEX
  5
4A5
  8
0
  6
CONTINUOUS
 62
     7
 10
3874.941103567953
 20
1481.186750698261
 30
0.0
 70
    32
  0
VERTEX
  5
4A6
  8
0
  6
CONTINUOUS
 62
     7
 10
3874.913696585488
 20
1481.186750698261
 30
0.0
 70
    32
  0
VERTEX
  5
4A7
  8
0
  6
CONTINUOUS
 62
     7
 10
3874.885705215011
 20
1481.186750698261
 30
0.0
 70
    32
  0
VERTEX
  5
4A8
  8
0
  6
CONTINUOUS
 62
     7
 10
3874.857190830763
 20
1481.186750698261
 30
0.0
 70
    32
  0
VERTEX
  5
4A9
  8
0
  6
CONTINUOUS
 62
     7
 10
3874.82820617991
 20
1481.186750698261
 30
0.0
 70
    32
  0
VERTEX
  5
4AA
  8
0
  6
CONTINUOUS
 62
     7
 10
3874.798761871029
 20
1481.186750698261
 30
0.0
 70
    32
  0
VERTEX
  5
4AB
  8
0
  6
CONTINUOUS
 62
     7
 10
3874.76885566662
 20
1481.186750698261
 30
0.0
 70
    32
  0
VERTEX
  5
4AC
  8
0
  6
CONTINUOUS
 62
     7
 10
3874.738485326073
 20
1481.186750698261
 30
0.0
 70
    32
  0
VERTEX
  5
4AD
  8
0
  6
CONTINUOUS
 62
     7
 10
3874.707648608781
 20
1481.186750698261
 30
0.0
 70
    32
  0
VERTEX
  5
4AE
  8
0
  6
CONTINUOUS
 62
     7
 10
3874.676343274133
 20
1481.186750698261
 30
0.0
 70
    32
  0
VERTEX
  5
4AF
  8
0
  6
CONTINUOUS
 62
     7
 10
3874.644567081521
 20
1481.186750698261
 30
0.0
 70
    32
  0
VERTEX
  5
4B0
  8
0
  6
CONTINUOUS
 62
     7
 10
3874.612317790337
 20
1481.186750698261
 30
0.0
 70
    32
  0
VERTEX
  5
4B1
  8
0
  6
CONTINUOUS
 62
     7
 10
3874.579593159972
 20
1481.186750698261
 30
0.0
 70
    32
  0
VERTEX
  5
4B2
  8
0
  6
CONTINUOUS
 62
     7
 10
3874.546390949816
 20
1481.186750698261
 30
0.0
 70
    32
  0
VERTEX
  5
4B3
  8
0
  6
CONTINUOUS
 62
     7
 10
3874.512710511007
 20
1481.186750698261
 30
0.0
 70
    32
  0
VERTEX
  5
4B4
  8
0
  6
CONTINUOUS
 62
     7
 10
3874.478563117683
 20
1481.186750698261
 30
0.0
 70
    32
  0
VERTEX
  5
4B5
  8
0
  6
CONTINUOUS
 62
     7
 10
3874.443965450773
 20
1481.186750698261
 30
0.0
 70
    32
  0
VERTEX
  5
4B6
  8
0
  6
CONTINUOUS
 62
     7
 10
3874.408934218084
 20
1481.186750698261
 30
0.0
 70
    32
  0
VERTEX
  5
4B7
  8
0
  6
CONTINUOUS
 62
     7
 10
3874.373486127422
 20
1481.186750698261
 30
0.0
 70
    32
  0
VERTEX
  5
4B8
  8
0
  6
CONTINUOUS
 62
     7
 10
3874.337637886595
 20
1481.186750698261
 30
0.0
 70
    32
  0
VERTEX
  5
4B9
  8
0
  6
CONTINUOUS
 62
     7
 10
3874.301406203413
 20
1481.186750698261
 30
0.0
 70
    32
  0
VERTEX
  5
4BA
  8
0
  6
CONTINUOUS
 62
     7
 10
3874.264807785682
 20
1481.186750698261
 30
0.0
 70
    32
  0
VERTEX
  5
4BB
  8
0
  6
CONTINUOUS
 62
     7
 10
3874.22785934121
 20
1481.186750698261
 30
0.0
 70
    32
  0
VERTEX
  5
4BC
  8
0
  6
CONTINUOUS
 62
     7
 10
3874.190577577805
 20
1481.186750698261
 30
0.0
 70
    32
  0
VERTEX
  5
4BD
  8
0
  6
CONTINUOUS
 62
     7
 10
3874.152979201267
 20
1481.186750698261
 30
0.0
 70
    32
  0
VERTEX
  5
4BE
  8
0
  6
CONTINUOUS
 62
     7
 10
3874.115080892125
 20
1481.186750698261
 30
0.0
 70
    32
  0
VERTEX
  5
4BF
  8
0
  6
CONTINUOUS
 62
     7
 10
3874.076899313617
 20
1481.18675069826
 30
0.0
 70
    32
  0
VERTEX
  5
4C0
  8
0
  6
CONTINUOUS
 62
     7
 10
3874.038451128648
 20
1481.18675069826
 30
0.0
 70
    32
  0
VERTEX
  5
4C1
  8
0
  6
CONTINUOUS
 62
     7
 10
3873.999753000121
 20
1481.18675069826
 30
0.0
 70
    32
  0
VERTEX
  5
4C2
  8
0
  6
CONTINUOUS
 62
     7
 10
3873.96082159094
 20
1481.18675069826
 30
0.0
 70
    32
  0
VERTEX
  5
4C3
  8
0
  6
CONTINUOUS
 62
     7
 10
3873.921673564008
 20
1481.186750698259
 30
0.0
 70
    32
  0
VERTEX
  5
4C4
  8
0
  6
CONTINUOUS
 62
     7
 10
3873.882325582231
 20
1481.186750698259
 30
0.0
 70
    32
  0
VERTEX
  5
4C5
  8
0
  6
CONTINUOUS
 62
     7
 10
3873.842794308511
 20
1481.186750698259
 30
0.0
 70
    32
  0
VERTEX
  5
4C6
  8
0
  6
CONTINUOUS
 62
     7
 10
3873.803096405753
 20
1481.186750698258
 30
0.0
 70
    32
  0
VERTEX
  5
4C7
  8
0
  6
CONTINUOUS
 62
     7
 10
3873.76324853686
 20
1481.186750698258
 30
0.0
 70
    32
  0
VERTEX
  5
4C8
  8
0
  6
CONTINUOUS
 62
     7
 10
3873.723267364736
 20
1481.186750698258
 30
0.0
 70
    32
  0
VERTEX
  5
4C9
  8
0
  6
CONTINUOUS
 62
     7
 10
3873.683169552285
 20
1481.186750698257
 30
0.0
 70
    32
  0
VERTEX
  5
4CA
  8
0
  6
CONTINUOUS
 62
     7
 10
3873.642971762411
 20
1481.186750698257
 30
0.0
 70
    32
  0
VERTEX
  5
4CB
  8
0
  6
CONTINUOUS
 62
     7
 10
3873.602690658017
 20
1481.186750698257
 30
0.0
 70
    32
  0
VERTEX
  5
4CC
  8
0
  6
CONTINUOUS
 62
     7
 10
3873.562342902008
 20
1481.186750698256
 30
0.0
 70
    32
  0
VERTEX
  5
4CD
  8
0
  6
CONTINUOUS
 62
     7
 10
3873.521945157288
 20
1481.186750698256
 30
0.0
 70
    32
  0
VERTEX
  5
4CE
  8
0
  6
CONTINUOUS
 62
     7
 10
3873.481514086759
 20
1481.186750698256
 30
0.0
 70
    32
  0
VERTEX
  5
4CF
  8
0
  6
CONTINUOUS
 62
     7
 10
3873.441066353328
 20
1481.186750698255
 30
0.0
 70
    32
  0
SEQEND
  5
7DB
  8
0
  6
CONTINUOUS
 62
     7
  0
LINE
  5
17F
  8
0
  6
CONTINUOUS
 62
     7
 10
3873.441066353329
 20
1482.186750698254
 30
0.0
 11
3873.441066353328
 21
1481.186750698255
 31
0.0
  0
POLYLINE
  5
180
  8
0
  6
CONTINUOUS
 62
     7
 10
0.0
 20
0.0
 30
0.0
 66
     1
 70
     8
  0
VERTEX
  5
4D0
  8
0
  6
CONTINUOUS
 62
     7
 10
3873.441066353305
 20
1538.186750698258
 30
0.0
 70
    32
  0
VERTEX
  5
4D1
  8
0
  6
CONTINUOUS
 62
     7
 10
3873.481514832004
 20
1538.186750698258
 30
0.0
 70
    32
  0
VERTEX
  5
4D2
  8
0
  6
CONTINUOUS
 62
     7
 10
3873.521946644306
 20
1538.186750698258
 30
0.0
 70
    32
  0
VERTEX
  5
4D3
  8
0
  6
CONTINUOUS
 62
     7
 10
3873.562345123819
 20
1538.186750698258
 30
0.0
 70
    32
  0
VERTEX
  5
4D4
  8
0
  6
CONTINUOUS
 62
     7
 10
3873.602693604148
 20
1538.186750698258
 30
0.0
 70
    32
  0
VERTEX
  5
4D5
  8
0
  6
CONTINUOUS
 62
     7
 10
3873.642975418898
 20
1538.186750698258
 30
0.0
 70
    32
  0
VERTEX
  5
4D6
  8
0
  6
CONTINUOUS
 62
     7
 10
3873.683173901672
 20
1538.186750698258
 30
0.0
 70
    32
  0
VERTEX
  5
4D7
  8
0
  6
CONTINUOUS
 62
     7
 10
3873.723272386079
 20
1538.186750698258
 30
0.0
 70
    32
  0
VERTEX
  5
4D8
  8
0
  6
CONTINUOUS
 62
     7
 10
3873.763254205722
 20
1538.186750698258
 30
0.0
 70
    32
  0
VERTEX
  5
4D9
  8
0
  6
CONTINUOUS
 62
     7
 10
3873.803102694206
 20
1538.186750698258
 30
0.0
 70
    32
  0
VERTEX
  5
4DA
  8
0
  6
CONTINUOUS
 62
     7
 10
3873.842801185138
 20
1538.186750698258
 30
0.0
 70
    32
  0
VERTEX
  5
4DB
  8
0
  6
CONTINUOUS
 62
     7
 10
3873.88233301212
 20
1538.186750698258
 30
0.0
 70
    32
  0
VERTEX
  5
4DC
  8
0
  6
CONTINUOUS
 62
     7
 10
3873.92168150876
 20
1538.186750698258
 30
0.0
 70
    32
  0
VERTEX
  5
4DD
  8
0
  6
CONTINUOUS
 62
     7
 10
3873.960830008663
 20
1538.186750698258
 30
0.0
 70
    32
  0
VERTEX
  5
4DE
  8
0
  6
CONTINUOUS
 62
     7
 10
3873.999761845432
 20
1538.186750698258
 30
0.0
 70
    32
  0
VERTEX
  5
4DF
  8
0
  6
CONTINUOUS
 62
     7
 10
3874.038460352675
 20
1538.186750698258
 30
0.0
 70
    32
  0
VERTEX
  5
4E0
  8
0
  6
CONTINUOUS
 62
     7
 10
3874.076908863994
 20
1538.186750698258
 30
0.0
 70
    32
  0
VERTEX
  5
4E1
  8
0
  6
CONTINUOUS
 62
     7
 10
3874.115090712997
 20
1538.186750698258
 30
0.0
 70
    32
  0
VERTEX
  5
4E2
  8
0
  6
CONTINUOUS
 62
     7
 10
3874.152989233288
 20
1538.186750698258
 30
0.0
 70
    32
  0
VERTEX
  5
4E3
  8
0
  6
CONTINUOUS
 62
     7
 10
3874.19058775823
 20
1538.186750698258
 30
0.0
 70
    32
  0
VERTEX
  5
4E4
  8
0
  6
CONTINUOUS
 62
     7
 10
3874.227869608724
 20
1538.186750698258
 30
0.0
 70
    32
  0
VERTEX
  5
4E5
  8
0
  6
CONTINUOUS
 62
     7
 10
3874.264818087466
 20
1538.186750698258
 30
0.0
 70
    32
  0
VERTEX
  5
4E6
  8
0
  6
CONTINUOUS
 62
     7
 10
3874.301416495709
 20
1538.186750698258
 30
0.0
 70
    32
  0
VERTEX
  5
4E7
  8
0
  6
CONTINUOUS
 62
     7
 10
3874.337648134705
 20
1538.186750698258
 30
0.0
 70
    32
  0
VERTEX
  5
4E8
  8
0
  6
CONTINUOUS
 62
     7
 10
3874.373496305704
 20
1538.186750698258
 30
0.0
 70
    32
  0
VERTEX
  5
4E9
  8
0
  6
CONTINUOUS
 62
     7
 10
3874.408944309961
 20
1538.186750698258
 30
0.0
 70
    32
  0
VERTEX
  5
4EA
  8
0
  6
CONTINUOUS
 62
     7
 10
3874.443975448725
 20
1538.186750698258
 30
0.0
 70
    32
  0
VERTEX
  5
4EB
  8
0
  6
CONTINUOUS
 62
     7
 10
3874.47857302325
 20
1538.186750698258
 30
0.0
 70
    32
  0
VERTEX
  5
4EC
  8
0
  6
CONTINUOUS
 62
     7
 10
3874.512720334787
 20
1538.186750698258
 30
0.0
 70
    32
  0
VERTEX
  5
4ED
  8
0
  6
CONTINUOUS
 62
     7
 10
3874.546400717186
 20
1538.186750698258
 30
0.0
 70
    32
  0
VERTEX
  5
4EE
  8
0
  6
CONTINUOUS
 62
     7
 10
3874.579603063731
 20
1538.186750698258
 30
0.0
 70
    32
  0
VERTEX
  5
4EF
  8
0
  6
CONTINUOUS
 62
     7
 10
3874.612328065888
 20
1538.186750698258
 30
0.0
 70
    32
  0
VERTEX
  5
4F0
  8
0
  6
CONTINUOUS
 62
     7
 10
3874.644577921666
 20
1538.186750698258
 30
0.0
 70
    32
  0
VERTEX
  5
4F1
  8
0
  6
CONTINUOUS
 62
     7
 10
3874.676354829069
 20
1538.186750698258
 30
0.0
 70
    32
  0
VERTEX
  5
4F2
  8
0
  6
CONTINUOUS
 62
     7
 10
3874.707660986106
 20
1538.186750698258
 30
0.0
 70
    32
  0
VERTEX
  5
4F3
  8
0
  6
CONTINUOUS
 62
     7
 10
3874.738498590781
 20
1538.186750698258
 30
0.0
 70
    32
  0
VERTEX
  5
4F4
  8
0
  6
CONTINUOUS
 62
     7
 10
3874.768869841099
 20
1538.186750698258
 30
0.0
 70
    32
  0
VERTEX
  5
4F5
  8
0
  6
CONTINUOUS
 62
     7
 10
3874.798776935069
 20
1538.186750698258
 30
0.0
 70
    32
  0
VERTEX
  5
4F6
  8
0
  6
CONTINUOUS
 62
     7
 10
3874.828222070694
 20
1538.186750698258
 30
0.0
 70
    32
  0
VERTEX
  5
4F7
  8
0
  6
CONTINUOUS
 62
     7
 10
3874.857207442793
 20
1538.186750698258
 30
0.0
 70
    32
  0
VERTEX
  5
4F8
  8
0
  6
CONTINUOUS
 62
     7
 10
3874.885722373112
 20
1538.186750698258
 30
0.0
 70
    32
  0
VERTEX
  5
4F9
  8
0
  6
CONTINUOUS
 62
     7
 10
3874.913714028229
 20
1538.186750698258
 30
0.0
 70
    32
  0
VERTEX
  5
4FA
  8
0
  6
CONTINUOUS
 62
     7
 10
3874.941120959253
 20
1538.186750698258
 30
0.0
 70
    32
  0
VERTEX
  5
4FB
  8
0
  6
CONTINUOUS
 62
     7
 10
3874.967881717292
 20
1538.186750698258
 30
0.0
 70
    32
  0
VERTEX
  5
4FC
  8
0
  6
CONTINUOUS
 62
     7
 10
3874.993934853454
 20
1538.186750698258
 30
0.0
 70
    32
  0
VERTEX
  5
4FD
  8
0
  6
CONTINUOUS
 62
     7
 10
3875.019218918849
 20
1538.186750698258
 30
0.0
 70
    32
  0
VERTEX
  5
4FE
  8
0
  6
CONTINUOUS
 62
     7
 10
3875.043672464585
 20
1538.186750698258
 30
0.0
 70
    32
  0
VERTEX
  5
4FF
  8
0
  6
CONTINUOUS
 62
     7
 10
3875.06723404177
 20
1538.186750698258
 30
0.0
 70
    32
  0
VERTEX
  5
500
  8
0
  6
CONTINUOUS
 62
     7
 10
3875.089842201516
 20
1538.186750698258
 30
0.0
 70
    32
  0
VERTEX
  5
501
  8
0
  6
CONTINUOUS
 62
     7
 10
3875.111435494928
 20
1538.186750698258
 30
0.0
 70
    32
  0
VERTEX
  5
502
  8
0
  6
CONTINUOUS
 62
     7
 10
3875.131981559976
 20
1538.186750698258
 30
0.0
 70
    32
  0
VERTEX
  5
503
  8
0
  6
CONTINUOUS
 62
     7
 10
3875.15159192305
 20
1538.186750698258
 30
0.0
 70
    32
  0
VERTEX
  5
504
  8
0
  6
CONTINUOUS
 62
     7
 10
3875.170422523842
 20
1538.186750698258
 30
0.0
 70
    32
  0
VERTEX
  5
505
  8
0
  6
CONTINUOUS
 62
     7
 10
3875.188629314812
 20
1538.186750698258
 30
0.0
 70
    32
  0
VERTEX
  5
506
  8
0
  6
CONTINUOUS
 62
     7
 10
3875.206368248414
 20
1538.186750698258
 30
0.0
 70
    32
  0
VERTEX
  5
507
  8
0
  6
CONTINUOUS
 62
     7
 10
3875.223795277105
 20
1538.186750698258
 30
0.0
 70
    32
  0
VERTEX
  5
508
  8
0
  6
CONTINUOUS
 62
     7
 10
3875.241066353339
 20
1538.186750698258
 30
0.0
 70
    32
  0
SEQEND
  5
7DC
  8
0
  6
CONTINUOUS
 62
     7
  0
LINE
  5
181
  8
0
  6
CONTINUOUS
 62
     7
 10
3873.441066353319
 20
1537.186750698259
 30
0.0
 11
3873.441066353305
 21
1538.186750698258
 31
0.0
  0
POLYLINE
  5
182
  8
0
  6
CONTINUOUS
 62
     7
 66
     1
 10
0.0
 20
0.0
 30
0.0
  0
VERTEX
  5
509
  8
0
  6
CONTINUOUS
 62
     7
 10
3875.24106635334
 20
1499.440986358066
 30
0.0
  0
VERTEX
  5
50A
  8
0
  6
CONTINUOUS
 62
     7
 10
3875.22965516832
 20
1499.454494767256
 30
0.0
  0
VERTEX
  5
50B
  8
0
  6
CONTINUOUS
 62
     7
 10
3875.21792907492
 20
1499.467641421362
 30
0.0
  0
VERTEX
  5
50C
  8
0
  6
CONTINUOUS
 62
     7
 10
3875.205740449792
 20
1499.480251862515
 30
0.0
  0
VERTEX
  5
50D
  8
0
  6
CONTINUOUS
 62
     7
 10
3875.193102638721
 20
1499.492331858595
 30
0.0
  0
VERTEX
  5
50E
  8
0
  6
CONTINUOUS
 62
     7
 10
3875.180035511014
 20
1499.503894481416
 30
0.0
  0
VERTEX
  5
50F
  8
0
  6
CONTINUOUS
 62
     7
 10
3875.166558935988
 20
1499.51495280279
 30
0.0
  0
VERTEX
  5
510
  8
0
  6
CONTINUOUS
 62
     7
 10
3875.152692782952
 20
1499.525519894528
 30
0.0
  0
VERTEX
  5
511
  8
0
  6
CONTINUOUS
 62
     7
 10
3875.138456921215
 20
1499.535608828443
 30
0.0
  0
VERTEX
  5
512
  8
0
  6
CONTINUOUS
 62
     7
 10
3875.123871220089
 20
1499.545232676348
 30
0.0
  0
VERTEX
  5
513
  8
0
  6
CONTINUOUS
 62
     7
 10
3875.108955548887
 20
1499.554404510054
 30
0.0
  0
VERTEX
  5
514
  8
0
  6
CONTINUOUS
 62
     7
 10
3875.093729776917
 20
1499.563137401374
 30
0.0
  0
VERTEX
  5
515
  8
0
  6
CONTINUOUS
 62
     7
 10
3875.078213773491
 20
1499.571444422119
 30
0.0
  0
VERTEX
  5
516
  8
0
  6
CONTINUOUS
 62
     7
 10
3875.062427407922
 20
1499.579338644103
 30
0.0
  0
VERTEX
  5
517
  8
0
  6
CONTINUOUS
 62
     7
 10
3875.04639054952
 20
1499.586833139137
 30
0.0
  0
VERTEX
  5
518
  8
0
  6
CONTINUOUS
 62
     7
 10
3875.030123067593
 20
1499.593940979033
 30
0.0
  0
VERTEX
  5
519
  8
0
  6
CONTINUOUS
 62
     7
 10
3875.013644831456
 20
1499.600675235605
 30
0.0
  0
VERTEX
  5
51A
  8
0
  6
CONTINUOUS
 62
     7
 10
3874.996975710418
 20
1499.607048980663
 30
0.0
  0
VERTEX
  5
51B
  8
0
  6
CONTINUOUS
 62
     7
 10
3874.98013557379
 20
1499.61307528602
 30
0.0
  0
VERTEX
  5
51C
  8
0
  6
CONTINUOUS
 62
     7
 10
3874.963144290883
 20
1499.618767223489
 30
0.0
  0
VERTEX
  5
51D
  8
0
  6
CONTINUOUS
 62
     7
 10
3874.94602173101
 20
1499.624137864882
 30
0.0
  0
VERTEX
  5
51E
  8
0
  6
CONTINUOUS
 62
     7
 10
3874.928787763479
 20
1499.62920028201
 30
0.0
  0
VERTEX
  5
51F
  8
0
  6
CONTINUOUS
 62
     7
 10
3874.9114622572
 20
1499.633967546753
 30
0.0
  0
VERTEX
  5
520
  8
0
  6
CONTINUOUS
 62
     7
 10
3874.894061995889
 20
1499.638453235745
 30
0.0
  0
VERTEX
  5
521
  8
0
  6
CONTINUOUS
 62
     7
 10
3874.876593246958
 20
1499.642672646163
 30
0.0
  0
VERTEX
  5
522
  8
0
  6
CONTINUOUS
 62
     7
 10
3874.859060039088
 20
1499.646641441452
 30
0.0
  0
VERTEX
  5
523
  8
0
  6
CONTINUOUS
 62
     7
 10
3874.841466400963
 20
1499.650375285057
 30
0.0
  0
VERTEX
  5
524
  8
0
  6
CONTINUOUS
 62
     7
 10
3874.823816361268
 20
1499.653889840424
 30
0.0
  0
VERTEX
  5
525
  8
0
  6
CONTINUOUS
 62
     7
 10
3874.806113948684
 20
1499.657200770998
 30
0.0
  0
VERTEX
  5
526
  8
0
  6
CONTINUOUS
 62
     7
 10
3874.788363191897
 20
1499.660323740225
 30
0.0
  0
VERTEX
  5
527
  8
0
  6
CONTINUOUS
 62
     7
 10
3874.770568119589
 20
1499.663274411551
 30
0.0
  0
VERTEX
  5
528
  8
0
  6
CONTINUOUS
 62
     7
 10
3874.752732760446
 20
1499.666068448421
 30
0.0
  0
VERTEX
  5
529
  8
0
  6
CONTINUOUS
 62
     7
 10
3874.734861143149
 20
1499.668721514281
 30
0.0
  0
VERTEX
  5
52A
  8
0
  6
CONTINUOUS
 62
     7
 10
3874.716957296383
 20
1499.671249272576
 30
0.0
  0
VERTEX
  5
52B
  8
0
  6
CONTINUOUS
 62
     7
 10
3874.699025248832
 20
1499.673667386752
 30
0.0
  0
VERTEX
  5
52C
  8
0
  6
CONTINUOUS
 62
     7
 10
3874.68106902918
 20
1499.675991520255
 30
0.0
  0
VERTEX
  5
52D
  8
0
  6
CONTINUOUS
 62
     7
 10
3874.663092666107
 20
1499.67823733653
 30
0.0
  0
VERTEX
  5
52E
  8
0
  6
CONTINUOUS
 62
     7
 10
3874.645100188302
 20
1499.680420499023
 30
0.0
  0
VERTEX
  5
52F
  8
0
  6
CONTINUOUS
 62
     7
 10
3874.627095624446
 20
1499.682556671178
 30
0.0
  0
VERTEX
  5
530
  8
0
  6
CONTINUOUS
 62
     7
 10
3874.609083003222
 20
1499.684661516443
 30
0.0
  0
VERTEX
  5
531
  8
0
  6
CONTINUOUS
 62
     7
 10
3874.591066353314
 20
1499.686750698262
 30
0.0
  0
SEQEND
  5
7DD
  8
0
  6
CONTINUOUS
 62
     7
  0
LINE
  5
183
  8
0
  6
CONTINUOUS
 62
     7
 10
3873.441066353329
 20
1482.186750698254
 30
0.0
 11
3873.441066353328
 21
1491.29517654051
 31
0.0
  0
LINE
  5
184
  8
0
  6
CONTINUOUS
 62
     7
 10
3873.74106635332
 20
1499.686750698262
 30
0.0
 11
3874.591066353314
 21
1499.686750698262
 31
0.0
  0
LINE
  5
185
  8
0
  6
CONTINUOUS
 62
     7
 10
3873.241066353329
 20
1482.186750698254
 30
0.0
 11
3873.441066353329
 21
1482.186750698254
 31
0.0
  0
LINE
  5
186
  8
0
  6
CONTINUOUS
 62
     7
 10
3873.24106635332
 20
1537.186750698259
 30
0.0
 11
3873.441066353319
 21
1537.186750698259
 31
0.0
  0
LINE
  5
187
  8
0
  6
CONTINUOUS
 62
     7
 10
3873.441066353323
 20
1528.078324856009
 30
0.0
 11
3873.441066353319
 21
1537.186750698259
 31
0.0
  0
POLYLINE
  5
188
  8
0
  6
CONTINUOUS
 62
     7
 66
     1
 10
0.0
 20
0.0
 30
0.0
  0
VERTEX
  5
532
  8
0
  6
CONTINUOUS
 62
     7
 10
3874.591066353325
 20
1519.686750698262
 30
0.0
  0
VERTEX
  5
533
  8
0
  6
CONTINUOUS
 62
     7
 10
3874.613951811955
 20
1519.689026021254
 30
0.0
  0
VERTEX
  5
534
  8
0
  6
CONTINUOUS
 62
     7
 10
3874.636817276157
 20
1519.691342271729
 30
0.0
  0
VERTEX
  5
535
  8
0
  6
CONTINUOUS
 62
     7
 10
3874.659642751499
 20
1519.693740377168
 30
0.0
  0
VERTEX
  5
536
  8
0
  6
CONTINUOUS
 62
     7
 10
3874.682408243553
 20
1519.696261265054
 30
0.0
  0
VERTEX
  5
537
  8
0
  6
CONTINUOUS
 62
     7
 10
3874.705093757889
 20
1519.698945862869
 30
0.0
  0
VERTEX
  5
538
  8
0
  6
CONTINUOUS
 62
     7
 10
3874.727679300076
 20
1519.701835098096
 30
0.0
  0
VERTEX
  5
539
  8
0
  6
CONTINUOUS
 62
     7
 10
3874.750144875688
 20
1519.704969898217
 30
0.0
  0
VERTEX
  5
53A
  8
0
  6
CONTINUOUS
 62
     7
 10
3874.772470490293
 20
1519.708391190713
 30
0.0
  0
VERTEX
  5
53B
  8
0
  6
CONTINUOUS
 62
     7
 10
3874.794636149461
 20
1519.712139903068
 30
0.0
  0
VERTEX
  5
53C
  8
0
  6
CONTINUOUS
 62
     7
 10
3874.816621858763
 20
1519.716256962765
 30
0.0
  0
VERTEX
  5
53D
  8
0
  6
CONTINUOUS
 62
     7
 10
3874.838407623771
 20
1519.720783297284
 30
0.0
  0
VERTEX
  5
53E
  8
0
  6
CONTINUOUS
 62
     7
 10
3874.859973450055
 20
1519.725759834108
 30
0.0
  0
VERTEX
  5
53F
  8
0
  6
CONTINUOUS
 62
     7
 10
3874.881299343183
 20
1519.731227500721
 30
0.0
  0
VERTEX
  5
540
  8
0
  6
CONTINUOUS
 62
     7
 10
3874.902365308728
 20
1519.737227224603
 30
0.0
  0
VERTEX
  5
541
  8
0
  6
CONTINUOUS
 62
     7
 10
3874.923151352261
 20
1519.743799933238
 30
0.0
  0
VERTEX
  5
542
  8
0
  6
CONTINUOUS
 62
     7
 10
3874.943637479352
 20
1519.750986554107
 30
0.0
  0
VERTEX
  5
543
  8
0
  6
CONTINUOUS
 62
     7
 10
3874.963807682091
 20
1519.758819854505
 30
0.0
  0
VERTEX
  5
544
  8
0
  6
CONTINUOUS
 62
     7
 10
3874.98367192723
 20
1519.767279433048
 30
0.0
  0
VERTEX
  5
545
  8
0
  6
CONTINUOUS
 62
     7
 10
3875.003250586085
 20
1519.776323590797
 30
0.0
  0
VERTEX
  5
546
  8
0
  6
CONTINUOUS
 62
     7
 10
3875.02256405767
 20
1519.785910572095
 30
0.0
  0
VERTEX
  5
547
  8
0
  6
CONTINUOUS
 62
     7
 10
3875.041632741009
 20
1519.795998621285
 30
0.0
  0
VERTEX
  5
548
  8
0
  6
CONTINUOUS
 62
     7
 10
3875.060477035121
 20
1519.806545982708
 30
0.0
  0
VERTEX
  5
549
  8
0
  6
CONTINUOUS
 62
     7
 10
3875.07911733903
 20
1519.817510900707
 30
0.0
  0
VERTEX
  5
54A
  8
0
  6
CONTINUOUS
 62
     7
 10
3875.097574051752
 20
1519.828851619626
 30
0.0
  0
VERTEX
  5
54B
  8
0
  6
CONTINUOUS
 62
     7
 10
3875.11586757231
 20
1519.840526383805
 30
0.0
  0
VERTEX
  5
54C
  8
0
  6
CONTINUOUS
 62
     7
 10
3875.134018299725
 20
1519.852493437587
 30
0.0
  0
VERTEX
  5
54D
  8
0
  6
CONTINUOUS
 62
     7
 10
3875.152046633015
 20
1519.864711025316
 30
0.0
  0
VERTEX
  5
54E
  8
0
  6
CONTINUOUS
 62
     7
 10
3875.169972971203
 20
1519.877137391332
 30
0.0
  0
VERTEX
  5
54F
  8
0
  6
CONTINUOUS
 62
     7
 10
3875.187817713309
 20
1519.889730779979
 30
0.0
  0
VERTEX
  5
550
  8
0
  6
CONTINUOUS
 62
     7
 10
3875.205601258353
 20
1519.902449435599
 30
0.0
  0
VERTEX
  5
551
  8
0
  6
CONTINUOUS
 62
     7
 10
3875.223344005356
 20
1519.915251602534
 30
0.0
  0
VERTEX
  5
552
  8
0
  6
CONTINUOUS
 62
     7
 10
3875.241066353339
 20
1519.928095525126
 30
0.0
  0
SEQEND
  5
7DE
  8
0
  6
CONTINUOUS
 62
     7
  0
LINE
  5
189
  8
0
  6
CONTINUOUS
 62
     7
 10
3874.591066353325
 20
1519.686750698262
 30
0.0
 11
3873.741066353339
 21
1519.686750698259
 31
0.0
  0
LINE
  5
18A
  8
0
  6
CONTINUOUS
 62
     7
 10
3873.241066353328
 20
1481.186750698255
 30
0.0
 11
3873.441066353328
 21
1481.186750698255
 31
0.0
  0
LINE
  5
18B
  8
0
  6
CONTINUOUS
 62
     7
 10
3873.241066353305
 20
1538.186750698258
 30
0.0
 11
3873.441066353305
 21
1538.186750698258
 31
0.0
  0
LINE
  5
18C
  8
0
  6
CONTINUOUS
 62
     7
 10
3873.741066353329
 20
680.7307925592023
 30
0.0
 11
3873.241066353337
 21
680.730792559202
 31
0.0
  0
LINE
  5
18D
  8
0
  6
CONTINUOUS
 62
     7
 10
3873.74106635333
 20
682.2867506984946
 30
0.0
 11
3873.24106635333
 21
682.2867506984946
 31
0.0
  0
LINE
  5
18E
  8
0
  6
CONTINUOUS
 62
     7
 10
3873.74106635333
 20
682.2867506984946
 30
0.0
 11
3873.741066353329
 21
680.7307925592023
 31
0.0
  0
LINE
  5
18F
  8
0
  6
CONTINUOUS
 62
     7
 10
3873.241066353337
 20
698.642708837331
 30
0.0
 11
3873.741066353322
 21
698.6427088373299
 31
0.0
  0
LINE
  5
190
  8
0
  6
CONTINUOUS
 62
     7
 10
3873.741066353322
 20
698.6427088373299
 30
0.0
 11
3873.741066353314
 21
697.0867506980436
 31
0.0
  0
LINE
  5
191
  8
0
  6
CONTINUOUS
 62
     7
 10
3873.241066353314
 20
697.0867506980436
 30
0.0
 11
3873.741066353314
 21
697.0867506980436
 31
0.0
  0
LINE
  5
192
  8
0
  6
CONTINUOUS
 62
     7
 10
3873.441066353328
 20
671.2951765405099
 30
0.0
 11
3873.741066353328
 21
671.2951765405099
 31
0.0
  0
LINE
  5
193
  8
0
  6
CONTINUOUS
 62
     7
 10
3873.241066353328
 20
671.2951765405099
 30
0.0
 11
3873.441066353328
 21
671.2951765405099
 31
0.0
  0
LINE
  5
194
  8
0
  6
CONTINUOUS
 62
     7
 10
3873.741066353328
 20
671.2951765405099
 30
0.0
 11
3873.741066353329
 21
680.7307925592023
 31
0.0
  0
LINE
  5
195
  8
0
  6
CONTINUOUS
 62
     7
 10
3873.441066353323
 20
708.0783248560094
 30
0.0
 11
3873.241066353322
 21
708.0783248560094
 31
0.0
  0
LINE
  5
196
  8
0
  6
CONTINUOUS
 62
     7
 10
3873.741066353322
 20
708.0783248560094
 30
0.0
 11
3873.441066353323
 21
708.0783248560094
 31
0.0
  0
LINE
  5
197
  8
0
  6
CONTINUOUS
 62
     7
 10
3873.741066353322
 20
698.6427088373299
 30
0.0
 11
3873.741066353322
 21
708.0783248560094
 31
0.0
  0
POLYLINE
  5
198
  8
0
  6
CONTINUOUS
 62
     7
 10
0.0
 20
0.0
 30
0.0
 66
     1
 70
     8
  0
VERTEX
  5
553
  8
0
  6
CONTINUOUS
 62
     7
 10
3875.241066353339
 20
661.1867506982608
 30
0.0
 70
    32
  0
VERTEX
  5
554
  8
0
  6
CONTINUOUS
 62
     7
 10
3875.22379752796
 20
661.1867506982608
 30
0.0
 70
    32
  0
VERTEX
  5
555
  8
0
  6
CONTINUOUS
 62
     7
 10
3875.206372444488
 20
661.1867506982608
 30
0.0
 70
    32
  0
VERTEX
  5
556
  8
0
  6
CONTINUOUS
 62
     7
 10
3875.188634844835
 20
661.1867506982608
 30
0.0
 70
    32
  0
VERTEX
  5
557
  8
0
  6
CONTINUOUS
 62
     7
 10
3875.170428470908
 20
661.1867506982608
 30
0.0
 70
    32
  0
VERTEX
  5
558
  8
0
  6
CONTINUOUS
 62
     7
 10
3875.151597064614
 20
661.1867506982608
 30
0.0
 70
    32
  0
VERTEX
  5
559
  8
0
  6
CONTINUOUS
 62
     7
 10
3875.131984367865
 20
661.1867506982608
 30
0.0
 70
    32
  0
VERTEX
  5
55A
  8
0
  6
CONTINUOUS
 62
     7
 10
3875.111434144576
 20
661.1867506982609
 30
0.0
 70
    32
  0
VERTEX
  5
55B
  8
0
  6
CONTINUOUS
 62
     7
 10
3875.089836356958
 20
661.1867506982609
 30
0.0
 70
    32
  0
VERTEX
  5
55C
  8
0
  6
CONTINUOUS
 62
     7
 10
3875.067224561637
 20
661.1867506982608
 30
0.0
 70
    32
  0
VERTEX
  5
55D
  8
0
  6
CONTINUOUS
 62
     7
 10
3875.043660132856
 20
661.1867506982609
 30
0.0
 70
    32
  0
VERTEX
  5
55E
  8
0
  6
CONTINUOUS
 62
     7
 10
3875.019204444856
 20
661.1867506982609
 30
0.0
 70
    32
  0
VERTEX
  5
55F
  8
0
  6
CONTINUOUS
 62
     7
 10
3874.993918871877
 20
661.1867506982609
 30
0.0
 70
    32
  0
VERTEX
  5
560
  8
0
  6
CONTINUOUS
 62
     7
 10
3874.967864788162
 20
661.1867506982608
 30
0.0
 70
    32
  0
VERTEX
  5
561
  8
0
  6
CONTINUOUS
 62
     7
 10
3874.941103567953
 20
661.1867506982608
 30
0.0
 70
    32
  0
VERTEX
  5
562
  8
0
  6
CONTINUOUS
 62
     7
 10
3874.913696585488
 20
661.1867506982609
 30
0.0
 70
    32
  0
VERTEX
  5
563
  8
0
  6
CONTINUOUS
 62
     7
 10
3874.885705215011
 20
661.1867506982608
 30
0.0
 70
    32
  0
VERTEX
  5
564
  8
0
  6
CONTINUOUS
 62
     7
 10
3874.857190830763
 20
661.1867506982608
 30
0.0
 70
    32
  0
VERTEX
  5
565
  8
0
  6
CONTINUOUS
 62
     7
 10
3874.82820617991
 20
661.1867506982609
 30
0.0
 70
    32
  0
VERTEX
  5
566
  8
0
  6
CONTINUOUS
 62
     7
 10
3874.798761871029
 20
661.1867506982608
 30
0.0
 70
    32
  0
VERTEX
  5
567
  8
0
  6
CONTINUOUS
 62
     7
 10
3874.76885566662
 20
661.1867506982608
 30
0.0
 70
    32
  0
VERTEX
  5
568
  8
0
  6
CONTINUOUS
 62
     7
 10
3874.738485326073
 20
661.1867506982608
 30
0.0
 70
    32
  0
VERTEX
  5
569
  8
0
  6
CONTINUOUS
 62
     7
 10
3874.707648608781
 20
661.1867506982608
 30
0.0
 70
    32
  0
VERTEX
  5
56A
  8
0
  6
CONTINUOUS
 62
     7
 10
3874.676343274133
 20
661.1867506982608
 30
0.0
 70
    32
  0
VERTEX
  5
56B
  8
0
  6
CONTINUOUS
 62
     7
 10
3874.644567081521
 20
661.1867506982608
 30
0.0
 70
    32
  0
VERTEX
  5
56C
  8
0
  6
CONTINUOUS
 62
     7
 10
3874.612317790337
 20
661.1867506982608
 30
0.0
 70
    32
  0
VERTEX
  5
56D
  8
0
  6
CONTINUOUS
 62
     7
 10
3874.579593159972
 20
661.1867506982608
 30
0.0
 70
    32
  0
VERTEX
  5
56E
  8
0
  6
CONTINUOUS
 62
     7
 10
3874.546390949816
 20
661.1867506982608
 30
0.0
 70
    32
  0
VERTEX
  5
56F
  8
0
  6
CONTINUOUS
 62
     7
 10
3874.512710511007
 20
661.1867506982608
 30
0.0
 70
    32
  0
VERTEX
  5
570
  8
0
  6
CONTINUOUS
 62
     7
 10
3874.478563117683
 20
661.1867506982608
 30
0.0
 70
    32
  0
VERTEX
  5
571
  8
0
  6
CONTINUOUS
 62
     7
 10
3874.443965450773
 20
661.1867506982608
 30
0.0
 70
    32
  0
VERTEX
  5
572
  8
0
  6
CONTINUOUS
 62
     7
 10
3874.408934218084
 20
661.186750698261
 30
0.0
 70
    32
  0
VERTEX
  5
573
  8
0
  6
CONTINUOUS
 62
     7
 10
3874.373486127422
 20
661.1867506982611
 30
0.0
 70
    32
  0
VERTEX
  5
574
  8
0
  6
CONTINUOUS
 62
     7
 10
3874.337637886595
 20
661.1867506982609
 30
0.0
 70
    32
  0
VERTEX
  5
575
  8
0
  6
CONTINUOUS
 62
     7
 10
3874.301406203413
 20
661.1867506982609
 30
0.0
 70
    32
  0
VERTEX
  5
576
  8
0
  6
CONTINUOUS
 62
     7
 10
3874.264807785682
 20
661.1867506982608
 30
0.0
 70
    32
  0
VERTEX
  5
577
  8
0
  6
CONTINUOUS
 62
     7
 10
3874.22785934121
 20
661.1867506982609
 30
0.0
 70
    32
  0
VERTEX
  5
578
  8
0
  6
CONTINUOUS
 62
     7
 10
3874.190577577805
 20
661.1867506982609
 30
0.0
 70
    32
  0
VERTEX
  5
579
  8
0
  6
CONTINUOUS
 62
     7
 10
3874.152979201267
 20
661.1867506982605
 30
0.0
 70
    32
  0
VERTEX
  5
57A
  8
0
  6
CONTINUOUS
 62
     7
 10
3874.115080892125
 20
661.1867506982604
 30
0.0
 70
    32
  0
VERTEX
  5
57B
  8
0
  6
CONTINUOUS
 62
     7
 10
3874.076899313617
 20
661.1867506982603
 30
0.0
 70
    32
  0
VERTEX
  5
57C
  8
0
  6
CONTINUOUS
 62
     7
 10
3874.038451128648
 20
661.1867506982601
 30
0.0
 70
    32
  0
VERTEX
  5
57D
  8
0
  6
CONTINUOUS
 62
     7
 10
3873.999753000121
 20
661.18675069826
 30
0.0
 70
    32
  0
VERTEX
  5
57E
  8
0
  6
CONTINUOUS
 62
     7
 10
3873.96082159094
 20
661.1867506982597
 30
0.0
 70
    32
  0
VERTEX
  5
57F
  8
0
  6
CONTINUOUS
 62
     7
 10
3873.921673564008
 20
661.1867506982593
 30
0.0
 70
    32
  0
VERTEX
  5
580
  8
0
  6
CONTINUOUS
 62
     7
 10
3873.882325582231
 20
661.1867506982592
 30
0.0
 70
    32
  0
VERTEX
  5
581
  8
0
  6
CONTINUOUS
 62
     7
 10
3873.842794308511
 20
661.1867506982588
 30
0.0
 70
    32
  0
VERTEX
  5
582
  8
0
  6
CONTINUOUS
 62
     7
 10
3873.803096405753
 20
661.1867506982585
 30
0.0
 70
    32
  0
VERTEX
  5
583
  8
0
  6
CONTINUOUS
 62
     7
 10
3873.76324853686
 20
661.1867506982582
 30
0.0
 70
    32
  0
VERTEX
  5
584
  8
0
  6
CONTINUOUS
 62
     7
 10
3873.723267364736
 20
661.1867506982579
 30
0.0
 70
    32
  0
VERTEX
  5
585
  8
0
  6
CONTINUOUS
 62
     7
 10
3873.683169552285
 20
661.1867506982575
 30
0.0
 70
    32
  0
VERTEX
  5
586
  8
0
  6
CONTINUOUS
 62
     7
 10
3873.642971762411
 20
661.1867506982571
 30
0.0
 70
    32
  0
VERTEX
  5
587
  8
0
  6
CONTINUOUS
 62
     7
 10
3873.602690658017
 20
661.1867506982568
 30
0.0
 70
    32
  0
VERTEX
  5
588
  8
0
  6
CONTINUOUS
 62
     7
 10
3873.562342902008
 20
661.1867506982563
 30
0.0
 70
    32
  0
VERTEX
  5
589
  8
0
  6
CONTINUOUS
 62
     7
 10
3873.521945157288
 20
661.186750698256
 30
0.0
 70
    32
  0
VERTEX
  5
58A
  8
0
  6
CONTINUOUS
 62
     7
 10
3873.481514086759
 20
661.1867506982555
 30
0.0
 70
    32
  0
VERTEX
  5
58B
  8
0
  6
CONTINUOUS
 62
     7
 10
3873.441066353328
 20
661.1867506982552
 30
0.0
 70
    32
  0
SEQEND
  5
7DF
  8
0
  6
CONTINUOUS
 62
     7
  0
LINE
  5
199
  8
0
  6
CONTINUOUS
 62
     7
 10
3873.441066353329
 20
662.1867506982544
 30
0.0
 11
3873.441066353328
 21
661.1867506982552
 31
0.0
  0
POLYLINE
  5
19A
  8
0
  6
CONTINUOUS
 62
     7
 10
0.0
 20
0.0
 30
0.0
 66
     1
 70
     8
  0
VERTEX
  5
58C
  8
0
  6
CONTINUOUS
 62
     7
 10
3873.441066353305
 20
718.1867506982578
 30
0.0
 70
    32
  0
VERTEX
  5
58D
  8
0
  6
CONTINUOUS
 62
     7
 10
3873.481514832004
 20
718.1867506982579
 30
0.0
 70
    32
  0
VERTEX
  5
58E
  8
0
  6
CONTINUOUS
 62
     7
 10
3873.521946644306
 20
718.1867506982579
 30
0.0
 70
    32
  0
VERTEX
  5
58F
  8
0
  6
CONTINUOUS
 62
     7
 10
3873.562345123819
 20
718.1867506982579
 30
0.0
 70
    32
  0
VERTEX
  5
590
  8
0
  6
CONTINUOUS
 62
     7
 10
3873.602693604148
 20
718.1867506982578
 30
0.0
 70
    32
  0
VERTEX
  5
591
  8
0
  6
CONTINUOUS
 62
     7
 10
3873.642975418898
 20
718.1867506982579
 30
0.0
 70
    32
  0
VERTEX
  5
592
  8
0
  6
CONTINUOUS
 62
     7
 10
3873.683173901672
 20
718.1867506982579
 30
0.0
 70
    32
  0
VERTEX
  5
593
  8
0
  6
CONTINUOUS
 62
     7
 10
3873.723272386079
 20
718.1867506982579
 30
0.0
 70
    32
  0
VERTEX
  5
594
  8
0
  6
CONTINUOUS
 62
     7
 10
3873.763254205722
 20
718.1867506982579
 30
0.0
 70
    32
  0
VERTEX
  5
595
  8
0
  6
CONTINUOUS
 62
     7
 10
3873.803102694206
 20
718.1867506982579
 30
0.0
 70
    32
  0
VERTEX
  5
596
  8
0
  6
CONTINUOUS
 62
     7
 10
3873.842801185138
 20
718.1867506982579
 30
0.0
 70
    32
  0
VERTEX
  5
597
  8
0
  6
CONTINUOUS
 62
     7
 10
3873.88233301212
 20
718.1867506982579
 30
0.0
 70
    32
  0
VERTEX
  5
598
  8
0
  6
CONTINUOUS
 62
     7
 10
3873.92168150876
 20
718.186750698258
 30
0.0
 70
    32
  0
VERTEX
  5
599
  8
0
  6
CONTINUOUS
 62
     7
 10
3873.960830008663
 20
718.186750698258
 30
0.0
 70
    32
  0
VERTEX
  5
59A
  8
0
  6
CONTINUOUS
 62
     7
 10
3873.999761845432
 20
718.186750698258
 30
0.0
 70
    32
  0
VERTEX
  5
59B
  8
0
  6
CONTINUOUS
 62
     7
 10
3874.038460352675
 20
718.1867506982582
 30
0.0
 70
    32
  0
VERTEX
  5
59C
  8
0
  6
CONTINUOUS
 62
     7
 10
3874.076908863994
 20
718.1867506982582
 30
0.0
 70
    32
  0
VERTEX
  5
59D
  8
0
  6
CONTINUOUS
 62
     7
 10
3874.115090712997
 20
718.186750698258
 30
0.0
 70
    32
  0
VERTEX
  5
59E
  8
0
  6
CONTINUOUS
 62
     7
 10
3874.152989233288
 20
718.1867506982582
 30
0.0
 70
    32
  0
VERTEX
  5
59F
  8
0
  6
CONTINUOUS
 62
     7
 10
3874.19058775823
 20
718.186750698258
 30
0.0
 70
    32
  0
VERTEX
  5
5A0
  8
0
  6
CONTINUOUS
 62
     7
 10
3874.227869608724
 20
718.1867506982582
 30
0.0
 70
    32
  0
VERTEX
  5
5A1
  8
0
  6
CONTINUOUS
 62
     7
 10
3874.264818087466
 20
718.186750698258
 30
0.0
 70
    32
  0
VERTEX
  5
5A2
  8
0
  6
CONTINUOUS
 62
     7
 10
3874.301416495709
 20
718.186750698258
 30
0.0
 70
    32
  0
VERTEX
  5
5A3
  8
0
  6
CONTINUOUS
 62
     7
 10
3874.337648134705
 20
718.1867506982582
 30
0.0
 70
    32
  0
VERTEX
  5
5A4
  8
0
  6
CONTINUOUS
 62
     7
 10
3874.373496305704
 20
718.186750698258
 30
0.0
 70
    32
  0
VERTEX
  5
5A5
  8
0
  6
CONTINUOUS
 62
     7
 10
3874.408944309961
 20
718.1867506982582
 30
0.0
 70
    32
  0
VERTEX
  5
5A6
  8
0
  6
CONTINUOUS
 62
     7
 10
3874.443975448725
 20
718.186750698258
 30
0.0
 70
    32
  0
VERTEX
  5
5A7
  8
0
  6
CONTINUOUS
 62
     7
 10
3874.47857302325
 20
718.1867506982582
 30
0.0
 70
    32
  0
VERTEX
  5
5A8
  8
0
  6
CONTINUOUS
 62
     7
 10
3874.512720334787
 20
718.186750698258
 30
0.0
 70
    32
  0
VERTEX
  5
5A9
  8
0
  6
CONTINUOUS
 62
     7
 10
3874.546400717186
 20
718.186750698258
 30
0.0
 70
    32
  0
VERTEX
  5
5AA
  8
0
  6
CONTINUOUS
 62
     7
 10
3874.579603063731
 20
718.186750698258
 30
0.0
 70
    32
  0
VERTEX
  5
5AB
  8
0
  6
CONTINUOUS
 62
     7
 10
3874.612328065888
 20
718.186750698258
 30
0.0
 70
    32
  0
VERTEX
  5
5AC
  8
0
  6
CONTINUOUS
 62
     7
 10
3874.644577921666
 20
718.186750698258
 30
0.0
 70
    32
  0
VERTEX
  5
5AD
  8
0
  6
CONTINUOUS
 62
     7
 10
3874.676354829069
 20
718.1867506982582
 30
0.0
 70
    32
  0
VERTEX
  5
5AE
  8
0
  6
CONTINUOUS
 62
     7
 10
3874.707660986106
 20
718.1867506982579
 30
0.0
 70
    32
  0
VERTEX
  5
5AF
  8
0
  6
CONTINUOUS
 62
     7
 10
3874.738498590781
 20
718.186750698258
 30
0.0
 70
    32
  0
VERTEX
  5
5B0
  8
0
  6
CONTINUOUS
 62
     7
 10
3874.768869841099
 20
718.186750698258
 30
0.0
 70
    32
  0
VERTEX
  5
5B1
  8
0
  6
CONTINUOUS
 62
     7
 10
3874.798776935069
 20
718.1867506982582
 30
0.0
 70
    32
  0
VERTEX
  5
5B2
  8
0
  6
CONTINUOUS
 62
     7
 10
3874.828222070694
 20
718.186750698258
 30
0.0
 70
    32
  0
VERTEX
  5
5B3
  8
0
  6
CONTINUOUS
 62
     7
 10
3874.857207442793
 20
718.186750698258
 30
0.0
 70
    32
  0
VERTEX
  5
5B4
  8
0
  6
CONTINUOUS
 62
     7
 10
3874.885722373112
 20
718.1867506982582
 30
0.0
 70
    32
  0
VERTEX
  5
5B5
  8
0
  6
CONTINUOUS
 62
     7
 10
3874.913714028229
 20
718.1867506982582
 30
0.0
 70
    32
  0
VERTEX
  5
5B6
  8
0
  6
CONTINUOUS
 62
     7
 10
3874.941120959253
 20
718.186750698258
 30
0.0
 70
    32
  0
VERTEX
  5
5B7
  8
0
  6
CONTINUOUS
 62
     7
 10
3874.967881717292
 20
718.1867506982582
 30
0.0
 70
    32
  0
VERTEX
  5
5B8
  8
0
  6
CONTINUOUS
 62
     7
 10
3874.993934853454
 20
718.186750698258
 30
0.0
 70
    32
  0
VERTEX
  5
5B9
  8
0
  6
CONTINUOUS
 62
     7
 10
3875.019218918849
 20
718.1867506982582
 30
0.0
 70
    32
  0
VERTEX
  5
5BA
  8
0
  6
CONTINUOUS
 62
     7
 10
3875.043672464585
 20
718.1867506982582
 30
0.0
 70
    32
  0
VERTEX
  5
5BB
  8
0
  6
CONTINUOUS
 62
     7
 10
3875.06723404177
 20
718.186750698258
 30
0.0
 70
    32
  0
VERTEX
  5
5BC
  8
0
  6
CONTINUOUS
 62
     7
 10
3875.089842201516
 20
718.1867506982583
 30
0.0
 70
    32
  0
VERTEX
  5
5BD
  8
0
  6
CONTINUOUS
 62
     7
 10
3875.111435494928
 20
718.1867506982582
 30
0.0
 70
    32
  0
VERTEX
  5
5BE
  8
0
  6
CONTINUOUS
 62
     7
 10
3875.131981559976
 20
718.1867506982582
 30
0.0
 70
    32
  0
VERTEX
  5
5BF
  8
0
  6
CONTINUOUS
 62
     7
 10
3875.15159192305
 20
718.1867506982583
 30
0.0
 70
    32
  0
VERTEX
  5
5C0
  8
0
  6
CONTINUOUS
 62
     7
 10
3875.170422523842
 20
718.186750698258
 30
0.0
 70
    32
  0
VERTEX
  5
5C1
  8
0
  6
CONTINUOUS
 62
     7
 10
3875.188629314812
 20
718.186750698258
 30
0.0
 70
    32
  0
VERTEX
  5
5C2
  8
0
  6
CONTINUOUS
 62
     7
 10
3875.206368248414
 20
718.1867506982582
 30
0.0
 70
    32
  0
VERTEX
  5
5C3
  8
0
  6
CONTINUOUS
 62
     7
 10
3875.223795277105
 20
718.186750698258
 30
0.0
 70
    32
  0
VERTEX
  5
5C4
  8
0
  6
CONTINUOUS
 62
     7
 10
3875.241066353339
 20
718.186750698258
 30
0.0
 70
    32
  0
SEQEND
  5
7E0
  8
0
  6
CONTINUOUS
 62
     7
  0
LINE
  5
19B
  8
0
  6
CONTINUOUS
 62
     7
 10
3873.441066353319
 20
717.186750698259
 30
0.0
 11
3873.441066353305
 21
718.1867506982578
 31
0.0
  0
LINE
  5
19C
  8
0
  6
CONTINUOUS
 62
     7
 10
3873.241066353329
 20
662.1867506982544
 30
0.0
 11
3873.441066353329
 21
662.1867506982544
 31
0.0
  0
LINE
  5
19D
  8
0
  6
CONTINUOUS
 62
     7
 10
3873.441066353329
 20
662.1867506982544
 30
0.0
 11
3873.441066353328
 21
671.2951765405099
 31
0.0
  0
POLYLINE
  5
19E
  8
0
  6
CONTINUOUS
 62
     7
 66
     1
 10
0.0
 20
0.0
 30
0.0
  0
VERTEX
  5
5C5
  8
0
  6
CONTINUOUS
 62
     7
 10
3875.241066353339
 20
679.4409863580655
 30
0.0
  0
VERTEX
  5
5C6
  8
0
  6
CONTINUOUS
 62
     7
 10
3875.229655168319
 20
679.4544947672556
 30
0.0
  0
VERTEX
  5
5C7
  8
0
  6
CONTINUOUS
 62
     7
 10
3875.21792907492
 20
679.4676414213623
 30
0.0
  0
VERTEX
  5
5C8
  8
0
  6
CONTINUOUS
 62
     7
 10
3875.205740449791
 20
679.4802518625149
 30
0.0
  0
VERTEX
  5
5C9
  8
0
  6
CONTINUOUS
 62
     7
 10
3875.193102638719
 20
679.4923318585955
 30
0.0
  0
VERTEX
  5
5CA
  8
0
  6
CONTINUOUS
 62
     7
 10
3875.180035511015
 20
679.5038944814166
 30
0.0
  0
VERTEX
  5
5CB
  8
0
  6
CONTINUOUS
 62
     7
 10
3875.166558935988
 20
679.5149528027902
 30
0.0
  0
VERTEX
  5
5CC
  8
0
  6
CONTINUOUS
 62
     7
 10
3875.152692782951
 20
679.5255198945284
 30
0.0
  0
VERTEX
  5
5CD
  8
0
  6
CONTINUOUS
 62
     7
 10
3875.138456921214
 20
679.5356088284437
 30
0.0
  0
VERTEX
  5
5CE
  8
0
  6
CONTINUOUS
 62
     7
 10
3875.123871220089
 20
679.5452326763484
 30
0.0
  0
VERTEX
  5
5CF
  8
0
  6
CONTINUOUS
 62
     7
 10
3875.108955548886
 20
679.5544045100544
 30
0.0
  0
VERTEX
  5
5D0
  8
0
  6
CONTINUOUS
 62
     7
 10
3875.093729776918
 20
679.5631374013741
 30
0.0
  0
VERTEX
  5
5D1
  8
0
  6
CONTINUOUS
 62
     7
 10
3875.078213773493
 20
679.5714444221196
 30
0.0
  0
VERTEX
  5
5D2
  8
0
  6
CONTINUOUS
 62
     7
 10
3875.062427407922
 20
679.5793386441031
 30
0.0
  0
VERTEX
  5
5D3
  8
0
  6
CONTINUOUS
 62
     7
 10
3875.046390549518
 20
679.5868331391371
 30
0.0
  0
VERTEX
  5
5D4
  8
0
  6
CONTINUOUS
 62
     7
 10
3875.030123067594
 20
679.5939409790336
 30
0.0
  0
VERTEX
  5
5D5
  8
0
  6
CONTINUOUS
 62
     7
 10
3875.013644831455
 20
679.6006752356049
 30
0.0
  0
VERTEX
  5
5D6
  8
0
  6
CONTINUOUS
 62
     7
 10
3874.996975710417
 20
679.6070489806632
 30
0.0
  0
VERTEX
  5
5D7
  8
0
  6
CONTINUOUS
 62
     7
 10
3874.98013557379
 20
679.6130752860205
 30
0.0
  0
VERTEX
  5
5D8
  8
0
  6
CONTINUOUS
 62
     7
 10
3874.963144290883
 20
679.6187672234895
 30
0.0
  0
VERTEX
  5
5D9
  8
0
  6
CONTINUOUS
 62
     7
 10
3874.94602173101
 20
679.6241378648821
 30
0.0
  0
VERTEX
  5
5DA
  8
0
  6
CONTINUOUS
 62
     7
 10
3874.928787763479
 20
679.6292002820104
 30
0.0
  0
VERTEX
  5
5DB
  8
0
  6
CONTINUOUS
 62
     7
 10
3874.911462257199
 20
679.6339675467532
 30
0.0
  0
VERTEX
  5
5DC
  8
0
  6
CONTINUOUS
 62
     7
 10
3874.894061995889
 20
679.6384532357456
 30
0.0
  0
VERTEX
  5
5DD
  8
0
  6
CONTINUOUS
 62
     7
 10
3874.876593246958
 20
679.6426726461635
 30
0.0
  0
VERTEX
  5
5DE
  8
0
  6
CONTINUOUS
 62
     7
 10
3874.859060039088
 20
679.6466414414518
 30
0.0
  0
VERTEX
  5
5DF
  8
0
  6
CONTINUOUS
 62
     7
 10
3874.841466400963
 20
679.6503752850568
 30
0.0
  0
VERTEX
  5
5E0
  8
0
  6
CONTINUOUS
 62
     7
 10
3874.823816361267
 20
679.6538898404235
 30
0.0
  0
VERTEX
  5
5E1
  8
0
  6
CONTINUOUS
 62
     7
 10
3874.806113948684
 20
679.6572007709975
 30
0.0
  0
VERTEX
  5
5E2
  8
0
  6
CONTINUOUS
 62
     7
 10
3874.788363191896
 20
679.6603237402248
 30
0.0
  0
VERTEX
  5
5E3
  8
0
  6
CONTINUOUS
 62
     7
 10
3874.770568119589
 20
679.6632744115508
 30
0.0
  0
VERTEX
  5
5E4
  8
0
  6
CONTINUOUS
 62
     7
 10
3874.752732760446
 20
679.6660684484209
 30
0.0
  0
VERTEX
  5
5E5
  8
0
  6
CONTINUOUS
 62
     7
 10
3874.734861143149
 20
679.6687215142808
 30
0.0
  0
VERTEX
  5
5E6
  8
0
  6
CONTINUOUS
 62
     7
 10
3874.716957296384
 20
679.6712492725761
 30
0.0
  0
VERTEX
  5
5E7
  8
0
  6
CONTINUOUS
 62
     7
 10
3874.699025248832
 20
679.6736673867522
 30
0.0
  0
VERTEX
  5
5E8
  8
0
  6
CONTINUOUS
 62
     7
 10
3874.68106902918
 20
679.6759915202551
 30
0.0
  0
VERTEX
  5
5E9
  8
0
  6
CONTINUOUS
 62
     7
 10
3874.663092666108
 20
679.67823733653
 30
0.0
  0
VERTEX
  5
5EA
  8
0
  6
CONTINUOUS
 62
     7
 10
3874.645100188302
 20
679.6804204990225
 30
0.0
  0
VERTEX
  5
5EB
  8
0
  6
CONTINUOUS
 62
     7
 10
3874.627095624446
 20
679.6825566711783
 30
0.0
  0
VERTEX
  5
5EC
  8
0
  6
CONTINUOUS
 62
     7
 10
3874.609083003222
 20
679.684661516443
 30
0.0
  0
VERTEX
  5
5ED
  8
0
  6
CONTINUOUS
 62
     7
 10
3874.591066353314
 20
679.686750698262
 30
0.0
  0
SEQEND
  5
7E1
  8
0
  6
CONTINUOUS
 62
     7
  0
LINE
  5
19F
  8
0
  6
CONTINUOUS
 62
     7
 10
3873.74106635332
 20
679.6867506982622
 30
0.0
 11
3874.591066353314
 21
679.686750698262
 31
0.0
  0
LINE
  5
1A0
  8
0
  6
CONTINUOUS
 62
     7
 10
3873.24106635332
 20
717.186750698259
 30
0.0
 11
3873.441066353319
 21
717.186750698259
 31
0.0
  0
LINE
  5
1A1
  8
0
  6
CONTINUOUS
 62
     7
 10
3873.441066353323
 20
708.0783248560094
 30
0.0
 11
3873.441066353319
 21
717.186750698259
 31
0.0
  0
POLYLINE
  5
1A2
  8
0
  6
CONTINUOUS
 62
     7
 66
     1
 10
0.0
 20
0.0
 30
0.0
  0
VERTEX
  5
5EE
  8
0
  6
CONTINUOUS
 62
     7
 10
3874.591066353325
 20
699.6867506982618
 30
0.0
  0
VERTEX
  5
5EF
  8
0
  6
CONTINUOUS
 62
     7
 10
3874.613951811956
 20
699.689026021254
 30
0.0
  0
VERTEX
  5
5F0
  8
0
  6
CONTINUOUS
 62
     7
 10
3874.636817276156
 20
699.6913422717284
 30
0.0
  0
VERTEX
  5
5F1
  8
0
  6
CONTINUOUS
 62
     7
 10
3874.659642751498
 20
699.6937403771674
 30
0.0
  0
VERTEX
  5
5F2
  8
0
  6
CONTINUOUS
 62
     7
 10
3874.682408243553
 20
699.6962612650535
 30
0.0
  0
VERTEX
  5
5F3
  8
0
  6
CONTINUOUS
 62
     7
 10
3874.705093757888
 20
699.6989458628688
 30
0.0
  0
VERTEX
  5
5F4
  8
0
  6
CONTINUOUS
 62
     7
 10
3874.727679300077
 20
699.7018350980956
 30
0.0
  0
VERTEX
  5
5F5
  8
0
  6
CONTINUOUS
 62
     7
 10
3874.750144875688
 20
699.7049698982162
 30
0.0
  0
VERTEX
  5
5F6
  8
0
  6
CONTINUOUS
 62
     7
 10
3874.772470490292
 20
699.7083911907131
 30
0.0
  0
VERTEX
  5
5F7
  8
0
  6
CONTINUOUS
 62
     7
 10
3874.794636149461
 20
699.7121399030683
 30
0.0
  0
VERTEX
  5
5F8
  8
0
  6
CONTINUOUS
 62
     7
 10
3874.816621858763
 20
699.7162569627643
 30
0.0
  0
VERTEX
  5
5F9
  8
0
  6
CONTINUOUS
 62
     7
 10
3874.838407623771
 20
699.7207832972836
 30
0.0
  0
VERTEX
  5
5FA
  8
0
  6
CONTINUOUS
 62
     7
 10
3874.859973450054
 20
699.7257598341081
 30
0.0
  0
VERTEX
  5
5FB
  8
0
  6
CONTINUOUS
 62
     7
 10
3874.881299343183
 20
699.7312275007204
 30
0.0
  0
VERTEX
  5
5FC
  8
0
  6
CONTINUOUS
 62
     7
 10
3874.90236530873
 20
699.7372272246026
 30
0.0
  0
VERTEX
  5
5FD
  8
0
  6
CONTINUOUS
 62
     7
 10
3874.923151352261
 20
699.7437999332374
 30
0.0
  0
VERTEX
  5
5FE
  8
0
  6
CONTINUOUS
 62
     7
 10
3874.943637479352
 20
699.7509865541067
 30
0.0
  0
VERTEX
  5
5FF
  8
0
  6
CONTINUOUS
 62
     7
 10
3874.96380768209
 20
699.7588198545053
 30
0.0
  0
VERTEX
  5
600
  8
0
  6
CONTINUOUS
 62
     7
 10
3874.983671927232
 20
699.7672794330477
 30
0.0
  0
VERTEX
  5
601
  8
0
  6
CONTINUOUS
 62
     7
 10
3875.003250586084
 20
699.7763235907967
 30
0.0
  0
VERTEX
  5
602
  8
0
  6
CONTINUOUS
 62
     7
 10
3875.02256405767
 20
699.785910572095
 30
0.0
  0
VERTEX
  5
603
  8
0
  6
CONTINUOUS
 62
     7
 10
3875.041632741009
 20
699.7959986212845
 30
0.0
  0
VERTEX
  5
604
  8
0
  6
CONTINUOUS
 62
     7
 10
3875.060477035122
 20
699.8065459827079
 30
0.0
  0
VERTEX
  5
605
  8
0
  6
CONTINUOUS
 62
     7
 10
3875.079117339029
 20
699.8175109007075
 30
0.0
  0
VERTEX
  5
606
  8
0
  6
CONTINUOUS
 62
     7
 10
3875.097574051752
 20
699.8288516196258
 30
0.0
  0
VERTEX
  5
607
  8
0
  6
CONTINUOUS
 62
     7
 10
3875.11586757231
 20
699.8405263838049
 30
0.0
  0
VERTEX
  5
608
  8
0
  6
CONTINUOUS
 62
     7
 10
3875.134018299724
 20
699.8524934375874
 30
0.0
  0
VERTEX
  5
609
  8
0
  6
CONTINUOUS
 62
     7
 10
3875.152046633016
 20
699.8647110253157
 30
0.0
  0
VERTEX
  5
60A
  8
0
  6
CONTINUOUS
 62
     7
 10
3875.169972971203
 20
699.8771373913321
 30
0.0
  0
VERTEX
  5
60B
  8
0
  6
CONTINUOUS
 62
     7
 10
3875.187817713309
 20
699.889730779979
 30
0.0
  0
VERTEX
  5
60C
  8
0
  6
CONTINUOUS
 62
     7
 10
3875.205601258353
 20
699.9024494355988
 30
0.0
  0
VERTEX
  5
60D
  8
0
  6
CONTINUOUS
 62
     7
 10
3875.223344005356
 20
699.9152516025337
 30
0.0
  0
VERTEX
  5
60E
  8
0
  6
CONTINUOUS
 62
     7
 10
3875.241066353339
 20
699.9280955251263
 30
0.0
  0
SEQEND
  5
7E2
  8
0
  6
CONTINUOUS
 62
     7
  0
LINE
  5
1A3
  8
0
  6
CONTINUOUS
 62
     7
 10
3874.591066353325
 20
699.6867506982618
 30
0.0
 11
3873.74106635332
 21
699.686750698259
 31
0.0
  0
LINE
  5
1A4
  8
0
  6
CONTINUOUS
 62
     7
 10
3873.241066353328
 20
661.1867506982552
 30
0.0
 11
3873.441066353328
 21
661.1867506982552
 31
0.0
  0
LINE
  5
1A5
  8
0
  6
CONTINUOUS
 62
     7
 10
3873.241066353305
 20
718.1867506982578
 30
0.0
 11
3873.441066353305
 21
718.1867506982578
 31
0.0
  0
LINE
  5
1A6
  8
0
  6
CONTINUOUS
 62
     7
 10
3873.741066353329
 20
2266.730792559202
 30
0.0
 11
3873.241066353337
 21
2266.730792559202
 31
0.0
  0
LINE
  5
1A7
  8
0
  6
CONTINUOUS
 62
     7
 10
3873.74106635333
 20
2268.286750698494
 30
0.0
 11
3873.24106635333
 21
2268.286750698494
 31
0.0
  0
LINE
  5
1A8
  8
0
  6
CONTINUOUS
 62
     7
 10
3873.74106635333
 20
2268.286750698494
 30
0.0
 11
3873.741066353329
 21
2266.730792559202
 31
0.0
  0
LINE
  5
1A9
  8
0
  6
CONTINUOUS
 62
     7
 10
3873.241066353337
 20
2284.642708837331
 30
0.0
 11
3873.741066353322
 21
2284.64270883733
 31
0.0
  0
LINE
  5
1AA
  8
0
  6
CONTINUOUS
 62
     7
 10
3873.741066353322
 20
2284.64270883733
 30
0.0
 11
3873.741066353314
 21
2283.086750698043
 31
0.0
  0
LINE
  5
1AB
  8
0
  6
CONTINUOUS
 62
     7
 10
3873.241066353314
 20
2283.086750698043
 30
0.0
 11
3873.741066353314
 21
2283.086750698043
 31
0.0
  0
LINE
  5
1AC
  8
0
  6
CONTINUOUS
 62
     7
 10
3873.441066353328
 20
2257.29517654051
 30
0.0
 11
3873.741066353328
 21
2257.29517654051
 31
0.0
  0
LINE
  5
1AD
  8
0
  6
CONTINUOUS
 62
     7
 10
3873.241066353328
 20
2257.29517654051
 30
0.0
 11
3873.441066353328
 21
2257.29517654051
 31
0.0
  0
LINE
  5
1AE
  8
0
  6
CONTINUOUS
 62
     7
 10
3873.741066353328
 20
2257.29517654051
 30
0.0
 11
3873.741066353329
 21
2266.730792559202
 31
0.0
  0
LINE
  5
1AF
  8
0
  6
CONTINUOUS
 62
     7
 10
3873.441066353323
 20
2294.07832485601
 30
0.0
 11
3873.241066353322
 21
2294.07832485601
 31
0.0
  0
LINE
  5
1B0
  8
0
  6
CONTINUOUS
 62
     7
 10
3873.741066353322
 20
2294.07832485601
 30
0.0
 11
3873.441066353323
 21
2294.07832485601
 31
0.0
  0
LINE
  5
1B1
  8
0
  6
CONTINUOUS
 62
     7
 10
3873.741066353322
 20
2284.64270883733
 30
0.0
 11
3873.741066353322
 21
2294.07832485601
 31
0.0
  0
POLYLINE
  5
1B2
  8
0
  6
CONTINUOUS
 62
     7
 10
0.0
 20
0.0
 30
0.0
 66
     1
 70
     8
  0
VERTEX
  5
60F
  8
0
  6
CONTINUOUS
 62
     7
 10
3875.241066353339
 20
2247.186750698261
 30
0.0
 70
    32
  0
VERTEX
  5
610
  8
0
  6
CONTINUOUS
 62
     7
 10
3875.22379752796
 20
2247.18675069826
 30
0.0
 70
    32
  0
VERTEX
  5
611
  8
0
  6
CONTINUOUS
 62
     7
 10
3875.206372444488
 20
2247.18675069826
 30
0.0
 70
    32
  0
VERTEX
  5
612
  8
0
  6
CONTINUOUS
 62
     7
 10
3875.188634844835
 20
2247.186750698261
 30
0.0
 70
    32
  0
VERTEX
  5
613
  8
0
  6
CONTINUOUS
 62
     7
 10
3875.170428470908
 20
2247.186750698261
 30
0.0
 70
    32
  0
VERTEX
  5
614
  8
0
  6
CONTINUOUS
 62
     7
 10
3875.151597064614
 20
2247.18675069826
 30
0.0
 70
    32
  0
VERTEX
  5
615
  8
0
  6
CONTINUOUS
 62
     7
 10
3875.131984367865
 20
2247.186750698261
 30
0.0
 70
    32
  0
VERTEX
  5
616
  8
0
  6
CONTINUOUS
 62
     7
 10
3875.111434144576
 20
2247.186750698261
 30
0.0
 70
    32
  0
VERTEX
  5
617
  8
0
  6
CONTINUOUS
 62
     7
 10
3875.089836356958
 20
2247.186750698261
 30
0.0
 70
    32
  0
VERTEX
  5
618
  8
0
  6
CONTINUOUS
 62
     7
 10
3875.067224561637
 20
2247.186750698261
 30
0.0
 70
    32
  0
VERTEX
  5
619
  8
0
  6
CONTINUOUS
 62
     7
 10
3875.043660132856
 20
2247.186750698261
 30
0.0
 70
    32
  0
VERTEX
  5
61A
  8
0
  6
CONTINUOUS
 62
     7
 10
3875.019204444856
 20
2247.186750698261
 30
0.0
 70
    32
  0
VERTEX
  5
61B
  8
0
  6
CONTINUOUS
 62
     7
 10
3874.993918871877
 20
2247.186750698261
 30
0.0
 70
    32
  0
VERTEX
  5
61C
  8
0
  6
CONTINUOUS
 62
     7
 10
3874.967864788162
 20
2247.186750698261
 30
0.0
 70
    32
  0
VERTEX
  5
61D
  8
0
  6
CONTINUOUS
 62
     7
 10
3874.941103567953
 20
2247.186750698262
 30
0.0
 70
    32
  0
VERTEX
  5
61E
  8
0
  6
CONTINUOUS
 62
     7
 10
3874.913696585488
 20
2247.186750698261
 30
0.0
 70
    32
  0
VERTEX
  5
61F
  8
0
  6
CONTINUOUS
 62
     7
 10
3874.885705215011
 20
2247.186750698261
 30
0.0
 70
    32
  0
VERTEX
  5
620
  8
0
  6
CONTINUOUS
 62
     7
 10
3874.857190830763
 20
2247.186750698261
 30
0.0
 70
    32
  0
VERTEX
  5
621
  8
0
  6
CONTINUOUS
 62
     7
 10
3874.82820617991
 20
2247.186750698261
 30
0.0
 70
    32
  0
VERTEX
  5
622
  8
0
  6
CONTINUOUS
 62
     7
 10
3874.798761871029
 20
2247.186750698261
 30
0.0
 70
    32
  0
VERTEX
  5
623
  8
0
  6
CONTINUOUS
 62
     7
 10
3874.76885566662
 20
2247.186750698261
 30
0.0
 70
    32
  0
VERTEX
  5
624
  8
0
  6
CONTINUOUS
 62
     7
 10
3874.738485326073
 20
2247.186750698261
 30
0.0
 70
    32
  0
VERTEX
  5
625
  8
0
  6
CONTINUOUS
 62
     7
 10
3874.707648608781
 20
2247.18675069826
 30
0.0
 70
    32
  0
VERTEX
  5
626
  8
0
  6
CONTINUOUS
 62
     7
 10
3874.676343274133
 20
2247.186750698261
 30
0.0
 70
    32
  0
VERTEX
  5
627
  8
0
  6
CONTINUOUS
 62
     7
 10
3874.644567081521
 20
2247.186750698261
 30
0.0
 70
    32
  0
VERTEX
  5
628
  8
0
  6
CONTINUOUS
 62
     7
 10
3874.612317790337
 20
2247.186750698261
 30
0.0
 70
    32
  0
VERTEX
  5
629
  8
0
  6
CONTINUOUS
 62
     7
 10
3874.579593159972
 20
2247.186750698261
 30
0.0
 70
    32
  0
VERTEX
  5
62A
  8
0
  6
CONTINUOUS
 62
     7
 10
3874.546390949816
 20
2247.186750698261
 30
0.0
 70
    32
  0
VERTEX
  5
62B
  8
0
  6
CONTINUOUS
 62
     7
 10
3874.512710511007
 20
2247.18675069826
 30
0.0
 70
    32
  0
VERTEX
  5
62C
  8
0
  6
CONTINUOUS
 62
     7
 10
3874.478563117683
 20
2247.18675069826
 30
0.0
 70
    32
  0
VERTEX
  5
62D
  8
0
  6
CONTINUOUS
 62
     7
 10
3874.443965450773
 20
2247.186750698261
 30
0.0
 70
    32
  0
VERTEX
  5
62E
  8
0
  6
CONTINUOUS
 62
     7
 10
3874.408934218084
 20
2247.186750698261
 30
0.0
 70
    32
  0
VERTEX
  5
62F
  8
0
  6
CONTINUOUS
 62
     7
 10
3874.373486127422
 20
2247.186750698261
 30
0.0
 70
    32
  0
VERTEX
  5
630
  8
0
  6
CONTINUOUS
 62
     7
 10
3874.337637886595
 20
2247.18675069826
 30
0.0
 70
    32
  0
VERTEX
  5
631
  8
0
  6
CONTINUOUS
 62
     7
 10
3874.301406203413
 20
2247.18675069826
 30
0.0
 70
    32
  0
VERTEX
  5
632
  8
0
  6
CONTINUOUS
 62
     7
 10
3874.264807785682
 20
2247.18675069826
 30
0.0
 70
    32
  0
VERTEX
  5
633
  8
0
  6
CONTINUOUS
 62
     7
 10
3874.22785934121
 20
2247.186750698261
 30
0.0
 70
    32
  0
VERTEX
  5
634
  8
0
  6
CONTINUOUS
 62
     7
 10
3874.190577577805
 20
2247.18675069826
 30
0.0
 70
    32
  0
VERTEX
  5
635
  8
0
  6
CONTINUOUS
 62
     7
 10
3874.152979201267
 20
2247.18675069826
 30
0.0
 70
    32
  0
VERTEX
  5
636
  8
0
  6
CONTINUOUS
 62
     7
 10
3874.115080892125
 20
2247.18675069826
 30
0.0
 70
    32
  0
VERTEX
  5
637
  8
0
  6
CONTINUOUS
 62
     7
 10
3874.076899313617
 20
2247.18675069826
 30
0.0
 70
    32
  0
VERTEX
  5
638
  8
0
  6
CONTINUOUS
 62
     7
 10
3874.038451128648
 20
2247.18675069826
 30
0.0
 70
    32
  0
VERTEX
  5
639
  8
0
  6
CONTINUOUS
 62
     7
 10
3873.999753000121
 20
2247.18675069826
 30
0.0
 70
    32
  0
VERTEX
  5
63A
  8
0
  6
CONTINUOUS
 62
     7
 10
3873.96082159094
 20
2247.186750698259
 30
0.0
 70
    32
  0
VERTEX
  5
63B
  8
0
  6
CONTINUOUS
 62
     7
 10
3873.921673564008
 20
2247.186750698259
 30
0.0
 70
    32
  0
VERTEX
  5
63C
  8
0
  6
CONTINUOUS
 62
     7
 10
3873.882325582231
 20
2247.186750698259
 30
0.0
 70
    32
  0
VERTEX
  5
63D
  8
0
  6
CONTINUOUS
 62
     7
 10
3873.842794308511
 20
2247.186750698258
 30
0.0
 70
    32
  0
VERTEX
  5
63E
  8
0
  6
CONTINUOUS
 62
     7
 10
3873.803096405753
 20
2247.186750698258
 30
0.0
 70
    32
  0
VERTEX
  5
63F
  8
0
  6
CONTINUOUS
 62
     7
 10
3873.76324853686
 20
2247.186750698258
 30
0.0
 70
    32
  0
VERTEX
  5
640
  8
0
  6
CONTINUOUS
 62
     7
 10
3873.723267364736
 20
2247.186750698258
 30
0.0
 70
    32
  0
VERTEX
  5
641
  8
0
  6
CONTINUOUS
 62
     7
 10
3873.683169552285
 20
2247.186750698257
 30
0.0
 70
    32
  0
VERTEX
  5
642
  8
0
  6
CONTINUOUS
 62
     7
 10
3873.642971762411
 20
2247.186750698257
 30
0.0
 70
    32
  0
VERTEX
  5
643
  8
0
  6
CONTINUOUS
 62
     7
 10
3873.602690658017
 20
2247.186750698257
 30
0.0
 70
    32
  0
VERTEX
  5
644
  8
0
  6
CONTINUOUS
 62
     7
 10
3873.562342902008
 20
2247.186750698256
 30
0.0
 70
    32
  0
VERTEX
  5
645
  8
0
  6
CONTINUOUS
 62
     7
 10
3873.521945157288
 20
2247.186750698256
 30
0.0
 70
    32
  0
VERTEX
  5
646
  8
0
  6
CONTINUOUS
 62
     7
 10
3873.481514086759
 20
2247.186750698255
 30
0.0
 70
    32
  0
VERTEX
  5
647
  8
0
  6
CONTINUOUS
 62
     7
 10
3873.441066353328
 20
2247.186750698255
 30
0.0
 70
    32
  0
SEQEND
  5
7E3
  8
0
  6
CONTINUOUS
 62
     7
  0
LINE
  5
1B3
  8
0
  6
CONTINUOUS
 62
     7
 10
3873.441066353329
 20
2248.186750698254
 30
0.0
 11
3873.441066353328
 21
2247.186750698255
 31
0.0
  0
POLYLINE
  5
1B4
  8
0
  6
CONTINUOUS
 62
     7
 10
0.0
 20
0.0
 30
0.0
 66
     1
 70
     8
  0
VERTEX
  5
648
  8
0
  6
CONTINUOUS
 62
     7
 10
3873.441066353305
 20
2304.186750698258
 30
0.0
 70
    32
  0
VERTEX
  5
649
  8
0
  6
CONTINUOUS
 62
     7
 10
3873.481514832004
 20
2304.186750698258
 30
0.0
 70
    32
  0
VERTEX
  5
64A
  8
0
  6
CONTINUOUS
 62
     7
 10
3873.521946644306
 20
2304.186750698258
 30
0.0
 70
    32
  0
VERTEX
  5
64B
  8
0
  6
CONTINUOUS
 62
     7
 10
3873.562345123819
 20
2304.186750698258
 30
0.0
 70
    32
  0
VERTEX
  5
64C
  8
0
  6
CONTINUOUS
 62
     7
 10
3873.602693604148
 20
2304.186750698258
 30
0.0
 70
    32
  0
VERTEX
  5
64D
  8
0
  6
CONTINUOUS
 62
     7
 10
3873.642975418898
 20
2304.186750698258
 30
0.0
 70
    32
  0
VERTEX
  5
64E
  8
0
  6
CONTINUOUS
 62
     7
 10
3873.683173901672
 20
2304.186750698258
 30
0.0
 70
    32
  0
VERTEX
  5
64F
  8
0
  6
CONTINUOUS
 62
     7
 10
3873.723272386079
 20
2304.186750698258
 30
0.0
 70
    32
  0
VERTEX
  5
650
  8
0
  6
CONTINUOUS
 62
     7
 10
3873.763254205722
 20
2304.186750698258
 30
0.0
 70
    32
  0
VERTEX
  5
651
  8
0
  6
CONTINUOUS
 62
     7
 10
3873.803102694206
 20
2304.186750698258
 30
0.0
 70
    32
  0
VERTEX
  5
652
  8
0
  6
CONTINUOUS
 62
     7
 10
3873.842801185138
 20
2304.186750698258
 30
0.0
 70
    32
  0
VERTEX
  5
653
  8
0
  6
CONTINUOUS
 62
     7
 10
3873.88233301212
 20
2304.186750698258
 30
0.0
 70
    32
  0
VERTEX
  5
654
  8
0
  6
CONTINUOUS
 62
     7
 10
3873.92168150876
 20
2304.186750698258
 30
0.0
 70
    32
  0
VERTEX
  5
655
  8
0
  6
CONTINUOUS
 62
     7
 10
3873.960830008663
 20
2304.186750698258
 30
0.0
 70
    32
  0
VERTEX
  5
656
  8
0
  6
CONTINUOUS
 62
     7
 10
3873.999761845432
 20
2304.186750698258
 30
0.0
 70
    32
  0
VERTEX
  5
657
  8
0
  6
CONTINUOUS
 62
     7
 10
3874.038460352675
 20
2304.186750698258
 30
0.0
 70
    32
  0
VERTEX
  5
658
  8
0
  6
CONTINUOUS
 62
     7
 10
3874.076908863994
 20
2304.186750698258
 30
0.0
 70
    32
  0
VERTEX
  5
659
  8
0
  6
CONTINUOUS
 62
     7
 10
3874.115090712997
 20
2304.186750698258
 30
0.0
 70
    32
  0
VERTEX
  5
65A
  8
0
  6
CONTINUOUS
 62
     7
 10
3874.152989233288
 20
2304.186750698258
 30
0.0
 70
    32
  0
VERTEX
  5
65B
  8
0
  6
CONTINUOUS
 62
     7
 10
3874.19058775823
 20
2304.186750698258
 30
0.0
 70
    32
  0
VERTEX
  5
65C
  8
0
  6
CONTINUOUS
 62
     7
 10
3874.227869608724
 20
2304.186750698258
 30
0.0
 70
    32
  0
VERTEX
  5
65D
  8
0
  6
CONTINUOUS
 62
     7
 10
3874.264818087466
 20
2304.186750698258
 30
0.0
 70
    32
  0
VERTEX
  5
65E
  8
0
  6
CONTINUOUS
 62
     7
 10
3874.301416495709
 20
2304.186750698258
 30
0.0
 70
    32
  0
VERTEX
  5
65F
  8
0
  6
CONTINUOUS
 62
     7
 10
3874.337648134705
 20
2304.186750698258
 30
0.0
 70
    32
  0
VERTEX
  5
660
  8
0
  6
CONTINUOUS
 62
     7
 10
3874.373496305704
 20
2304.186750698258
 30
0.0
 70
    32
  0
VERTEX
  5
661
  8
0
  6
CONTINUOUS
 62
     7
 10
3874.408944309961
 20
2304.186750698258
 30
0.0
 70
    32
  0
VERTEX
  5
662
  8
0
  6
CONTINUOUS
 62
     7
 10
3874.443975448725
 20
2304.186750698258
 30
0.0
 70
    32
  0
VERTEX
  5
663
  8
0
  6
CONTINUOUS
 62
     7
 10
3874.47857302325
 20
2304.186750698258
 30
0.0
 70
    32
  0
VERTEX
  5
664
  8
0
  6
CONTINUOUS
 62
     7
 10
3874.512720334787
 20
2304.186750698258
 30
0.0
 70
    32
  0
VERTEX
  5
665
  8
0
  6
CONTINUOUS
 62
     7
 10
3874.546400717186
 20
2304.186750698258
 30
0.0
 70
    32
  0
VERTEX
  5
666
  8
0
  6
CONTINUOUS
 62
     7
 10
3874.579603063731
 20
2304.186750698258
 30
0.0
 70
    32
  0
VERTEX
  5
667
  8
0
  6
CONTINUOUS
 62
     7
 10
3874.612328065888
 20
2304.186750698258
 30
0.0
 70
    32
  0
VERTEX
  5
668
  8
0
  6
CONTINUOUS
 62
     7
 10
3874.644577921666
 20
2304.186750698258
 30
0.0
 70
    32
  0
VERTEX
  5
669
  8
0
  6
CONTINUOUS
 62
     7
 10
3874.676354829069
 20
2304.186750698258
 30
0.0
 70
    32
  0
VERTEX
  5
66A
  8
0
  6
CONTINUOUS
 62
     7
 10
3874.707660986106
 20
2304.186750698258
 30
0.0
 70
    32
  0
VERTEX
  5
66B
  8
0
  6
CONTINUOUS
 62
     7
 10
3874.738498590781
 20
2304.186750698258
 30
0.0
 70
    32
  0
VERTEX
  5
66C
  8
0
  6
CONTINUOUS
 62
     7
 10
3874.768869841099
 20
2304.186750698258
 30
0.0
 70
    32
  0
VERTEX
  5
66D
  8
0
  6
CONTINUOUS
 62
     7
 10
3874.798776935069
 20
2304.186750698258
 30
0.0
 70
    32
  0
VERTEX
  5
66E
  8
0
  6
CONTINUOUS
 62
     7
 10
3874.828222070694
 20
2304.186750698258
 30
0.0
 70
    32
  0
VERTEX
  5
66F
  8
0
  6
CONTINUOUS
 62
     7
 10
3874.857207442793
 20
2304.186750698258
 30
0.0
 70
    32
  0
VERTEX
  5
670
  8
0
  6
CONTINUOUS
 62
     7
 10
3874.885722373112
 20
2304.186750698258
 30
0.0
 70
    32
  0
VERTEX
  5
671
  8
0
  6
CONTINUOUS
 62
     7
 10
3874.913714028229
 20
2304.186750698258
 30
0.0
 70
    32
  0
VERTEX
  5
672
  8
0
  6
CONTINUOUS
 62
     7
 10
3874.941120959253
 20
2304.186750698259
 30
0.0
 70
    32
  0
VERTEX
  5
673
  8
0
  6
CONTINUOUS
 62
     7
 10
3874.967881717292
 20
2304.186750698258
 30
0.0
 70
    32
  0
VERTEX
  5
674
  8
0
  6
CONTINUOUS
 62
     7
 10
3874.993934853454
 20
2304.186750698258
 30
0.0
 70
    32
  0
VERTEX
  5
675
  8
0
  6
CONTINUOUS
 62
     7
 10
3875.019218918849
 20
2304.186750698258
 30
0.0
 70
    32
  0
VERTEX
  5
676
  8
0
  6
CONTINUOUS
 62
     7
 10
3875.043672464585
 20
2304.186750698258
 30
0.0
 70
    32
  0
VERTEX
  5
677
  8
0
  6
CONTINUOUS
 62
     7
 10
3875.06723404177
 20
2304.186750698258
 30
0.0
 70
    32
  0
VERTEX
  5
678
  8
0
  6
CONTINUOUS
 62
     7
 10
3875.089842201516
 20
2304.186750698258
 30
0.0
 70
    32
  0
VERTEX
  5
679
  8
0
  6
CONTINUOUS
 62
     7
 10
3875.111435494928
 20
2304.186750698258
 30
0.0
 70
    32
  0
VERTEX
  5
67A
  8
0
  6
CONTINUOUS
 62
     7
 10
3875.131981559976
 20
2304.186750698258
 30
0.0
 70
    32
  0
VERTEX
  5
67B
  8
0
  6
CONTINUOUS
 62
     7
 10
3875.15159192305
 20
2304.186750698258
 30
0.0
 70
    32
  0
VERTEX
  5
67C
  8
0
  6
CONTINUOUS
 62
     7
 10
3875.170422523842
 20
2304.186750698258
 30
0.0
 70
    32
  0
VERTEX
  5
67D
  8
0
  6
CONTINUOUS
 62
     7
 10
3875.188629314812
 20
2304.186750698258
 30
0.0
 70
    32
  0
VERTEX
  5
67E
  8
0
  6
CONTINUOUS
 62
     7
 10
3875.206368248414
 20
2304.186750698258
 30
0.0
 70
    32
  0
VERTEX
  5
67F
  8
0
  6
CONTINUOUS
 62
     7
 10
3875.223795277105
 20
2304.186750698258
 30
0.0
 70
    32
  0
VERTEX
  5
680
  8
0
  6
CONTINUOUS
 62
     7
 10
3875.241066353339
 20
2304.186750698258
 30
0.0
 70
    32
  0
SEQEND
  5
7E4
  8
0
  6
CONTINUOUS
 62
     7
  0
LINE
  5
1B5
  8
0
  6
CONTINUOUS
 62
     7
 10
3873.441066353319
 20
2303.186750698259
 30
0.0
 11
3873.441066353305
 21
2304.186750698258
 31
0.0
  0
LINE
  5
1B6
  8
0
  6
CONTINUOUS
 62
     7
 10
3873.241066353329
 20
2248.186750698254
 30
0.0
 11
3873.441066353329
 21
2248.186750698254
 31
0.0
  0
LINE
  5
1B7
  8
0
  6
CONTINUOUS
 62
     7
 10
3873.441066353329
 20
2248.186750698254
 30
0.0
 11
3873.441066353328
 21
2257.29517654051
 31
0.0
  0
POLYLINE
  5
1B8
  8
0
  6
CONTINUOUS
 62
     7
 66
     1
 10
0.0
 20
0.0
 30
0.0
  0
VERTEX
  5
681
  8
0
  6
CONTINUOUS
 62
     7
 10
3875.24106635334
 20
2265.440986358065
 30
0.0
  0
VERTEX
  5
682
  8
0
  6
CONTINUOUS
 62
     7
 10
3875.22965516832
 20
2265.454494767256
 30
0.0
  0
VERTEX
  5
683
  8
0
  6
CONTINUOUS
 62
     7
 10
3875.21792907492
 20
2265.467641421362
 30
0.0
  0
VERTEX
  5
684
  8
0
  6
CONTINUOUS
 62
     7
 10
3875.205740449792
 20
2265.480251862515
 30
0.0
  0
VERTEX
  5
685
  8
0
  6
CONTINUOUS
 62
     7
 10
3875.193102638721
 20
2265.492331858595
 30
0.0
  0
VERTEX
  5
686
  8
0
  6
CONTINUOUS
 62
     7
 10
3875.180035511014
 20
2265.503894481416
 30
0.0
  0
VERTEX
  5
687
  8
0
  6
CONTINUOUS
 62
     7
 10
3875.166558935988
 20
2265.514952802789
 30
0.0
  0
VERTEX
  5
688
  8
0
  6
CONTINUOUS
 62
     7
 10
3875.152692782952
 20
2265.525519894528
 30
0.0
  0
VERTEX
  5
689
  8
0
  6
CONTINUOUS
 62
     7
 10
3875.138456921215
 20
2265.535608828443
 30
0.0
  0
VERTEX
  5
68A
  8
0
  6
CONTINUOUS
 62
     7
 10
3875.123871220089
 20
2265.545232676347
 30
0.0
  0
VERTEX
  5
68B
  8
0
  6
CONTINUOUS
 62
     7
 10
3875.108955548887
 20
2265.554404510053
 30
0.0
  0
VERTEX
  5
68C
  8
0
  6
CONTINUOUS
 62
     7
 10
3875.093729776917
 20
2265.563137401373
 30
0.0
  0
VERTEX
  5
68D
  8
0
  6
CONTINUOUS
 62
     7
 10
3875.078213773491
 20
2265.571444422118
 30
0.0
  0
VERTEX
  5
68E
  8
0
  6
CONTINUOUS
 62
     7
 10
3875.062427407922
 20
2265.579338644101
 30
0.0
  0
VERTEX
  5
68F
  8
0
  6
CONTINUOUS
 62
     7
 10
3875.04639054952
 20
2265.586833139136
 30
0.0
  0
VERTEX
  5
690
  8
0
  6
CONTINUOUS
 62
     7
 10
3875.030123067593
 20
2265.593940979033
 30
0.0
  0
VERTEX
  5
691
  8
0
  6
CONTINUOUS
 62
     7
 10
3875.013644831456
 20
2265.600675235604
 30
0.0
  0
VERTEX
  5
692
  8
0
  6
CONTINUOUS
 62
     7
 10
3874.996975710418
 20
2265.607048980663
 30
0.0
  0
VERTEX
  5
693
  8
0
  6
CONTINUOUS
 62
     7
 10
3874.98013557379
 20
2265.61307528602
 30
0.0
  0
VERTEX
  5
694
  8
0
  6
CONTINUOUS
 62
     7
 10
3874.963144290883
 20
2265.618767223489
 30
0.0
  0
VERTEX
  5
695
  8
0
  6
CONTINUOUS
 62
     7
 10
3874.94602173101
 20
2265.624137864882
 30
0.0
  0
VERTEX
  5
696
  8
0
  6
CONTINUOUS
 62
     7
 10
3874.928787763479
 20
2265.62920028201
 30
0.0
  0
VERTEX
  5
697
  8
0
  6
CONTINUOUS
 62
     7
 10
3874.9114622572
 20
2265.633967546753
 30
0.0
  0
VERTEX
  5
698
  8
0
  6
CONTINUOUS
 62
     7
 10
3874.894061995889
 20
2265.638453235745
 30
0.0
  0
VERTEX
  5
699
  8
0
  6
CONTINUOUS
 62
     7
 10
3874.876593246958
 20
2265.642672646163
 30
0.0
  0
VERTEX
  5
69A
  8
0
  6
CONTINUOUS
 62
     7
 10
3874.859060039088
 20
2265.646641441452
 30
0.0
  0
VERTEX
  5
69B
  8
0
  6
CONTINUOUS
 62
     7
 10
3874.841466400963
 20
2265.650375285057
 30
0.0
  0
VERTEX
  5
69C
  8
0
  6
CONTINUOUS
 62
     7
 10
3874.823816361268
 20
2265.653889840424
 30
0.0
  0
VERTEX
  5
69D
  8
0
  6
CONTINUOUS
 62
     7
 10
3874.806113948684
 20
2265.657200770998
 30
0.0
  0
VERTEX
  5
69E
  8
0
  6
CONTINUOUS
 62
     7
 10
3874.788363191897
 20
2265.660323740225
 30
0.0
  0
VERTEX
  5
69F
  8
0
  6
CONTINUOUS
 62
     7
 10
3874.770568119589
 20
2265.663274411551
 30
0.0
  0
VERTEX
  5
6A0
  8
0
  6
CONTINUOUS
 62
     7
 10
3874.752732760446
 20
2265.666068448421
 30
0.0
  0
VERTEX
  5
6A1
  8
0
  6
CONTINUOUS
 62
     7
 10
3874.734861143149
 20
2265.668721514281
 30
0.0
  0
VERTEX
  5
6A2
  8
0
  6
CONTINUOUS
 62
     7
 10
3874.716957296383
 20
2265.671249272576
 30
0.0
  0
VERTEX
  5
6A3
  8
0
  6
CONTINUOUS
 62
     7
 10
3874.699025248832
 20
2265.673667386752
 30
0.0
  0
VERTEX
  5
6A4
  8
0
  6
CONTINUOUS
 62
     7
 10
3874.68106902918
 20
2265.675991520255
 30
0.0
  0
VERTEX
  5
6A5
  8
0
  6
CONTINUOUS
 62
     7
 10
3874.663092666107
 20
2265.678237336529
 30
0.0
  0
VERTEX
  5
6A6
  8
0
  6
CONTINUOUS
 62
     7
 10
3874.645100188302
 20
2265.680420499023
 30
0.0
  0
VERTEX
  5
6A7
  8
0
  6
CONTINUOUS
 62
     7
 10
3874.627095624446
 20
2265.682556671178
 30
0.0
  0
VERTEX
  5
6A8
  8
0
  6
CONTINUOUS
 62
     7
 10
3874.609083003222
 20
2265.684661516443
 30
0.0
  0
VERTEX
  5
6A9
  8
0
  6
CONTINUOUS
 62
     7
 10
3874.591066353314
 20
2265.686750698262
 30
0.0
  0
SEQEND
  5
7E5
  8
0
  6
CONTINUOUS
 62
     7
  0
LINE
  5
1B9
  8
0
  6
CONTINUOUS
 62
     7
 10
3873.74106635332
 20
2265.686750698262
 30
0.0
 11
3874.591066353314
 21
2265.686750698262
 31
0.0
  0
LINE
  5
1BA
  8
0
  6
CONTINUOUS
 62
     7
 10
3873.24106635332
 20
2303.186750698259
 30
0.0
 11
3873.441066353319
 21
2303.186750698259
 31
0.0
  0
LINE
  5
1BB
  8
0
  6
CONTINUOUS
 62
     7
 10
3873.441066353323
 20
2294.07832485601
 30
0.0
 11
3873.441066353319
 21
2303.186750698259
 31
0.0
  0
POLYLINE
  5
1BC
  8
0
  6
CONTINUOUS
 62
     7
 66
     1
 10
0.0
 20
0.0
 30
0.0
  0
VERTEX
  5
6AA
  8
0
  6
CONTINUOUS
 62
     7
 10
3874.591066353325
 20
2285.686750698262
 30
0.0
  0
VERTEX
  5
6AB
  8
0
  6
CONTINUOUS
 62
     7
 10
3874.613951811956
 20
2285.689026021254
 30
0.0
  0
VERTEX
  5
6AC
  8
0
  6
CONTINUOUS
 62
     7
 10
3874.636817276156
 20
2285.691342271728
 30
0.0
  0
VERTEX
  5
6AD
  8
0
  6
CONTINUOUS
 62
     7
 10
3874.659642751498
 20
2285.693740377167
 30
0.0
  0
VERTEX
  5
6AE
  8
0
  6
CONTINUOUS
 62
     7
 10
3874.682408243553
 20
2285.696261265053
 30
0.0
  0
VERTEX
  5
6AF
  8
0
  6
CONTINUOUS
 62
     7
 10
3874.705093757888
 20
2285.698945862869
 30
0.0
  0
VERTEX
  5
6B0
  8
0
  6
CONTINUOUS
 62
     7
 10
3874.727679300076
 20
2285.701835098095
 30
0.0
  0
VERTEX
  5
6B1
  8
0
  6
CONTINUOUS
 62
     7
 10
3874.750144875688
 20
2285.704969898216
 30
0.0
  0
VERTEX
  5
6B2
  8
0
  6
CONTINUOUS
 62
     7
 10
3874.772470490292
 20
2285.708391190713
 30
0.0
  0
VERTEX
  5
6B3
  8
0
  6
CONTINUOUS
 62
     7
 10
3874.794636149461
 20
2285.712139903068
 30
0.0
  0
VERTEX
  5
6B4
  8
0
  6
CONTINUOUS
 62
     7
 10
3874.816621858763
 20
2285.716256962764
 30
0.0
  0
VERTEX
  5
6B5
  8
0
  6
CONTINUOUS
 62
     7
 10
3874.838407623771
 20
2285.720783297283
 30
0.0
  0
VERTEX
  5
6B6
  8
0
  6
CONTINUOUS
 62
     7
 10
3874.859973450054
 20
2285.725759834108
 30
0.0
  0
VERTEX
  5
6B7
  8
0
  6
CONTINUOUS
 62
     7
 10
3874.881299343183
 20
2285.73122750072
 30
0.0
  0
VERTEX
  5
6B8
  8
0
  6
CONTINUOUS
 62
     7
 10
3874.902365308729
 20
2285.737227224602
 30
0.0
  0
VERTEX
  5
6B9
  8
0
  6
CONTINUOUS
 62
     7
 10
3874.923151352262
 20
2285.743799933237
 30
0.0
  0
VERTEX
  5
6BA
  8
0
  6
CONTINUOUS
 62
     7
 10
3874.943637479351
 20
2285.750986554106
 30
0.0
  0
VERTEX
  5
6BB
  8
0
  6
CONTINUOUS
 62
     7
 10
3874.96380768209
 20
2285.758819854505
 30
0.0
  0
VERTEX
  5
6BC
  8
0
  6
CONTINUOUS
 62
     7
 10
3874.98367192723
 20
2285.767279433048
 30
0.0
  0
VERTEX
  5
6BD
  8
0
  6
CONTINUOUS
 62
     7
 10
3875.003250586085
 20
2285.776323590797
 30
0.0
  0
VERTEX
  5
6BE
  8
0
  6
CONTINUOUS
 62
     7
 10
3875.02256405767
 20
2285.785910572095
 30
0.0
  0
VERTEX
  5
6BF
  8
0
  6
CONTINUOUS
 62
     7
 10
3875.041632741009
 20
2285.795998621285
 30
0.0
  0
VERTEX
  5
6C0
  8
0
  6
CONTINUOUS
 62
     7
 10
3875.060477035123
 20
2285.806545982708
 30
0.0
  0
VERTEX
  5
6C1
  8
0
  6
CONTINUOUS
 62
     7
 10
3875.079117339029
 20
2285.817510900708
 30
0.0
  0
VERTEX
  5
6C2
  8
0
  6
CONTINUOUS
 62
     7
 10
3875.097574051752
 20
2285.828851619627
 30
0.0
  0
VERTEX
  5
6C3
  8
0
  6
CONTINUOUS
 62
     7
 10
3875.115867572311
 20
2285.840526383806
 30
0.0
  0
VERTEX
  5
6C4
  8
0
  6
CONTINUOUS
 62
     7
 10
3875.134018299725
 20
2285.852493437588
 30
0.0
  0
VERTEX
  5
6C5
  8
0
  6
CONTINUOUS
 62
     7
 10
3875.152046633015
 20
2285.864711025316
 30
0.0
  0
VERTEX
  5
6C6
  8
0
  6
CONTINUOUS
 62
     7
 10
3875.169972971203
 20
2285.877137391332
 30
0.0
  0
VERTEX
  5
6C7
  8
0
  6
CONTINUOUS
 62
     7
 10
3875.18781771331
 20
2285.889730779979
 30
0.0
  0
VERTEX
  5
6C8
  8
0
  6
CONTINUOUS
 62
     7
 10
3875.205601258353
 20
2285.902449435599
 30
0.0
  0
VERTEX
  5
6C9
  8
0
  6
CONTINUOUS
 62
     7
 10
3875.223344005357
 20
2285.915251602534
 30
0.0
  0
VERTEX
  5
6CA
  8
0
  6
CONTINUOUS
 62
     7
 10
3875.24106635334
 20
2285.928095525127
 30
0.0
  0
SEQEND
  5
7E6
  8
0
  6
CONTINUOUS
 62
     7
  0
LINE
  5
1BD
  8
0
  6
CONTINUOUS
 62
     7
 10
3874.591066353325
 20
2285.686750698262
 30
0.0
 11
3873.74106635332
 21
2285.686750698259
 31
0.0
  0
LINE
  5
1BE
  8
0
  6
CONTINUOUS
 62
     7
 10
3873.241066353328
 20
2247.186750698255
 30
0.0
 11
3873.441066353328
 21
2247.186750698255
 31
0.0
  0
LINE
  5
1BF
  8
0
  6
CONTINUOUS
 62
     7
 10
3873.241066353305
 20
2304.186750698258
 30
0.0
 11
3873.441066353305
 21
2304.186750698258
 31
0.0
  0
LINE
  5
1C0
  8
0
  6
CONTINUOUS
 62
     7
 10
3875.241066353336
 20
2269.186750698262
 30
0.0
 11
3873.241066353321
 21
2269.186750698261
 31
0.0
  0
LINE
  5
1C1
  8
0
  6
CONTINUOUS
 62
     7
 10
3873.241066353321
 20
2282.186750698263
 30
0.0
 11
3875.241066353336
 21
2282.18675069826
 31
0.0
  0
LINE
  5
1C2
  8
0
  6
CONTINUOUS
 62
     7
 10
3874.512348898507
 20
2283.136750698262
 30
0.0
 11
3874.512348898508
 21
2282.18675069826
 31
0.0
  0
LINE
  5
1C3
  8
0
  6
CONTINUOUS
 62
     7
 10
3874.512348898513
 20
2269.186750698261
 30
0.0
 11
3874.512348898513
 21
2268.236750698262
 31
0.0
  0
LINE
  5
1C4
  8
0
  6
CONTINUOUS
 62
     7
 10
3874.512348898507
 20
2283.136750698262
 30
0.0
 11
3875.241066353336
 21
2283.136750698262
 31
0.0
  0
LINE
  5
1C5
  8
0
  6
CONTINUOUS
 62
     7
 10
3874.512348898513
 20
2268.236750698262
 30
0.0
 11
3875.241066353336
 21
2268.236750698262
 31
0.0
  0
LINE
  5
1C6
  8
0
  6
CONTINUOUS
 62
     7
 10
3874.450979402912
 20
2283.13675069826
 30
0.0
 11
3874.450979402912
 21
2282.18675069826
 31
0.0
  0
LINE
  5
1C7
  8
0
  6
CONTINUOUS
 62
     7
 10
3874.450979402907
 20
2269.186750698261
 30
0.0
 11
3874.450979402907
 21
2268.236750698264
 31
0.0
  0
LINE
  5
1C8
  8
0
  6
CONTINUOUS
 62
     7
 10
3874.450979402912
 20
2283.13675069826
 30
0.0
 11
3874.512348898507
 21
2283.136750698262
 31
0.0
  0
LINE
  5
1C9
  8
0
  6
CONTINUOUS
 62
     7
 10
3874.450979402907
 20
2268.236750698264
 30
0.0
 11
3874.512348898513
 21
2268.236750698262
 31
0.0
  0
LINE
  5
1CA
  8
0
  6
CONTINUOUS
 62
     7
 10
3875.241066353336
 20
1503.186750698262
 30
0.0
 11
3873.241066353321
 21
1503.186750698262
 31
0.0
  0
LINE
  5
1CB
  8
0
  6
CONTINUOUS
 62
     7
 10
3873.241066353321
 20
1516.186750698263
 30
0.0
 11
3875.241066353336
 21
1516.18675069826
 31
0.0
  0
LINE
  5
1CC
  8
0
  6
CONTINUOUS
 62
     7
 10
3874.512348898507
 20
1517.136750698263
 30
0.0
 11
3874.512348898508
 21
1516.18675069826
 31
0.0
  0
LINE
  5
1CD
  8
0
  6
CONTINUOUS
 62
     7
 10
3874.512348898513
 20
1503.186750698261
 30
0.0
 11
3874.512348898513
 21
1502.236750698262
 31
0.0
  0
LINE
  5
1CE
  8
0
  6
CONTINUOUS
 62
     7
 10
3874.512348898507
 20
1517.136750698263
 30
0.0
 11
3875.241066353339
 21
1517.136750698263
 31
0.0
  0
LINE
  5
1CF
  8
0
  6
CONTINUOUS
 62
     7
 10
3874.512348898513
 20
1502.236750698262
 30
0.0
 11
3875.241066353339
 21
1502.236750698262
 31
0.0
  0
LINE
  5
1D0
  8
0
  6
CONTINUOUS
 62
     7
 10
3874.450979402912
 20
1517.13675069826
 30
0.0
 11
3874.450979402912
 21
1516.18675069826
 31
0.0
  0
LINE
  5
1D1
  8
0
  6
CONTINUOUS
 62
     7
 10
3874.450979402907
 20
1503.186750698261
 30
0.0
 11
3874.450979402907
 21
1502.236750698264
 31
0.0
  0
LINE
  5
1D2
  8
0
  6
CONTINUOUS
 62
     7
 10
3874.450979402912
 20
1517.13675069826
 30
0.0
 11
3874.512348898507
 21
1517.136750698263
 31
0.0
  0
LINE
  5
1D3
  8
0
  6
CONTINUOUS
 62
     7
 10
3874.450979402907
 20
1502.236750698264
 30
0.0
 11
3874.512348898513
 21
1502.236750698262
 31
0.0
  0
LINE
  5
1D4
  8
0
  6
CONTINUOUS
 62
     7
 10
3875.241066353339
 20
683.1867506982619
 30
0.0
 11
3873.241066353321
 21
683.1867506982616
 31
0.0
  0
LINE
  5
1D5
  8
0
  6
CONTINUOUS
 62
     7
 10
3873.241066353321
 20
696.1867506982632
 30
0.0
 11
3875.241066353339
 21
696.18675069826
 31
0.0
  0
LINE
  5
1D6
  8
0
  6
CONTINUOUS
 62
     7
 10
3874.512348898507
 20
697.1367506982626
 30
0.0
 11
3874.512348898508
 21
696.18675069826
 31
0.0
  0
LINE
  5
1D7
  8
0
  6
CONTINUOUS
 62
     7
 10
3874.512348898513
 20
683.1867506982613
 30
0.0
 11
3874.512348898513
 21
682.2367506982619
 31
0.0
  0
LINE
  5
1D8
  8
0
  6
CONTINUOUS
 62
     7
 10
3874.512348898507
 20
697.1367506982626
 30
0.0
 11
3875.241066353339
 21
697.136750698263
 31
0.0
  0
LINE
  5
1D9
  8
0
  6
CONTINUOUS
 62
     7
 10
3874.512348898513
 20
682.2367506982619
 30
0.0
 11
3875.241066353339
 21
682.236750698262
 31
0.0
  0
LINE
  5
1DA
  8
0
  6
CONTINUOUS
 62
     7
 10
3874.450979402912
 20
697.1367506982602
 30
0.0
 11
3874.450979402912
 21
696.18675069826
 31
0.0
  0
LINE
  5
1DB
  8
0
  6
CONTINUOUS
 62
     7
 10
3874.450979402907
 20
683.1867506982612
 30
0.0
 11
3874.450979402907
 21
682.2367506982636
 31
0.0
  0
LINE
  5
1DC
  8
0
  6
CONTINUOUS
 62
     7
 10
3874.450979402912
 20
697.1367506982602
 30
0.0
 11
3874.512348898507
 21
697.1367506982626
 31
0.0
  0
LINE
  5
1DD
  8
0
  6
CONTINUOUS
 62
     7
 10
3874.450979402907
 20
682.2367506982636
 30
0.0
 11
3874.512348898513
 21
682.2367506982619
 31
0.0
  0
LINE
  5
1DE
  8
0
  6
CONTINUOUS
 62
     7
 10
3873.741066353314
 20
1517.161750698262
 30
0.0
 11
3874.052632156152
 21
1517.161750698262
 31
0.0
  0
LINE
  5
1DF
  8
0
  6
CONTINUOUS
 62
     7
 10
3874.052632156149
 20
1502.211750698262
 30
0.0
 11
3874.052632156149
 21
1503.186750698261
 31
0.0
  0
LINE
  5
1E0
  8
0
  6
CONTINUOUS
 62
     7
 10
3874.052632156152
 20
1516.18675069826
 30
0.0
 11
3874.052632156152
 21
1517.161750698262
 31
0.0
  0
LINE
  5
1E1
  8
0
  6
CONTINUOUS
 62
     7
 10
3873.741066353335
 20
1502.211750698262
 30
0.0
 11
3874.052632156149
 21
1502.211750698262
 31
0.0
  0
LINE
  5
1E2
  8
0
  6
CONTINUOUS
 62
     7
 10
3874.052632156152
 20
1517.161750698262
 30
0.0
 11
3874.091774750611
 21
1517.161750698262
 31
0.0
  0
LINE
  5
1E3
  8
0
  6
CONTINUOUS
 62
     7
 10
3874.052632156149
 20
1502.211750698262
 30
0.0
 11
3874.091774750609
 21
1502.211750698262
 31
0.0
  0
LINE
  5
1E4
  8
0
  6
CONTINUOUS
 62
     7
 10
3873.741066353314
 20
697.1617506982623
 30
0.0
 11
3874.052632156152
 21
697.1617506982624
 31
0.0
  0
LINE
  5
1E5
  8
0
  6
CONTINUOUS
 62
     7
 10
3874.052632156149
 20
682.2117506982623
 30
0.0
 11
3874.052632156149
 21
683.186750698261
 31
0.0
  0
LINE
  5
1E6
  8
0
  6
CONTINUOUS
 62
     7
 10
3874.052632156152
 20
696.18675069826
 30
0.0
 11
3874.052632156152
 21
697.1617506982624
 31
0.0
  0
LINE
  5
1E7
  8
0
  6
CONTINUOUS
 62
     7
 10
3873.74106635333
 20
682.2117506982622
 30
0.0
 11
3874.052632156149
 21
682.2117506982623
 31
0.0
  0
LINE
  5
1E8
  8
0
  6
CONTINUOUS
 62
     7
 10
3874.052632156152
 20
697.1617506982624
 30
0.0
 11
3874.091774750611
 21
697.1617506982624
 31
0.0
  0
LINE
  5
1E9
  8
0
  6
CONTINUOUS
 62
     7
 10
3874.052632156149
 20
682.2117506982623
 30
0.0
 11
3874.091774750609
 21
682.2117506982623
 31
0.0
  0
LINE
  5
1EA
  8
0
  6
CONTINUOUS
 62
     7
 10
3873.741066353314
 20
2283.161750698262
 30
0.0
 11
3874.052632156152
 21
2283.161750698262
 31
0.0
  0
LINE
  5
1EB
  8
0
  6
CONTINUOUS
 62
     7
 10
3874.052632156149
 20
2268.211750698262
 30
0.0
 11
3874.052632156149
 21
2269.186750698261
 31
0.0
  0
LINE
  5
1EC
  8
0
  6
CONTINUOUS
 62
     7
 10
3874.052632156152
 20
2282.18675069826
 30
0.0
 11
3874.052632156152
 21
2283.161750698262
 31
0.0
  0
LINE
  5
1ED
  8
0
  6
CONTINUOUS
 62
     7
 10
3873.74106635333
 20
2268.211750698262
 30
0.0
 11
3874.052632156149
 21
2268.211750698262
 31
0.0
  0
LINE
  5
1EE
  8
0
  6
CONTINUOUS
 62
     7
 10
3874.052632156152
 20
2283.161750698262
 30
0.0
 11
3874.091774750611
 21
2283.161750698262
 31
0.0
  0
LINE
  5
1EF
  8
0
  6
CONTINUOUS
 62
     7
 10
3874.052632156149
 20
2268.211750698262
 30
0.0
 11
3874.091774750609
 21
2268.211750698262
 31
0.0
  0
LINE
  5
1F0
  8
0
  6
CONTINUOUS
 62
     7
 10
3875.241066353336
 20
2244.68675069826
 30
0.0
 11
3873.241066353337
 21
2244.68675069826
 31
0.0
  0
LINE
  5
1F1
  8
0
  6
CONTINUOUS
 62
     7
 10
3875.241066353336
 20
776.6867506982599
 30
0.0
 11
3873.241066353337
 21
776.6867506982599
 31
0.0
  0
LINE
  5
1F2
  8
0
  6
CONTINUOUS
 62
     8
 10
3873.441066353329
 20
1482.186750698254
 30
0.0
 11
3875.241066353336
 21
1482.186750698254
 31
0.0
  0
LINE
  5
1F3
  8
0
  6
CONTINUOUS
 62
     8
 10
3873.441066353319
 20
1537.186750698259
 30
0.0
 11
3875.241066353336
 21
1537.186750698258
 31
0.0
  0
LINE
  5
1F4
  8
0
  6
CONTINUOUS
 62
     8
 10
3874.59106635332
 20
1501.311750698262
 30
0.0
 11
3874.591066353323
 21
1499.686750698264
 31
0.0
  0
LINE
  5
1F5
  8
0
  6
CONTINUOUS
 62
     8
 10
3874.591066353307
 20
1519.686750698261
 30
0.0
 11
3874.59106635332
 21
1518.06175069826
 31
0.0
  0
LINE
  5
1F6
  8
0
  6
CONTINUOUS
 62
     8
 10
3873.441066353329
 20
662.1867506982544
 30
0.0
 11
3875.241066353336
 21
662.1867506982537
 31
0.0
  0
LINE
  5
1F7
  8
0
  6
CONTINUOUS
 62
     8
 10
3873.441066353319
 20
717.186750698259
 30
0.0
 11
3875.241066353336
 21
717.1867506982582
 31
0.0
  0
LINE
  5
1F8
  8
0
  6
CONTINUOUS
 62
     8
 10
3874.59106635332
 20
681.3117506982616
 30
0.0
 11
3874.591066353323
 21
679.6867506982644
 31
0.0
  0
LINE
  5
1F9
  8
0
  6
CONTINUOUS
 62
     8
 10
3874.591066353307
 20
699.6867506982604
 30
0.0
 11
3874.59106635332
 21
698.0617506982603
 31
0.0
  0
LINE
  5
1FA
  8
0
  6
CONTINUOUS
 62
     8
 10
3873.441066353329
 20
2248.186750698254
 30
0.0
 11
3875.241066353336
 21
2248.186750698253
 31
0.0
  0
LINE
  5
1FB
  8
0
  6
CONTINUOUS
 62
     8
 10
3873.441066353319
 20
2303.186750698259
 30
0.0
 11
3875.241066353336
 21
2303.186750698258
 31
0.0
  0
LINE
  5
1FC
  8
0
  6
CONTINUOUS
 62
     8
 10
3874.59106635332
 20
2267.311750698261
 30
0.0
 11
3874.591066353323
 21
2265.686750698264
 31
0.0
  0
LINE
  5
1FD
  8
0
  6
CONTINUOUS
 62
     8
 10
3874.591066353307
 20
2285.68675069826
 30
0.0
 11
3874.59106635332
 21
2284.06175069826
 31
0.0
  0
LINE
  5
1FE
  8
0
  6
CONTINUOUS
 62
     7
 10
2624.554975482504
 20
2930.925884198948
 30
0.0
 11
2624.554975482504
 21
2948.925884198948
 31
0.0
  0
LINE
  5
1FF
  8
0
  6
CONTINUOUS
 62
     7
 10
2624.554975482504
 20
2930.925884198948
 30
0.0
 11
2252.554975482505
 21
2930.925884198948
 31
0.0
  0
LINE
  5
200
  8
0
  6
CONTINUOUS
 62
     7
 10
2252.554975482505
 20
2930.925884198948
 30
0.0
 11
2252.554975482505
 21
2948.925884198948
 31
0.0
  0
LINE
  5
201
  8
0
  6
CONTINUOUS
 62
     7
 10
2624.554975482504
 20
2948.925884198948
 30
0.0
 11
2252.554975482505
 21
2948.925884198948
 31
0.0
  0
LINE
  5
202
  8
0
  6
CONTINUOUS
 62
     7
 10
2626.054975482504
 20
2950.925884198948
 30
0.0
 11
2626.054975482504
 21
3080.925884198948
 31
0.0
  0
LINE
  5
203
  8
0
  6
CONTINUOUS
 62
     7
 10
2626.054975482504
 20
2950.925884198948
 30
0.0
 11
2608.554975482504
 21
2950.925884198948
 31
0.0
  0
LINE
  5
204
  8
0
  6
CONTINUOUS
 62
     7
 10
2608.554975482504
 20
2950.925884198948
 30
0.0
 11
2608.554975482504
 21
3080.925884198948
 31
0.0
  0
LINE
  5
205
  8
0
  6
CONTINUOUS
 62
     7
 10
2626.054975482504
 20
3080.925884198948
 30
0.0
 11
2608.554975482504
 21
3080.925884198948
 31
0.0
  0
LINE
  5
206
  8
0
  6
CONTINUOUS
 62
     7
 10
1915.054975486843
 20
2951.125884198942
 30
0.0
 11
1899.054975486842
 21
2951.12588419893
 31
0.0
  0
LINE
  5
207
  8
0
  6
CONTINUOUS
 62
     7
 10
1917.054975486843
 20
2949.125884198932
 30
0.0
 11
1917.054975486844
 21
2948.925884198932
 31
0.0
  0
LINE
  5
208
  8
0
  6
CONTINUOUS
 62
     7
 10
1897.054975486841
 20
2948.925884198948
 30
0.0
 11
1897.054975486841
 21
2949.125884198948
 31
0.0
  0
POLYLINE
  5
209
  8
0
  6
CONTINUOUS
 62
     7
 66
     1
 10
0.0
 20
0.0
 30
0.0
  0
VERTEX
  5
6CB
  8
0
  6
CONTINUOUS
 62
     7
 10
1899.054975486842
 20
2951.12588419893
 30
0.0
  0
VERTEX
  5
6CC
  8
0
  6
CONTINUOUS
 62
     7
 10
1899.005743833028
 20
2951.120608969533
 30
0.0
  0
VERTEX
  5
6CD
  8
0
  6
CONTINUOUS
 62
     7
 10
1898.956542742996
 20
2951.115233972948
 30
0.0
  0
VERTEX
  5
6CE
  8
0
  6
CONTINUOUS
 62
     7
 10
1898.907402780534
 20
2951.109659441986
 30
0.0
  0
VERTEX
  5
6CF
  8
0
  6
CONTINUOUS
 62
     7
 10
1898.858354509423
 20
2951.103785609458
 30
0.0
  0
VERTEX
  5
6D0
  8
0
  6
CONTINUOUS
 62
     7
 10
1898.809428493447
 20
2951.097512708175
 30
0.0
  0
VERTEX
  5
6D1
  8
0
  6
CONTINUOUS
 62
     7
 10
1898.760655296392
 20
2951.090740970949
 30
0.0
  0
VERTEX
  5
6D2
  8
0
  6
CONTINUOUS
 62
     7
 10
1898.712065482039
 20
2951.083370630591
 30
0.0
  0
VERTEX
  5
6D3
  8
0
  6
CONTINUOUS
 62
     7
 10
1898.663689614174
 20
2951.075301919913
 30
0.0
  0
VERTEX
  5
6D4
  8
0
  6
CONTINUOUS
 62
     7
 10
1898.61555825658
 20
2951.066435071724
 30
0.0
  0
VERTEX
  5
6D5
  8
0
  6
CONTINUOUS
 62
     7
 10
1898.567701973041
 20
2951.056670318839
 30
0.0
  0
VERTEX
  5
6D6
  8
0
  6
CONTINUOUS
 62
     7
 10
1898.520151327342
 20
2951.045907894067
 30
0.0
  0
VERTEX
  5
6D7
  8
0
  6
CONTINUOUS
 62
     7
 10
1898.472936883265
 20
2951.03404803022
 30
0.0
  0
VERTEX
  5
6D8
  8
0
  6
CONTINUOUS
 62
     7
 10
1898.426089204596
 20
2951.020990960109
 30
0.0
  0
VERTEX
  5
6D9
  8
0
  6
CONTINUOUS
 62
     7
 10
1898.379638855117
 20
2951.006636916545
 30
0.0
  0
VERTEX
  5
6DA
  8
0
  6
CONTINUOUS
 62
     7
 10
1898.333616398613
 20
2950.99088613234
 30
0.0
  0
VERTEX
  5
6DB
  8
0
  6
CONTINUOUS
 62
     7
 10
1898.288052027506
 20
2950.973647738246
 30
0.0
  0
VERTEX
  5
6DC
  8
0
  6
CONTINUOUS
 62
     7
 10
1898.242971754909
 20
2950.954931002169
 30
0.0
  0
VERTEX
  5
6DD
  8
0
  6
CONTINUOUS
 62
     7
 10
1898.198398961631
 20
2950.934808262794
 30
0.0
  0
VERTEX
  5
6DE
  8
0
  6
CONTINUOUS
 62
     7
 10
1898.154356987393
 20
2950.913352843173
 30
0.0
  0
VERTEX
  5
6DF
  8
0
  6
CONTINUOUS
 62
     7
 10
1898.110869171917
 20
2950.890638066356
 30
0.0
  0
VERTEX
  5
6E0
  8
0
  6
CONTINUOUS
 62
     7
 10
1898.067958854926
 20
2950.866737255395
 30
0.0
  0
VERTEX
  5
6E1
  8
0
  6
CONTINUOUS
 62
     7
 10
1898.025649376144
 20
2950.841723733341
 30
0.0
  0
VERTEX
  5
6E2
  8
0
  6
CONTINUOUS
 62
     7
 10
1897.983964075291
 20
2950.815670823245
 30
0.0
  0
VERTEX
  5
6E3
  8
0
  6
CONTINUOUS
 62
     7
 10
1897.942926293924
 20
2950.788651400696
 30
0.0
  0
VERTEX
  5
6E4
  8
0
  6
CONTINUOUS
 62
     7
 10
1897.902559476136
 20
2950.760713324655
 30
0.0
  0
VERTEX
  5
6E5
  8
0
  6
CONTINUOUS
 62
     7
 10
1897.862887220773
 20
2950.731866696095
 30
0.0
  0
VERTEX
  5
6E6
  8
0
  6
CONTINUOUS
 62
     7
 10
1897.823933139521
 20
2950.702118484105
 30
0.0
  0
VERTEX
  5
6E7
  8
0
  6
CONTINUOUS
 62
     7
 10
1897.785720844064
 20
2950.67147565777
 30
0.0
  0
VERTEX
  5
6E8
  8
0
  6
CONTINUOUS
 62
     7
 10
1897.748273946087
 20
2950.639945186179
 30
0.0
  0
VERTEX
  5
6E9
  8
0
  6
CONTINUOUS
 62
     7
 10
1897.711616057275
 20
2950.607534038418
 30
0.0
  0
VERTEX
  5
6EA
  8
0
  6
CONTINUOUS
 62
     7
 10
1897.675770789312
 20
2950.574249183573
 30
0.0
  0
VERTEX
  5
6EB
  8
0
  6
CONTINUOUS
 62
     7
 10
1897.640761753884
 20
2950.540097590733
 30
0.0
  0
VERTEX
  5
6EC
  8
0
  6
CONTINUOUS
 62
     7
 10
1897.606609783858
 20
2950.505088997932
 30
0.0
  0
VERTEX
  5
6ED
  8
0
  6
CONTINUOUS
 62
     7
 10
1897.573324597005
 20
2950.469244218843
 30
0.0
  0
VERTEX
  5
6EE
  8
0
  6
CONTINUOUS
 62
     7
 10
1897.540913132362
 20
2950.432586836003
 30
0.0
  0
VERTEX
  5
6EF
  8
0
  6
CONTINUOUS
 62
     7
 10
1897.509382328965
 20
2950.395140431949
 30
0.0
  0
VERTEX
  5
6F0
  8
0
  6
CONTINUOUS
 62
     7
 10
1897.47873912585
 20
2950.356928589219
 30
0.0
  0
VERTEX
  5
6F1
  8
0
  6
CONTINUOUS
 62
     7
 10
1897.448990462055
 20
2950.317974890352
 30
0.0
  0
VERTEX
  5
6F2
  8
0
  6
CONTINUOUS
 62
     7
 10
1897.420143276615
 20
2950.278302917885
 30
0.0
  0
VERTEX
  5
6F3
  8
0
  6
CONTINUOUS
 62
     7
 10
1897.392204508568
 20
2950.237936254357
 30
0.0
  0
VERTEX
  5
6F4
  8
0
  6
CONTINUOUS
 62
     7
 10
1897.365184385531
 20
2950.196898471712
 30
0.0
  0
VERTEX
  5
6F5
  8
0
  6
CONTINUOUS
 62
     7
 10
1897.339131228255
 20
2950.155213019204
 30
0.0
  0
VERTEX
  5
6F6
  8
0
  6
CONTINUOUS
 62
     7
 10
1897.314117868981
 20
2950.112903267138
 30
0.0
  0
VERTEX
  5
6F7
  8
0
  6
CONTINUOUS
 62
     7
 10
1897.290217545574
 20
2950.069992584509
 30
0.0
  0
VERTEX
  5
6F8
  8
0
  6
CONTINUOUS
 62
     7
 10
1897.267503495903
 20
2950.026504340318
 30
0.0
  0
VERTEX
  5
6F9
  8
0
  6
CONTINUOUS
 62
     7
 10
1897.246048957834
 20
2949.982461903559
 30
0.0
  0
VERTEX
  5
6FA
  8
0
  6
CONTINUOUS
 62
     7
 10
1897.225927169235
 20
2949.937888643233
 30
0.0
  0
VERTEX
  5
6FB
  8
0
  6
CONTINUOUS
 62
     7
 10
1897.207211367973
 20
2949.892807928335
 30
0.0
  0
VERTEX
  5
6FC
  8
0
  6
CONTINUOUS
 62
     7
 10
1897.18997380809
 20
2949.847243168754
 30
0.0
  0
VERTEX
  5
6FD
  8
0
  6
CONTINUOUS
 62
     7
 10
1897.174223707669
 20
2949.801220394264
 30
0.0
  0
VERTEX
  5
6FE
  8
0
  6
CONTINUOUS
 62
     7
 10
1897.159870202903
 20
2949.754769794222
 30
0.0
  0
VERTEX
  5
6FF
  8
0
  6
CONTINUOUS
 62
     7
 10
1897.146813536961
 20
2949.707921927598
 30
0.0
  0
VERTEX
  5
700
  8
0
  6
CONTINUOUS
 62
     7
 10
1897.134953953011
 20
2949.660707353358
 30
0.0
  0
VERTEX
  5
701
  8
0
  6
CONTINUOUS
 62
     7
 10
1897.124191694219
 20
2949.613156630472
 30
0.0
  0
VERTEX
  5
702
  8
0
  6
CONTINUOUS
 62
     7
 10
1897.114427003752
 20
2949.565300317906
 30
0.0
  0
VERTEX
  5
703
  8
0
  6
CONTINUOUS
 62
     7
 10
1897.105560124779
 20
2949.517168974628
 30
0.0
  0
VERTEX
  5
704
  8
0
  6
CONTINUOUS
 62
     7
 10
1897.097491300467
 20
2949.468793159607
 30
0.0
  0
VERTEX
  5
705
  8
0
  6
CONTINUOUS
 62
     7
 10
1897.090120773982
 20
2949.42020343181
 30
0.0
  0
VERTEX
  5
706
  8
0
  6
CONTINUOUS
 62
     7
 10
1897.083348788493
 20
2949.371430350207
 30
0.0
  0
VERTEX
  5
707
  8
0
  6
CONTINUOUS
 62
     7
 10
1897.077075587167
 20
2949.322504473762
 30
0.0
  0
VERTEX
  5
708
  8
0
  6
CONTINUOUS
 62
     7
 10
1897.071201413172
 20
2949.273456361447
 30
0.0
  0
VERTEX
  5
709
  8
0
  6
CONTINUOUS
 62
     7
 10
1897.065626509675
 20
2949.224316572227
 30
0.0
  0
VERTEX
  5
70A
  8
0
  6
CONTINUOUS
 62
     7
 10
1897.060251119842
 20
2949.175115665072
 30
0.0
  0
VERTEX
  5
70B
  8
0
  6
CONTINUOUS
 62
     7
 10
1897.054975486842
 20
2949.125884198948
 30
0.0
  0
SEQEND
  5
7E7
  8
0
  6
CONTINUOUS
 62
     7
  0
POLYLINE
  5
20A
  8
0
  6
CONTINUOUS
 62
     7
 66
     1
 10
0.0
 20
0.0
 30
0.0
  0
VERTEX
  5
70C
  8
0
  6
CONTINUOUS
 62
     7
 10
1917.054975486843
 20
2949.125884198932
 30
0.0
  0
VERTEX
  5
70D
  8
0
  6
CONTINUOUS
 62
     7
 10
1917.049700257446
 20
2949.175115852747
 30
0.0
  0
VERTEX
  5
70E
  8
0
  6
CONTINUOUS
 62
     7
 10
1917.04432526086
 20
2949.224316942777
 30
0.0
  0
VERTEX
  5
70F
  8
0
  6
CONTINUOUS
 62
     7
 10
1917.038750729897
 20
2949.27345690524
 30
0.0
  0
VERTEX
  5
710
  8
0
  6
CONTINUOUS
 62
     7
 10
1917.032876897368
 20
2949.322505176352
 30
0.0
  0
VERTEX
  5
711
  8
0
  6
CONTINUOUS
 62
     7
 10
1917.026603996084
 20
2949.371431192328
 30
0.0
  0
VERTEX
  5
712
  8
0
  6
CONTINUOUS
 62
     7
 10
1917.019832258857
 20
2949.420204389384
 30
0.0
  0
VERTEX
  5
713
  8
0
  6
CONTINUOUS
 62
     7
 10
1917.012461918498
 20
2949.468794203736
 30
0.0
  0
VERTEX
  5
714
  8
0
  6
CONTINUOUS
 62
     7
 10
1917.004393207819
 20
2949.517170071601
 30
0.0
  0
VERTEX
  5
715
  8
0
  6
CONTINUOUS
 62
     7
 10
1916.99552635963
 20
2949.565301429195
 30
0.0
  0
VERTEX
  5
716
  8
0
  6
CONTINUOUS
 62
     7
 10
1916.985761606744
 20
2949.613157712734
 30
0.0
  0
VERTEX
  5
717
  8
0
  6
CONTINUOUS
 62
     7
 10
1916.974999181971
 20
2949.660708358433
 30
0.0
  0
VERTEX
  5
718
  8
0
  6
CONTINUOUS
 62
     7
 10
1916.963139318124
 20
2949.70792280251
 30
0.0
  0
VERTEX
  5
719
  8
0
  6
CONTINUOUS
 62
     7
 10
1916.950082248012
 20
2949.75477048118
 30
0.0
  0
VERTEX
  5
71A
  8
0
  6
CONTINUOUS
 62
     7
 10
1916.935728204448
 20
2949.801220830659
 30
0.0
  0
VERTEX
  5
71B
  8
0
  6
CONTINUOUS
 62
     7
 10
1916.919977420243
 20
2949.847243287162
 30
0.0
  0
VERTEX
  5
71C
  8
0
  6
CONTINUOUS
 62
     7
 10
1916.902739026148
 20
2949.89280765827
 30
0.0
  0
VERTEX
  5
71D
  8
0
  6
CONTINUOUS
 62
     7
 10
1916.884022290071
 20
2949.937887930867
 30
0.0
  0
VERTEX
  5
71E
  8
0
  6
CONTINUOUS
 62
     7
 10
1916.863899550696
 20
2949.982460724146
 30
0.0
  0
VERTEX
  5
71F
  8
0
  6
CONTINUOUS
 62
     7
 10
1916.842444131075
 20
2950.026502698384
 30
0.0
  0
VERTEX
  5
720
  8
0
  6
CONTINUOUS
 62
     7
 10
1916.819729354258
 20
2950.06999051386
 30
0.0
  0
VERTEX
  5
721
  8
0
  6
CONTINUOUS
 62
     7
 10
1916.795828543297
 20
2950.112900830851
 30
0.0
  0
VERTEX
  5
722
  8
0
  6
CONTINUOUS
 62
     7
 10
1916.770815021243
 20
2950.155210309634
 30
0.0
  0
VERTEX
  5
723
  8
0
  6
CONTINUOUS
 62
     7
 10
1916.744762111147
 20
2950.196895610487
 30
0.0
  0
VERTEX
  5
724
  8
0
  6
CONTINUOUS
 62
     7
 10
1916.717742688598
 20
2950.237933391854
 30
0.0
  0
VERTEX
  5
725
  8
0
  6
CONTINUOUS
 62
     7
 10
1916.689804612556
 20
2950.278300209642
 30
0.0
  0
VERTEX
  5
726
  8
0
  6
CONTINUOUS
 62
     7
 10
1916.660957983997
 20
2950.317972465006
 30
0.0
  0
VERTEX
  5
727
  8
0
  6
CONTINUOUS
 62
     7
 10
1916.631209772007
 20
2950.356926546258
 30
0.0
  0
VERTEX
  5
728
  8
0
  6
CONTINUOUS
 62
     7
 10
1916.600566945672
 20
2950.395138841715
 30
0.0
  0
VERTEX
  5
729
  8
0
  6
CONTINUOUS
 62
     7
 10
1916.569036474081
 20
2950.432585739692
 30
0.0
  0
VERTEX
  5
72A
  8
0
  6
CONTINUOUS
 62
     7
 10
1916.536625326319
 20
2950.469243628505
 30
0.0
  0
VERTEX
  5
72B
  8
0
  6
CONTINUOUS
 62
     7
 10
1916.503340471475
 20
2950.505088896468
 30
0.0
  0
VERTEX
  5
72C
  8
0
  6
CONTINUOUS
 62
     7
 10
1916.469188878634
 20
2950.540097931897
 30
0.0
  0
VERTEX
  5
72D
  8
0
  6
CONTINUOUS
 62
     7
 10
1916.434180285834
 20
2950.574249901923
 30
0.0
  0
VERTEX
  5
72E
  8
0
  6
CONTINUOUS
 62
     7
 10
1916.398335506744
 20
2950.607535088776
 30
0.0
  0
VERTEX
  5
72F
  8
0
  6
CONTINUOUS
 62
     7
 10
1916.361678123904
 20
2950.639946553419
 30
0.0
  0
VERTEX
  5
730
  8
0
  6
CONTINUOUS
 62
     7
 10
1916.324231719849
 20
2950.671477356817
 30
0.0
  0
VERTEX
  5
731
  8
0
  6
CONTINUOUS
 62
     7
 10
1916.28601987712
 20
2950.702120559933
 30
0.0
  0
VERTEX
  5
732
  8
0
  6
CONTINUOUS
 62
     7
 10
1916.247066178252
 20
2950.731869223727
 30
0.0
  0
VERTEX
  5
733
  8
0
  6
CONTINUOUS
 62
     7
 10
1916.207394205785
 20
2950.760716409168
 30
0.0
  0
VERTEX
  5
734
  8
0
  6
CONTINUOUS
 62
     7
 10
1916.167027542257
 20
2950.788655177214
 30
0.0
  0
VERTEX
  5
735
  8
0
  6
CONTINUOUS
 62
     7
 10
1916.125989759612
 20
2950.815675300252
 30
0.0
  0
VERTEX
  5
736
  8
0
  6
CONTINUOUS
 62
     7
 10
1916.084304307105
 20
2950.841728457528
 30
0.0
  0
VERTEX
  5
737
  8
0
  6
CONTINUOUS
 62
     7
 10
1916.041994555038
 20
2950.866741816802
 30
0.0
  0
VERTEX
  5
738
  8
0
  6
CONTINUOUS
 62
     7
 10
1915.999083872409
 20
2950.890642140209
 30
0.0
  0
VERTEX
  5
739
  8
0
  6
CONTINUOUS
 62
     7
 10
1915.955595628217
 20
2950.91335618988
 30
0.0
  0
VERTEX
  5
73A
  8
0
  6
CONTINUOUS
 62
     7
 10
1915.911553191458
 20
2950.934810727949
 30
0.0
  0
VERTEX
  5
73B
  8
0
  6
CONTINUOUS
 62
     7
 10
1915.866979931131
 20
2950.954932516548
 30
0.0
  0
VERTEX
  5
73C
  8
0
  6
CONTINUOUS
 62
     7
 10
1915.821899216233
 20
2950.97364831781
 30
0.0
  0
VERTEX
  5
73D
  8
0
  6
CONTINUOUS
 62
     7
 10
1915.776334456652
 20
2950.990885877692
 30
0.0
  0
VERTEX
  5
73E
  8
0
  6
CONTINUOUS
 62
     7
 10
1915.730311682162
 20
2951.006635978114
 30
0.0
  0
VERTEX
  5
73F
  8
0
  6
CONTINUOUS
 62
     7
 10
1915.683861082119
 20
2951.020989482879
 30
0.0
  0
VERTEX
  5
740
  8
0
  6
CONTINUOUS
 62
     7
 10
1915.637013215495
 20
2951.034046148821
 30
0.0
  0
VERTEX
  5
741
  8
0
  6
CONTINUOUS
 62
     7
 10
1915.589798641256
 20
2951.045905732772
 30
0.0
  0
VERTEX
  5
742
  8
0
  6
CONTINUOUS
 62
     7
 10
1915.542247918368
 20
2951.056667991564
 30
0.0
  0
VERTEX
  5
743
  8
0
  6
CONTINUOUS
 62
     7
 10
1915.494391605802
 20
2951.06643268203
 30
0.0
  0
VERTEX
  5
744
  8
0
  6
CONTINUOUS
 62
     7
 10
1915.446260262524
 20
2951.075299561004
 30
0.0
  0
VERTEX
  5
745
  8
0
  6
CONTINUOUS
 62
     7
 10
1915.397884447503
 20
2951.083368385316
 30
0.0
  0
VERTEX
  5
746
  8
0
  6
CONTINUOUS
 62
     7
 10
1915.349294719706
 20
2951.090738911801
 30
0.0
  0
VERTEX
  5
747
  8
0
  6
CONTINUOUS
 62
     7
 10
1915.300521638101
 20
2951.097510897289
 30
0.0
  0
VERTEX
  5
748
  8
0
  6
CONTINUOUS
 62
     7
 10
1915.251595761657
 20
2951.103784098616
 30
0.0
  0
VERTEX
  5
749
  8
0
  6
CONTINUOUS
 62
     7
 10
1915.202547649342
 20
2951.109658272611
 30
0.0
  0
VERTEX
  5
74A
  8
0
  6
CONTINUOUS
 62
     7
 10
1915.153407860121
 20
2951.115233176109
 30
0.0
  0
VERTEX
  5
74B
  8
0
  6
CONTINUOUS
 62
     7
 10
1915.104206952966
 20
2951.120608565941
 30
0.0
  0
VERTEX
  5
74C
  8
0
  6
CONTINUOUS
 62
     7
 10
1915.054975486843
 20
2951.125884198942
 30
0.0
  0
SEQEND
  5
7E8
  8
0
  6
CONTINUOUS
 62
     7
  0
LINE
  5
20B
  8
0
  6
CONTINUOUS
 62
     7
 10
1896.054975486842
 20
2948.925884198949
 30
0.0
 11
1896.054975486842
 21
2949.125884198949
 31
0.0
  0
LINE
  5
20C
  8
0
  6
CONTINUOUS
 62
     7
 10
1896.054975486842
 20
2949.125884198949
 30
0.0
 11
1897.054975486841
 21
2949.125884198948
 31
0.0
  0
LINE
  5
20D
  8
0
  6
CONTINUOUS
 62
     7
 10
1918.054975486843
 20
2948.925884198941
 30
0.0
 11
1918.054975486843
 21
2949.125884198941
 31
0.0
  0
LINE
  5
20E
  8
0
  6
CONTINUOUS
 62
     7
 10
1917.054975486843
 20
2949.125884198932
 30
0.0
 11
1918.054975486843
 21
2949.125884198941
 31
0.0
  0
ARC
  5
20F
  8
0
  6
CONTINUOUS
 62
     7
 10
1899.054975486842
 20
2949.12588419893
 30
0.0
 40
2.999999999999773
 50
129.9445051892881
 51
179.9999999996437
  0
ARC
  5
210
  8
0
  6
CONTINUOUS
 62
     7
 10
1915.054975486843
 20
2949.12588419894
 30
0.0
 40
2.999999999999773
 50
0.0000000000295323
 51
50.05549481041275
  0
LINE
  5
211
  8
0
  6
CONTINUOUS
 62
     7
 10
1896.054975486842
 20
2949.425884198949
 30
0.0
 11
1881.867300733049
 21
2949.425884198949
 31
0.0
  0
LINE
  5
212
  8
0
  6
CONTINUOUS
 62
     7
 10
1881.867300733049
 20
2949.425884198949
 30
0.0
 11
1881.867300733049
 21
2948.925884198947
 31
0.0
  0
LINE
  5
213
  8
0
  6
CONTINUOUS
 62
     7
 10
1896.054975486842
 20
2949.125884198948
 30
0.0
 11
1896.054975486842
 21
2949.425884198949
 31
0.0
  0
LINE
  5
214
  8
0
  6
CONTINUOUS
 62
     7
 10
2585.054975478163
 20
2948.925884198932
 30
0.0
 11
2585.054975478163
 21
2949.125884198932
 31
0.0
  0
LINE
  5
215
  8
0
  6
CONTINUOUS
 62
     7
 10
2584.054975478162
 20
2948.925884198929
 30
0.0
 11
2584.054975478163
 21
2949.125884198929
 31
0.0
  0
LINE
  5
216
  8
0
  6
CONTINUOUS
 62
     7
 10
2584.054975478163
 20
2949.125884198929
 30
0.0
 11
2585.054975478163
 21
2949.125884198932
 31
0.0
  0
LINE
  5
217
  8
0
  6
CONTINUOUS
 62
     7
 10
2603.054975478163
 20
2951.125884198912
 30
0.0
 11
2587.054975478164
 21
2951.125884198917
 31
0.0
  0
POLYLINE
  5
218
  8
0
  6
CONTINUOUS
 62
     7
 66
     1
 10
0.0
 20
0.0
 30
0.0
  0
VERTEX
  5
74D
  8
0
  6
CONTINUOUS
 62
     7
 10
2605.054975478164
 20
2949.125884198916
 30
0.0
  0
VERTEX
  5
74E
  8
0
  6
CONTINUOUS
 62
     7
 10
2605.049700248766
 20
2949.17511585273
 30
0.0
  0
VERTEX
  5
74F
  8
0
  6
CONTINUOUS
 62
     7
 10
2605.044325252181
 20
2949.224316942762
 30
0.0
  0
VERTEX
  5
750
  8
0
  6
CONTINUOUS
 62
     7
 10
2605.038750721218
 20
2949.273456905225
 30
0.0
  0
VERTEX
  5
751
  8
0
  6
CONTINUOUS
 62
     7
 10
2605.032876888688
 20
2949.322505176336
 30
0.0
  0
VERTEX
  5
752
  8
0
  6
CONTINUOUS
 62
     7
 10
2605.026603987405
 20
2949.371431192312
 30
0.0
  0
VERTEX
  5
753
  8
0
  6
CONTINUOUS
 62
     7
 10
2605.019832250178
 20
2949.420204389368
 30
0.0
  0
VERTEX
  5
754
  8
0
  6
CONTINUOUS
 62
     7
 10
2605.012461909819
 20
2949.46879420372
 30
0.0
  0
VERTEX
  5
755
  8
0
  6
CONTINUOUS
 62
     7
 10
2605.004393199139
 20
2949.517170071586
 30
0.0
  0
VERTEX
  5
756
  8
0
  6
CONTINUOUS
 62
     7
 10
2604.995526350951
 20
2949.56530142918
 30
0.0
  0
VERTEX
  5
757
  8
0
  6
CONTINUOUS
 62
     7
 10
2604.985761598065
 20
2949.613157712718
 30
0.0
  0
VERTEX
  5
758
  8
0
  6
CONTINUOUS
 62
     7
 10
2604.974999173292
 20
2949.660708358418
 30
0.0
  0
VERTEX
  5
759
  8
0
  6
CONTINUOUS
 62
     7
 10
2604.963139309444
 20
2949.707922802495
 30
0.0
  0
VERTEX
  5
75A
  8
0
  6
CONTINUOUS
 62
     7
 10
2604.950082239333
 20
2949.754770481165
 30
0.0
  0
VERTEX
  5
75B
  8
0
  6
CONTINUOUS
 62
     7
 10
2604.935728195769
 20
2949.801220830643
 30
0.0
  0
VERTEX
  5
75C
  8
0
  6
CONTINUOUS
 62
     7
 10
2604.919977411564
 20
2949.847243287147
 30
0.0
  0
VERTEX
  5
75D
  8
0
  6
CONTINUOUS
 62
     7
 10
2604.902739017469
 20
2949.892807658256
 30
0.0
  0
VERTEX
  5
75E
  8
0
  6
CONTINUOUS
 62
     7
 10
2604.884022281392
 20
2949.937887930851
 30
0.0
  0
VERTEX
  5
75F
  8
0
  6
CONTINUOUS
 62
     7
 10
2604.863899542018
 20
2949.982460724131
 30
0.0
  0
VERTEX
  5
760
  8
0
  6
CONTINUOUS
 62
     7
 10
2604.842444122397
 20
2950.02650269837
 30
0.0
  0
VERTEX
  5
761
  8
0
  6
CONTINUOUS
 62
     7
 10
2604.81972934558
 20
2950.069990513846
 30
0.0
  0
VERTEX
  5
762
  8
0
  6
CONTINUOUS
 62
     7
 10
2604.795828534619
 20
2950.112900830836
 30
0.0
  0
VERTEX
  5
763
  8
0
  6
CONTINUOUS
 62
     7
 10
2604.770815012565
 20
2950.15521030962
 30
0.0
  0
VERTEX
  5
764
  8
0
  6
CONTINUOUS
 62
     7
 10
2604.74476210247
 20
2950.196895610473
 30
0.0
  0
VERTEX
  5
765
  8
0
  6
CONTINUOUS
 62
     7
 10
2604.717742679921
 20
2950.23793339184
 30
0.0
  0
VERTEX
  5
766
  8
0
  6
CONTINUOUS
 62
     7
 10
2604.689804603879
 20
2950.278300209628
 30
0.0
  0
VERTEX
  5
767
  8
0
  6
CONTINUOUS
 62
     7
 10
2604.660957975319
 20
2950.317972464991
 30
0.0
  0
VERTEX
  5
768
  8
0
  6
CONTINUOUS
 62
     7
 10
2604.631209763329
 20
2950.356926546243
 30
0.0
  0
VERTEX
  5
769
  8
0
  6
CONTINUOUS
 62
     7
 10
2604.600566936995
 20
2950.3951388417
 30
0.0
  0
VERTEX
  5
76A
  8
0
  6
CONTINUOUS
 62
     7
 10
2604.569036465404
 20
2950.432585739678
 30
0.0
  0
VERTEX
  5
76B
  8
0
  6
CONTINUOUS
 62
     7
 10
2604.536625317642
 20
2950.46924362849
 30
0.0
  0
VERTEX
  5
76C
  8
0
  6
CONTINUOUS
 62
     7
 10
2604.503340462797
 20
2950.505088896453
 30
0.0
  0
VERTEX
  5
76D
  8
0
  6
CONTINUOUS
 62
     7
 10
2604.469188869957
 20
2950.540097931882
 30
0.0
  0
VERTEX
  5
76E
  8
0
  6
CONTINUOUS
 62
     7
 10
2604.434180277157
 20
2950.574249901909
 30
0.0
  0
VERTEX
  5
76F
  8
0
  6
CONTINUOUS
 62
     7
 10
2604.398335498068
 20
2950.607535088762
 30
0.0
  0
VERTEX
  5
770
  8
0
  6
CONTINUOUS
 62
     7
 10
2604.361678115227
 20
2950.639946553405
 30
0.0
  0
VERTEX
  5
771
  8
0
  6
CONTINUOUS
 62
     7
 10
2604.324231711174
 20
2950.671477356803
 30
0.0
  0
VERTEX
  5
772
  8
0
  6
CONTINUOUS
 62
     7
 10
2604.286019868443
 20
2950.702120559918
 30
0.0
  0
VERTEX
  5
773
  8
0
  6
CONTINUOUS
 62
     7
 10
2604.247066169577
 20
2950.731869223714
 30
0.0
  0
VERTEX
  5
774
  8
0
  6
CONTINUOUS
 62
     7
 10
2604.207394197109
 20
2950.760716409154
 30
0.0
  0
VERTEX
  5
775
  8
0
  6
CONTINUOUS
 62
     7
 10
2604.16702753358
 20
2950.788655177201
 30
0.0
  0
VERTEX
  5
776
  8
0
  6
CONTINUOUS
 62
     7
 10
2604.125989750937
 20
2950.815675300239
 30
0.0
  0
VERTEX
  5
777
  8
0
  6
CONTINUOUS
 62
     7
 10
2604.084304298429
 20
2950.841728457515
 30
0.0
  0
VERTEX
  5
778
  8
0
  6
CONTINUOUS
 62
     7
 10
2604.041994546362
 20
2950.86674181679
 30
0.0
  0
VERTEX
  5
779
  8
0
  6
CONTINUOUS
 62
     7
 10
2603.999083863733
 20
2950.890642140196
 30
0.0
  0
VERTEX
  5
77A
  8
0
  6
CONTINUOUS
 62
     7
 10
2603.955595619541
 20
2950.913356189867
 30
0.0
  0
VERTEX
  5
77B
  8
0
  6
CONTINUOUS
 62
     7
 10
2603.911553182782
 20
2950.934810727936
 30
0.0
  0
VERTEX
  5
77C
  8
0
  6
CONTINUOUS
 62
     7
 10
2603.866979922456
 20
2950.954932516535
 30
0.0
  0
VERTEX
  5
77D
  8
0
  6
CONTINUOUS
 62
     7
 10
2603.821899207558
 20
2950.973648317797
 30
0.0
  0
VERTEX
  5
77E
  8
0
  6
CONTINUOUS
 62
     7
 10
2603.776334447976
 20
2950.990885877678
 30
0.0
  0
VERTEX
  5
77F
  8
0
  6
CONTINUOUS
 62
     7
 10
2603.730311673486
 20
2951.006635978099
 30
0.0
  0
VERTEX
  5
780
  8
0
  6
CONTINUOUS
 62
     7
 10
2603.683861073444
 20
2951.020989482865
 30
0.0
  0
VERTEX
  5
781
  8
0
  6
CONTINUOUS
 62
     7
 10
2603.637013206819
 20
2951.034046148806
 30
0.0
  0
VERTEX
  5
782
  8
0
  6
CONTINUOUS
 62
     7
 10
2603.589798632579
 20
2951.045905732755
 30
0.0
  0
VERTEX
  5
783
  8
0
  6
CONTINUOUS
 62
     7
 10
2603.542247909691
 20
2951.056667991547
 30
0.0
  0
VERTEX
  5
784
  8
0
  6
CONTINUOUS
 62
     7
 10
2603.494391597125
 20
2951.066432682012
 30
0.0
  0
VERTEX
  5
785
  8
0
  6
CONTINUOUS
 62
     7
 10
2603.446260253847
 20
2951.075299560984
 30
0.0
  0
VERTEX
  5
786
  8
0
  6
CONTINUOUS
 62
     7
 10
2603.397884438825
 20
2951.083368385295
 30
0.0
  0
VERTEX
  5
787
  8
0
  6
CONTINUOUS
 62
     7
 10
2603.349294711028
 20
2951.090738911778
 30
0.0
  0
VERTEX
  5
788
  8
0
  6
CONTINUOUS
 62
     7
 10
2603.300521629423
 20
2951.097510897266
 30
0.0
  0
VERTEX
  5
789
  8
0
  6
CONTINUOUS
 62
     7
 10
2603.251595752979
 20
2951.10378409859
 30
0.0
  0
VERTEX
  5
78A
  8
0
  6
CONTINUOUS
 62
     7
 10
2603.202547640662
 20
2951.109658272585
 30
0.0
  0
VERTEX
  5
78B
  8
0
  6
CONTINUOUS
 62
     7
 10
2603.153407851443
 20
2951.115233176082
 30
0.0
  0
VERTEX
  5
78C
  8
0
  6
CONTINUOUS
 62
     7
 10
2603.104206944287
 20
2951.120608565913
 30
0.0
  0
VERTEX
  5
78D
  8
0
  6
CONTINUOUS
 62
     7
 10
2603.054975478163
 20
2951.125884198912
 30
0.0
  0
SEQEND
  5
7E9
  8
0
  6
CONTINUOUS
 62
     7
  0
LINE
  5
219
  8
0
  6
CONTINUOUS
 62
     7
 10
2605.054975478164
 20
2948.925884198916
 30
0.0
 11
2605.054975478164
 21
2949.125884198916
 31
0.0
  0
POLYLINE
  5
21A
  8
0
  6
CONTINUOUS
 62
     7
 66
     1
 10
0.0
 20
0.0
 30
0.0
  0
VERTEX
  5
78E
  8
0
  6
CONTINUOUS
 62
     7
 10
2587.054975478164
 20
2951.125884198917
 30
0.0
  0
VERTEX
  5
78F
  8
0
  6
CONTINUOUS
 62
     7
 10
2587.005743824349
 20
2951.120608969521
 30
0.0
  0
VERTEX
  5
790
  8
0
  6
CONTINUOUS
 62
     7
 10
2586.956542734319
 20
2951.115233972936
 30
0.0
  0
VERTEX
  5
791
  8
0
  6
CONTINUOUS
 62
     7
 10
2586.907402771856
 20
2951.109659441974
 30
0.0
  0
VERTEX
  5
792
  8
0
  6
CONTINUOUS
 62
     7
 10
2586.858354500744
 20
2951.103785609445
 30
0.0
  0
VERTEX
  5
793
  8
0
  6
CONTINUOUS
 62
     7
 10
2586.809428484769
 20
2951.097512708162
 30
0.0
  0
VERTEX
  5
794
  8
0
  6
CONTINUOUS
 62
     7
 10
2586.760655287713
 20
2951.090740970937
 30
0.0
  0
VERTEX
  5
795
  8
0
  6
CONTINUOUS
 62
     7
 10
2586.71206547336
 20
2951.083370630578
 30
0.0
  0
VERTEX
  5
796
  8
0
  6
CONTINUOUS
 62
     7
 10
2586.663689605495
 20
2951.0753019199
 30
0.0
  0
VERTEX
  5
797
  8
0
  6
CONTINUOUS
 62
     7
 10
2586.615558247901
 20
2951.066435071712
 30
0.0
  0
VERTEX
  5
798
  8
0
  6
CONTINUOUS
 62
     7
 10
2586.567701964363
 20
2951.056670318826
 30
0.0
  0
VERTEX
  5
799
  8
0
  6
CONTINUOUS
 62
     7
 10
2586.520151318663
 20
2951.045907894054
 30
0.0
  0
VERTEX
  5
79A
  8
0
  6
CONTINUOUS
 62
     7
 10
2586.472936874587
 20
2951.034048030207
 30
0.0
  0
VERTEX
  5
79B
  8
0
  6
CONTINUOUS
 62
     7
 10
2586.426089195917
 20
2951.020990960096
 30
0.0
  0
VERTEX
  5
79C
  8
0
  6
CONTINUOUS
 62
     7
 10
2586.379638846438
 20
2951.006636916532
 30
0.0
  0
VERTEX
  5
79D
  8
0
  6
CONTINUOUS
 62
     7
 10
2586.333616389935
 20
2950.990886132328
 30
0.0
  0
VERTEX
  5
79E
  8
0
  6
CONTINUOUS
 62
     7
 10
2586.288052018826
 20
2950.973647738233
 30
0.0
  0
VERTEX
  5
79F
  8
0
  6
CONTINUOUS
 62
     7
 10
2586.242971746231
 20
2950.954931002156
 30
0.0
  0
VERTEX
  5
7A0
  8
0
  6
CONTINUOUS
 62
     7
 10
2586.198398952952
 20
2950.934808262781
 30
0.0
  0
VERTEX
  5
7A1
  8
0
  6
CONTINUOUS
 62
     7
 10
2586.154356978714
 20
2950.91335284316
 30
0.0
  0
VERTEX
  5
7A2
  8
0
  6
CONTINUOUS
 62
     7
 10
2586.110869163238
 20
2950.890638066343
 30
0.0
  0
VERTEX
  5
7A3
  8
0
  6
CONTINUOUS
 62
     7
 10
2586.067958846248
 20
2950.866737255382
 30
0.0
  0
VERTEX
  5
7A4
  8
0
  6
CONTINUOUS
 62
     7
 10
2586.025649367464
 20
2950.841723733327
 30
0.0
  0
VERTEX
  5
7A5
  8
0
  6
CONTINUOUS
 62
     7
 10
2585.983964066611
 20
2950.815670823232
 30
0.0
  0
VERTEX
  5
7A6
  8
0
  6
CONTINUOUS
 62
     7
 10
2585.942926285245
 20
2950.788651400683
 30
0.0
  0
VERTEX
  5
7A7
  8
0
  6
CONTINUOUS
 62
     7
 10
2585.902559467457
 20
2950.760713324641
 30
0.0
  0
VERTEX
  5
7A8
  8
0
  6
CONTINUOUS
 62
     7
 10
2585.862887212094
 20
2950.731866696081
 30
0.0
  0
VERTEX
  5
7A9
  8
0
  6
CONTINUOUS
 62
     7
 10
2585.823933130842
 20
2950.702118484091
 30
0.0
  0
VERTEX
  5
7AA
  8
0
  6
CONTINUOUS
 62
     7
 10
2585.785720835386
 20
2950.671475657757
 30
0.0
  0
VERTEX
  5
7AB
  8
0
  6
CONTINUOUS
 62
     7
 10
2585.748273937409
 20
2950.639945186166
 30
0.0
  0
VERTEX
  5
7AC
  8
0
  6
CONTINUOUS
 62
     7
 10
2585.711616048597
 20
2950.607534038405
 30
0.0
  0
VERTEX
  5
7AD
  8
0
  6
CONTINUOUS
 62
     7
 10
2585.675770780634
 20
2950.57424918356
 30
0.0
  0
VERTEX
  5
7AE
  8
0
  6
CONTINUOUS
 62
     7
 10
2585.640761745205
 20
2950.540097590719
 30
0.0
  0
VERTEX
  5
7AF
  8
0
  6
CONTINUOUS
 62
     7
 10
2585.60660977518
 20
2950.505088997919
 30
0.0
  0
VERTEX
  5
7B0
  8
0
  6
CONTINUOUS
 62
     7
 10
2585.573324588326
 20
2950.46924421883
 30
0.0
  0
VERTEX
  5
7B1
  8
0
  6
CONTINUOUS
 62
     7
 10
2585.540913123683
 20
2950.432586835988
 30
0.0
  0
VERTEX
  5
7B2
  8
0
  6
CONTINUOUS
 62
     7
 10
2585.509382320286
 20
2950.395140431935
 30
0.0
  0
VERTEX
  5
7B3
  8
0
  6
CONTINUOUS
 62
     7
 10
2585.478739117172
 20
2950.356928589205
 30
0.0
  0
VERTEX
  5
7B4
  8
0
  6
CONTINUOUS
 62
     7
 10
2585.448990453376
 20
2950.317974890338
 30
0.0
  0
VERTEX
  5
7B5
  8
0
  6
CONTINUOUS
 62
     7
 10
2585.420143267937
 20
2950.278302917871
 30
0.0
  0
VERTEX
  5
7B6
  8
0
  6
CONTINUOUS
 62
     7
 10
2585.392204499889
 20
2950.237936254342
 30
0.0
  0
VERTEX
  5
7B7
  8
0
  6
CONTINUOUS
 62
     7
 10
2585.365184376852
 20
2950.196898471697
 30
0.0
  0
VERTEX
  5
7B8
  8
0
  6
CONTINUOUS
 62
     7
 10
2585.339131219577
 20
2950.15521301919
 30
0.0
  0
VERTEX
  5
7B9
  8
0
  6
CONTINUOUS
 62
     7
 10
2585.314117860302
 20
2950.112903267123
 30
0.0
  0
VERTEX
  5
7BA
  8
0
  6
CONTINUOUS
 62
     7
 10
2585.290217536895
 20
2950.069992584495
 30
0.0
  0
VERTEX
  5
7BB
  8
0
  6
CONTINUOUS
 62
     7
 10
2585.267503487224
 20
2950.026504340303
 30
0.0
  0
VERTEX
  5
7BC
  8
0
  6
CONTINUOUS
 62
     7
 10
2585.246048949156
 20
2949.982461903545
 30
0.0
  0
VERTEX
  5
7BD
  8
0
  6
CONTINUOUS
 62
     7
 10
2585.225927160557
 20
2949.937888643218
 30
0.0
  0
VERTEX
  5
7BE
  8
0
  6
CONTINUOUS
 62
     7
 10
2585.207211359295
 20
2949.892807928321
 30
0.0
  0
VERTEX
  5
7BF
  8
0
  6
CONTINUOUS
 62
     7
 10
2585.189973799413
 20
2949.847243168739
 30
0.0
  0
VERTEX
  5
7C0
  8
0
  6
CONTINUOUS
 62
     7
 10
2585.17422369899
 20
2949.801220394249
 30
0.0
  0
VERTEX
  5
7C1
  8
0
  6
CONTINUOUS
 62
     7
 10
2585.159870194225
 20
2949.754769794208
 30
0.0
  0
VERTEX
  5
7C2
  8
0
  6
CONTINUOUS
 62
     7
 10
2585.146813528284
 20
2949.707921927583
 30
0.0
  0
VERTEX
  5
7C3
  8
0
  6
CONTINUOUS
 62
     7
 10
2585.134953944333
 20
2949.660707353343
 30
0.0
  0
VERTEX
  5
7C4
  8
0
  6
CONTINUOUS
 62
     7
 10
2585.124191685541
 20
2949.613156630457
 30
0.0
  0
VERTEX
  5
7C5
  8
0
  6
CONTINUOUS
 62
     7
 10
2585.114426995074
 20
2949.56530031789
 30
0.0
  0
VERTEX
  5
7C6
  8
0
  6
CONTINUOUS
 62
     7
 10
2585.105560116102
 20
2949.517168974613
 30
0.0
  0
VERTEX
  5
7C7
  8
0
  6
CONTINUOUS
 62
     7
 10
2585.097491291789
 20
2949.468793159591
 30
0.0
  0
VERTEX
  5
7C8
  8
0
  6
CONTINUOUS
 62
     7
 10
2585.090120765305
 20
2949.420203431795
 30
0.0
  0
VERTEX
  5
7C9
  8
0
  6
CONTINUOUS
 62
     7
 10
2585.083348779816
 20
2949.371430350191
 30
0.0
  0
VERTEX
  5
7CA
  8
0
  6
CONTINUOUS
 62
     7
 10
2585.077075578489
 20
2949.322504473746
 30
0.0
  0
VERTEX
  5
7CB
  8
0
  6
CONTINUOUS
 62
     7
 10
2585.071201404494
 20
2949.27345636143
 30
0.0
  0
VERTEX
  5
7CC
  8
0
  6
CONTINUOUS
 62
     7
 10
2585.065626500996
 20
2949.224316572212
 30
0.0
  0
VERTEX
  5
7CD
  8
0
  6
CONTINUOUS
 62
     7
 10
2585.060251111163
 20
2949.175115665056
 30
0.0
  0
VERTEX
  5
7CE
  8
0
  6
CONTINUOUS
 62
     7
 10
2585.054975478163
 20
2949.125884198932
 30
0.0
  0
SEQEND
  5
7EA
  8
0
  6
CONTINUOUS
 62
     7
  0
LINE
  5
21B
  8
0
  6
CONTINUOUS
 62
     7
 10
2606.054975478164
 20
2949.125884198931
 30
0.0
 11
2605.054975478164
 21
2949.125884198916
 31
0.0
  0
LINE
  5
21C
  8
0
  6
CONTINUOUS
 62
     7
 10
2606.054975478164
 20
2948.92588419893
 30
0.0
 11
2606.054975478164
 21
2949.125884198931
 31
0.0
  0
ARC
  5
21D
  8
0
  6
CONTINUOUS
 62
     7
 10
2587.054975478163
 20
2949.125884198917
 30
0.0
 40
3.0
 50
129.9445051888878
 51
179.999999999756
  0
ARC
  5
21E
  8
0
  6
CONTINUOUS
 62
     7
 10
2603.054975478164
 20
2949.125884198911
 30
0.0
 40
3.0
 50
0.0000000003738602
 51
50.05549481127899
  0
LINE
  5
21F
  8
0
  6
CONTINUOUS
 62
     7
 10
2620.242650231957
 20
2949.425884198934
 30
0.0
 11
2606.054975478165
 21
2949.425884198934
 31
0.0
  0
LINE
  5
220
  8
0
  6
CONTINUOUS
 62
     7
 10
2620.242650231957
 20
2948.925884198939
 30
0.0
 11
2620.242650231957
 21
2949.425884198934
 31
0.0
  0
LINE
  5
221
  8
0
  6
CONTINUOUS
 62
     7
 10
2606.054975478165
 20
2949.425884198934
 30
0.0
 11
2606.054975478165
 21
2949.125884198934
 31
0.0
  0
LINE
  5
222
  8
0
  6
CONTINUOUS
 62
     7
 10
2608.137575790739
 20
2949.425884198933
 30
0.0
 11
2608.091471078772
 21
2951.425884198948
 31
0.0
  0
LINE
  5
223
  8
0
  6
CONTINUOUS
 62
     7
 10
2606.791125707423
 20
2951.425884198948
 30
0.0
 11
2606.837230419392
 21
2949.425884198931
 31
0.0
  0
LINE
  5
224
  8
0
  6
CONTINUOUS
 62
     7
 10
1894.018479886236
 20
2951.425884198948
 30
0.0
 11
1893.972375174268
 21
2949.425884198941
 31
0.0
  0
LINE
  5
225
  8
0
  6
CONTINUOUS
 62
     7
 10
1895.272720545615
 20
2949.425884198939
 30
0.0
 11
1895.318825257584
 21
2951.425884198948
 31
0.0
  0
LINE
  5
226
  8
0
  6
CONTINUOUS
 62
     7
 10
2043.554975482504
 20
2950.925884198948
 30
0.0
 11
2043.554975482504
 21
2948.925884198948
 31
0.0
  0
LINE
  5
227
  8
0
  6
CONTINUOUS
 62
     7
 10
2083.554975482504
 20
2950.925884198948
 30
0.0
 11
2083.554975482504
 21
2948.925884198948
 31
0.0
  0
LINE
  5
228
  8
0
  6
CONTINUOUS
 62
     7
 10
2043.554975482504
 20
2950.925884198948
 30
0.0
 11
2083.554975482504
 21
2950.925884198948
 31
0.0
  0
LINE
  5
229
  8
0
  6
CONTINUOUS
 62
     7
 10
2418.554975482504
 20
2950.925884198948
 30
0.0
 11
2418.554975482504
 21
2948.925884198948
 31
0.0
  0
LINE
  5
22A
  8
0
  6
CONTINUOUS
 62
     7
 10
2458.554975482504
 20
2950.925884198948
 30
0.0
 11
2458.554975482504
 21
2948.925884198948
 31
0.0
  0
LINE
  5
22B
  8
0
  6
CONTINUOUS
 62
     7
 10
2418.554975482504
 20
2950.925884198948
 30
0.0
 11
2458.554975482504
 21
2950.925884198948
 31
0.0
  0
LINE
  5
22C
  8
0
  6
CONTINUOUS
 62
     7
 10
2249.554975482504
 20
2930.925884198948
 30
0.0
 11
2249.554975482504
 21
2948.925884198948
 31
0.0
  0
LINE
  5
22D
  8
0
  6
CONTINUOUS
 62
     7
 10
2249.554975482504
 20
2930.925884198948
 30
0.0
 11
1877.554975482504
 21
2930.925884198948
 31
0.0
  0
LINE
  5
22E
  8
0
  6
CONTINUOUS
 62
     7
 10
1877.554975482504
 20
2930.925884198948
 30
0.0
 11
1877.554975482504
 21
2948.925884198948
 31
0.0
  0
LINE
  5
22F
  8
0
  6
CONTINUOUS
 62
     7
 10
2249.554975482504
 20
2948.925884198948
 30
0.0
 11
1877.554975482504
 21
2948.925884198948
 31
0.0
  0
LINE
  5
230
  8
0
  6
CONTINUOUS
 62
     7
 10
1893.554975482504
 20
2950.925884198948
 30
0.0
 11
1893.554975482504
 21
3080.925884198948
 31
0.0
  0
LINE
  5
231
  8
0
  6
CONTINUOUS
 62
     7
 10
1893.554975482504
 20
2950.925884198948
 30
0.0
 11
1876.054975482504
 21
2950.925884198948
 31
0.0
  0
LINE
  5
232
  8
0
  6
CONTINUOUS
 62
     7
 10
1876.054975482504
 20
2950.925884198948
 30
0.0
 11
1876.054975482504
 21
3080.925884198948
 31
0.0
  0
LINE
  5
233
  8
0
  6
CONTINUOUS
 62
     7
 10
1893.554975482504
 20
3080.925884198948
 30
0.0
 11
1876.054975482504
 21
3080.925884198948
 31
0.0
  0
LINE
  5
234
  8
0
  6
CONTINUOUS
 62
     7
 10
2608.554975482504
 20
3080.925884198948
 30
0.0
 11
1893.554975482504
 21
3080.925884198948
 31
0.0
  0
LINE
  5
235
  8
0
  6
CONTINUOUS
 62
     7
 10
2608.554975482504
 20
2951.425884198948
 30
0.0
 11
1893.554975482504
 21
2951.425884198948
 31
0.0
  0
LINE
  5
236
  8
0
  6
CONTINUOUS
 62
     8
 10
1915.054975486843
 20
2951.125884198942
 30
0.0
 11
1915.054975486843
 21
2951.425884198948
 31
0.0
  0
LINE
  5
237
  8
0
  6
CONTINUOUS
 62
     8
 10
1899.054975486842
 20
2951.425884198948
 30
0.0
 11
1899.054975486842
 21
2951.12588419893
 31
0.0
  0
LINE
  5
238
  8
0
  6
CONTINUOUS
 62
     8
 10
2587.054975478164
 20
2951.125884198917
 30
0.0
 11
2587.054975478164
 21
2951.425884198948
 31
0.0
  0
LINE
  5
239
  8
0
  6
CONTINUOUS
 62
     8
 10
2603.054975478163
 20
2951.125884198912
 30
0.0
 11
2603.054975478163
 21
2951.425884198948
 31
0.0
  0
ENDSEC
  0
EOF
