  0
SECTION
  2
HEADER
  9
$ACADVER
  1
AC1006
  9
$DWGCODEPAGE
  3
ansi_932
  9
$INSBASE
 10
0.0
 20
0.0
 30
0.0
  9
$EXTMIN
 10
677.5098251208341
 20
165.7088516276313
  9
$EXTMAX
 10
4926.373666717429
 20
2965.567809175891
  9
$LIMMIN
 10
0.0
 20
0.0
  9
$LIMMAX
 10
5000.0
 20
3500.0
  9
$ORTHOMODE
 70
     1
  9
$REGENMODE
 70
     1
  9
$FILLMODE
 70
     1
  9
$QTEXTMODE
 70
     0
  9
$MIRRTEXT
 70
     1
  9
$DRAGMODE
 70
     2
  9
$LTSCALE
 40
1.0
  9
$OSMODE
 70
    37
  9
$ATTMODE
 70
     1
  9
$TEXTSIZE
 40
3.5
  9
$TRACEWID
 40
1.0
  9
$TEXTSTYLE
  7
STANDARD
  9
$CLAYER
  8
0
  9
$CELTYPE
  6
BYLAYER
  9
$CECOLOR
 62
   256
  9
$DIMSCALE
 40
1.0
  9
$DIMASZ
 40
3.302
  9
$DIMEXO
 40
1.0
  9
$DIMDLI
 40
3.75
  9
$DIMRND
 40
0.0
  9
$DIMDLE
 40
0.0
  9
$DIMEXE
 40
1.0
  9
$DIMTP
 40
0.0
  9
$DIMTM
 40
0.0
  9
$DIMTXT
 40
3.5
  9
$DIMCEN
 40
2.5
  9
$DIMTSZ
 40
0.0
  9
$DIMTOL
 70
     0
  9
$DIMLIM
 70
     0
  9
$DIMTIH
 70
     1
  9
$DIMTOH
 70
     1
  9
$DIMSE1
 70
     0
  9
$DIMSE2
 70
     0
  9
$DIMTAD
 70
     1
  9
$DIMZIN
 70
     0
  9
$DIMBLK
  1

  9
$DIMASO
 70
     1
  9
$DIMSHO
 70
     1
  9
$DIMPOST
  1

  9
$DIMAPOST
  1

  9
$DIMALT
 70
     0
  9
$DIMALTD
 70
     3
  9
$DIMALTF
 40
0.0393700787401575
  9
$DIMLFAC
 40
1.0
  9
$DIMTOFL
 70
     1
  9
$DIMTVP
 40
0.0
  9
$DIMTIX
 70
     0
  9
$DIMSOXD
 70
     0
  9
$DIMSAH
 70
     0
  9
$DIMBLK1
  1

  9
$DIMBLK2
  1

  9
$LUNITS
 70
     2
  9
$LUPREC
 70
     3
  9
$SKETCHINC
 40
1.0
  9
$FILLETRAD
 40
10.0
  9
$AUNITS
 70
     0
  9
$AUPREC
 70
     2
  9
$MENU
  1
.
  9
$ELEVATION
 40
0.0
  9
$THICKNESS
 40
0.0
  9
$LIMCHECK
 70
     0
  9
$CHAMFERA
 40
0.0
  9
$CHAMFERB
 40
0.0
  9
$SKPOLY
 70
     0
  9
$TDCREATE
 40
2459868.39789618
  9
$TDUPDATE
 40
2460139.27551603
  9
$TDINDWG
 40
0.0017280324
  9
$TDUSRTIMER
 40
0.0017280324
  9
$USRTIMER
 70
     1
  9
$ANGBASE
 50
0.0
  9
$ANGDIR
 70
     0
  9
$PDMODE
 70
     0
  9
$PDSIZE
 40
-1.0
  9
$PLINEWID
 40
0.0
  9
$COORDS
 70
     1
  9
$SPLFRAME
 70
     0
  9
$SPLINETYPE
 70
     6
  9
$SPLINESEGS
 70
     8
  9
$ATTDIA
 70
     0
  9
$ATTREQ
 70
     1
  9
$HANDLING
 70
     1
  9
$HANDSEED
  5
18D
  9
$SURFTAB1
 70
     6
  9
$SURFTAB2
 70
     6
  9
$SURFTYPE
 70
     6
  9
$SURFU
 70
     6
  9
$SURFV
 70
     6
  9
$UCSNAME
  2

  9
$UCSORG
 10
0.0
 20
0.0
 30
0.0
  9
$UCSXDIR
 10
1.0
 20
0.0
 30
0.0
  9
$UCSYDIR
 10
0.0
 20
1.0
 30
0.0
  9
$USERI1
 70
     0
  9
$USERI2
 70
     0
  9
$USERI3
 70
     0
  9
$USERI4
 70
     0
  9
$USERI5
 70
     0
  9
$USERR1
 40
0.0
  9
$USERR2
 40
0.0
  9
$USERR3
 40
0.0
  9
$USERR4
 40
0.0
  9
$USERR5
 40
0.0
  9
$WORLDVIEW
 70
     1
  0
ENDSEC
  0
SECTION
  2
TABLES
  0
TABLE
  2
VPORT
 70
     1
  0
VPORT
  2
*ACTIVE
 70
     0
 10
0.0
 20
0.0
 11
1.0
 21
1.0
 12
3099.350035129415
 22
1614.269785340195
 13
0.0
 23
0.0
 14
10.0
 24
10.0
 15
10.0
 25
10.0
 16
0.0
 26
0.0
 36
1.0
 17
0.0
 27
0.0
 37
0.0
 40
3138.750643132965
 41
2.235364396654719
 42
50.0
 43
0.0
 44
0.0
 50
0.0
 51
0.0
 71
     0
 72
  2000
 73
     1
 74
     3
 75
     0
 76
     0
 77
     0
 78
     0
  0
ENDTAB
  0
TABLE
  2
LTYPE
 70
     6
  0
LTYPE
  2
CONTINUOUS
 70
     0
  3
Solid line
 72
    65
 73
     0
 40
0.0
  0
LTYPE
  2
HIDDEN
 70
     0
  3
Hidden __ __ __ __ __ __ __ __ __ __ __ __ __ __
 72
    65
 73
     2
 40
1.905
 49
1.27
 49
-0.635
  0
LTYPE
  2
PHANTOM
 70
     0
  3
Phantom ______  __  __  ______  __  __  ______
 72
    65
 73
     6
 40
12.7
 49
6.35
 49
-1.27
 49
1.27
 49
-1.27
 49
1.27
 49
-1.27
  0
LTYPE
  2
CENTER
 70
     0
  3
Center ____ _ ____ _ ____ _ ____ _ ____ _ ____
 72
    65
 73
     4
 40
10.16
 49
6.35
 49
-1.27
 49
1.27
 49
-1.27
  0
LTYPE
  2
CENTERX2
 70
     0
  3
Center (2x) ________  __  ________  __  _____
 72
    65
 73
     4
 40
20.32
 49
12.7
 49
-2.54
 49
2.54
 49
-2.54
  0
LTYPE
  2
DOT2
 70
     0
  3
Dot (.5x) ........................................
 72
    65
 73
     2
 40
0.635
 49
0.0
 49
-0.635
  0
ENDTAB
  0
TABLE
  2
LAYER
 70
     3
  0
LAYER
  2
0
 70
     0
 62
     7
  6
CONTINUOUS
  0
LAYER
  2
SLD-0
 70
     0
 62
   179
  6
CONTINUOUS
  0
LAYER
  2
寸法
 70
     0
 62
   179
  6
CONTINUOUS
  0
ENDTAB
  0
TABLE
  2
STYLE
 70
     2
  0
STYLE
  2
STANDARD
 70
     0
 40
0.0
 41
1.0
 50
0.0
 71
     0
 42
3.5
  3
txt
  4
bigfont
  0
STYLE
  2
SLDTEXTSTYLE0
 70
     0
 40
0.0
 41
0.75
 50
0.0
 71
     0
 42
3.5
  3
TXT
  4
bigfont
  0
ENDTAB
  0
TABLE
  2
VIEW
 70
     0
  0
ENDTAB
  0
TABLE
  2
UCS
 70
     0
  0
ENDTAB
  0
ENDSEC
  0
SECTION
  2
BLOCKS
  0
ENDSEC
  0
SECTION
  2
ENTITIES
  0
LINE
  5
75
  8
0
  6
CONTINUOUS
 62
     7
 10
4801.663086450988
 20
279.1403827252221
 30
0.0
 11
3345.906222050112
 21
279.1403827252221
 31
0.0
  0
TEXT
  5
77
  8
0
  6
CONTINUOUS
 62
     7
 10
1882.832479963692
 20
1936.367951330439
 30
0.0
 40
52.91666666666666
  1
＜正面＞
 41
0.75
  7
SLDTEXTSTYLE0
  0
TEXT
  5
78
  8
0
  6
CONTINUOUS
 62
     7
 10
3377.814243189123
 20
326.489054196763
 30
0.0
 40
52.91666666666666
  1
品名：
 41
0.75
  7
SLDTEXTSTYLE0
  0
TEXT
  5
79
  8
0
  6
CONTINUOUS
 62
     7
 10
4446.663437481703
 20
332.3177187478654
 30
0.0
 40
52.91666666666666
  1
Pamouna
 41
0.75
  7
SLDTEXTSTYLE0
  0
TEXT
  5
7A
  8
寸法
  6
CONTINUOUS
 62
     7
 10
4688.007304885427
 20
165.7088516276312
 30
0.0
 40
52.91666666666666
  1
1/1
 41
0.75
  7
SLDTEXTSTYLE0
  0
TEXT
  5
7B
  8
寸法
  6
CONTINUOUS
 62
     7
 10
3611.283129349216
 20
332.2465883182592
 30
0.0
 40
66.14583333333331
  1
MA-NSL370B
 41
0.75
  7
SLDTEXTSTYLE0
  0
TEXT
  5
7C
  8
寸法
  6
CONTINUOUS
 62
     7
 10
4198.79693921183
 20
165.7088544215994
 30
0.0
 40
52.91666666666666
  1
2022/10/15
 41
0.75
  7
SLDTEXTSTYLE0
  0
TEXT
  5
7D
  8
寸法
  6
CONTINUOUS
 62
     7
 10
3662.466593051836
 20
1949.98353978493
 30
0.0
 40
52.91666666666666
  1
＜右側面＞
 41
0.75
  7
SLDTEXTSTYLE0
  0
TEXT
  5
7E
  8
0
  6
CONTINUOUS
 62
     7
 10
669.5723251208341
 20
1945.034307062798
 30
0.0
 40
52.91666666666666
  1
＜左側面＞
 41
0.75
  7
SLDTEXTSTYLE0
  0
TEXT
  5
7F
  8
0
  6
CONTINUOUS
 62
     7
 10
1921.877754094453
 20
2912.651142509224
 30
0.0
 40
52.91666666666666
  1
＜上面＞
 41
0.75
  7
SLDTEXTSTYLE0
  0
LINE
  5
80
  8
0
  6
CONTINUOUS
 62
     7
 10
2182.945458565364
 20
995.0043978663145
 30
0.0
 11
2522.945458565364
 21
995.0043978663145
 31
0.0
  0
LINE
  5
81
  8
0
  6
CONTINUOUS
 62
     7
 10
2522.945458565364
 20
1808.504397866315
 30
0.0
 11
2182.945458565364
 21
1808.504397866315
 31
0.0
  0
LINE
  5
82
  8
0
  6
CONTINUOUS
 62
     7
 10
2540.445458565364
 20
1826.754397866314
 30
0.0
 11
2522.945458565364
 21
1826.754397866314
 31
0.0
  0
LINE
  5
83
  8
0
  6
CONTINUOUS
 62
     7
 10
2540.445458565364
 20
976.7543978663144
 30
0.0
 11
2540.445458565364
 21
1826.754397866314
 31
0.0
  0
LINE
  5
84
  8
0
  6
CONTINUOUS
 62
     7
 10
2522.945458565364
 20
976.7543978663144
 30
0.0
 11
2540.445458565364
 21
976.7543978663144
 31
0.0
  0
LINE
  5
85
  8
0
  6
CONTINUOUS
 62
     7
 10
2522.945458565364
 20
1826.754397866314
 30
0.0
 11
2522.945458565364
 21
976.7543978663144
 31
0.0
  0
LINE
  5
86
  8
0
  6
CONTINUOUS
 62
     7
 10
2522.945458565364
 20
994.7543978663144
 30
0.0
 11
2182.945458565364
 21
994.7543978663144
 31
0.0
  0
LINE
  5
87
  8
0
  6
CONTINUOUS
 62
     7
 10
2522.945458565364
 20
977.2543978663144
 30
0.0
 11
2182.945458565364
 21
977.2543978663144
 31
0.0
  0
LINE
  5
88
  8
0
  6
CONTINUOUS
 62
     7
 10
2522.945458565364
 20
1826.254397866314
 30
0.0
 11
2182.945458565364
 21
1826.254397866314
 31
0.0
  0
LINE
  5
89
  8
0
  6
CONTINUOUS
 62
     7
 10
2522.945458565364
 20
1808.754397866314
 30
0.0
 11
2182.945458565364
 21
1808.754397866314
 31
0.0
  0
LINE
  5
8A
  8
0
  6
CONTINUOUS
 62
     7
 10
2182.945458565364
 20
1826.754397866314
 30
0.0
 11
2165.445458565364
 21
1826.754397866314
 31
0.0
  0
LINE
  5
8B
  8
0
  6
CONTINUOUS
 62
     7
 10
2182.945458565364
 20
976.7543978663144
 30
0.0
 11
2182.945458565364
 21
1826.754397866314
 31
0.0
  0
LINE
  5
8C
  8
0
  6
CONTINUOUS
 62
     7
 10
2165.445458565364
 20
976.7543978663144
 30
0.0
 11
2182.945458565364
 21
976.7543978663144
 31
0.0
  0
LINE
  5
8D
  8
0
  6
CONTINUOUS
 62
     7
 10
2165.445458565364
 20
1826.754397866314
 30
0.0
 11
2165.445458565364
 21
976.7543978663144
 31
0.0
  0
LINE
  5
8E
  8
0
  6
CONTINUOUS
 62
     7
 10
942.1833821614324
 20
1826.754397866314
 30
0.0
 11
942.1833821614324
 21
976.7543978663144
 31
0.0
  0
LINE
  5
8F
  8
0
  6
CONTINUOUS
 62
     7
 10
942.1833821614324
 20
976.7543978663144
 30
0.0
 11
812.1833821614324
 21
976.7543978663144
 31
0.0
  0
LINE
  5
90
  8
0
  6
CONTINUOUS
 62
     7
 10
812.1833821614324
 20
1826.754397866314
 30
0.0
 11
812.1833821614324
 21
976.7543978663144
 31
0.0
  0
LINE
  5
91
  8
0
  6
CONTINUOUS
 62
     7
 10
942.1833821614324
 20
1826.754397866314
 30
0.0
 11
812.1833821614324
 21
1826.754397866314
 31
0.0
  0
LINE
  5
92
  8
0
  6
CONTINUOUS
 62
     7
 10
3792.910686895917
 20
976.7543978663144
 30
0.0
 11
3922.910686895918
 21
976.7543978663144
 31
0.0
  0
LINE
  5
93
  8
0
  6
CONTINUOUS
 62
     7
 10
3792.910686895917
 20
976.7543978663144
 30
0.0
 11
3792.910686895917
 21
1826.754397866314
 31
0.0
  0
LINE
  5
94
  8
0
  6
CONTINUOUS
 62
     7
 10
3922.910686895918
 20
976.7543978663144
 30
0.0
 11
3922.910686895918
 21
1826.754397866314
 31
0.0
  0
LINE
  5
95
  8
0
  6
CONTINUOUS
 62
     7
 10
3792.910686895917
 20
1826.754397866314
 30
0.0
 11
3922.910686895918
 21
1826.754397866314
 31
0.0
  0
LINE
  5
96
  8
0
  6
CONTINUOUS
 62
     7
 10
2540.445458565364
 20
2604.271654904581
 30
0.0
 11
2540.445458565364
 21
2734.271654904581
 31
0.0
  0
LINE
  5
97
  8
0
  6
CONTINUOUS
 62
     7
 10
2540.445458565364
 20
2604.271654904581
 30
0.0
 11
2522.945458565364
 21
2604.271654904581
 31
0.0
  0
LINE
  5
98
  8
0
  6
CONTINUOUS
 62
     7
 10
2522.945458565364
 20
2604.271654904581
 30
0.0
 11
2522.945458565364
 21
2734.271654904581
 31
0.0
  0
LINE
  5
99
  8
0
  6
CONTINUOUS
 62
     7
 10
2540.445458565364
 20
2734.271654904581
 30
0.0
 11
2522.945458565364
 21
2734.271654904581
 31
0.0
  0
LINE
  5
9A
  8
0
  6
CONTINUOUS
 62
     7
 10
2522.945458565364
 20
2604.771654904581
 30
0.0
 11
2182.945458565364
 21
2604.771654904581
 31
0.0
  0
LINE
  5
9B
  8
0
  6
CONTINUOUS
 62
     7
 10
2522.945458565364
 20
2734.271654904581
 30
0.0
 11
2182.945458565364
 21
2734.271654904581
 31
0.0
  0
LINE
  5
9C
  8
0
  6
CONTINUOUS
 62
     7
 10
2182.945458565364
 20
2604.271654904581
 30
0.0
 11
2165.445458565364
 21
2604.271654904581
 31
0.0
  0
LINE
  5
9D
  8
0
  6
CONTINUOUS
 62
     7
 10
2182.945458565364
 20
2604.271654904581
 30
0.0
 11
2182.945458565364
 21
2734.271654904581
 31
0.0
  0
LINE
  5
9E
  8
0
  6
CONTINUOUS
 62
     7
 10
2165.445458565364
 20
2604.271654904581
 30
0.0
 11
2165.445458565364
 21
2734.271654904581
 31
0.0
  0
LINE
  5
9F
  8
0
  6
CONTINUOUS
 62
     7
 10
2182.945458565364
 20
2734.271654904581
 30
0.0
 11
2165.445458565364
 21
2734.271654904581
 31
0.0
  0
POLYLINE
  5
131
  8
0
 66
     1
 10
0.0
 20
0.0
 30
0.0
 70
     1
  0
VERTEX
  5
179
  8
0
 10
2182.945458565364
 20
1577.004397866314
 30
0.0
  0
VERTEX
  5
17A
  8
0
 10
2522.945458565364
 20
1577.004397866314
 30
0.0
  0
VERTEX
  5
17B
  8
0
 10
2522.945458565364
 20
1586.504397866314
 30
0.0
  0
VERTEX
  5
17C
  8
0
 10
2182.945458565364
 20
1586.504397866314
 30
0.0
  0
SEQEND
  5
189
  8
0
  0
POLYLINE
  5
13A
  8
0
 66
     1
 10
0.0
 20
0.0
 30
0.0
 70
     1
  0
VERTEX
  5
17D
  8
0
 10
2182.945458565364
 20
1427.004397866314
 30
0.0
  0
VERTEX
  5
17E
  8
0
 10
2522.945458565364
 20
1427.004397866314
 30
0.0
  0
VERTEX
  5
17F
  8
0
 10
2522.945458565364
 20
1436.504397866314
 30
0.0
  0
VERTEX
  5
180
  8
0
 10
2182.945458565364
 20
1436.504397866314
 30
0.0
  0
SEQEND
  5
18A
  8
0
  0
POLYLINE
  5
144
  8
0
 66
     1
 10
0.0
 20
0.0
 30
0.0
 70
     1
  0
VERTEX
  5
181
  8
0
 10
2182.945458565364
 20
1277.004397866314
 30
0.0
  0
VERTEX
  5
182
  8
0
 10
2522.945458565364
 20
1277.004397866314
 30
0.0
  0
VERTEX
  5
183
  8
0
 10
2522.945458565364
 20
1286.504397866314
 30
0.0
  0
VERTEX
  5
184
  8
0
 10
2182.945458565364
 20
1286.504397866314
 30
0.0
  0
SEQEND
  5
18B
  8
0
  0
POLYLINE
  5
14D
  8
0
 66
     1
 10
0.0
 20
0.0
 30
0.0
 70
     1
  0
VERTEX
  5
185
  8
0
 10
2182.945458565364
 20
1127.004397866315
 30
0.0
  0
VERTEX
  5
186
  8
0
 10
2522.945458565364
 20
1127.004397866315
 30
0.0
  0
VERTEX
  5
187
  8
0
 10
2522.945458565364
 20
1136.504397866315
 30
0.0
  0
VERTEX
  5
188
  8
0
 10
2182.945458565364
 20
1136.504397866315
 30
0.0
  0
SEQEND
  5
18C
  8
0
  0
ENDSEC
  0
EOF
