  0
SECTION
  2
HEADER
  9
$ACADVER
  1
AC1006
  9
$DWGCODEPAGE
  3
ansi_932
  9
$INSBASE
 10
0.0
 20
0.0
 30
0.0
  9
$EXTMIN
 10
677.5098251208341
 20
165.7088516276313
  9
$EXTMAX
 10
4801.663086450988
 20
3013.232765703866
  9
$LIMMIN
 10
0.0
 20
0.0
  9
$LIMMAX
 10
5000.0
 20
3500.0
  9
$ORTHOMODE
 70
     1
  9
$REGENMODE
 70
     1
  9
$FILLMODE
 70
     1
  9
$QTEXTMODE
 70
     0
  9
$MIRRTEXT
 70
     1
  9
$DRAGMODE
 70
     2
  9
$LTSCALE
 40
1.0
  9
$OSMODE
 70
    37
  9
$ATTMODE
 70
     1
  9
$TEXTSIZE
 40
3.5
  9
$TRACEWID
 40
1.0
  9
$TEXTSTYLE
  7
STANDARD
  9
$CLAYER
  8
0
  9
$CELTYPE
  6
BYLAYER
  9
$CECOLOR
 62
   256
  9
$DIMSCALE
 40
1.0
  9
$DIMASZ
 40
3.302
  9
$DIMEXO
 40
1.0
  9
$DIMDLI
 40
3.75
  9
$DIMRND
 40
0.0
  9
$DIMDLE
 40
0.0
  9
$DIMEXE
 40
1.0
  9
$DIMTP
 40
0.0
  9
$DIMTM
 40
0.0
  9
$DIMTXT
 40
3.5
  9
$DIMCEN
 40
2.5
  9
$DIMTSZ
 40
0.0
  9
$DIMTOL
 70
     0
  9
$DIMLIM
 70
     0
  9
$DIMTIH
 70
     1
  9
$DIMTOH
 70
     1
  9
$DIMSE1
 70
     0
  9
$DIMSE2
 70
     0
  9
$DIMTAD
 70
     1
  9
$DIMZIN
 70
     0
  9
$DIMBLK
  1

  9
$DIMASO
 70
     1
  9
$DIMSHO
 70
     1
  9
$DIMPOST
  1

  9
$DIMAPOST
  1

  9
$DIMALT
 70
     0
  9
$DIMALTD
 70
     3
  9
$DIMALTF
 40
0.0393700787401575
  9
$DIMLFAC
 40
1.0
  9
$DIMTOFL
 70
     1
  9
$DIMTVP
 40
0.0
  9
$DIMTIX
 70
     0
  9
$DIMSOXD
 70
     0
  9
$DIMSAH
 70
     0
  9
$DIMBLK1
  1

  9
$DIMBLK2
  1

  9
$LUNITS
 70
     2
  9
$LUPREC
 70
     3
  9
$SKETCHINC
 40
1.0
  9
$FILLETRAD
 40
10.0
  9
$AUNITS
 70
     0
  9
$AUPREC
 70
     2
  9
$MENU
  1
.
  9
$ELEVATION
 40
0.0
  9
$THICKNESS
 40
0.0
  9
$LIMCHECK
 70
     0
  9
$CHAMFERA
 40
0.0
  9
$CHAMFERB
 40
0.0
  9
$SKPOLY
 70
     0
  9
$TDCREATE
 40
2459868.350240718
  9
$TDUPDATE
 40
2460139.219462674
  9
$TDINDWG
 40
0.0006610069
  9
$TDUSRTIMER
 40
0.0006610069
  9
$USRTIMER
 70
     1
  9
$ANGBASE
 50
0.0
  9
$ANGDIR
 70
     0
  9
$PDMODE
 70
     0
  9
$PDSIZE
 40
-1.0
  9
$PLINEWID
 40
0.0
  9
$COORDS
 70
     1
  9
$SPLFRAME
 70
     0
  9
$SPLINETYPE
 70
     6
  9
$SPLINESEGS
 70
     8
  9
$ATTDIA
 70
     0
  9
$ATTREQ
 70
     1
  9
$HANDLING
 70
     1
  9
$HANDSEED
  5
49F
  9
$SURFTAB1
 70
     6
  9
$SURFTAB2
 70
     6
  9
$SURFTYPE
 70
     6
  9
$SURFU
 70
     6
  9
$SURFV
 70
     6
  9
$UCSNAME
  2

  9
$UCSORG
 10
0.0
 20
0.0
 30
0.0
  9
$UCSXDIR
 10
1.0
 20
0.0
 30
0.0
  9
$UCSYDIR
 10
0.0
 20
1.0
 30
0.0
  9
$USERI1
 70
     0
  9
$USERI2
 70
     0
  9
$USERI3
 70
     0
  9
$USERI4
 70
     0
  9
$USERI5
 70
     0
  9
$USERR1
 40
0.0
  9
$USERR2
 40
0.0
  9
$USERR3
 40
0.0
  9
$USERR4
 40
0.0
  9
$USERR5
 40
0.0
  9
$WORLDVIEW
 70
     1
  0
ENDSEC
  0
SECTION
  2
TABLES
  0
TABLE
  2
VPORT
 70
     1
  0
VPORT
  2
*ACTIVE
 70
     0
 10
0.0
 20
0.0
 11
1.0
 21
1.0
 12
2908.172250438545
 22
1627.995634919959
 13
0.0
 23
0.0
 14
10.0
 24
10.0
 15
10.0
 25
10.0
 16
0.0
 26
0.0
 36
1.0
 17
0.0
 27
0.0
 37
0.0
 40
3239.423242154937
 41
2.235364396654719
 42
50.0
 43
0.0
 44
0.0
 50
0.0
 51
0.0
 71
     0
 72
  2000
 73
     1
 74
     3
 75
     0
 76
     0
 77
     0
 78
     0
  0
ENDTAB
  0
TABLE
  2
LTYPE
 70
     6
  0
LTYPE
  2
CONTINUOUS
 70
     0
  3
Solid line
 72
    65
 73
     0
 40
0.0
  0
LTYPE
  2
HIDDEN
 70
     0
  3
Hidden __ __ __ __ __ __ __ __ __ __ __ __ __ __
 72
    65
 73
     2
 40
1.905
 49
1.27
 49
-0.635
  0
LTYPE
  2
PHANTOM
 70
     0
  3
Phantom ______  __  __  ______  __  __  ______
 72
    65
 73
     6
 40
12.7
 49
6.35
 49
-1.27
 49
1.27
 49
-1.27
 49
1.27
 49
-1.27
  0
LTYPE
  2
CENTER
 70
     0
  3
Center ____ _ ____ _ ____ _ ____ _ ____ _ ____
 72
    65
 73
     4
 40
10.16
 49
6.35
 49
-1.27
 49
1.27
 49
-1.27
  0
LTYPE
  2
CENTERX2
 70
     0
  3
Center (2x) ________  __  ________  __  _____
 72
    65
 73
     4
 40
20.32
 49
12.7
 49
-2.54
 49
2.54
 49
-2.54
  0
LTYPE
  2
DOT2
 70
     0
  3
Dot (.5x) ........................................
 72
    65
 73
     2
 40
0.635
 49
0.0
 49
-0.635
  0
ENDTAB
  0
TABLE
  2
LAYER
 70
     3
  0
LAYER
  2
0
 70
     0
 62
     7
  6
CONTINUOUS
  0
LAYER
  2
SLD-0
 70
     0
 62
   179
  6
CONTINUOUS
  0
LAYER
  2
寸法
 70
     0
 62
   179
  6
CONTINUOUS
  0
ENDTAB
  0
TABLE
  2
STYLE
 70
     2
  0
STYLE
  2
STANDARD
 70
     0
 40
0.0
 41
1.0
 50
0.0
 71
     0
 42
3.5
  3
txt
  4
bigfont
  0
STYLE
  2
SLDTEXTSTYLE0
 70
     0
 40
0.0
 41
0.75
 50
0.0
 71
     0
 42
3.5
  3
TXT
  4
bigfont
  0
ENDTAB
  0
TABLE
  2
VIEW
 70
     0
  0
ENDTAB
  0
TABLE
  2
UCS
 70
     0
  0
ENDTAB
  0
ENDSEC
  0
SECTION
  2
BLOCKS
  0
ENDSEC
  0
SECTION
  2
ENTITIES
  0
LINE
  5
75
  8
0
  6
CONTINUOUS
 62
     7
 10
4801.663086450988
 20
279.1403827252221
 30
0.0
 11
3345.906222050112
 21
279.1403827252221
 31
0.0
  0
TEXT
  5
77
  8
0
  6
CONTINUOUS
 62
     7
 10
1982.495570885822
 20
1945.034307062798
 30
0.0
 40
52.91666666666666
  1
＜正面＞
 41
0.75
  7
SLDTEXTSTYLE0
  0
TEXT
  5
78
  8
0
  6
CONTINUOUS
 62
     7
 10
3377.814243189123
 20
326.489054196763
 30
0.0
 40
52.91666666666666
  1
品名：
 41
0.75
  7
SLDTEXTSTYLE0
  0
TEXT
  5
79
  8
0
  6
CONTINUOUS
 62
     7
 10
4446.663437481703
 20
332.3177187478654
 30
0.0
 40
52.91666666666666
  1
Pamouna
 41
0.75
  7
SLDTEXTSTYLE0
  0
TEXT
  5
7A
  8
寸法
  6
CONTINUOUS
 62
     7
 10
4688.007304885427
 20
165.7088516276312
 30
0.0
 40
52.91666666666666
  1
1/1
 41
0.75
  7
SLDTEXTSTYLE0
  0
TEXT
  5
7B
  8
寸法
  6
CONTINUOUS
 62
     7
 10
3611.283129349216
 20
332.2465883182592
 30
0.0
 40
66.14583333333331
  1
MA-NDO370EL
 41
0.75
  7
SLDTEXTSTYLE0
  0
TEXT
  5
7C
  8
寸法
  6
CONTINUOUS
 62
     7
 10
4198.79693921183
 20
165.7088544215994
 30
0.0
 40
52.91666666666666
  1
2022/10/15
 41
0.75
  7
SLDTEXTSTYLE0
  0
TEXT
  5
7D
  8
寸法
  6
CONTINUOUS
 62
     7
 10
3662.466593051836
 20
1949.98353978493
 30
0.0
 40
52.91666666666666
  1
＜右側面＞
 41
0.75
  7
SLDTEXTSTYLE0
  0
TEXT
  5
7E
  8
0
  6
CONTINUOUS
 62
     7
 10
669.5723251208341
 20
1945.034307062798
 30
0.0
 40
52.91666666666666
  1
＜左側面＞
 41
0.75
  7
SLDTEXTSTYLE0
  0
TEXT
  5
7F
  8
0
  6
CONTINUOUS
 62
     7
 10
1991.208599953329
 20
2960.316099037199
 30
0.0
 40
52.91666666666666
  1
＜上面＞
 41
0.75
  7
SLDTEXTSTYLE0
  0
LINE
  5
80
  8
0
  6
CONTINUOUS
 62
     7
 10
2588.717111674116
 20
912.2497066116371
 30
0.0
 11
2588.717111674116
 21
1762.249706611637
 31
0.0
  0
LINE
  5
81
  8
0
  6
CONTINUOUS
 62
     7
 10
2571.217111674116
 20
912.2497066116371
 30
0.0
 11
2588.717111674116
 21
912.2497066116371
 31
0.0
  0
LINE
  5
82
  8
0
  6
CONTINUOUS
 62
     7
 10
2588.717111674116
 20
1762.249706611637
 30
0.0
 11
2571.217111674116
 21
1762.249706611637
 31
0.0
  0
LINE
  5
83
  8
0
  6
CONTINUOUS
 62
     7
 10
2571.217111674116
 20
1762.249706611637
 30
0.0
 11
2571.217111674116
 21
1760.249706611637
 31
0.0
  0
LINE
  5
84
  8
0
  6
CONTINUOUS
 62
     7
 10
2571.217111674116
 20
1164.249706611637
 30
0.0
 11
2571.217111674116
 21
912.2497066116371
 31
0.0
  0
LINE
  5
85
  8
0
  6
CONTINUOUS
 62
     7
 10
2231.217111674116
 20
1762.249706611637
 30
0.0
 11
2213.717111674116
 21
1762.249706611637
 31
0.0
  0
LINE
  5
86
  8
0
  6
CONTINUOUS
 62
     7
 10
2231.217111674116
 20
912.2497066116371
 30
0.0
 11
2231.217111674116
 21
1164.249706611637
 31
0.0
  0
LINE
  5
87
  8
0
  6
CONTINUOUS
 62
     7
 10
2231.217111674116
 20
1760.249706611637
 30
0.0
 11
2231.217111674116
 21
1762.249706611637
 31
0.0
  0
LINE
  5
88
  8
0
  6
CONTINUOUS
 62
     7
 10
2213.717111674116
 20
912.2497066116371
 30
0.0
 11
2231.217111674116
 21
912.2497066116371
 31
0.0
  0
LINE
  5
89
  8
0
  6
CONTINUOUS
 62
     7
 10
2213.717111674116
 20
1762.249706611637
 30
0.0
 11
2213.717111674116
 21
912.2497066116371
 31
0.0
  0
LINE
  5
8A
  8
0
  6
CONTINUOUS
 62
     7
 10
2587.217111674116
 20
1164.249706611637
 30
0.0
 11
2587.217111674116
 21
1760.249706611637
 31
0.0
  0
LINE
  5
8B
  8
0
  6
CONTINUOUS
 62
     7
 10
2215.217111674116
 20
1164.249706611637
 30
0.0
 11
2587.217111674116
 21
1164.249706611637
 31
0.0
  0
LINE
  5
8C
  8
0
  6
CONTINUOUS
 62
     7
 10
2215.217111674116
 20
1760.249706611637
 30
0.0
 11
2215.217111674116
 21
1164.249706611637
 31
0.0
  0
LINE
  5
8D
  8
0
  6
CONTINUOUS
 62
     7
 10
2587.217111674116
 20
1760.249706611637
 30
0.0
 11
2215.217111674116
 21
1760.249706611637
 31
0.0
  0
LINE
  5
8E
  8
0
  6
CONTINUOUS
 62
     7
 10
2571.217111674116
 20
1062.928906359645
 30
0.0
 11
2231.217111674116
 21
1062.928906359645
 31
0.0
  0
LINE
  5
8F
  8
0
  6
CONTINUOUS
 62
     7
 10
2571.217111674116
 20
1045.928906359644
 30
0.0
 11
2571.217111674116
 21
1062.928906359645
 31
0.0
  0
LINE
  5
90
  8
0
  6
CONTINUOUS
 62
     7
 10
2231.217111674116
 20
1045.928906359644
 30
0.0
 11
2571.217111674116
 21
1045.928906359644
 31
0.0
  0
LINE
  5
91
  8
0
  6
CONTINUOUS
 62
     7
 10
2231.217111674116
 20
930.499706611637
 30
0.0
 11
2571.217111674116
 21
930.499706611637
 31
0.0
  0
LINE
  5
92
  8
0
  6
CONTINUOUS
 62
     7
 10
2571.217111674116
 20
930.2497066116371
 30
0.0
 11
2231.217111674116
 21
930.2497066116371
 31
0.0
  0
LINE
  5
93
  8
0
  6
CONTINUOUS
 62
     7
 10
2571.217111674116
 20
912.7497066116372
 30
0.0
 11
2231.217111674116
 21
912.7497066116372
 31
0.0
  0
LINE
  5
94
  8
0
  6
CONTINUOUS
 62
     7
 10
2571.217111674116
 20
1761.749706611637
 30
0.0
 11
2231.217111674116
 21
1761.749706611637
 31
0.0
  0
LINE
  5
95
  8
0
  6
CONTINUOUS
 62
     7
 10
929.4430412439559
 20
1762.249706611637
 30
0.0
 11
929.4430412439559
 21
912.2497066116371
 31
0.0
  0
LINE
  5
96
  8
0
  6
CONTINUOUS
 62
     7
 10
799.4430412439559
 20
1762.249706611637
 30
0.0
 11
799.4430412439559
 21
912.2497066116371
 31
0.0
  0
LINE
  5
97
  8
0
  6
CONTINUOUS
 62
     7
 10
929.4430412439559
 20
912.2497066116371
 30
0.0
 11
799.4430412439559
 21
912.2497066116371
 31
0.0
  0
LINE
  5
98
  8
0
  6
CONTINUOUS
 62
     7
 10
929.4430412439559
 20
1762.249706611637
 30
0.0
 11
799.4430412439559
 21
1762.249706611637
 31
0.0
  0
LINE
  5
99
  8
0
  6
CONTINUOUS
 62
     7
 10
949.443041243956
 20
1760.249706611637
 30
0.0
 11
949.443041243956
 21
1164.249706611637
 31
0.0
  0
LINE
  5
9A
  8
0
  6
CONTINUOUS
 62
     7
 10
931.4430412439561
 20
1760.249706611637
 30
0.0
 11
931.443041243956
 21
1164.249706611637
 31
0.0
  0
LINE
  5
9B
  8
0
  6
CONTINUOUS
 62
     7
 10
949.443041243956
 20
1760.249706611637
 30
0.0
 11
931.4430412439561
 21
1760.249706611637
 31
0.0
  0
LINE
  5
9C
  8
0
  6
CONTINUOUS
 62
     7
 10
949.443041243956
 20
1164.249706611637
 30
0.0
 11
931.443041243956
 21
1164.249706611637
 31
0.0
  0
LINE
  5
9D
  8
0
  6
CONTINUOUS
 62
     7
 10
929.5778563189091
 20
1252.624706611637
 30
0.0
 11
929.5778563189085
 21
1251.699706611636
 31
0.0
  0
LINE
  5
9E
  8
0
  6
CONTINUOUS
 62
     7
 10
929.5778563188992
 20
1236.799706611635
 30
0.0
 11
929.5778563188985
 21
1235.874706611636
 31
0.0
  0
LINE
  5
9F
  8
0
  6
CONTINUOUS
 62
     7
 10
929.5778563188985
 20
1235.874706611636
 30
0.0
 11
929.4430412439547
 21
1235.874706611636
 31
0.0
  0
LINE
  5
A0
  8
0
  6
CONTINUOUS
 62
     7
 10
929.4430412439547
 20
1252.624706611636
 30
0.0
 11
929.5778563189091
 21
1252.624706611637
 31
0.0
  0
LINE
  5
A1
  8
0
  6
CONTINUOUS
 62
     7
 10
930.9430412439704
 20
1235.874706611636
 30
0.0
 11
929.5778563188985
 21
1235.874706611636
 31
0.0
  0
LINE
  5
A2
  8
0
  6
CONTINUOUS
 62
     7
 10
929.5778563189091
 20
1252.624706611637
 30
0.0
 11
930.9430412439604
 21
1252.624706611636
 31
0.0
  0
LINE
  5
A3
  8
0
  6
CONTINUOUS
 62
     7
 10
929.5778563189064
 20
1688.624706611636
 30
0.0
 11
929.5778563189058
 21
1687.699706611636
 31
0.0
  0
LINE
  5
A4
  8
0
  6
CONTINUOUS
 62
     7
 10
929.5778563188965
 20
1672.799706611635
 30
0.0
 11
929.5778563188959
 21
1671.874706611635
 31
0.0
  0
LINE
  5
A5
  8
0
  6
CONTINUOUS
 62
     7
 10
929.5778563188959
 20
1671.874706611635
 30
0.0
 11
929.4430412439547
 21
1671.874706611636
 31
0.0
  0
LINE
  5
A6
  8
0
  6
CONTINUOUS
 62
     7
 10
929.4430412439547
 20
1688.624706611636
 30
0.0
 11
929.5778563189064
 21
1688.624706611636
 31
0.0
  0
LINE
  5
A7
  8
0
  6
CONTINUOUS
 62
     7
 10
930.9430412439676
 20
1671.874706611636
 30
0.0
 11
929.5778563188959
 21
1671.874706611635
 31
0.0
  0
LINE
  5
A8
  8
0
  6
CONTINUOUS
 62
     7
 10
929.5778563189064
 20
1688.624706611636
 30
0.0
 11
930.9430412439576
 21
1688.624706611636
 31
0.0
  0
LINE
  5
A9
  8
0
  6
CONTINUOUS
 62
     7
 10
930.9430412439605
 20
1253.205664750695
 30
0.0
 11
931.443041243956
 21
1253.205664750696
 31
0.0
  0
LINE
  5
AA
  8
0
  6
CONTINUOUS
 62
     7
 10
930.9430412439599
 20
1251.649706611403
 30
0.0
 11
931.4430412439598
 21
1251.649706611403
 31
0.0
  0
LINE
  5
AB
  8
0
  6
CONTINUOUS
 62
     7
 10
930.9430412439599
 20
1251.649706611403
 30
0.0
 11
930.9430412439605
 21
1253.205664750695
 31
0.0
  0
LINE
  5
AC
  8
0
  6
CONTINUOUS
 62
     7
 10
931.443041243956
 20
1235.293748472567
 30
0.0
 11
930.9430412439672
 21
1235.293748472568
 31
0.0
  0
LINE
  5
AD
  8
0
  6
CONTINUOUS
 62
     7
 10
930.9430412439672
 20
1235.293748472568
 30
0.0
 11
930.9430412439757
 21
1236.849706611854
 31
0.0
  0
LINE
  5
AE
  8
0
  6
CONTINUOUS
 62
     7
 10
931.4430412439756
 20
1236.849706611854
 30
0.0
 11
930.9430412439757
 21
1236.849706611854
 31
0.0
  0
LINE
  5
AF
  8
0
  6
CONTINUOUS
 62
     7
 10
931.2430412439619
 20
1262.641280769388
 30
0.0
 11
930.9430412439616
 21
1262.641280769388
 31
0.0
  0
LINE
  5
B0
  8
0
  6
CONTINUOUS
 62
     7
 10
931.4430412439618
 20
1262.641280769388
 30
0.0
 11
931.2430412439619
 21
1262.641280769388
 31
0.0
  0
LINE
  5
B1
  8
0
  6
CONTINUOUS
 62
     7
 10
930.9430412439616
 20
1262.641280769388
 30
0.0
 11
930.9430412439605
 21
1253.205664750695
 31
0.0
  0
LINE
  5
B2
  8
0
  6
CONTINUOUS
 62
     7
 10
931.2430412439676
 20
1225.858132453888
 30
0.0
 11
931.4430412439676
 21
1225.858132453888
 31
0.0
  0
LINE
  5
B3
  8
0
  6
CONTINUOUS
 62
     7
 10
930.9430412439676
 20
1225.858132453888
 30
0.0
 11
931.2430412439676
 21
1225.858132453888
 31
0.0
  0
LINE
  5
B4
  8
0
  6
CONTINUOUS
 62
     7
 10
930.9430412439672
 20
1235.293748472568
 30
0.0
 11
930.9430412439676
 21
1225.858132453888
 31
0.0
  0
POLYLINE
  5
B5
  8
0
  6
CONTINUOUS
 62
     7
 10
0.0
 20
0.0
 30
0.0
 66
     1
 70
     8
  0
VERTEX
  5
173
  8
0
  6
CONTINUOUS
 62
     7
 10
929.4430412439547
 20
1272.749706611637
 30
0.0
 70
    32
  0
VERTEX
  5
174
  8
0
  6
CONTINUOUS
 62
     7
 10
929.4603100693342
 20
1272.749706611637
 30
0.0
 70
    32
  0
VERTEX
  5
175
  8
0
  6
CONTINUOUS
 62
     7
 10
929.4777351528048
 20
1272.749706611637
 30
0.0
 70
    32
  0
VERTEX
  5
176
  8
0
  6
CONTINUOUS
 62
     7
 10
929.4954727524586
 20
1272.749706611637
 30
0.0
 70
    32
  0
VERTEX
  5
177
  8
0
  6
CONTINUOUS
 62
     7
 10
929.5136791263865
 20
1272.749706611637
 30
0.0
 70
    32
  0
VERTEX
  5
178
  8
0
  6
CONTINUOUS
 62
     7
 10
929.5325105326795
 20
1272.749706611637
 30
0.0
 70
    32
  0
VERTEX
  5
179
  8
0
  6
CONTINUOUS
 62
     7
 10
929.5521232294292
 20
1272.749706611637
 30
0.0
 70
    32
  0
VERTEX
  5
17A
  8
0
  6
CONTINUOUS
 62
     7
 10
929.5726734527178
 20
1272.749706611637
 30
0.0
 70
    32
  0
VERTEX
  5
17B
  8
0
  6
CONTINUOUS
 62
     7
 10
929.5942712403365
 20
1272.749706611637
 30
0.0
 70
    32
  0
VERTEX
  5
17C
  8
0
  6
CONTINUOUS
 62
     7
 10
929.6168830356575
 20
1272.749706611637
 30
0.0
 70
    32
  0
VERTEX
  5
17D
  8
0
  6
CONTINUOUS
 62
     7
 10
929.6404474644385
 20
1272.749706611637
 30
0.0
 70
    32
  0
VERTEX
  5
17E
  8
0
  6
CONTINUOUS
 62
     7
 10
929.6649031524388
 20
1272.749706611637
 30
0.0
 70
    32
  0
VERTEX
  5
17F
  8
0
  6
CONTINUOUS
 62
     7
 10
929.6901887254172
 20
1272.749706611637
 30
0.0
 70
    32
  0
VERTEX
  5
180
  8
0
  6
CONTINUOUS
 62
     7
 10
929.716242809132
 20
1272.749706611637
 30
0.0
 70
    32
  0
VERTEX
  5
181
  8
0
  6
CONTINUOUS
 62
     7
 10
929.7430040293422
 20
1272.749706611637
 30
0.0
 70
    32
  0
VERTEX
  5
182
  8
0
  6
CONTINUOUS
 62
     7
 10
929.7704110118063
 20
1272.749706611637
 30
0.0
 70
    32
  0
VERTEX
  5
183
  8
0
  6
CONTINUOUS
 62
     7
 10
929.7984023822829
 20
1272.749706611637
 30
0.0
 70
    32
  0
VERTEX
  5
184
  8
0
  6
CONTINUOUS
 62
     7
 10
929.8269167665305
 20
1272.749706611637
 30
0.0
 70
    32
  0
VERTEX
  5
185
  8
0
  6
CONTINUOUS
 62
     7
 10
929.8559014173842
 20
1272.749706611637
 30
0.0
 70
    32
  0
VERTEX
  5
186
  8
0
  6
CONTINUOUS
 62
     7
 10
929.8853457262646
 20
1272.749706611637
 30
0.0
 70
    32
  0
VERTEX
  5
187
  8
0
  6
CONTINUOUS
 62
     7
 10
929.9152519306737
 20
1272.749706611637
 30
0.0
 70
    32
  0
VERTEX
  5
188
  8
0
  6
CONTINUOUS
 62
     7
 10
929.9456222712203
 20
1272.749706611637
 30
0.0
 70
    32
  0
VERTEX
  5
189
  8
0
  6
CONTINUOUS
 62
     7
 10
929.9764589885132
 20
1272.749706611637
 30
0.0
 70
    32
  0
VERTEX
  5
18A
  8
0
  6
CONTINUOUS
 62
     7
 10
930.007764323161
 20
1272.749706611637
 30
0.0
 70
    32
  0
VERTEX
  5
18B
  8
0
  6
CONTINUOUS
 62
     7
 10
930.0395405157726
 20
1272.749706611637
 30
0.0
 70
    32
  0
VERTEX
  5
18C
  8
0
  6
CONTINUOUS
 62
     7
 10
930.0717898069568
 20
1272.749706611637
 30
0.0
 70
    32
  0
VERTEX
  5
18D
  8
0
  6
CONTINUOUS
 62
     7
 10
930.1045144373219
 20
1272.749706611637
 30
0.0
 70
    32
  0
VERTEX
  5
18E
  8
0
  6
CONTINUOUS
 62
     7
 10
930.137716647477
 20
1272.749706611637
 30
0.0
 70
    32
  0
VERTEX
  5
18F
  8
0
  6
CONTINUOUS
 62
     7
 10
930.1713970862858
 20
1272.749706611637
 30
0.0
 70
    32
  0
VERTEX
  5
190
  8
0
  6
CONTINUOUS
 62
     7
 10
930.2055444796091
 20
1272.749706611637
 30
0.0
 70
    32
  0
VERTEX
  5
191
  8
0
  6
CONTINUOUS
 62
     7
 10
930.2401421465197
 20
1272.749706611637
 30
0.0
 70
    32
  0
VERTEX
  5
192
  8
0
  6
CONTINUOUS
 62
     7
 10
930.2751733792096
 20
1272.749706611637
 30
0.0
 70
    32
  0
VERTEX
  5
193
  8
0
  6
CONTINUOUS
 62
     7
 10
930.3106214698713
 20
1272.749706611637
 30
0.0
 70
    32
  0
VERTEX
  5
194
  8
0
  6
CONTINUOUS
 62
     7
 10
930.346469710697
 20
1272.749706611637
 30
0.0
 70
    32
  0
VERTEX
  5
195
  8
0
  6
CONTINUOUS
 62
     7
 10
930.3827013938792
 20
1272.749706611637
 30
0.0
 70
    32
  0
VERTEX
  5
196
  8
0
  6
CONTINUOUS
 62
     7
 10
930.41929981161
 20
1272.749706611637
 30
0.0
 70
    32
  0
VERTEX
  5
197
  8
0
  6
CONTINUOUS
 62
     7
 10
930.4562482560821
 20
1272.749706611637
 30
0.0
 70
    32
  0
VERTEX
  5
198
  8
0
  6
CONTINUOUS
 62
     7
 10
930.4935300194876
 20
1272.749706611637
 30
0.0
 70
    32
  0
VERTEX
  5
199
  8
0
  6
CONTINUOUS
 62
     7
 10
930.5311283960247
 20
1272.749706611637
 30
0.0
 70
    32
  0
VERTEX
  5
19A
  8
0
  6
CONTINUOUS
 62
     7
 10
930.5690267051666
 20
1272.749706611637
 30
0.0
 70
    32
  0
VERTEX
  5
19B
  8
0
  6
CONTINUOUS
 62
     7
 10
930.6072082836745
 20
1272.749706611637
 30
0.0
 70
    32
  0
VERTEX
  5
19C
  8
0
  6
CONTINUOUS
 62
     7
 10
930.6456564686434
 20
1272.749706611638
 30
0.0
 70
    32
  0
VERTEX
  5
19D
  8
0
  6
CONTINUOUS
 62
     7
 10
930.6843545971706
 20
1272.749706611638
 30
0.0
 70
    32
  0
VERTEX
  5
19E
  8
0
  6
CONTINUOUS
 62
     7
 10
930.7232860063514
 20
1272.749706611638
 30
0.0
 70
    32
  0
VERTEX
  5
19F
  8
0
  6
CONTINUOUS
 62
     7
 10
930.7624340332827
 20
1272.749706611638
 30
0.0
 70
    32
  0
VERTEX
  5
1A0
  8
0
  6
CONTINUOUS
 62
     7
 10
930.8017820150601
 20
1272.749706611639
 30
0.0
 70
    32
  0
VERTEX
  5
1A1
  8
0
  6
CONTINUOUS
 62
     7
 10
930.8413132887797
 20
1272.749706611639
 30
0.0
 70
    32
  0
VERTEX
  5
1A2
  8
0
  6
CONTINUOUS
 62
     7
 10
930.881011191538
 20
1272.749706611639
 30
0.0
 70
    32
  0
VERTEX
  5
1A3
  8
0
  6
CONTINUOUS
 62
     7
 10
930.920859060431
 20
1272.74970661164
 30
0.0
 70
    32
  0
VERTEX
  5
1A4
  8
0
  6
CONTINUOUS
 62
     7
 10
930.9608402325548
 20
1272.74970661164
 30
0.0
 70
    32
  0
VERTEX
  5
1A5
  8
0
  6
CONTINUOUS
 62
     7
 10
931.0009380450056
 20
1272.74970661164
 30
0.0
 70
    32
  0
VERTEX
  5
1A6
  8
0
  6
CONTINUOUS
 62
     7
 10
931.0411358348797
 20
1272.749706611641
 30
0.0
 70
    32
  0
VERTEX
  5
1A7
  8
0
  6
CONTINUOUS
 62
     7
 10
931.0814169392729
 20
1272.749706611641
 30
0.0
 70
    32
  0
VERTEX
  5
1A8
  8
0
  6
CONTINUOUS
 62
     7
 10
931.1217646952814
 20
1272.749706611641
 30
0.0
 70
    32
  0
VERTEX
  5
1A9
  8
0
  6
CONTINUOUS
 62
     7
 10
931.1621624400018
 20
1272.749706611642
 30
0.0
 70
    32
  0
VERTEX
  5
1AA
  8
0
  6
CONTINUOUS
 62
     7
 10
931.2025935105295
 20
1272.749706611642
 30
0.0
 70
    32
  0
VERTEX
  5
1AB
  8
0
  6
CONTINUOUS
 62
     7
 10
931.2430412439613
 20
1272.749706611643
 30
0.0
 70
    32
  0
SEQEND
  5
491
  8
0
  6
CONTINUOUS
 62
     7
  0
LINE
  5
B6
  8
0
  6
CONTINUOUS
 62
     7
 10
931.2430412439614
 20
1271.749706611643
 30
0.0
 11
931.2430412439613
 21
1272.749706611643
 31
0.0
  0
POLYLINE
  5
B7
  8
0
  6
CONTINUOUS
 62
     7
 10
0.0
 20
0.0
 30
0.0
 66
     1
 70
     8
  0
VERTEX
  5
1AC
  8
0
  6
CONTINUOUS
 62
     7
 10
931.2430412439843
 20
1215.74970661164
 30
0.0
 70
    32
  0
VERTEX
  5
1AD
  8
0
  6
CONTINUOUS
 62
     7
 10
931.2025927652867
 20
1215.74970661164
 30
0.0
 70
    32
  0
VERTEX
  5
1AE
  8
0
  6
CONTINUOUS
 62
     7
 10
931.162160952984
 20
1215.74970661164
 30
0.0
 70
    32
  0
VERTEX
  5
1AF
  8
0
  6
CONTINUOUS
 62
     7
 10
931.1217624734708
 20
1215.74970661164
 30
0.0
 70
    32
  0
VERTEX
  5
1B0
  8
0
  6
CONTINUOUS
 62
     7
 10
931.0814139931422
 20
1215.74970661164
 30
0.0
 70
    32
  0
VERTEX
  5
1B1
  8
0
  6
CONTINUOUS
 62
     7
 10
931.041132178393
 20
1215.74970661164
 30
0.0
 70
    32
  0
VERTEX
  5
1B2
  8
0
  6
CONTINUOUS
 62
     7
 10
931.0009336956177
 20
1215.74970661164
 30
0.0
 70
    32
  0
VERTEX
  5
1B3
  8
0
  6
CONTINUOUS
 62
     7
 10
930.9608352112111
 20
1215.74970661164
 30
0.0
 70
    32
  0
VERTEX
  5
1B4
  8
0
  6
CONTINUOUS
 62
     7
 10
930.9208533915684
 20
1215.74970661164
 30
0.0
 70
    32
  0
VERTEX
  5
1B5
  8
0
  6
CONTINUOUS
 62
     7
 10
930.8810049030842
 20
1215.74970661164
 30
0.0
 70
    32
  0
VERTEX
  5
1B6
  8
0
  6
CONTINUOUS
 62
     7
 10
930.8413064121534
 20
1215.74970661164
 30
0.0
 70
    32
  0
VERTEX
  5
1B7
  8
0
  6
CONTINUOUS
 62
     7
 10
930.801774585171
 20
1215.74970661164
 30
0.0
 70
    32
  0
VERTEX
  5
1B8
  8
0
  6
CONTINUOUS
 62
     7
 10
930.7624260885309
 20
1215.74970661164
 30
0.0
 70
    32
  0
VERTEX
  5
1B9
  8
0
  6
CONTINUOUS
 62
     7
 10
930.7232775886291
 20
1215.74970661164
 30
0.0
 70
    32
  0
VERTEX
  5
1BA
  8
0
  6
CONTINUOUS
 62
     7
 10
930.6843457518596
 20
1215.74970661164
 30
0.0
 70
    32
  0
VERTEX
  5
1BB
  8
0
  6
CONTINUOUS
 62
     7
 10
930.6456472446179
 20
1215.74970661164
 30
0.0
 70
    32
  0
VERTEX
  5
1BC
  8
0
  6
CONTINUOUS
 62
     7
 10
930.6071987332982
 20
1215.74970661164
 30
0.0
 70
    32
  0
VERTEX
  5
1BD
  8
0
  6
CONTINUOUS
 62
     7
 10
930.5690168842956
 20
1215.74970661164
 30
0.0
 70
    32
  0
VERTEX
  5
1BE
  8
0
  6
CONTINUOUS
 62
     7
 10
930.5311183640049
 20
1215.74970661164
 30
0.0
 70
    32
  0
VERTEX
  5
1BF
  8
0
  6
CONTINUOUS
 62
     7
 10
930.4935198390631
 20
1215.74970661164
 30
0.0
 70
    32
  0
VERTEX
  5
1C0
  8
0
  6
CONTINUOUS
 62
     7
 10
930.4562379885687
 20
1215.74970661164
 30
0.0
 70
    32
  0
VERTEX
  5
1C1
  8
0
  6
CONTINUOUS
 62
     7
 10
930.4192895098262
 20
1215.74970661164
 30
0.0
 70
    32
  0
VERTEX
  5
1C2
  8
0
  6
CONTINUOUS
 62
     7
 10
930.3826911015835
 20
1215.74970661164
 30
0.0
 70
    32
  0
VERTEX
  5
1C3
  8
0
  6
CONTINUOUS
 62
     7
 10
930.3464594625885
 20
1215.74970661164
 30
0.0
 70
    32
  0
VERTEX
  5
1C4
  8
0
  6
CONTINUOUS
 62
     7
 10
930.3106112915891
 20
1215.74970661164
 30
0.0
 70
    32
  0
VERTEX
  5
1C5
  8
0
  6
CONTINUOUS
 62
     7
 10
930.275163287333
 20
1215.74970661164
 30
0.0
 70
    32
  0
VERTEX
  5
1C6
  8
0
  6
CONTINUOUS
 62
     7
 10
930.2401321485689
 20
1215.74970661164
 30
0.0
 70
    32
  0
VERTEX
  5
1C7
  8
0
  6
CONTINUOUS
 62
     7
 10
930.2055345740437
 20
1215.74970661164
 30
0.0
 70
    32
  0
VERTEX
  5
1C8
  8
0
  6
CONTINUOUS
 62
     7
 10
930.171387262506
 20
1215.74970661164
 30
0.0
 70
    32
  0
VERTEX
  5
1C9
  8
0
  6
CONTINUOUS
 62
     7
 10
930.1377068801072
 20
1215.74970661164
 30
0.0
 70
    32
  0
VERTEX
  5
1CA
  8
0
  6
CONTINUOUS
 62
     7
 10
930.1045045335638
 20
1215.74970661164
 30
0.0
 70
    32
  0
VERTEX
  5
1CB
  8
0
  6
CONTINUOUS
 62
     7
 10
930.071779531406
 20
1215.74970661164
 30
0.0
 70
    32
  0
VERTEX
  5
1CC
  8
0
  6
CONTINUOUS
 62
     7
 10
930.0395296756282
 20
1215.74970661164
 30
0.0
 70
    32
  0
VERTEX
  5
1CD
  8
0
  6
CONTINUOUS
 62
     7
 10
930.0077527682243
 20
1215.74970661164
 30
0.0
 70
    32
  0
VERTEX
  5
1CE
  8
0
  6
CONTINUOUS
 62
     7
 10
929.9764466111881
 20
1215.74970661164
 30
0.0
 70
    32
  0
VERTEX
  5
1CF
  8
0
  6
CONTINUOUS
 62
     7
 10
929.9456090065136
 20
1215.74970661164
 30
0.0
 70
    32
  0
VERTEX
  5
1D0
  8
0
  6
CONTINUOUS
 62
     7
 10
929.9152377561948
 20
1215.74970661164
 30
0.0
 70
    32
  0
VERTEX
  5
1D1
  8
0
  6
CONTINUOUS
 62
     7
 10
929.8853306622258
 20
1215.74970661164
 30
0.0
 70
    32
  0
VERTEX
  5
1D2
  8
0
  6
CONTINUOUS
 62
     7
 10
929.8558855266001
 20
1215.74970661164
 30
0.0
 70
    32
  0
VERTEX
  5
1D3
  8
0
  6
CONTINUOUS
 62
     7
 10
929.8269001545019
 20
1215.74970661164
 30
0.0
 70
    32
  0
VERTEX
  5
1D4
  8
0
  6
CONTINUOUS
 62
     7
 10
929.7983852241824
 20
1215.74970661164
 30
0.0
 70
    32
  0
VERTEX
  5
1D5
  8
0
  6
CONTINUOUS
 62
     7
 10
929.7703935690653
 20
1215.74970661164
 30
0.0
 70
    32
  0
VERTEX
  5
1D6
  8
0
  6
CONTINUOUS
 62
     7
 10
929.7429866380417
 20
1215.74970661164
 30
0.0
 70
    32
  0
VERTEX
  5
1D7
  8
0
  6
CONTINUOUS
 62
     7
 10
929.7162258800031
 20
1215.74970661164
 30
0.0
 70
    32
  0
VERTEX
  5
1D8
  8
0
  6
CONTINUOUS
 62
     7
 10
929.6901727438404
 20
1215.74970661164
 30
0.0
 70
    32
  0
VERTEX
  5
1D9
  8
0
  6
CONTINUOUS
 62
     7
 10
929.6648886784453
 20
1215.74970661164
 30
0.0
 70
    32
  0
VERTEX
  5
1DA
  8
0
  6
CONTINUOUS
 62
     7
 10
929.640435132709
 20
1215.74970661164
 30
0.0
 70
    32
  0
VERTEX
  5
1DB
  8
0
  6
CONTINUOUS
 62
     7
 10
929.6168735555231
 20
1215.74970661164
 30
0.0
 70
    32
  0
VERTEX
  5
1DC
  8
0
  6
CONTINUOUS
 62
     7
 10
929.5942653957782
 20
1215.74970661164
 30
0.0
 70
    32
  0
VERTEX
  5
1DD
  8
0
  6
CONTINUOUS
 62
     7
 10
929.5726721023661
 20
1215.749706611639
 30
0.0
 70
    32
  0
VERTEX
  5
1DE
  8
0
  6
CONTINUOUS
 62
     7
 10
929.5521260373175
 20
1215.74970661164
 30
0.0
 70
    32
  0
VERTEX
  5
1DF
  8
0
  6
CONTINUOUS
 62
     7
 10
929.5325156742448
 20
1215.74970661164
 30
0.0
 70
    32
  0
VERTEX
  5
1E0
  8
0
  6
CONTINUOUS
 62
     7
 10
929.5136850734518
 20
1215.74970661164
 30
0.0
 70
    32
  0
VERTEX
  5
1E1
  8
0
  6
CONTINUOUS
 62
     7
 10
929.4954782824818
 20
1215.74970661164
 30
0.0
 70
    32
  0
VERTEX
  5
1E2
  8
0
  6
CONTINUOUS
 62
     7
 10
929.4777393488797
 20
1215.74970661164
 30
0.0
 70
    32
  0
VERTEX
  5
1E3
  8
0
  6
CONTINUOUS
 62
     7
 10
929.4603123201891
 20
1215.74970661164
 30
0.0
 70
    32
  0
VERTEX
  5
1E4
  8
0
  6
CONTINUOUS
 62
     7
 10
929.4430412439547
 20
1215.74970661164
 30
0.0
 70
    32
  0
SEQEND
  5
492
  8
0
  6
CONTINUOUS
 62
     7
  0
LINE
  5
B8
  8
0
  6
CONTINUOUS
 62
     7
 10
931.2430412439705
 20
1216.749706611639
 30
0.0
 11
931.2430412439843
 21
1215.74970661164
 31
0.0
  0
LINE
  5
B9
  8
0
  6
CONTINUOUS
 62
     7
 10
931.4430412439614
 20
1271.749706611643
 30
0.0
 11
931.2430412439614
 21
1271.749706611643
 31
0.0
  0
LINE
  5
BA
  8
0
  6
CONTINUOUS
 62
     7
 10
931.2430412439614
 20
1271.749706611643
 30
0.0
 11
931.2430412439619
 21
1262.641280769388
 31
0.0
  0
POLYLINE
  5
BB
  8
0
  6
CONTINUOUS
 62
     7
 66
     1
 10
0.0
 20
0.0
 30
0.0
  0
VERTEX
  5
1E5
  8
0
  6
CONTINUOUS
 62
     7
 10
929.4430412439547
 20
1254.492205253324
 30
0.0
  0
VERTEX
  5
1E6
  8
0
  6
CONTINUOUS
 62
     7
 10
929.451905586215
 20
1254.483408770515
 30
0.0
  0
VERTEX
  5
1E7
  8
0
  6
CONTINUOUS
 62
     7
 10
929.460888905108
 20
1254.474762971126
 30
0.0
  0
VERTEX
  5
1E8
  8
0
  6
CONTINUOUS
 62
     7
 10
929.4700819307092
 20
1254.466383216539
 30
0.0
  0
VERTEX
  5
1E9
  8
0
  6
CONTINUOUS
 62
     7
 10
929.4794885835546
 20
1254.458276313688
 30
0.0
  0
VERTEX
  5
1EA
  8
0
  6
CONTINUOUS
 62
     7
 10
929.4890961623818
 20
1254.450428284113
 30
0.0
  0
VERTEX
  5
1EB
  8
0
  6
CONTINUOUS
 62
     7
 10
929.4988919659272
 20
1254.442825149354
 30
0.0
  0
VERTEX
  5
1EC
  8
0
  6
CONTINUOUS
 62
     7
 10
929.5088632929279
 20
1254.435452930951
 30
0.0
  0
VERTEX
  5
1ED
  8
0
  6
CONTINUOUS
 62
     7
 10
929.5189974421206
 20
1254.428297650444
 30
0.0
  0
VERTEX
  5
1EE
  8
0
  6
CONTINUOUS
 62
     7
 10
929.5292817122423
 20
1254.421345329373
 30
0.0
  0
VERTEX
  5
1EF
  8
0
  6
CONTINUOUS
 62
     7
 10
929.5397034020299
 20
1254.414581989279
 30
0.0
  0
VERTEX
  5
1F0
  8
0
  6
CONTINUOUS
 62
     7
 10
929.5502498102202
 20
1254.407993651701
 30
0.0
  0
VERTEX
  5
1F1
  8
0
  6
CONTINUOUS
 62
     7
 10
929.5609082355502
 20
1254.40156633818
 30
0.0
  0
VERTEX
  5
1F2
  8
0
  6
CONTINUOUS
 62
     7
 10
929.5716659767564
 20
1254.395286070256
 30
0.0
  0
VERTEX
  5
1F3
  8
0
  6
CONTINUOUS
 62
     7
 10
929.5825103325759
 20
1254.389138869468
 30
0.0
  0
VERTEX
  5
1F4
  8
0
  6
CONTINUOUS
 62
     7
 10
929.5934286017457
 20
1254.383110757357
 30
0.0
  0
VERTEX
  5
1F5
  8
0
  6
CONTINUOUS
 62
     7
 10
929.6044080830022
 20
1254.377187755463
 30
0.0
  0
VERTEX
  5
1F6
  8
0
  6
CONTINUOUS
 62
     7
 10
929.6154378438961
 20
1254.371358028371
 30
0.0
  0
VERTEX
  5
1F7
  8
0
  6
CONTINUOUS
 62
     7
 10
929.6265166213084
 20
1254.365621455758
 30
0.0
  0
VERTEX
  5
1F8
  8
0
  6
CONTINUOUS
 62
     7
 10
929.6376464395829
 20
1254.359981900298
 30
0.0
  0
VERTEX
  5
1F9
  8
0
  6
CONTINUOUS
 62
     7
 10
929.6488293257834
 20
1254.35444322796
 30
0.0
  0
VERTEX
  5
1FA
  8
0
  6
CONTINUOUS
 62
     7
 10
929.6600673069725
 20
1254.349009304715
 30
0.0
  0
VERTEX
  5
1FB
  8
0
  6
CONTINUOUS
 62
     7
 10
929.6713624102135
 20
1254.34368399653
 30
0.0
  0
VERTEX
  5
1FC
  8
0
  6
CONTINUOUS
 62
     7
 10
929.6827166625703
 20
1254.338471169376
 30
0.0
  0
VERTEX
  5
1FD
  8
0
  6
CONTINUOUS
 62
     7
 10
929.6941320911059
 20
1254.333374689222
 30
0.0
  0
VERTEX
  5
1FE
  8
0
  6
CONTINUOUS
 62
     7
 10
929.7056107228838
 20
1254.328398422037
 30
0.0
  0
VERTEX
  5
1FF
  8
0
  6
CONTINUOUS
 62
     7
 10
929.7171545849671
 20
1254.323546233791
 30
0.0
  0
VERTEX
  5
200
  8
0
  6
CONTINUOUS
 62
     7
 10
929.7287657044192
 20
1254.318821990454
 30
0.0
  0
VERTEX
  5
201
  8
0
  6
CONTINUOUS
 62
     7
 10
929.7404461083037
 20
1254.314229557994
 30
0.0
  0
VERTEX
  5
202
  8
0
  6
CONTINUOUS
 62
     7
 10
929.7521978236834
 20
1254.309772802382
 30
0.0
  0
VERTEX
  5
203
  8
0
  6
CONTINUOUS
 62
     7
 10
929.7640228776224
 20
1254.305455589586
 30
0.0
  0
VERTEX
  5
204
  8
0
  6
CONTINUOUS
 62
     7
 10
929.7759232707414
 20
1254.301281791158
 30
0.0
  0
VERTEX
  5
205
  8
0
  6
CONTINUOUS
 62
     7
 10
929.7878996182193
 20
1254.297255571166
 30
0.0
  0
VERTEX
  5
206
  8
0
  6
CONTINUOUS
 62
     7
 10
929.7999504960724
 20
1254.29338152421
 30
0.0
  0
VERTEX
  5
207
  8
0
  6
CONTINUOUS
 62
     7
 10
929.8120743169764
 20
1254.289664279379
 30
0.0
  0
VERTEX
  5
208
  8
0
  6
CONTINUOUS
 62
     7
 10
929.824269493608
 20
1254.286108465763
 30
0.0
  0
VERTEX
  5
209
  8
0
  6
CONTINUOUS
 62
     7
 10
929.8365344386433
 20
1254.28271871245
 30
0.0
  0
VERTEX
  5
20A
  8
0
  6
CONTINUOUS
 62
     7
 10
929.8488675647583
 20
1254.279499648528
 30
0.0
  0
VERTEX
  5
20B
  8
0
  6
CONTINUOUS
 62
     7
 10
929.8612672846288
 20
1254.276455903086
 30
0.0
  0
VERTEX
  5
20C
  8
0
  6
CONTINUOUS
 62
     7
 10
929.8737320109315
 20
1254.273592105214
 30
0.0
  0
VERTEX
  5
20D
  8
0
  6
CONTINUOUS
 62
     7
 10
929.8862601563422
 20
1254.270912883998
 30
0.0
  0
VERTEX
  5
20E
  8
0
  6
CONTINUOUS
 62
     7
 10
929.8988501335368
 20
1254.268422868529
 30
0.0
  0
VERTEX
  5
20F
  8
0
  6
CONTINUOUS
 62
     7
 10
929.911500355192
 20
1254.266126687895
 30
0.0
  0
VERTEX
  5
210
  8
0
  6
CONTINUOUS
 62
     7
 10
929.9242092339834
 20
1254.264028971185
 30
0.0
  0
VERTEX
  5
211
  8
0
  6
CONTINUOUS
 62
     7
 10
929.9369749156018
 20
1254.262132418287
 30
0.0
  0
VERTEX
  5
212
  8
0
  6
CONTINUOUS
 62
     7
 10
929.9497937303421
 20
1254.260426611307
 30
0.0
  0
VERTEX
  5
213
  8
0
  6
CONTINUOUS
 62
     7
 10
929.9626612527236
 20
1254.25889567122
 30
0.0
  0
VERTEX
  5
214
  8
0
  6
CONTINUOUS
 62
     7
 10
929.9755730547788
 20
1254.257523701037
 30
0.0
  0
VERTEX
  5
215
  8
0
  6
CONTINUOUS
 62
     7
 10
929.9885247085404
 20
1254.256294803767
 30
0.0
  0
VERTEX
  5
216
  8
0
  6
CONTINUOUS
 62
     7
 10
930.0015117860407
 20
1254.255193082419
 30
0.0
  0
VERTEX
  5
217
  8
0
  6
CONTINUOUS
 62
     7
 10
930.0145298593128
 20
1254.254202640004
 30
0.0
  0
VERTEX
  5
218
  8
0
  6
CONTINUOUS
 62
     7
 10
930.0275745003892
 20
1254.253307579532
 30
0.0
  0
VERTEX
  5
219
  8
0
  6
CONTINUOUS
 62
     7
 10
930.0406412813022
 20
1254.25249200401
 30
0.0
  0
VERTEX
  5
21A
  8
0
  6
CONTINUOUS
 62
     7
 10
930.053725774085
 20
1254.251740016451
 30
0.0
  0
VERTEX
  5
21B
  8
0
  6
CONTINUOUS
 62
     7
 10
930.0668235507696
 20
1254.251035719862
 30
0.0
  0
VERTEX
  5
21C
  8
0
  6
CONTINUOUS
 62
     7
 10
930.0799301833893
 20
1254.250363217254
 30
0.0
  0
VERTEX
  5
21D
  8
0
  6
CONTINUOUS
 62
     7
 10
930.093041243976
 20
1254.249706611636
 30
0.0
  0
SEQEND
  5
493
  8
0
  6
CONTINUOUS
 62
     7
  0
LINE
  5
BC
  8
0
  6
CONTINUOUS
 62
     7
 10
930.9430412439693
 20
1254.249706611635
 30
0.0
 11
930.093041243976
 21
1254.249706611636
 31
0.0
  0
LINE
  5
BD
  8
0
  6
CONTINUOUS
 62
     7
 10
931.4430412439705
 20
1216.749706611639
 30
0.0
 11
931.2430412439705
 21
1216.749706611639
 31
0.0
  0
LINE
  5
BE
  8
0
  6
CONTINUOUS
 62
     7
 10
931.2430412439676
 20
1225.858132453888
 30
0.0
 11
931.2430412439705
 21
1216.749706611639
 31
0.0
  0
POLYLINE
  5
BF
  8
0
  6
CONTINUOUS
 62
     7
 66
     1
 10
0.0
 20
0.0
 30
0.0
  0
VERTEX
  5
21E
  8
0
  6
CONTINUOUS
 62
     7
 10
930.0930412439654
 20
1234.249706611636
 30
0.0
  0
VERTEX
  5
21F
  8
0
  6
CONTINUOUS
 62
     7
 10
930.0777686917894
 20
1234.248888639872
 30
0.0
  0
VERTEX
  5
220
  8
0
  6
CONTINUOUS
 62
     7
 10
930.0625032593736
 20
1234.24804712643
 30
0.0
  0
VERTEX
  5
221
  8
0
  6
CONTINUOUS
 62
     7
 10
930.0472520664784
 20
1234.247158529631
 30
0.0
  0
VERTEX
  5
222
  8
0
  6
CONTINUOUS
 62
     7
 10
930.0320222328642
 20
1234.246199307798
 30
0.0
  0
VERTEX
  5
223
  8
0
  6
CONTINUOUS
 62
     7
 10
930.0168208782914
 20
1234.245145919253
 30
0.0
  0
VERTEX
  5
224
  8
0
  6
CONTINUOUS
 62
     7
 10
930.00165512252
 20
1234.243974822317
 30
0.0
  0
VERTEX
  5
225
  8
0
  6
CONTINUOUS
 62
     7
 10
929.9865320853105
 20
1234.242662475312
 30
0.0
  0
VERTEX
  5
226
  8
0
  6
CONTINUOUS
 62
     7
 10
929.9714588864232
 20
1234.241185336561
 30
0.0
  0
VERTEX
  5
227
  8
0
  6
CONTINUOUS
 62
     7
 10
929.9564426456185
 20
1234.239519864385
 30
0.0
  0
VERTEX
  5
228
  8
0
  6
CONTINUOUS
 62
     7
 10
929.9414904826567
 20
1234.237642517105
 30
0.0
  0
VERTEX
  5
229
  8
0
  6
CONTINUOUS
 62
     7
 10
929.926609517298
 20
1234.235529753044
 30
0.0
  0
VERTEX
  5
22A
  8
0
  6
CONTINUOUS
 62
     7
 10
929.9118068691171
 20
1234.233158031391
 30
0.0
  0
VERTEX
  5
22B
  8
0
  6
CONTINUOUS
 62
     7
 10
929.8970882727868
 20
1234.230510283923
 30
0.0
  0
VERTEX
  5
22C
  8
0
  6
CONTINUOUS
 62
     7
 10
929.8824547482295
 20
1234.227591477653
 30
0.0
  0
VERTEX
  5
22D
  8
0
  6
CONTINUOUS
 62
     7
 10
929.867906312956
 20
1234.22441126454
 30
0.0
  0
VERTEX
  5
22E
  8
0
  6
CONTINUOUS
 62
     7
 10
929.853442984477
 20
1234.220979296546
 30
0.0
  0
VERTEX
  5
22F
  8
0
  6
CONTINUOUS
 62
     7
 10
929.839064780304
 20
1234.217305225631
 30
0.0
  0
VERTEX
  5
230
  8
0
  6
CONTINUOUS
 62
     7
 10
929.8247717179477
 20
1234.213398703755
 30
0.0
  0
VERTEX
  5
231
  8
0
  6
CONTINUOUS
 62
     7
 10
929.8105638149194
 20
1234.209269382879
 30
0.0
  0
VERTEX
  5
232
  8
0
  6
CONTINUOUS
 62
     7
 10
929.7964410887297
 20
1234.204926914964
 30
0.0
  0
VERTEX
  5
233
  8
0
  6
CONTINUOUS
 62
     7
 10
929.78240355689
 20
1234.200380951971
 30
0.0
  0
VERTEX
  5
234
  8
0
  6
CONTINUOUS
 62
     7
 10
929.768451236911
 20
1234.195641145858
 30
0.0
  0
VERTEX
  5
235
  8
0
  6
CONTINUOUS
 62
     7
 10
929.7545841463037
 20
1234.190717148589
 30
0.0
  0
VERTEX
  5
236
  8
0
  6
CONTINUOUS
 62
     7
 10
929.7408023025791
 20
1234.185618612122
 30
0.0
  0
VERTEX
  5
237
  8
0
  6
CONTINUOUS
 62
     7
 10
929.7271060985947
 20
1234.180354168563
 30
0.0
  0
VERTEX
  5
238
  8
0
  6
CONTINUOUS
 62
     7
 10
929.7134993193511
 20
1234.174923233197
 30
0.0
  0
VERTEX
  5
239
  8
0
  6
CONTINUOUS
 62
     7
 10
929.6999875509904
 20
1234.169320327413
 30
0.0
  0
VERTEX
  5
23A
  8
0
  6
CONTINUOUS
 62
     7
 10
929.6865763962483
 20
1234.163539927515
 30
0.0
  0
VERTEX
  5
23B
  8
0
  6
CONTINUOUS
 62
     7
 10
929.6732714578601
 20
1234.157576509808
 30
0.0
  0
VERTEX
  5
23C
  8
0
  6
CONTINUOUS
 62
     7
 10
929.6600783385616
 20
1234.151424550597
 30
0.0
  0
VERTEX
  5
23D
  8
0
  6
CONTINUOUS
 62
     7
 10
929.6470026410875
 20
1234.145078526186
 30
0.0
  0
VERTEX
  5
23E
  8
0
  6
CONTINUOUS
 62
     7
 10
929.6340499681735
 20
1234.138532912881
 30
0.0
  0
VERTEX
  5
23F
  8
0
  6
CONTINUOUS
 62
     7
 10
929.621225922555
 20
1234.131782186986
 30
0.0
  0
VERTEX
  5
240
  8
0
  6
CONTINUOUS
 62
     7
 10
929.6085361069669
 20
1234.124820824805
 30
0.0
  0
VERTEX
  5
241
  8
0
  6
CONTINUOUS
 62
     7
 10
929.5959861241447
 20
1234.117643302644
 30
0.0
  0
VERTEX
  5
242
  8
0
  6
CONTINUOUS
 62
     7
 10
929.5835815768243
 20
1234.110244096806
 30
0.0
  0
VERTEX
  5
243
  8
0
  6
CONTINUOUS
 62
     7
 10
929.5713264636399
 20
1234.102619840503
 30
0.0
  0
VERTEX
  5
244
  8
0
  6
CONTINUOUS
 62
     7
 10
929.559213094331
 20
1234.094782884073
 30
0.0
  0
VERTEX
  5
245
  8
0
  6
CONTINUOUS
 62
     7
 10
929.5472286040534
 20
1234.086752535703
 30
0.0
  0
VERTEX
  5
246
  8
0
  6
CONTINUOUS
 62
     7
 10
929.5353601049044
 20
1234.078548134589
 30
0.0
  0
VERTEX
  5
247
  8
0
  6
CONTINUOUS
 62
     7
 10
929.5235947089809
 20
1234.070189019923
 30
0.0
  0
VERTEX
  5
248
  8
0
  6
CONTINUOUS
 62
     7
 10
929.5119195283788
 20
1234.0616945309
 30
0.0
  0
VERTEX
  5
249
  8
0
  6
CONTINUOUS
 62
     7
 10
929.5003216751958
 20
1234.053084006713
 30
0.0
  0
VERTEX
  5
24A
  8
0
  6
CONTINUOUS
 62
     7
 10
929.4887882615286
 20
1234.044376786557
 30
0.0
  0
VERTEX
  5
24B
  8
0
  6
CONTINUOUS
 62
     7
 10
929.4773063994744
 20
1234.035592209625
 30
0.0
  0
VERTEX
  5
24C
  8
0
  6
CONTINUOUS
 62
     7
 10
929.4658632011291
 20
1234.026749615111
 30
0.0
  0
VERTEX
  5
24D
  8
0
  6
CONTINUOUS
 62
     7
 10
929.4544457785904
 20
1234.01786834221
 30
0.0
  0
VERTEX
  5
24E
  8
0
  6
CONTINUOUS
 62
     7
 10
929.4430412439547
 20
1234.008967730115
 30
0.0
  0
SEQEND
  5
494
  8
0
  6
CONTINUOUS
 62
     7
  0
LINE
  5
C0
  8
0
  6
CONTINUOUS
 62
     7
 10
930.0930412439654
 20
1234.249706611636
 30
0.0
 11
930.9430412439692
 21
1234.249706611639
 31
0.0
  0
LINE
  5
C1
  8
0
  6
CONTINUOUS
 62
     7
 10
931.4430412439613
 20
1272.749706611643
 30
0.0
 11
931.2430412439613
 21
1272.749706611643
 31
0.0
  0
LINE
  5
C2
  8
0
  6
CONTINUOUS
 62
     7
 10
931.4430412439842
 20
1215.74970661164
 30
0.0
 11
931.2430412439843
 21
1215.74970661164
 31
0.0
  0
LINE
  5
C3
  8
0
  6
CONTINUOUS
 62
     7
 10
930.9430412439576
 20
1689.205664750695
 30
0.0
 11
931.4430412439563
 21
1689.205664750695
 31
0.0
  0
LINE
  5
C4
  8
0
  6
CONTINUOUS
 62
     7
 10
930.9430412439572
 20
1687.649706611403
 30
0.0
 11
931.4430412439572
 21
1687.649706611403
 31
0.0
  0
LINE
  5
C5
  8
0
  6
CONTINUOUS
 62
     7
 10
930.9430412439572
 20
1687.649706611403
 30
0.0
 11
930.9430412439576
 21
1689.205664750695
 31
0.0
  0
LINE
  5
C6
  8
0
  6
CONTINUOUS
 62
     7
 10
931.4430412439561
 20
1671.293748472566
 30
0.0
 11
930.9430412439644
 21
1671.293748472568
 31
0.0
  0
LINE
  5
C7
  8
0
  6
CONTINUOUS
 62
     7
 10
930.9430412439644
 20
1671.293748472568
 30
0.0
 11
930.943041243973
 21
1672.849706611854
 31
0.0
  0
LINE
  5
C8
  8
0
  6
CONTINUOUS
 62
     7
 10
931.443041243973
 20
1672.849706611854
 30
0.0
 11
930.943041243973
 21
1672.849706611854
 31
0.0
  0
LINE
  5
C9
  8
0
  6
CONTINUOUS
 62
     7
 10
931.2430412439592
 20
1698.641280769387
 30
0.0
 11
930.943041243959
 21
1698.641280769387
 31
0.0
  0
LINE
  5
CA
  8
0
  6
CONTINUOUS
 62
     7
 10
931.4430412439592
 20
1698.641280769387
 30
0.0
 11
931.2430412439592
 21
1698.641280769387
 31
0.0
  0
LINE
  5
CB
  8
0
  6
CONTINUOUS
 62
     7
 10
930.943041243959
 20
1698.641280769387
 30
0.0
 11
930.9430412439576
 21
1689.205664750695
 31
0.0
  0
LINE
  5
CC
  8
0
  6
CONTINUOUS
 62
     7
 10
931.2430412439649
 20
1661.858132453888
 30
0.0
 11
931.4430412439648
 21
1661.858132453888
 31
0.0
  0
LINE
  5
CD
  8
0
  6
CONTINUOUS
 62
     7
 10
930.9430412439649
 20
1661.858132453888
 30
0.0
 11
931.2430412439649
 21
1661.858132453888
 31
0.0
  0
LINE
  5
CE
  8
0
  6
CONTINUOUS
 62
     7
 10
930.9430412439644
 20
1671.293748472568
 30
0.0
 11
930.9430412439649
 21
1661.858132453888
 31
0.0
  0
POLYLINE
  5
CF
  8
0
  6
CONTINUOUS
 62
     7
 10
0.0
 20
0.0
 30
0.0
 66
     1
 70
     8
  0
VERTEX
  5
24F
  8
0
  6
CONTINUOUS
 62
     7
 10
929.4430412439547
 20
1708.749706611637
 30
0.0
 70
    32
  0
VERTEX
  5
250
  8
0
  6
CONTINUOUS
 62
     7
 10
929.460310069334
 20
1708.749706611637
 30
0.0
 70
    32
  0
VERTEX
  5
251
  8
0
  6
CONTINUOUS
 62
     7
 10
929.477735152805
 20
1708.749706611637
 30
0.0
 70
    32
  0
VERTEX
  5
252
  8
0
  6
CONTINUOUS
 62
     7
 10
929.4954727524588
 20
1708.749706611637
 30
0.0
 70
    32
  0
VERTEX
  5
253
  8
0
  6
CONTINUOUS
 62
     7
 10
929.5136791263864
 20
1708.749706611637
 30
0.0
 70
    32
  0
VERTEX
  5
254
  8
0
  6
CONTINUOUS
 62
     7
 10
929.5325105326793
 20
1708.749706611637
 30
0.0
 70
    32
  0
VERTEX
  5
255
  8
0
  6
CONTINUOUS
 62
     7
 10
929.5521232294292
 20
1708.749706611637
 30
0.0
 70
    32
  0
VERTEX
  5
256
  8
0
  6
CONTINUOUS
 62
     7
 10
929.5726734527178
 20
1708.749706611637
 30
0.0
 70
    32
  0
VERTEX
  5
257
  8
0
  6
CONTINUOUS
 62
     7
 10
929.5942712403368
 20
1708.749706611637
 30
0.0
 70
    32
  0
VERTEX
  5
258
  8
0
  6
CONTINUOUS
 62
     7
 10
929.6168830356576
 20
1708.749706611637
 30
0.0
 70
    32
  0
VERTEX
  5
259
  8
0
  6
CONTINUOUS
 62
     7
 10
929.6404474644384
 20
1708.749706611637
 30
0.0
 70
    32
  0
VERTEX
  5
25A
  8
0
  6
CONTINUOUS
 62
     7
 10
929.6649031524393
 20
1708.749706611637
 30
0.0
 70
    32
  0
VERTEX
  5
25B
  8
0
  6
CONTINUOUS
 62
     7
 10
929.6901887254174
 20
1708.749706611637
 30
0.0
 70
    32
  0
VERTEX
  5
25C
  8
0
  6
CONTINUOUS
 62
     7
 10
929.7162428091324
 20
1708.749706611637
 30
0.0
 70
    32
  0
VERTEX
  5
25D
  8
0
  6
CONTINUOUS
 62
     7
 10
929.7430040293424
 20
1708.749706611637
 30
0.0
 70
    32
  0
VERTEX
  5
25E
  8
0
  6
CONTINUOUS
 62
     7
 10
929.7704110118066
 20
1708.749706611637
 30
0.0
 70
    32
  0
VERTEX
  5
25F
  8
0
  6
CONTINUOUS
 62
     7
 10
929.7984023822826
 20
1708.749706611636
 30
0.0
 70
    32
  0
VERTEX
  5
260
  8
0
  6
CONTINUOUS
 62
     7
 10
929.8269167665305
 20
1708.749706611637
 30
0.0
 70
    32
  0
VERTEX
  5
261
  8
0
  6
CONTINUOUS
 62
     7
 10
929.8559014173844
 20
1708.749706611637
 30
0.0
 70
    32
  0
VERTEX
  5
262
  8
0
  6
CONTINUOUS
 62
     7
 10
929.8853457262647
 20
1708.749706611637
 30
0.0
 70
    32
  0
VERTEX
  5
263
  8
0
  6
CONTINUOUS
 62
     7
 10
929.915251930674
 20
1708.749706611637
 30
0.0
 70
    32
  0
VERTEX
  5
264
  8
0
  6
CONTINUOUS
 62
     7
 10
929.9456222712203
 20
1708.749706611637
 30
0.0
 70
    32
  0
VERTEX
  5
265
  8
0
  6
CONTINUOUS
 62
     7
 10
929.9764589885133
 20
1708.749706611637
 30
0.0
 70
    32
  0
VERTEX
  5
266
  8
0
  6
CONTINUOUS
 62
     7
 10
930.007764323161
 20
1708.749706611637
 30
0.0
 70
    32
  0
VERTEX
  5
267
  8
0
  6
CONTINUOUS
 62
     7
 10
930.0395405157726
 20
1708.749706611637
 30
0.0
 70
    32
  0
VERTEX
  5
268
  8
0
  6
CONTINUOUS
 62
     7
 10
930.0717898069565
 20
1708.749706611637
 30
0.0
 70
    32
  0
VERTEX
  5
269
  8
0
  6
CONTINUOUS
 62
     7
 10
930.1045144373217
 20
1708.749706611637
 30
0.0
 70
    32
  0
VERTEX
  5
26A
  8
0
  6
CONTINUOUS
 62
     7
 10
930.1377166474767
 20
1708.749706611637
 30
0.0
 70
    32
  0
VERTEX
  5
26B
  8
0
  6
CONTINUOUS
 62
     7
 10
930.1713970862857
 20
1708.749706611637
 30
0.0
 70
    32
  0
VERTEX
  5
26C
  8
0
  6
CONTINUOUS
 62
     7
 10
930.2055444796086
 20
1708.749706611637
 30
0.0
 70
    32
  0
VERTEX
  5
26D
  8
0
  6
CONTINUOUS
 62
     7
 10
930.2401421465194
 20
1708.749706611637
 30
0.0
 70
    32
  0
VERTEX
  5
26E
  8
0
  6
CONTINUOUS
 62
     7
 10
930.2751733792093
 20
1708.749706611637
 30
0.0
 70
    32
  0
VERTEX
  5
26F
  8
0
  6
CONTINUOUS
 62
     7
 10
930.3106214698707
 20
1708.749706611637
 30
0.0
 70
    32
  0
VERTEX
  5
270
  8
0
  6
CONTINUOUS
 62
     7
 10
930.3464697106963
 20
1708.749706611637
 30
0.0
 70
    32
  0
VERTEX
  5
271
  8
0
  6
CONTINUOUS
 62
     7
 10
930.3827013938784
 20
1708.749706611637
 30
0.0
 70
    32
  0
VERTEX
  5
272
  8
0
  6
CONTINUOUS
 62
     7
 10
930.4192998116093
 20
1708.749706611637
 30
0.0
 70
    32
  0
VERTEX
  5
273
  8
0
  6
CONTINUOUS
 62
     7
 10
930.4562482560814
 20
1708.749706611637
 30
0.0
 70
    32
  0
VERTEX
  5
274
  8
0
  6
CONTINUOUS
 62
     7
 10
930.4935300194868
 20
1708.749706611637
 30
0.0
 70
    32
  0
VERTEX
  5
275
  8
0
  6
CONTINUOUS
 62
     7
 10
930.5311283960237
 20
1708.749706611637
 30
0.0
 70
    32
  0
VERTEX
  5
276
  8
0
  6
CONTINUOUS
 62
     7
 10
930.5690267051657
 20
1708.749706611638
 30
0.0
 70
    32
  0
VERTEX
  5
277
  8
0
  6
CONTINUOUS
 62
     7
 10
930.6072082836729
 20
1708.749706611637
 30
0.0
 70
    32
  0
VERTEX
  5
278
  8
0
  6
CONTINUOUS
 62
     7
 10
930.6456564686422
 20
1708.749706611638
 30
0.0
 70
    32
  0
VERTEX
  5
279
  8
0
  6
CONTINUOUS
 62
     7
 10
930.6843545971693
 20
1708.749706611638
 30
0.0
 70
    32
  0
VERTEX
  5
27A
  8
0
  6
CONTINUOUS
 62
     7
 10
930.7232860063501
 20
1708.749706611638
 30
0.0
 70
    32
  0
VERTEX
  5
27B
  8
0
  6
CONTINUOUS
 62
     7
 10
930.7624340332811
 20
1708.749706611638
 30
0.0
 70
    32
  0
VERTEX
  5
27C
  8
0
  6
CONTINUOUS
 62
     7
 10
930.8017820150584
 20
1708.749706611639
 30
0.0
 70
    32
  0
VERTEX
  5
27D
  8
0
  6
CONTINUOUS
 62
     7
 10
930.8413132887779
 20
1708.749706611639
 30
0.0
 70
    32
  0
VERTEX
  5
27E
  8
0
  6
CONTINUOUS
 62
     7
 10
930.8810111915363
 20
1708.749706611639
 30
0.0
 70
    32
  0
VERTEX
  5
27F
  8
0
  6
CONTINUOUS
 62
     7
 10
930.920859060429
 20
1708.749706611639
 30
0.0
 70
    32
  0
VERTEX
  5
280
  8
0
  6
CONTINUOUS
 62
     7
 10
930.9608402325528
 20
1708.74970661164
 30
0.0
 70
    32
  0
VERTEX
  5
281
  8
0
  6
CONTINUOUS
 62
     7
 10
931.0009380450033
 20
1708.74970661164
 30
0.0
 70
    32
  0
VERTEX
  5
282
  8
0
  6
CONTINUOUS
 62
     7
 10
931.0411358348774
 20
1708.74970661164
 30
0.0
 70
    32
  0
VERTEX
  5
283
  8
0
  6
CONTINUOUS
 62
     7
 10
931.0814169392704
 20
1708.749706611641
 30
0.0
 70
    32
  0
VERTEX
  5
284
  8
0
  6
CONTINUOUS
 62
     7
 10
931.1217646952789
 20
1708.749706611641
 30
0.0
 70
    32
  0
VERTEX
  5
285
  8
0
  6
CONTINUOUS
 62
     7
 10
931.1621624399991
 20
1708.749706611641
 30
0.0
 70
    32
  0
VERTEX
  5
286
  8
0
  6
CONTINUOUS
 62
     7
 10
931.202593510527
 20
1708.749706611642
 30
0.0
 70
    32
  0
VERTEX
  5
287
  8
0
  6
CONTINUOUS
 62
     7
 10
931.2430412439585
 20
1708.749706611642
 30
0.0
 70
    32
  0
SEQEND
  5
495
  8
0
  6
CONTINUOUS
 62
     7
  0
LINE
  5
D0
  8
0
  6
CONTINUOUS
 62
     7
 10
931.2430412439586
 20
1707.749706611643
 30
0.0
 11
931.2430412439585
 21
1708.749706611642
 31
0.0
  0
POLYLINE
  5
D1
  8
0
  6
CONTINUOUS
 62
     7
 10
0.0
 20
0.0
 30
0.0
 66
     1
 70
     8
  0
VERTEX
  5
288
  8
0
  6
CONTINUOUS
 62
     7
 10
931.2430412439816
 20
1651.74970661164
 30
0.0
 70
    32
  0
VERTEX
  5
289
  8
0
  6
CONTINUOUS
 62
     7
 10
931.2025927652841
 20
1651.749706611639
 30
0.0
 70
    32
  0
VERTEX
  5
28A
  8
0
  6
CONTINUOUS
 62
     7
 10
931.1621609529815
 20
1651.74970661164
 30
0.0
 70
    32
  0
VERTEX
  5
28B
  8
0
  6
CONTINUOUS
 62
     7
 10
931.1217624734687
 20
1651.74970661164
 30
0.0
 70
    32
  0
VERTEX
  5
28C
  8
0
  6
CONTINUOUS
 62
     7
 10
931.0814139931397
 20
1651.749706611639
 30
0.0
 70
    32
  0
VERTEX
  5
28D
  8
0
  6
CONTINUOUS
 62
     7
 10
931.0411321783907
 20
1651.74970661164
 30
0.0
 70
    32
  0
VERTEX
  5
28E
  8
0
  6
CONTINUOUS
 62
     7
 10
931.0009336956155
 20
1651.74970661164
 30
0.0
 70
    32
  0
VERTEX
  5
28F
  8
0
  6
CONTINUOUS
 62
     7
 10
930.9608352112092
 20
1651.74970661164
 30
0.0
 70
    32
  0
VERTEX
  5
290
  8
0
  6
CONTINUOUS
 62
     7
 10
930.9208533915667
 20
1651.74970661164
 30
0.0
 70
    32
  0
VERTEX
  5
291
  8
0
  6
CONTINUOUS
 62
     7
 10
930.8810049030826
 20
1651.74970661164
 30
0.0
 70
    32
  0
VERTEX
  5
292
  8
0
  6
CONTINUOUS
 62
     7
 10
930.8413064121515
 20
1651.749706611639
 30
0.0
 70
    32
  0
VERTEX
  5
293
  8
0
  6
CONTINUOUS
 62
     7
 10
930.8017745851693
 20
1651.74970661164
 30
0.0
 70
    32
  0
VERTEX
  5
294
  8
0
  6
CONTINUOUS
 62
     7
 10
930.7624260885295
 20
1651.749706611639
 30
0.0
 70
    32
  0
VERTEX
  5
295
  8
0
  6
CONTINUOUS
 62
     7
 10
930.7232775886278
 20
1651.74970661164
 30
0.0
 70
    32
  0
VERTEX
  5
296
  8
0
  6
CONTINUOUS
 62
     7
 10
930.6843457518587
 20
1651.74970661164
 30
0.0
 70
    32
  0
VERTEX
  5
297
  8
0
  6
CONTINUOUS
 62
     7
 10
930.6456472446166
 20
1651.74970661164
 30
0.0
 70
    32
  0
VERTEX
  5
298
  8
0
  6
CONTINUOUS
 62
     7
 10
930.6071987332972
 20
1651.74970661164
 30
0.0
 70
    32
  0
VERTEX
  5
299
  8
0
  6
CONTINUOUS
 62
     7
 10
930.5690168842945
 20
1651.74970661164
 30
0.0
 70
    32
  0
VERTEX
  5
29A
  8
0
  6
CONTINUOUS
 62
     7
 10
930.531118364004
 20
1651.74970661164
 30
0.0
 70
    32
  0
VERTEX
  5
29B
  8
0
  6
CONTINUOUS
 62
     7
 10
930.4935198390623
 20
1651.74970661164
 30
0.0
 70
    32
  0
VERTEX
  5
29C
  8
0
  6
CONTINUOUS
 62
     7
 10
930.456237988568
 20
1651.74970661164
 30
0.0
 70
    32
  0
VERTEX
  5
29D
  8
0
  6
CONTINUOUS
 62
     7
 10
930.4192895098255
 20
1651.74970661164
 30
0.0
 70
    32
  0
VERTEX
  5
29E
  8
0
  6
CONTINUOUS
 62
     7
 10
930.382691101583
 20
1651.74970661164
 30
0.0
 70
    32
  0
VERTEX
  5
29F
  8
0
  6
CONTINUOUS
 62
     7
 10
930.3464594625879
 20
1651.74970661164
 30
0.0
 70
    32
  0
VERTEX
  5
2A0
  8
0
  6
CONTINUOUS
 62
     7
 10
930.3106112915887
 20
1651.749706611639
 30
0.0
 70
    32
  0
VERTEX
  5
2A1
  8
0
  6
CONTINUOUS
 62
     7
 10
930.275163287333
 20
1651.74970661164
 30
0.0
 70
    32
  0
VERTEX
  5
2A2
  8
0
  6
CONTINUOUS
 62
     7
 10
930.2401321485686
 20
1651.74970661164
 30
0.0
 70
    32
  0
VERTEX
  5
2A3
  8
0
  6
CONTINUOUS
 62
     7
 10
930.2055345740432
 20
1651.749706611639
 30
0.0
 70
    32
  0
VERTEX
  5
2A4
  8
0
  6
CONTINUOUS
 62
     7
 10
930.1713872625056
 20
1651.74970661164
 30
0.0
 70
    32
  0
VERTEX
  5
2A5
  8
0
  6
CONTINUOUS
 62
     7
 10
930.1377068801072
 20
1651.74970661164
 30
0.0
 70
    32
  0
VERTEX
  5
2A6
  8
0
  6
CONTINUOUS
 62
     7
 10
930.1045045335637
 20
1651.74970661164
 30
0.0
 70
    32
  0
VERTEX
  5
2A7
  8
0
  6
CONTINUOUS
 62
     7
 10
930.0717795314063
 20
1651.74970661164
 30
0.0
 70
    32
  0
VERTEX
  5
2A8
  8
0
  6
CONTINUOUS
 62
     7
 10
930.0395296756282
 20
1651.749706611639
 30
0.0
 70
    32
  0
VERTEX
  5
2A9
  8
0
  6
CONTINUOUS
 62
     7
 10
930.0077527682242
 20
1651.749706611639
 30
0.0
 70
    32
  0
VERTEX
  5
2AA
  8
0
  6
CONTINUOUS
 62
     7
 10
929.976446611188
 20
1651.749706611639
 30
0.0
 70
    32
  0
VERTEX
  5
2AB
  8
0
  6
CONTINUOUS
 62
     7
 10
929.9456090065136
 20
1651.749706611639
 30
0.0
 70
    32
  0
VERTEX
  5
2AC
  8
0
  6
CONTINUOUS
 62
     7
 10
929.9152377561949
 20
1651.749706611639
 30
0.0
 70
    32
  0
VERTEX
  5
2AD
  8
0
  6
CONTINUOUS
 62
     7
 10
929.8853306622257
 20
1651.749706611639
 30
0.0
 70
    32
  0
VERTEX
  5
2AE
  8
0
  6
CONTINUOUS
 62
     7
 10
929.8558855266003
 20
1651.74970661164
 30
0.0
 70
    32
  0
VERTEX
  5
2AF
  8
0
  6
CONTINUOUS
 62
     7
 10
929.8269001545018
 20
1651.74970661164
 30
0.0
 70
    32
  0
VERTEX
  5
2B0
  8
0
  6
CONTINUOUS
 62
     7
 10
929.7983852241824
 20
1651.749706611639
 30
0.0
 70
    32
  0
VERTEX
  5
2B1
  8
0
  6
CONTINUOUS
 62
     7
 10
929.7703935690655
 20
1651.74970661164
 30
0.0
 70
    32
  0
VERTEX
  5
2B2
  8
0
  6
CONTINUOUS
 62
     7
 10
929.7429866380419
 20
1651.749706611639
 30
0.0
 70
    32
  0
VERTEX
  5
2B3
  8
0
  6
CONTINUOUS
 62
     7
 10
929.7162258800033
 20
1651.74970661164
 30
0.0
 70
    32
  0
VERTEX
  5
2B4
  8
0
  6
CONTINUOUS
 62
     7
 10
929.6901727438405
 20
1651.749706611639
 30
0.0
 70
    32
  0
VERTEX
  5
2B5
  8
0
  6
CONTINUOUS
 62
     7
 10
929.6648886784453
 20
1651.749706611639
 30
0.0
 70
    32
  0
VERTEX
  5
2B6
  8
0
  6
CONTINUOUS
 62
     7
 10
929.6404351327092
 20
1651.749706611639
 30
0.0
 70
    32
  0
VERTEX
  5
2B7
  8
0
  6
CONTINUOUS
 62
     7
 10
929.6168735555231
 20
1651.74970661164
 30
0.0
 70
    32
  0
VERTEX
  5
2B8
  8
0
  6
CONTINUOUS
 62
     7
 10
929.5942653957783
 20
1651.749706611639
 30
0.0
 70
    32
  0
VERTEX
  5
2B9
  8
0
  6
CONTINUOUS
 62
     7
 10
929.5726721023664
 20
1651.74970661164
 30
0.0
 70
    32
  0
VERTEX
  5
2BA
  8
0
  6
CONTINUOUS
 62
     7
 10
929.5521260373174
 20
1651.749706611639
 30
0.0
 70
    32
  0
VERTEX
  5
2BB
  8
0
  6
CONTINUOUS
 62
     7
 10
929.532515674245
 20
1651.74970661164
 30
0.0
 70
    32
  0
VERTEX
  5
2BC
  8
0
  6
CONTINUOUS
 62
     7
 10
929.5136850734516
 20
1651.74970661164
 30
0.0
 70
    32
  0
VERTEX
  5
2BD
  8
0
  6
CONTINUOUS
 62
     7
 10
929.4954782824818
 20
1651.74970661164
 30
0.0
 70
    32
  0
VERTEX
  5
2BE
  8
0
  6
CONTINUOUS
 62
     7
 10
929.4777393488795
 20
1651.74970661164
 30
0.0
 70
    32
  0
VERTEX
  5
2BF
  8
0
  6
CONTINUOUS
 62
     7
 10
929.4603123201892
 20
1651.74970661164
 30
0.0
 70
    32
  0
VERTEX
  5
2C0
  8
0
  6
CONTINUOUS
 62
     7
 10
929.4430412439549
 20
1651.74970661164
 30
0.0
 70
    32
  0
SEQEND
  5
496
  8
0
  6
CONTINUOUS
 62
     7
  0
LINE
  5
D2
  8
0
  6
CONTINUOUS
 62
     7
 10
931.2430412439678
 20
1652.749706611638
 30
0.0
 11
931.2430412439816
 21
1651.74970661164
 31
0.0
  0
LINE
  5
D3
  8
0
  6
CONTINUOUS
 62
     7
 10
931.4430412439586
 20
1707.749706611643
 30
0.0
 11
931.2430412439586
 21
1707.749706611643
 31
0.0
  0
LINE
  5
D4
  8
0
  6
CONTINUOUS
 62
     7
 10
931.2430412439586
 20
1707.749706611643
 30
0.0
 11
931.2430412439592
 21
1698.641280769387
 31
0.0
  0
POLYLINE
  5
D5
  8
0
  6
CONTINUOUS
 62
     7
 66
     1
 10
0.0
 20
0.0
 30
0.0
  0
VERTEX
  5
2C1
  8
0
  6
CONTINUOUS
 62
     7
 10
929.4430412439547
 20
1690.492205253321
 30
0.0
  0
VERTEX
  5
2C2
  8
0
  6
CONTINUOUS
 62
     7
 10
929.451905586215
 20
1690.483408770513
 30
0.0
  0
VERTEX
  5
2C3
  8
0
  6
CONTINUOUS
 62
     7
 10
929.4608889051079
 20
1690.474762971123
 30
0.0
  0
VERTEX
  5
2C4
  8
0
  6
CONTINUOUS
 62
     7
 10
929.4700819307092
 20
1690.466383216537
 30
0.0
  0
VERTEX
  5
2C5
  8
0
  6
CONTINUOUS
 62
     7
 10
929.4794885835547
 20
1690.458276313686
 30
0.0
  0
VERTEX
  5
2C6
  8
0
  6
CONTINUOUS
 62
     7
 10
929.4890961623815
 20
1690.45042828411
 30
0.0
  0
VERTEX
  5
2C7
  8
0
  6
CONTINUOUS
 62
     7
 10
929.498891965927
 20
1690.442825149351
 30
0.0
  0
VERTEX
  5
2C8
  8
0
  6
CONTINUOUS
 62
     7
 10
929.5088632929278
 20
1690.435452930949
 30
0.0
  0
VERTEX
  5
2C9
  8
0
  6
CONTINUOUS
 62
     7
 10
929.5189974421204
 20
1690.428297650442
 30
0.0
  0
VERTEX
  5
2CA
  8
0
  6
CONTINUOUS
 62
     7
 10
929.5292817122424
 20
1690.421345329372
 30
0.0
  0
VERTEX
  5
2CB
  8
0
  6
CONTINUOUS
 62
     7
 10
929.5397034020301
 20
1690.414581989278
 30
0.0
  0
VERTEX
  5
2CC
  8
0
  6
CONTINUOUS
 62
     7
 10
929.5502498102201
 20
1690.4079936517
 30
0.0
  0
VERTEX
  5
2CD
  8
0
  6
CONTINUOUS
 62
     7
 10
929.56090823555
 20
1690.401566338179
 30
0.0
  0
VERTEX
  5
2CE
  8
0
  6
CONTINUOUS
 62
     7
 10
929.5716659767563
 20
1690.395286070255
 30
0.0
  0
VERTEX
  5
2CF
  8
0
  6
CONTINUOUS
 62
     7
 10
929.5825103325758
 20
1690.389138869467
 30
0.0
  0
VERTEX
  5
2D0
  8
0
  6
CONTINUOUS
 62
     7
 10
929.5934286017454
 20
1690.383110757356
 30
0.0
  0
VERTEX
  5
2D1
  8
0
  6
CONTINUOUS
 62
     7
 10
929.6044080830018
 20
1690.377187755462
 30
0.0
  0
VERTEX
  5
2D2
  8
0
  6
CONTINUOUS
 62
     7
 10
929.6154378438955
 20
1690.37135802837
 30
0.0
  0
VERTEX
  5
2D3
  8
0
  6
CONTINUOUS
 62
     7
 10
929.6265166213082
 20
1690.365621455757
 30
0.0
  0
VERTEX
  5
2D4
  8
0
  6
CONTINUOUS
 62
     7
 10
929.6376464395823
 20
1690.359981900297
 30
0.0
  0
VERTEX
  5
2D5
  8
0
  6
CONTINUOUS
 62
     7
 10
929.6488293257828
 20
1690.354443227959
 30
0.0
  0
VERTEX
  5
2D6
  8
0
  6
CONTINUOUS
 62
     7
 10
929.6600673069719
 20
1690.349009304713
 30
0.0
  0
VERTEX
  5
2D7
  8
0
  6
CONTINUOUS
 62
     7
 10
929.6713624102129
 20
1690.343683996528
 30
0.0
  0
VERTEX
  5
2D8
  8
0
  6
CONTINUOUS
 62
     7
 10
929.6827166625695
 20
1690.338471169375
 30
0.0
  0
VERTEX
  5
2D9
  8
0
  6
CONTINUOUS
 62
     7
 10
929.6941320911053
 20
1690.333374689221
 30
0.0
  0
VERTEX
  5
2DA
  8
0
  6
CONTINUOUS
 62
     7
 10
929.7056107228832
 20
1690.328398422036
 30
0.0
  0
VERTEX
  5
2DB
  8
0
  6
CONTINUOUS
 62
     7
 10
929.7171545849664
 20
1690.323546233791
 30
0.0
  0
VERTEX
  5
2DC
  8
0
  6
CONTINUOUS
 62
     7
 10
929.7287657044184
 20
1690.318821990453
 30
0.0
  0
VERTEX
  5
2DD
  8
0
  6
CONTINUOUS
 62
     7
 10
929.7404461083028
 20
1690.314229557993
 30
0.0
  0
VERTEX
  5
2DE
  8
0
  6
CONTINUOUS
 62
     7
 10
929.7521978236826
 20
1690.309772802381
 30
0.0
  0
VERTEX
  5
2DF
  8
0
  6
CONTINUOUS
 62
     7
 10
929.7640228776213
 20
1690.305455589585
 30
0.0
  0
VERTEX
  5
2E0
  8
0
  6
CONTINUOUS
 62
     7
 10
929.7759232707403
 20
1690.301281791157
 30
0.0
  0
VERTEX
  5
2E1
  8
0
  6
CONTINUOUS
 62
     7
 10
929.7878996182179
 20
1690.297255571164
 30
0.0
  0
VERTEX
  5
2E2
  8
0
  6
CONTINUOUS
 62
     7
 10
929.7999504960708
 20
1690.293381524209
 30
0.0
  0
VERTEX
  5
2E3
  8
0
  6
CONTINUOUS
 62
     7
 10
929.8120743169751
 20
1690.289664279378
 30
0.0
  0
VERTEX
  5
2E4
  8
0
  6
CONTINUOUS
 62
     7
 10
929.8242694936066
 20
1690.286108465762
 30
0.0
  0
VERTEX
  5
2E5
  8
0
  6
CONTINUOUS
 62
     7
 10
929.8365344386418
 20
1690.282718712449
 30
0.0
  0
VERTEX
  5
2E6
  8
0
  6
CONTINUOUS
 62
     7
 10
929.8488675647567
 20
1690.279499648527
 30
0.0
  0
VERTEX
  5
2E7
  8
0
  6
CONTINUOUS
 62
     7
 10
929.8612672846273
 20
1690.276455903085
 30
0.0
  0
VERTEX
  5
2E8
  8
0
  6
CONTINUOUS
 62
     7
 10
929.87373201093
 20
1690.273592105213
 30
0.0
  0
VERTEX
  5
2E9
  8
0
  6
CONTINUOUS
 62
     7
 10
929.8862601563403
 20
1690.270912883998
 30
0.0
  0
VERTEX
  5
2EA
  8
0
  6
CONTINUOUS
 62
     7
 10
929.8988501335352
 20
1690.268422868529
 30
0.0
  0
VERTEX
  5
2EB
  8
0
  6
CONTINUOUS
 62
     7
 10
929.9115003551902
 20
1690.266126687895
 30
0.0
  0
VERTEX
  5
2EC
  8
0
  6
CONTINUOUS
 62
     7
 10
929.9242092339819
 20
1690.264028971185
 30
0.0
  0
VERTEX
  5
2ED
  8
0
  6
CONTINUOUS
 62
     7
 10
929.9369749155998
 20
1690.262132418287
 30
0.0
  0
VERTEX
  5
2EE
  8
0
  6
CONTINUOUS
 62
     7
 10
929.9497937303399
 20
1690.260426611306
 30
0.0
  0
VERTEX
  5
2EF
  8
0
  6
CONTINUOUS
 62
     7
 10
929.9626612527217
 20
1690.25889567122
 30
0.0
  0
VERTEX
  5
2F0
  8
0
  6
CONTINUOUS
 62
     7
 10
929.9755730547765
 20
1690.257523701037
 30
0.0
  0
VERTEX
  5
2F1
  8
0
  6
CONTINUOUS
 62
     7
 10
929.9885247085382
 20
1690.256294803767
 30
0.0
  0
VERTEX
  5
2F2
  8
0
  6
CONTINUOUS
 62
     7
 10
930.0015117860385
 20
1690.255193082419
 30
0.0
  0
VERTEX
  5
2F3
  8
0
  6
CONTINUOUS
 62
     7
 10
930.0145298593105
 20
1690.254202640004
 30
0.0
  0
VERTEX
  5
2F4
  8
0
  6
CONTINUOUS
 62
     7
 10
930.0275745003868
 20
1690.253307579531
 30
0.0
  0
VERTEX
  5
2F5
  8
0
  6
CONTINUOUS
 62
     7
 10
930.0406412812999
 20
1690.25249200401
 30
0.0
  0
VERTEX
  5
2F6
  8
0
  6
CONTINUOUS
 62
     7
 10
930.0537257740825
 20
1690.25174001645
 30
0.0
  0
VERTEX
  5
2F7
  8
0
  6
CONTINUOUS
 62
     7
 10
930.0668235507673
 20
1690.251035719861
 30
0.0
  0
VERTEX
  5
2F8
  8
0
  6
CONTINUOUS
 62
     7
 10
930.0799301833866
 20
1690.250363217253
 30
0.0
  0
VERTEX
  5
2F9
  8
0
  6
CONTINUOUS
 62
     7
 10
930.0930412439734
 20
1690.249706611635
 30
0.0
  0
SEQEND
  5
497
  8
0
  6
CONTINUOUS
 62
     7
  0
LINE
  5
D6
  8
0
  6
CONTINUOUS
 62
     7
 10
930.9430412439665
 20
1690.249706611635
 30
0.0
 11
930.0930412439734
 21
1690.249706611635
 31
0.0
  0
LINE
  5
D7
  8
0
  6
CONTINUOUS
 62
     7
 10
931.4430412439679
 20
1652.749706611638
 30
0.0
 11
931.2430412439678
 21
1652.749706611638
 31
0.0
  0
LINE
  5
D8
  8
0
  6
CONTINUOUS
 62
     7
 10
931.2430412439649
 20
1661.858132453888
 30
0.0
 11
931.2430412439678
 21
1652.749706611638
 31
0.0
  0
POLYLINE
  5
D9
  8
0
  6
CONTINUOUS
 62
     7
 66
     1
 10
0.0
 20
0.0
 30
0.0
  0
VERTEX
  5
2FA
  8
0
  6
CONTINUOUS
 62
     7
 10
930.0930412439627
 20
1670.249706611635
 30
0.0
  0
VERTEX
  5
2FB
  8
0
  6
CONTINUOUS
 62
     7
 10
930.0777686917869
 20
1670.248888639872
 30
0.0
  0
VERTEX
  5
2FC
  8
0
  6
CONTINUOUS
 62
     7
 10
930.062503259371
 20
1670.248047126429
 30
0.0
  0
VERTEX
  5
2FD
  8
0
  6
CONTINUOUS
 62
     7
 10
930.0472520664761
 20
1670.247158529631
 30
0.0
  0
VERTEX
  5
2FE
  8
0
  6
CONTINUOUS
 62
     7
 10
930.0320222328619
 20
1670.246199307798
 30
0.0
  0
VERTEX
  5
2FF
  8
0
  6
CONTINUOUS
 62
     7
 10
930.0168208782892
 20
1670.245145919253
 30
0.0
  0
VERTEX
  5
300
  8
0
  6
CONTINUOUS
 62
     7
 10
930.0016551225178
 20
1670.243974822317
 30
0.0
  0
VERTEX
  5
301
  8
0
  6
CONTINUOUS
 62
     7
 10
929.9865320853086
 20
1670.242662475312
 30
0.0
  0
VERTEX
  5
302
  8
0
  6
CONTINUOUS
 62
     7
 10
929.9714588864211
 20
1670.24118533656
 30
0.0
  0
VERTEX
  5
303
  8
0
  6
CONTINUOUS
 62
     7
 10
929.9564426456164
 20
1670.239519864384
 30
0.0
  0
VERTEX
  5
304
  8
0
  6
CONTINUOUS
 62
     7
 10
929.9414904826546
 20
1670.237642517105
 30
0.0
  0
VERTEX
  5
305
  8
0
  6
CONTINUOUS
 62
     7
 10
929.926609517296
 20
1670.235529753044
 30
0.0
  0
VERTEX
  5
306
  8
0
  6
CONTINUOUS
 62
     7
 10
929.911806869115
 20
1670.23315803139
 30
0.0
  0
VERTEX
  5
307
  8
0
  6
CONTINUOUS
 62
     7
 10
929.8970882727853
 20
1670.230510283923
 30
0.0
  0
VERTEX
  5
308
  8
0
  6
CONTINUOUS
 62
     7
 10
929.8824547482275
 20
1670.227591477653
 30
0.0
  0
VERTEX
  5
309
  8
0
  6
CONTINUOUS
 62
     7
 10
929.867906312954
 20
1670.22441126454
 30
0.0
  0
VERTEX
  5
30A
  8
0
  6
CONTINUOUS
 62
     7
 10
929.8534429844754
 20
1670.220979296546
 30
0.0
  0
VERTEX
  5
30B
  8
0
  6
CONTINUOUS
 62
     7
 10
929.8390647803024
 20
1670.217305225631
 30
0.0
  0
VERTEX
  5
30C
  8
0
  6
CONTINUOUS
 62
     7
 10
929.8247717179463
 20
1670.213398703756
 30
0.0
  0
VERTEX
  5
30D
  8
0
  6
CONTINUOUS
 62
     7
 10
929.8105638149179
 20
1670.20926938288
 30
0.0
  0
VERTEX
  5
30E
  8
0
  6
CONTINUOUS
 62
     7
 10
929.7964410887282
 20
1670.204926914965
 30
0.0
  0
VERTEX
  5
30F
  8
0
  6
CONTINUOUS
 62
     7
 10
929.7824035568885
 20
1670.200380951971
 30
0.0
  0
VERTEX
  5
310
  8
0
  6
CONTINUOUS
 62
     7
 10
929.7684512369098
 20
1670.195641145859
 30
0.0
  0
VERTEX
  5
311
  8
0
  6
CONTINUOUS
 62
     7
 10
929.7545841463025
 20
1670.190717148589
 30
0.0
  0
VERTEX
  5
312
  8
0
  6
CONTINUOUS
 62
     7
 10
929.7408023025782
 20
1670.185618612123
 30
0.0
  0
VERTEX
  5
313
  8
0
  6
CONTINUOUS
 62
     7
 10
929.7271060985937
 20
1670.180354168564
 30
0.0
  0
VERTEX
  5
314
  8
0
  6
CONTINUOUS
 62
     7
 10
929.7134993193498
 20
1670.174923233198
 30
0.0
  0
VERTEX
  5
315
  8
0
  6
CONTINUOUS
 62
     7
 10
929.6999875509894
 20
1670.169320327413
 30
0.0
  0
VERTEX
  5
316
  8
0
  6
CONTINUOUS
 62
     7
 10
929.6865763962475
 20
1670.163539927516
 30
0.0
  0
VERTEX
  5
317
  8
0
  6
CONTINUOUS
 62
     7
 10
929.6732714578595
 20
1670.157576509809
 30
0.0
  0
VERTEX
  5
318
  8
0
  6
CONTINUOUS
 62
     7
 10
929.6600783385608
 20
1670.151424550598
 30
0.0
  0
VERTEX
  5
319
  8
0
  6
CONTINUOUS
 62
     7
 10
929.6470026410868
 20
1670.145078526187
 30
0.0
  0
VERTEX
  5
31A
  8
0
  6
CONTINUOUS
 62
     7
 10
929.6340499681729
 20
1670.138532912882
 30
0.0
  0
VERTEX
  5
31B
  8
0
  6
CONTINUOUS
 62
     7
 10
929.6212259225542
 20
1670.131782186987
 30
0.0
  0
VERTEX
  5
31C
  8
0
  6
CONTINUOUS
 62
     7
 10
929.6085361069662
 20
1670.124820824806
 30
0.0
  0
VERTEX
  5
31D
  8
0
  6
CONTINUOUS
 62
     7
 10
929.5959861241444
 20
1670.117643302645
 30
0.0
  0
VERTEX
  5
31E
  8
0
  6
CONTINUOUS
 62
     7
 10
929.5835815768238
 20
1670.110244096807
 30
0.0
  0
VERTEX
  5
31F
  8
0
  6
CONTINUOUS
 62
     7
 10
929.5713264636394
 20
1670.102619840504
 30
0.0
  0
VERTEX
  5
320
  8
0
  6
CONTINUOUS
 62
     7
 10
929.5592130943306
 20
1670.094782884074
 30
0.0
  0
VERTEX
  5
321
  8
0
  6
CONTINUOUS
 62
     7
 10
929.5472286040529
 20
1670.086752535705
 30
0.0
  0
VERTEX
  5
322
  8
0
  6
CONTINUOUS
 62
     7
 10
929.535360104904
 20
1670.07854813459
 30
0.0
  0
VERTEX
  5
323
  8
0
  6
CONTINUOUS
 62
     7
 10
929.5235947089801
 20
1670.070189019925
 30
0.0
  0
VERTEX
  5
324
  8
0
  6
CONTINUOUS
 62
     7
 10
929.5119195283785
 20
1670.061694530901
 30
0.0
  0
VERTEX
  5
325
  8
0
  6
CONTINUOUS
 62
     7
 10
929.5003216751957
 20
1670.053084006715
 30
0.0
  0
VERTEX
  5
326
  8
0
  6
CONTINUOUS
 62
     7
 10
929.4887882615285
 20
1670.044376786558
 30
0.0
  0
VERTEX
  5
327
  8
0
  6
CONTINUOUS
 62
     7
 10
929.4773063994742
 20
1670.035592209627
 30
0.0
  0
VERTEX
  5
328
  8
0
  6
CONTINUOUS
 62
     7
 10
929.4658632011291
 20
1670.026749615113
 30
0.0
  0
VERTEX
  5
329
  8
0
  6
CONTINUOUS
 62
     7
 10
929.4544457785902
 20
1670.017868342211
 30
0.0
  0
VERTEX
  5
32A
  8
0
  6
CONTINUOUS
 62
     7
 10
929.4430412439548
 20
1670.008967730116
 30
0.0
  0
SEQEND
  5
498
  8
0
  6
CONTINUOUS
 62
     7
  0
LINE
  5
DA
  8
0
  6
CONTINUOUS
 62
     7
 10
930.0930412439627
 20
1670.249706611635
 30
0.0
 11
930.9430412439665
 21
1670.249706611638
 31
0.0
  0
LINE
  5
DB
  8
0
  6
CONTINUOUS
 62
     7
 10
931.4430412439585
 20
1708.749706611642
 30
0.0
 11
931.2430412439585
 21
1708.749706611642
 31
0.0
  0
LINE
  5
DC
  8
0
  6
CONTINUOUS
 62
     7
 10
931.4430412439816
 20
1651.74970661164
 30
0.0
 11
931.2430412439816
 21
1651.74970661164
 31
0.0
  0
LINE
  5
DD
  8
0
  6
CONTINUOUS
 62
     7
 10
929.4430412439547
 20
1250.749706611636
 30
0.0
 11
931.4430412439676
 21
1250.749706611636
 31
0.0
  0
LINE
  5
DE
  8
0
  6
CONTINUOUS
 62
     7
 10
931.4430412439675
 20
1237.749706611635
 30
0.0
 11
929.4430412439547
 21
1237.749706611638
 31
0.0
  0
LINE
  5
DF
  8
0
  6
CONTINUOUS
 62
     7
 10
930.1717586987822
 20
1236.799706611635
 30
0.0
 11
930.1717586987819
 21
1237.749706611638
 31
0.0
  0
LINE
  5
E0
  8
0
  6
CONTINUOUS
 62
     7
 10
930.1717586987768
 20
1250.749706611636
 30
0.0
 11
930.1717586987764
 21
1251.699706611636
 31
0.0
  0
LINE
  5
E1
  8
0
  6
CONTINUOUS
 62
     7
 10
930.1717586987822
 20
1236.799706611635
 30
0.0
 11
929.4430412439547
 21
1236.799706611635
 31
0.0
  0
LINE
  5
E2
  8
0
  6
CONTINUOUS
 62
     7
 10
930.1717586987764
 20
1251.699706611636
 30
0.0
 11
929.4430412439547
 21
1251.699706611636
 31
0.0
  0
LINE
  5
E3
  8
0
  6
CONTINUOUS
 62
     7
 10
930.2331281943774
 20
1236.799706611637
 30
0.0
 11
930.2331281943777
 21
1237.749706611638
 31
0.0
  0
LINE
  5
E4
  8
0
  6
CONTINUOUS
 62
     7
 10
930.2331281943822
 20
1250.749706611636
 30
0.0
 11
930.2331281943825
 21
1251.699706611634
 31
0.0
  0
LINE
  5
E5
  8
0
  6
CONTINUOUS
 62
     7
 10
930.2331281943774
 20
1236.799706611637
 30
0.0
 11
930.1717586987822
 21
1236.799706611635
 31
0.0
  0
LINE
  5
E6
  8
0
  6
CONTINUOUS
 62
     7
 10
930.2331281943825
 20
1251.699706611634
 30
0.0
 11
930.1717586987764
 21
1251.699706611636
 31
0.0
  0
LINE
  5
E7
  8
0
  6
CONTINUOUS
 62
     7
 10
929.4430412439547
 20
1686.749706611635
 30
0.0
 11
931.4430412439648
 21
1686.749706611636
 31
0.0
  0
LINE
  5
E8
  8
0
  6
CONTINUOUS
 62
     7
 10
931.4430412439647
 20
1673.749706611634
 30
0.0
 11
929.4430412439547
 21
1673.749706611637
 31
0.0
  0
LINE
  5
E9
  8
0
  6
CONTINUOUS
 62
     7
 10
930.1717586987794
 20
1672.799706611635
 30
0.0
 11
930.1717586987791
 21
1673.749706611637
 31
0.0
  0
LINE
  5
EA
  8
0
  6
CONTINUOUS
 62
     7
 10
930.171758698774
 20
1686.749706611636
 30
0.0
 11
930.1717586987737
 21
1687.699706611636
 31
0.0
  0
LINE
  5
EB
  8
0
  6
CONTINUOUS
 62
     7
 10
930.1717586987794
 20
1672.799706611635
 30
0.0
 11
929.4430412439547
 21
1672.799706611635
 31
0.0
  0
LINE
  5
EC
  8
0
  6
CONTINUOUS
 62
     7
 10
930.1717586987737
 20
1687.699706611636
 30
0.0
 11
929.4430412439547
 21
1687.699706611636
 31
0.0
  0
LINE
  5
ED
  8
0
  6
CONTINUOUS
 62
     7
 10
930.2331281943748
 20
1672.799706611637
 30
0.0
 11
930.233128194375
 21
1673.749706611637
 31
0.0
  0
LINE
  5
EE
  8
0
  6
CONTINUOUS
 62
     7
 10
930.2331281943794
 20
1686.749706611636
 30
0.0
 11
930.2331281943799
 21
1687.699706611634
 31
0.0
  0
LINE
  5
EF
  8
0
  6
CONTINUOUS
 62
     7
 10
930.2331281943748
 20
1672.799706611637
 30
0.0
 11
930.1717586987794
 21
1672.799706611635
 31
0.0
  0
LINE
  5
F0
  8
0
  6
CONTINUOUS
 62
     7
 10
930.2331281943799
 20
1687.699706611634
 30
0.0
 11
930.1717586987737
 21
1687.699706611636
 31
0.0
  0
LINE
  5
F1
  8
0
  6
CONTINUOUS
 62
     7
 10
930.9430412439725
 20
1672.774706611635
 30
0.0
 11
930.6314754411351
 21
1672.774706611635
 31
0.0
  0
LINE
  5
F2
  8
0
  6
CONTINUOUS
 62
     7
 10
930.6314754411383
 20
1687.724706611635
 30
0.0
 11
930.631475441138
 21
1686.749706611636
 31
0.0
  0
LINE
  5
F3
  8
0
  6
CONTINUOUS
 62
     7
 10
930.6314754411353
 20
1673.749706611637
 30
0.0
 11
930.6314754411351
 21
1672.774706611635
 31
0.0
  0
LINE
  5
F4
  8
0
  6
CONTINUOUS
 62
     7
 10
930.9430412439572
 20
1687.724706611635
 30
0.0
 11
930.6314754411383
 21
1687.724706611635
 31
0.0
  0
LINE
  5
F5
  8
0
  6
CONTINUOUS
 62
     7
 10
930.6314754411351
 20
1672.774706611635
 30
0.0
 11
930.5923328466756
 21
1672.774706611635
 31
0.0
  0
LINE
  5
F6
  8
0
  6
CONTINUOUS
 62
     7
 10
930.6314754411383
 20
1687.724706611635
 30
0.0
 11
930.5923328466785
 21
1687.724706611635
 31
0.0
  0
LINE
  5
F7
  8
0
  6
CONTINUOUS
 62
     7
 10
930.9430412439754
 20
1236.774706611636
 30
0.0
 11
930.6314754411379
 21
1236.774706611635
 31
0.0
  0
LINE
  5
F8
  8
0
  6
CONTINUOUS
 62
     7
 10
930.6314754411409
 20
1251.724706611635
 30
0.0
 11
930.6314754411407
 21
1250.749706611637
 31
0.0
  0
LINE
  5
F9
  8
0
  6
CONTINUOUS
 62
     7
 10
930.6314754411382
 20
1237.749706611638
 30
0.0
 11
930.6314754411379
 21
1236.774706611635
 31
0.0
  0
LINE
  5
FA
  8
0
  6
CONTINUOUS
 62
     7
 10
930.94304124396
 20
1251.724706611635
 30
0.0
 11
930.6314754411409
 21
1251.724706611635
 31
0.0
  0
LINE
  5
FB
  8
0
  6
CONTINUOUS
 62
     7
 10
930.6314754411379
 20
1236.774706611635
 30
0.0
 11
930.5923328466783
 21
1236.774706611635
 31
0.0
  0
LINE
  5
FC
  8
0
  6
CONTINUOUS
 62
     7
 10
930.6314754411409
 20
1251.724706611635
 30
0.0
 11
930.5923328466812
 21
1251.724706611635
 31
0.0
  0
LINE
  5
FD
  8
0
  6
CONTINUOUS
 62
     8
 10
931.2430412439614
 20
1271.749706611643
 30
0.0
 11
929.4430412439558
 21
1271.749706611644
 31
0.0
  0
LINE
  5
FE
  8
0
  6
CONTINUOUS
 62
     8
 10
931.2430412439705
 20
1216.749706611639
 30
0.0
 11
929.4430412439558
 21
1216.74970661164
 31
0.0
  0
LINE
  5
FF
  8
0
  6
CONTINUOUS
 62
     8
 10
930.0930412439697
 20
1252.624706611636
 30
0.0
 11
930.0930412439668
 21
1254.249706611633
 31
0.0
  0
LINE
  5
100
  8
0
  6
CONTINUOUS
 62
     8
 10
930.093041243982
 20
1234.249706611637
 30
0.0
 11
930.0930412439694
 21
1235.874706611637
 31
0.0
  0
LINE
  5
101
  8
0
  6
CONTINUOUS
 62
     8
 10
931.2430412439586
 20
1707.749706611643
 30
0.0
 11
929.4430412439558
 21
1707.749706611644
 31
0.0
  0
LINE
  5
102
  8
0
  6
CONTINUOUS
 62
     8
 10
931.2430412439678
 20
1652.749706611638
 30
0.0
 11
929.4430412439558
 21
1652.749706611639
 31
0.0
  0
LINE
  5
103
  8
0
  6
CONTINUOUS
 62
     8
 10
930.0930412439668
 20
1688.624706611636
 30
0.0
 11
930.0930412439641
 21
1690.249706611633
 31
0.0
  0
LINE
  5
104
  8
0
  6
CONTINUOUS
 62
     8
 10
930.0930412439794
 20
1670.249706611637
 30
0.0
 11
930.0930412439667
 21
1671.874706611637
 31
0.0
  0
LINE
  5
105
  8
0
  6
CONTINUOUS
 62
     7
 10
3810.33392916969
 20
912.2497066116371
 30
0.0
 11
3810.33392916969
 21
1762.249706611637
 31
0.0
  0
LINE
  5
106
  8
0
  6
CONTINUOUS
 62
     7
 10
3940.33392916969
 20
912.2497066116371
 30
0.0
 11
3940.33392916969
 21
1762.249706611637
 31
0.0
  0
LINE
  5
107
  8
0
  6
CONTINUOUS
 62
     7
 10
3810.33392916969
 20
912.2497066116371
 30
0.0
 11
3940.33392916969
 21
912.2497066116371
 31
0.0
  0
LINE
  5
108
  8
0
  6
CONTINUOUS
 62
     7
 10
3810.33392916969
 20
1762.249706611637
 30
0.0
 11
3940.33392916969
 21
1762.249706611637
 31
0.0
  0
LINE
  5
109
  8
0
  6
CONTINUOUS
 62
     7
 10
3790.33392916969
 20
1164.249706611637
 30
0.0
 11
3808.33392916969
 21
1164.249706611637
 31
0.0
  0
LINE
  5
10A
  8
0
  6
CONTINUOUS
 62
     7
 10
3790.33392916969
 20
1164.249706611637
 30
0.0
 11
3790.33392916969
 21
1760.249706611637
 31
0.0
  0
LINE
  5
10B
  8
0
  6
CONTINUOUS
 62
     7
 10
3790.33392916969
 20
1760.249706611637
 30
0.0
 11
3808.33392916969
 21
1760.249706611637
 31
0.0
  0
LINE
  5
10C
  8
0
  6
CONTINUOUS
 62
     7
 10
3808.33392916969
 20
1164.249706611637
 30
0.0
 11
3808.33392916969
 21
1760.249706611637
 31
0.0
  0
POLYLINE
  5
10D
  8
0
  6
CONTINUOUS
 62
     7
 10
0.0
 20
0.0
 30
0.0
 66
     1
 70
     8
  0
VERTEX
  5
32B
  8
0
  6
CONTINUOUS
 62
     7
 10
3810.333929169691
 20
1215.74970661164
 30
0.0
 70
    32
  0
VERTEX
  5
32C
  8
0
  6
CONTINUOUS
 62
     7
 10
3810.316660344311
 20
1215.74970661164
 30
0.0
 70
    32
  0
VERTEX
  5
32D
  8
0
  6
CONTINUOUS
 62
     7
 10
3810.299235260839
 20
1215.749706611639
 30
0.0
 70
    32
  0
VERTEX
  5
32E
  8
0
  6
CONTINUOUS
 62
     7
 10
3810.281497661186
 20
1215.74970661164
 30
0.0
 70
    32
  0
VERTEX
  5
32F
  8
0
  6
CONTINUOUS
 62
     7
 10
3810.263291287258
 20
1215.74970661164
 30
0.0
 70
    32
  0
VERTEX
  5
330
  8
0
  6
CONTINUOUS
 62
     7
 10
3810.244459880966
 20
1215.74970661164
 30
0.0
 70
    32
  0
VERTEX
  5
331
  8
0
  6
CONTINUOUS
 62
     7
 10
3810.224847184215
 20
1215.74970661164
 30
0.0
 70
    32
  0
VERTEX
  5
332
  8
0
  6
CONTINUOUS
 62
     7
 10
3810.204296960928
 20
1215.74970661164
 30
0.0
 70
    32
  0
VERTEX
  5
333
  8
0
  6
CONTINUOUS
 62
     7
 10
3810.182699173308
 20
1215.74970661164
 30
0.0
 70
    32
  0
VERTEX
  5
334
  8
0
  6
CONTINUOUS
 62
     7
 10
3810.160087377988
 20
1215.74970661164
 30
0.0
 70
    32
  0
VERTEX
  5
335
  8
0
  6
CONTINUOUS
 62
     7
 10
3810.136522949207
 20
1215.74970661164
 30
0.0
 70
    32
  0
VERTEX
  5
336
  8
0
  6
CONTINUOUS
 62
     7
 10
3810.112067261206
 20
1215.74970661164
 30
0.0
 70
    32
  0
VERTEX
  5
337
  8
0
  6
CONTINUOUS
 62
     7
 10
3810.086781688228
 20
1215.74970661164
 30
0.0
 70
    32
  0
VERTEX
  5
338
  8
0
  6
CONTINUOUS
 62
     7
 10
3810.060727604513
 20
1215.74970661164
 30
0.0
 70
    32
  0
VERTEX
  5
339
  8
0
  6
CONTINUOUS
 62
     7
 10
3810.033966384302
 20
1215.74970661164
 30
0.0
 70
    32
  0
VERTEX
  5
33A
  8
0
  6
CONTINUOUS
 62
     7
 10
3810.006559401837
 20
1215.74970661164
 30
0.0
 70
    32
  0
VERTEX
  5
33B
  8
0
  6
CONTINUOUS
 62
     7
 10
3809.978568031361
 20
1215.74970661164
 30
0.0
 70
    32
  0
VERTEX
  5
33C
  8
0
  6
CONTINUOUS
 62
     7
 10
3809.950053647114
 20
1215.74970661164
 30
0.0
 70
    32
  0
VERTEX
  5
33D
  8
0
  6
CONTINUOUS
 62
     7
 10
3809.92106899626
 20
1215.74970661164
 30
0.0
 70
    32
  0
VERTEX
  5
33E
  8
0
  6
CONTINUOUS
 62
     7
 10
3809.89162468738
 20
1215.74970661164
 30
0.0
 70
    32
  0
VERTEX
  5
33F
  8
0
  6
CONTINUOUS
 62
     7
 10
3809.86171848297
 20
1215.74970661164
 30
0.0
 70
    32
  0
VERTEX
  5
340
  8
0
  6
CONTINUOUS
 62
     7
 10
3809.831348142424
 20
1215.74970661164
 30
0.0
 70
    32
  0
VERTEX
  5
341
  8
0
  6
CONTINUOUS
 62
     7
 10
3809.800511425131
 20
1215.74970661164
 30
0.0
 70
    32
  0
VERTEX
  5
342
  8
0
  6
CONTINUOUS
 62
     7
 10
3809.769206090483
 20
1215.74970661164
 30
0.0
 70
    32
  0
VERTEX
  5
343
  8
0
  6
CONTINUOUS
 62
     7
 10
3809.737429897871
 20
1215.74970661164
 30
0.0
 70
    32
  0
VERTEX
  5
344
  8
0
  6
CONTINUOUS
 62
     7
 10
3809.705180606687
 20
1215.74970661164
 30
0.0
 70
    32
  0
VERTEX
  5
345
  8
0
  6
CONTINUOUS
 62
     7
 10
3809.672455976322
 20
1215.74970661164
 30
0.0
 70
    32
  0
VERTEX
  5
346
  8
0
  6
CONTINUOUS
 62
     7
 10
3809.639253766167
 20
1215.74970661164
 30
0.0
 70
    32
  0
VERTEX
  5
347
  8
0
  6
CONTINUOUS
 62
     7
 10
3809.605573327357
 20
1215.74970661164
 30
0.0
 70
    32
  0
VERTEX
  5
348
  8
0
  6
CONTINUOUS
 62
     7
 10
3809.571425934033
 20
1215.74970661164
 30
0.0
 70
    32
  0
VERTEX
  5
349
  8
0
  6
CONTINUOUS
 62
     7
 10
3809.536828267122
 20
1215.74970661164
 30
0.0
 70
    32
  0
VERTEX
  5
34A
  8
0
  6
CONTINUOUS
 62
     7
 10
3809.501797034433
 20
1215.74970661164
 30
0.0
 70
    32
  0
VERTEX
  5
34B
  8
0
  6
CONTINUOUS
 62
     7
 10
3809.466348943772
 20
1215.74970661164
 30
0.0
 70
    32
  0
VERTEX
  5
34C
  8
0
  6
CONTINUOUS
 62
     7
 10
3809.430500702946
 20
1215.74970661164
 30
0.0
 70
    32
  0
VERTEX
  5
34D
  8
0
  6
CONTINUOUS
 62
     7
 10
3809.394269019763
 20
1215.74970661164
 30
0.0
 70
    32
  0
VERTEX
  5
34E
  8
0
  6
CONTINUOUS
 62
     7
 10
3809.357670602032
 20
1215.74970661164
 30
0.0
 70
    32
  0
VERTEX
  5
34F
  8
0
  6
CONTINUOUS
 62
     7
 10
3809.320722157559
 20
1215.74970661164
 30
0.0
 70
    32
  0
VERTEX
  5
350
  8
0
  6
CONTINUOUS
 62
     7
 10
3809.283440394154
 20
1215.74970661164
 30
0.0
 70
    32
  0
VERTEX
  5
351
  8
0
  6
CONTINUOUS
 62
     7
 10
3809.245842017616
 20
1215.74970661164
 30
0.0
 70
    32
  0
VERTEX
  5
352
  8
0
  6
CONTINUOUS
 62
     7
 10
3809.207943708474
 20
1215.749706611639
 30
0.0
 70
    32
  0
VERTEX
  5
353
  8
0
  6
CONTINUOUS
 62
     7
 10
3809.169762129967
 20
1215.74970661164
 30
0.0
 70
    32
  0
VERTEX
  5
354
  8
0
  6
CONTINUOUS
 62
     7
 10
3809.131313944998
 20
1215.749706611639
 30
0.0
 70
    32
  0
VERTEX
  5
355
  8
0
  6
CONTINUOUS
 62
     7
 10
3809.092615816471
 20
1215.749706611639
 30
0.0
 70
    32
  0
VERTEX
  5
356
  8
0
  6
CONTINUOUS
 62
     7
 10
3809.053684407289
 20
1215.749706611639
 30
0.0
 70
    32
  0
VERTEX
  5
357
  8
0
  6
CONTINUOUS
 62
     7
 10
3809.014536380358
 20
1215.749706611639
 30
0.0
 70
    32
  0
VERTEX
  5
358
  8
0
  6
CONTINUOUS
 62
     7
 10
3808.97518839858
 20
1215.749706611639
 30
0.0
 70
    32
  0
VERTEX
  5
359
  8
0
  6
CONTINUOUS
 62
     7
 10
3808.935657124861
 20
1215.749706611639
 30
0.0
 70
    32
  0
VERTEX
  5
35A
  8
0
  6
CONTINUOUS
 62
     7
 10
3808.895959222102
 20
1215.749706611639
 30
0.0
 70
    32
  0
VERTEX
  5
35B
  8
0
  6
CONTINUOUS
 62
     7
 10
3808.856111353209
 20
1215.749706611638
 30
0.0
 70
    32
  0
VERTEX
  5
35C
  8
0
  6
CONTINUOUS
 62
     7
 10
3808.816130181085
 20
1215.749706611638
 30
0.0
 70
    32
  0
VERTEX
  5
35D
  8
0
  6
CONTINUOUS
 62
     7
 10
3808.776032368634
 20
1215.749706611638
 30
0.0
 70
    32
  0
VERTEX
  5
35E
  8
0
  6
CONTINUOUS
 62
     7
 10
3808.73583457876
 20
1215.749706611638
 30
0.0
 70
    32
  0
VERTEX
  5
35F
  8
0
  6
CONTINUOUS
 62
     7
 10
3808.695553474367
 20
1215.749706611638
 30
0.0
 70
    32
  0
VERTEX
  5
360
  8
0
  6
CONTINUOUS
 62
     7
 10
3808.655205718358
 20
1215.749706611638
 30
0.0
 70
    32
  0
VERTEX
  5
361
  8
0
  6
CONTINUOUS
 62
     7
 10
3808.614807973638
 20
1215.749706611638
 30
0.0
 70
    32
  0
VERTEX
  5
362
  8
0
  6
CONTINUOUS
 62
     7
 10
3808.574376903109
 20
1215.749706611638
 30
0.0
 70
    32
  0
VERTEX
  5
363
  8
0
  6
CONTINUOUS
 62
     7
 10
3808.533929169677
 20
1215.749706611637
 30
0.0
 70
    32
  0
SEQEND
  5
499
  8
0
  6
CONTINUOUS
 62
     7
  0
LINE
  5
10E
  8
0
  6
CONTINUOUS
 62
     7
 10
3808.533929169675
 20
1216.74970661164
 30
0.0
 11
3808.533929169677
 21
1215.749706611637
 31
0.0
  0
LINE
  5
10F
  8
0
  6
CONTINUOUS
 62
     7
 10
3808.533929169668
 20
1272.749706611637
 30
0.0
 11
3808.533929169678
 21
1271.749706611636
 31
0.0
  0
POLYLINE
  5
110
  8
0
  6
CONTINUOUS
 62
     7
 10
0.0
 20
0.0
 30
0.0
 66
     1
 70
     8
  0
VERTEX
  5
364
  8
0
  6
CONTINUOUS
 62
     7
 10
3808.533929169668
 20
1272.749706611637
 30
0.0
 70
    32
  0
VERTEX
  5
365
  8
0
  6
CONTINUOUS
 62
     7
 10
3808.574377648365
 20
1272.749706611637
 30
0.0
 70
    32
  0
VERTEX
  5
366
  8
0
  6
CONTINUOUS
 62
     7
 10
3808.614809460668
 20
1272.749706611637
 30
0.0
 70
    32
  0
VERTEX
  5
367
  8
0
  6
CONTINUOUS
 62
     7
 10
3808.65520794018
 20
1272.749706611637
 30
0.0
 70
    32
  0
VERTEX
  5
368
  8
0
  6
CONTINUOUS
 62
     7
 10
3808.69555642051
 20
1272.749706611638
 30
0.0
 70
    32
  0
VERTEX
  5
369
  8
0
  6
CONTINUOUS
 62
     7
 10
3808.735838235259
 20
1272.749706611637
 30
0.0
 70
    32
  0
VERTEX
  5
36A
  8
0
  6
CONTINUOUS
 62
     7
 10
3808.776036718034
 20
1272.749706611637
 30
0.0
 70
    32
  0
VERTEX
  5
36B
  8
0
  6
CONTINUOUS
 62
     7
 10
3808.81613520244
 20
1272.749706611637
 30
0.0
 70
    32
  0
VERTEX
  5
36C
  8
0
  6
CONTINUOUS
 62
     7
 10
3808.856117022083
 20
1272.749706611637
 30
0.0
 70
    32
  0
VERTEX
  5
36D
  8
0
  6
CONTINUOUS
 62
     7
 10
3808.895965510566
 20
1272.749706611637
 30
0.0
 70
    32
  0
VERTEX
  5
36E
  8
0
  6
CONTINUOUS
 62
     7
 10
3808.935664001497
 20
1272.749706611637
 30
0.0
 70
    32
  0
VERTEX
  5
36F
  8
0
  6
CONTINUOUS
 62
     7
 10
3808.975195828481
 20
1272.749706611637
 30
0.0
 70
    32
  0
VERTEX
  5
370
  8
0
  6
CONTINUOUS
 62
     7
 10
3809.014544325119
 20
1272.749706611637
 30
0.0
 70
    32
  0
VERTEX
  5
371
  8
0
  6
CONTINUOUS
 62
     7
 10
3809.053692825021
 20
1272.749706611637
 30
0.0
 70
    32
  0
VERTEX
  5
372
  8
0
  6
CONTINUOUS
 62
     7
 10
3809.09262466179
 20
1272.749706611637
 30
0.0
 70
    32
  0
VERTEX
  5
373
  8
0
  6
CONTINUOUS
 62
     7
 10
3809.131323169032
 20
1272.749706611637
 30
0.0
 70
    32
  0
VERTEX
  5
374
  8
0
  6
CONTINUOUS
 62
     7
 10
3809.169771680351
 20
1272.749706611637
 30
0.0
 70
    32
  0
VERTEX
  5
375
  8
0
  6
CONTINUOUS
 62
     7
 10
3809.207953529354
 20
1272.749706611637
 30
0.0
 70
    32
  0
VERTEX
  5
376
  8
0
  6
CONTINUOUS
 62
     7
 10
3809.245852049645
 20
1272.749706611637
 30
0.0
 70
    32
  0
VERTEX
  5
377
  8
0
  6
CONTINUOUS
 62
     7
 10
3809.283450574586
 20
1272.749706611637
 30
0.0
 70
    32
  0
VERTEX
  5
378
  8
0
  6
CONTINUOUS
 62
     7
 10
3809.32073242508
 20
1272.749706611637
 30
0.0
 70
    32
  0
VERTEX
  5
379
  8
0
  6
CONTINUOUS
 62
     7
 10
3809.357680903822
 20
1272.749706611637
 30
0.0
 70
    32
  0
VERTEX
  5
37A
  8
0
  6
CONTINUOUS
 62
     7
 10
3809.394279312065
 20
1272.749706611637
 30
0.0
 70
    32
  0
VERTEX
  5
37B
  8
0
  6
CONTINUOUS
 62
     7
 10
3809.430510951059
 20
1272.749706611637
 30
0.0
 70
    32
  0
VERTEX
  5
37C
  8
0
  6
CONTINUOUS
 62
     7
 10
3809.466359122058
 20
1272.749706611637
 30
0.0
 70
    32
  0
VERTEX
  5
37D
  8
0
  6
CONTINUOUS
 62
     7
 10
3809.501807126314
 20
1272.749706611637
 30
0.0
 70
    32
  0
VERTEX
  5
37E
  8
0
  6
CONTINUOUS
 62
     7
 10
3809.536838265078
 20
1272.749706611637
 30
0.0
 70
    32
  0
VERTEX
  5
37F
  8
0
  6
CONTINUOUS
 62
     7
 10
3809.571435839604
 20
1272.749706611637
 30
0.0
 70
    32
  0
VERTEX
  5
380
  8
0
  6
CONTINUOUS
 62
     7
 10
3809.605583151142
 20
1272.749706611637
 30
0.0
 70
    32
  0
VERTEX
  5
381
  8
0
  6
CONTINUOUS
 62
     7
 10
3809.63926353354
 20
1272.749706611637
 30
0.0
 70
    32
  0
VERTEX
  5
382
  8
0
  6
CONTINUOUS
 62
     7
 10
3809.672465880082
 20
1272.749706611637
 30
0.0
 70
    32
  0
VERTEX
  5
383
  8
0
  6
CONTINUOUS
 62
     7
 10
3809.705190882241
 20
1272.749706611637
 30
0.0
 70
    32
  0
VERTEX
  5
384
  8
0
  6
CONTINUOUS
 62
     7
 10
3809.737440738018
 20
1272.749706611637
 30
0.0
 70
    32
  0
VERTEX
  5
385
  8
0
  6
CONTINUOUS
 62
     7
 10
3809.769217645422
 20
1272.749706611637
 30
0.0
 70
    32
  0
VERTEX
  5
386
  8
0
  6
CONTINUOUS
 62
     7
 10
3809.800523802458
 20
1272.749706611637
 30
0.0
 70
    32
  0
VERTEX
  5
387
  8
0
  6
CONTINUOUS
 62
     7
 10
3809.831361407133
 20
1272.749706611637
 30
0.0
 70
    32
  0
VERTEX
  5
388
  8
0
  6
CONTINUOUS
 62
     7
 10
3809.861732657452
 20
1272.749706611637
 30
0.0
 70
    32
  0
VERTEX
  5
389
  8
0
  6
CONTINUOUS
 62
     7
 10
3809.891639751421
 20
1272.749706611637
 30
0.0
 70
    32
  0
VERTEX
  5
38A
  8
0
  6
CONTINUOUS
 62
     7
 10
3809.921084887047
 20
1272.749706611637
 30
0.0
 70
    32
  0
VERTEX
  5
38B
  8
0
  6
CONTINUOUS
 62
     7
 10
3809.950070259144
 20
1272.749706611637
 30
0.0
 70
    32
  0
VERTEX
  5
38C
  8
0
  6
CONTINUOUS
 62
     7
 10
3809.978585189464
 20
1272.749706611637
 30
0.0
 70
    32
  0
VERTEX
  5
38D
  8
0
  6
CONTINUOUS
 62
     7
 10
3810.00657684458
 20
1272.749706611637
 30
0.0
 70
    32
  0
VERTEX
  5
38E
  8
0
  6
CONTINUOUS
 62
     7
 10
3810.033983775604
 20
1272.749706611637
 30
0.0
 70
    32
  0
VERTEX
  5
38F
  8
0
  6
CONTINUOUS
 62
     7
 10
3810.060744533642
 20
1272.749706611637
 30
0.0
 70
    32
  0
VERTEX
  5
390
  8
0
  6
CONTINUOUS
 62
     7
 10
3810.086797669805
 20
1272.749706611637
 30
0.0
 70
    32
  0
VERTEX
  5
391
  8
0
  6
CONTINUOUS
 62
     7
 10
3810.112081735199
 20
1272.749706611637
 30
0.0
 70
    32
  0
VERTEX
  5
392
  8
0
  6
CONTINUOUS
 62
     7
 10
3810.136535280935
 20
1272.749706611637
 30
0.0
 70
    32
  0
VERTEX
  5
393
  8
0
  6
CONTINUOUS
 62
     7
 10
3810.160096858122
 20
1272.749706611637
 30
0.0
 70
    32
  0
VERTEX
  5
394
  8
0
  6
CONTINUOUS
 62
     7
 10
3810.182705017866
 20
1272.749706611637
 30
0.0
 70
    32
  0
VERTEX
  5
395
  8
0
  6
CONTINUOUS
 62
     7
 10
3810.204298311279
 20
1272.749706611637
 30
0.0
 70
    32
  0
VERTEX
  5
396
  8
0
  6
CONTINUOUS
 62
     7
 10
3810.224844376327
 20
1272.749706611637
 30
0.0
 70
    32
  0
VERTEX
  5
397
  8
0
  6
CONTINUOUS
 62
     7
 10
3810.244454739399
 20
1272.749706611637
 30
0.0
 70
    32
  0
VERTEX
  5
398
  8
0
  6
CONTINUOUS
 62
     7
 10
3810.263285340193
 20
1272.749706611637
 30
0.0
 70
    32
  0
VERTEX
  5
399
  8
0
  6
CONTINUOUS
 62
     7
 10
3810.281492131163
 20
1272.749706611637
 30
0.0
 70
    32
  0
VERTEX
  5
39A
  8
0
  6
CONTINUOUS
 62
     7
 10
3810.299231064765
 20
1272.749706611637
 30
0.0
 70
    32
  0
VERTEX
  5
39B
  8
0
  6
CONTINUOUS
 62
     7
 10
3810.316658093456
 20
1272.749706611637
 30
0.0
 70
    32
  0
VERTEX
  5
39C
  8
0
  6
CONTINUOUS
 62
     7
 10
3810.333929169691
 20
1272.749706611637
 30
0.0
 70
    32
  0
SEQEND
  5
49A
  8
0
  6
CONTINUOUS
 62
     7
  0
LINE
  5
111
  8
0
  6
CONTINUOUS
 62
     7
 10
3808.533929169675
 20
1216.74970661164
 30
0.0
 11
3808.533929169678
 21
1271.749706611636
 31
0.0
  0
LINE
  5
112
  8
0
  6
CONTINUOUS
 62
     7
 10
3808.333929169678
 20
1271.749706611636
 30
0.0
 11
3808.533929169678
 21
1271.749706611636
 31
0.0
  0
LINE
  5
113
  8
0
  6
CONTINUOUS
 62
     7
 10
3808.333929169675
 20
1216.74970661164
 30
0.0
 11
3808.533929169675
 21
1216.74970661164
 31
0.0
  0
LINE
  5
114
  8
0
  6
CONTINUOUS
 62
     7
 10
3808.333929169678
 20
1215.749706611637
 30
0.0
 11
3808.533929169677
 21
1215.749706611637
 31
0.0
  0
LINE
  5
115
  8
0
  6
CONTINUOUS
 62
     7
 10
3808.533929169668
 20
1272.749706611637
 30
0.0
 11
3808.333929169668
 21
1272.749706611637
 31
0.0
  0
POLYLINE
  5
116
  8
0
  6
CONTINUOUS
 62
     7
 10
0.0
 20
0.0
 30
0.0
 66
     1
 70
     8
  0
VERTEX
  5
39D
  8
0
  6
CONTINUOUS
 62
     7
 10
3810.333929169691
 20
1651.74970661164
 30
0.0
 70
    32
  0
VERTEX
  5
39E
  8
0
  6
CONTINUOUS
 62
     7
 10
3810.316660344311
 20
1651.749706611639
 30
0.0
 70
    32
  0
VERTEX
  5
39F
  8
0
  6
CONTINUOUS
 62
     7
 10
3810.299235260841
 20
1651.74970661164
 30
0.0
 70
    32
  0
VERTEX
  5
3A0
  8
0
  6
CONTINUOUS
 62
     7
 10
3810.281497661187
 20
1651.74970661164
 30
0.0
 70
    32
  0
VERTEX
  5
3A1
  8
0
  6
CONTINUOUS
 62
     7
 10
3810.263291287259
 20
1651.74970661164
 30
0.0
 70
    32
  0
VERTEX
  5
3A2
  8
0
  6
CONTINUOUS
 62
     7
 10
3810.244459880966
 20
1651.74970661164
 30
0.0
 70
    32
  0
VERTEX
  5
3A3
  8
0
  6
CONTINUOUS
 62
     7
 10
3810.224847184216
 20
1651.74970661164
 30
0.0
 70
    32
  0
VERTEX
  5
3A4
  8
0
  6
CONTINUOUS
 62
     7
 10
3810.204296960926
 20
1651.74970661164
 30
0.0
 70
    32
  0
VERTEX
  5
3A5
  8
0
  6
CONTINUOUS
 62
     7
 10
3810.182699173308
 20
1651.74970661164
 30
0.0
 70
    32
  0
VERTEX
  5
3A6
  8
0
  6
CONTINUOUS
 62
     7
 10
3810.160087377986
 20
1651.749706611639
 30
0.0
 70
    32
  0
VERTEX
  5
3A7
  8
0
  6
CONTINUOUS
 62
     7
 10
3810.136522949206
 20
1651.74970661164
 30
0.0
 70
    32
  0
VERTEX
  5
3A8
  8
0
  6
CONTINUOUS
 62
     7
 10
3810.112067261206
 20
1651.74970661164
 30
0.0
 70
    32
  0
VERTEX
  5
3A9
  8
0
  6
CONTINUOUS
 62
     7
 10
3810.086781688227
 20
1651.749706611639
 30
0.0
 70
    32
  0
VERTEX
  5
3AA
  8
0
  6
CONTINUOUS
 62
     7
 10
3810.060727604512
 20
1651.74970661164
 30
0.0
 70
    32
  0
VERTEX
  5
3AB
  8
0
  6
CONTINUOUS
 62
     7
 10
3810.033966384302
 20
1651.74970661164
 30
0.0
 70
    32
  0
VERTEX
  5
3AC
  8
0
  6
CONTINUOUS
 62
     7
 10
3810.006559401837
 20
1651.749706611639
 30
0.0
 70
    32
  0
VERTEX
  5
3AD
  8
0
  6
CONTINUOUS
 62
     7
 10
3809.978568031361
 20
1651.749706611639
 30
0.0
 70
    32
  0
VERTEX
  5
3AE
  8
0
  6
CONTINUOUS
 62
     7
 10
3809.950053647114
 20
1651.74970661164
 30
0.0
 70
    32
  0
VERTEX
  5
3AF
  8
0
  6
CONTINUOUS
 62
     7
 10
3809.921068996259
 20
1651.74970661164
 30
0.0
 70
    32
  0
VERTEX
  5
3B0
  8
0
  6
CONTINUOUS
 62
     7
 10
3809.89162468738
 20
1651.74970661164
 30
0.0
 70
    32
  0
VERTEX
  5
3B1
  8
0
  6
CONTINUOUS
 62
     7
 10
3809.86171848297
 20
1651.74970661164
 30
0.0
 70
    32
  0
VERTEX
  5
3B2
  8
0
  6
CONTINUOUS
 62
     7
 10
3809.831348142424
 20
1651.74970661164
 30
0.0
 70
    32
  0
VERTEX
  5
3B3
  8
0
  6
CONTINUOUS
 62
     7
 10
3809.80051142513
 20
1651.749706611639
 30
0.0
 70
    32
  0
VERTEX
  5
3B4
  8
0
  6
CONTINUOUS
 62
     7
 10
3809.769206090483
 20
1651.74970661164
 30
0.0
 70
    32
  0
VERTEX
  5
3B5
  8
0
  6
CONTINUOUS
 62
     7
 10
3809.737429897871
 20
1651.74970661164
 30
0.0
 70
    32
  0
VERTEX
  5
3B6
  8
0
  6
CONTINUOUS
 62
     7
 10
3809.705180606686
 20
1651.749706611639
 30
0.0
 70
    32
  0
VERTEX
  5
3B7
  8
0
  6
CONTINUOUS
 62
     7
 10
3809.672455976322
 20
1651.74970661164
 30
0.0
 70
    32
  0
VERTEX
  5
3B8
  8
0
  6
CONTINUOUS
 62
     7
 10
3809.639253766167
 20
1651.74970661164
 30
0.0
 70
    32
  0
VERTEX
  5
3B9
  8
0
  6
CONTINUOUS
 62
     7
 10
3809.605573327357
 20
1651.749706611639
 30
0.0
 70
    32
  0
VERTEX
  5
3BA
  8
0
  6
CONTINUOUS
 62
     7
 10
3809.571425934034
 20
1651.749706611639
 30
0.0
 70
    32
  0
VERTEX
  5
3BB
  8
0
  6
CONTINUOUS
 62
     7
 10
3809.536828267123
 20
1651.74970661164
 30
0.0
 70
    32
  0
VERTEX
  5
3BC
  8
0
  6
CONTINUOUS
 62
     7
 10
3809.501797034434
 20
1651.74970661164
 30
0.0
 70
    32
  0
VERTEX
  5
3BD
  8
0
  6
CONTINUOUS
 62
     7
 10
3809.466348943772
 20
1651.74970661164
 30
0.0
 70
    32
  0
VERTEX
  5
3BE
  8
0
  6
CONTINUOUS
 62
     7
 10
3809.430500702947
 20
1651.74970661164
 30
0.0
 70
    32
  0
VERTEX
  5
3BF
  8
0
  6
CONTINUOUS
 62
     7
 10
3809.394269019765
 20
1651.74970661164
 30
0.0
 70
    32
  0
VERTEX
  5
3C0
  8
0
  6
CONTINUOUS
 62
     7
 10
3809.357670602033
 20
1651.74970661164
 30
0.0
 70
    32
  0
VERTEX
  5
3C1
  8
0
  6
CONTINUOUS
 62
     7
 10
3809.32072215756
 20
1651.749706611639
 30
0.0
 70
    32
  0
VERTEX
  5
3C2
  8
0
  6
CONTINUOUS
 62
     7
 10
3809.283440394155
 20
1651.749706611639
 30
0.0
 70
    32
  0
VERTEX
  5
3C3
  8
0
  6
CONTINUOUS
 62
     7
 10
3809.245842017617
 20
1651.749706611639
 30
0.0
 70
    32
  0
VERTEX
  5
3C4
  8
0
  6
CONTINUOUS
 62
     7
 10
3809.207943708476
 20
1651.749706611639
 30
0.0
 70
    32
  0
VERTEX
  5
3C5
  8
0
  6
CONTINUOUS
 62
     7
 10
3809.169762129968
 20
1651.749706611639
 30
0.0
 70
    32
  0
VERTEX
  5
3C6
  8
0
  6
CONTINUOUS
 62
     7
 10
3809.131313944999
 20
1651.749706611639
 30
0.0
 70
    32
  0
VERTEX
  5
3C7
  8
0
  6
CONTINUOUS
 62
     7
 10
3809.092615816471
 20
1651.749706611639
 30
0.0
 70
    32
  0
VERTEX
  5
3C8
  8
0
  6
CONTINUOUS
 62
     7
 10
3809.053684407291
 20
1651.749706611639
 30
0.0
 70
    32
  0
VERTEX
  5
3C9
  8
0
  6
CONTINUOUS
 62
     7
 10
3809.01453638036
 20
1651.749706611639
 30
0.0
 70
    32
  0
VERTEX
  5
3CA
  8
0
  6
CONTINUOUS
 62
     7
 10
3808.975188398583
 20
1651.749706611639
 30
0.0
 70
    32
  0
VERTEX
  5
3CB
  8
0
  6
CONTINUOUS
 62
     7
 10
3808.935657124862
 20
1651.749706611638
 30
0.0
 70
    32
  0
VERTEX
  5
3CC
  8
0
  6
CONTINUOUS
 62
     7
 10
3808.895959222104
 20
1651.749706611638
 30
0.0
 70
    32
  0
VERTEX
  5
3CD
  8
0
  6
CONTINUOUS
 62
     7
 10
3808.856111353211
 20
1651.749706611638
 30
0.0
 70
    32
  0
VERTEX
  5
3CE
  8
0
  6
CONTINUOUS
 62
     7
 10
3808.816130181087
 20
1651.749706611638
 30
0.0
 70
    32
  0
VERTEX
  5
3CF
  8
0
  6
CONTINUOUS
 62
     7
 10
3808.776032368637
 20
1651.749706611638
 30
0.0
 70
    32
  0
VERTEX
  5
3D0
  8
0
  6
CONTINUOUS
 62
     7
 10
3808.735834578762
 20
1651.749706611638
 30
0.0
 70
    32
  0
VERTEX
  5
3D1
  8
0
  6
CONTINUOUS
 62
     7
 10
3808.695553474369
 20
1651.749706611638
 30
0.0
 70
    32
  0
VERTEX
  5
3D2
  8
0
  6
CONTINUOUS
 62
     7
 10
3808.65520571836
 20
1651.749706611638
 30
0.0
 70
    32
  0
VERTEX
  5
3D3
  8
0
  6
CONTINUOUS
 62
     7
 10
3808.61480797364
 20
1651.749706611638
 30
0.0
 70
    32
  0
VERTEX
  5
3D4
  8
0
  6
CONTINUOUS
 62
     7
 10
3808.574376903112
 20
1651.749706611637
 30
0.0
 70
    32
  0
VERTEX
  5
3D5
  8
0
  6
CONTINUOUS
 62
     7
 10
3808.53392916968
 20
1651.749706611637
 30
0.0
 70
    32
  0
SEQEND
  5
49B
  8
0
  6
CONTINUOUS
 62
     7
  0
LINE
  5
117
  8
0
  6
CONTINUOUS
 62
     7
 10
3808.533929169678
 20
1652.74970661164
 30
0.0
 11
3808.53392916968
 21
1651.749706611637
 31
0.0
  0
LINE
  5
118
  8
0
  6
CONTINUOUS
 62
     7
 10
3808.533929169671
 20
1708.749706611637
 30
0.0
 11
3808.533929169681
 21
1707.749706611636
 31
0.0
  0
POLYLINE
  5
119
  8
0
  6
CONTINUOUS
 62
     7
 10
0.0
 20
0.0
 30
0.0
 66
     1
 70
     8
  0
VERTEX
  5
3D6
  8
0
  6
CONTINUOUS
 62
     7
 10
3808.533929169671
 20
1708.749706611637
 30
0.0
 70
    32
  0
VERTEX
  5
3D7
  8
0
  6
CONTINUOUS
 62
     7
 10
3808.574377648368
 20
1708.749706611637
 30
0.0
 70
    32
  0
VERTEX
  5
3D8
  8
0
  6
CONTINUOUS
 62
     7
 10
3808.61480946067
 20
1708.749706611637
 30
0.0
 70
    32
  0
VERTEX
  5
3D9
  8
0
  6
CONTINUOUS
 62
     7
 10
3808.655207940183
 20
1708.749706611637
 30
0.0
 70
    32
  0
VERTEX
  5
3DA
  8
0
  6
CONTINUOUS
 62
     7
 10
3808.695556420512
 20
1708.749706611637
 30
0.0
 70
    32
  0
VERTEX
  5
3DB
  8
0
  6
CONTINUOUS
 62
     7
 10
3808.73583823526
 20
1708.749706611637
 30
0.0
 70
    32
  0
VERTEX
  5
3DC
  8
0
  6
CONTINUOUS
 62
     7
 10
3808.776036718036
 20
1708.749706611637
 30
0.0
 70
    32
  0
VERTEX
  5
3DD
  8
0
  6
CONTINUOUS
 62
     7
 10
3808.816135202442
 20
1708.749706611637
 30
0.0
 70
    32
  0
VERTEX
  5
3DE
  8
0
  6
CONTINUOUS
 62
     7
 10
3808.856117022085
 20
1708.749706611638
 30
0.0
 70
    32
  0
VERTEX
  5
3DF
  8
0
  6
CONTINUOUS
 62
     7
 10
3808.895965510568
 20
1708.749706611637
 30
0.0
 70
    32
  0
VERTEX
  5
3E0
  8
0
  6
CONTINUOUS
 62
     7
 10
3808.935664001498
 20
1708.749706611637
 30
0.0
 70
    32
  0
VERTEX
  5
3E1
  8
0
  6
CONTINUOUS
 62
     7
 10
3808.975195828481
 20
1708.749706611637
 30
0.0
 70
    32
  0
VERTEX
  5
3E2
  8
0
  6
CONTINUOUS
 62
     7
 10
3809.014544325121
 20
1708.749706611637
 30
0.0
 70
    32
  0
VERTEX
  5
3E3
  8
0
  6
CONTINUOUS
 62
     7
 10
3809.053692825022
 20
1708.749706611637
 30
0.0
 70
    32
  0
VERTEX
  5
3E4
  8
0
  6
CONTINUOUS
 62
     7
 10
3809.092624661791
 20
1708.749706611637
 30
0.0
 70
    32
  0
VERTEX
  5
3E5
  8
0
  6
CONTINUOUS
 62
     7
 10
3809.131323169033
 20
1708.749706611637
 30
0.0
 70
    32
  0
VERTEX
  5
3E6
  8
0
  6
CONTINUOUS
 62
     7
 10
3809.169771680351
 20
1708.749706611637
 30
0.0
 70
    32
  0
VERTEX
  5
3E7
  8
0
  6
CONTINUOUS
 62
     7
 10
3809.207953529354
 20
1708.749706611637
 30
0.0
 70
    32
  0
VERTEX
  5
3E8
  8
0
  6
CONTINUOUS
 62
     7
 10
3809.245852049645
 20
1708.749706611637
 30
0.0
 70
    32
  0
VERTEX
  5
3E9
  8
0
  6
CONTINUOUS
 62
     7
 10
3809.283450574586
 20
1708.749706611637
 30
0.0
 70
    32
  0
VERTEX
  5
3EA
  8
0
  6
CONTINUOUS
 62
     7
 10
3809.320732425081
 20
1708.749706611637
 30
0.0
 70
    32
  0
VERTEX
  5
3EB
  8
0
  6
CONTINUOUS
 62
     7
 10
3809.357680903824
 20
1708.749706611637
 30
0.0
 70
    32
  0
VERTEX
  5
3EC
  8
0
  6
CONTINUOUS
 62
     7
 10
3809.394279312065
 20
1708.749706611637
 30
0.0
 70
    32
  0
VERTEX
  5
3ED
  8
0
  6
CONTINUOUS
 62
     7
 10
3809.43051095106
 20
1708.749706611637
 30
0.0
 70
    32
  0
VERTEX
  5
3EE
  8
0
  6
CONTINUOUS
 62
     7
 10
3809.466359122059
 20
1708.749706611637
 30
0.0
 70
    32
  0
VERTEX
  5
3EF
  8
0
  6
CONTINUOUS
 62
     7
 10
3809.501807126315
 20
1708.749706611637
 30
0.0
 70
    32
  0
VERTEX
  5
3F0
  8
0
  6
CONTINUOUS
 62
     7
 10
3809.536838265079
 20
1708.749706611637
 30
0.0
 70
    32
  0
VERTEX
  5
3F1
  8
0
  6
CONTINUOUS
 62
     7
 10
3809.571435839604
 20
1708.749706611637
 30
0.0
 70
    32
  0
VERTEX
  5
3F2
  8
0
  6
CONTINUOUS
 62
     7
 10
3809.605583151141
 20
1708.749706611637
 30
0.0
 70
    32
  0
VERTEX
  5
3F3
  8
0
  6
CONTINUOUS
 62
     7
 10
3809.63926353354
 20
1708.749706611637
 30
0.0
 70
    32
  0
VERTEX
  5
3F4
  8
0
  6
CONTINUOUS
 62
     7
 10
3809.672465880083
 20
1708.749706611636
 30
0.0
 70
    32
  0
VERTEX
  5
3F5
  8
0
  6
CONTINUOUS
 62
     7
 10
3809.70519088224
 20
1708.749706611636
 30
0.0
 70
    32
  0
VERTEX
  5
3F6
  8
0
  6
CONTINUOUS
 62
     7
 10
3809.737440738018
 20
1708.749706611636
 30
0.0
 70
    32
  0
VERTEX
  5
3F7
  8
0
  6
CONTINUOUS
 62
     7
 10
3809.769217645422
 20
1708.749706611637
 30
0.0
 70
    32
  0
VERTEX
  5
3F8
  8
0
  6
CONTINUOUS
 62
     7
 10
3809.800523802459
 20
1708.749706611637
 30
0.0
 70
    32
  0
VERTEX
  5
3F9
  8
0
  6
CONTINUOUS
 62
     7
 10
3809.831361407133
 20
1708.749706611637
 30
0.0
 70
    32
  0
VERTEX
  5
3FA
  8
0
  6
CONTINUOUS
 62
     7
 10
3809.861732657452
 20
1708.749706611637
 30
0.0
 70
    32
  0
VERTEX
  5
3FB
  8
0
  6
CONTINUOUS
 62
     7
 10
3809.891639751422
 20
1708.749706611637
 30
0.0
 70
    32
  0
VERTEX
  5
3FC
  8
0
  6
CONTINUOUS
 62
     7
 10
3809.921084887046
 20
1708.749706611637
 30
0.0
 70
    32
  0
VERTEX
  5
3FD
  8
0
  6
CONTINUOUS
 62
     7
 10
3809.950070259145
 20
1708.749706611637
 30
0.0
 70
    32
  0
VERTEX
  5
3FE
  8
0
  6
CONTINUOUS
 62
     7
 10
3809.978585189464
 20
1708.749706611637
 30
0.0
 70
    32
  0
VERTEX
  5
3FF
  8
0
  6
CONTINUOUS
 62
     7
 10
3810.00657684458
 20
1708.749706611637
 30
0.0
 70
    32
  0
VERTEX
  5
400
  8
0
  6
CONTINUOUS
 62
     7
 10
3810.033983775604
 20
1708.749706611637
 30
0.0
 70
    32
  0
VERTEX
  5
401
  8
0
  6
CONTINUOUS
 62
     7
 10
3810.060744533642
 20
1708.749706611637
 30
0.0
 70
    32
  0
VERTEX
  5
402
  8
0
  6
CONTINUOUS
 62
     7
 10
3810.086797669805
 20
1708.749706611637
 30
0.0
 70
    32
  0
VERTEX
  5
403
  8
0
  6
CONTINUOUS
 62
     7
 10
3810.1120817352
 20
1708.749706611637
 30
0.0
 70
    32
  0
VERTEX
  5
404
  8
0
  6
CONTINUOUS
 62
     7
 10
3810.136535280936
 20
1708.749706611637
 30
0.0
 70
    32
  0
VERTEX
  5
405
  8
0
  6
CONTINUOUS
 62
     7
 10
3810.160096858122
 20
1708.749706611637
 30
0.0
 70
    32
  0
VERTEX
  5
406
  8
0
  6
CONTINUOUS
 62
     7
 10
3810.182705017866
 20
1708.749706611637
 30
0.0
 70
    32
  0
VERTEX
  5
407
  8
0
  6
CONTINUOUS
 62
     7
 10
3810.204298311279
 20
1708.749706611637
 30
0.0
 70
    32
  0
VERTEX
  5
408
  8
0
  6
CONTINUOUS
 62
     7
 10
3810.224844376328
 20
1708.749706611637
 30
0.0
 70
    32
  0
VERTEX
  5
409
  8
0
  6
CONTINUOUS
 62
     7
 10
3810.2444547394
 20
1708.749706611637
 30
0.0
 70
    32
  0
VERTEX
  5
40A
  8
0
  6
CONTINUOUS
 62
     7
 10
3810.263285340193
 20
1708.749706611637
 30
0.0
 70
    32
  0
VERTEX
  5
40B
  8
0
  6
CONTINUOUS
 62
     7
 10
3810.281492131163
 20
1708.749706611637
 30
0.0
 70
    32
  0
VERTEX
  5
40C
  8
0
  6
CONTINUOUS
 62
     7
 10
3810.299231064766
 20
1708.749706611637
 30
0.0
 70
    32
  0
VERTEX
  5
40D
  8
0
  6
CONTINUOUS
 62
     7
 10
3810.316658093456
 20
1708.749706611637
 30
0.0
 70
    32
  0
VERTEX
  5
40E
  8
0
  6
CONTINUOUS
 62
     7
 10
3810.333929169691
 20
1708.749706611637
 30
0.0
 70
    32
  0
SEQEND
  5
49C
  8
0
  6
CONTINUOUS
 62
     7
  0
LINE
  5
11A
  8
0
  6
CONTINUOUS
 62
     7
 10
3808.533929169678
 20
1652.74970661164
 30
0.0
 11
3808.533929169681
 21
1707.749706611636
 31
0.0
  0
LINE
  5
11B
  8
0
  6
CONTINUOUS
 62
     7
 10
3808.333929169681
 20
1707.749706611636
 30
0.0
 11
3808.533929169681
 21
1707.749706611636
 31
0.0
  0
LINE
  5
11C
  8
0
  6
CONTINUOUS
 62
     7
 10
3808.333929169678
 20
1652.74970661164
 30
0.0
 11
3808.533929169678
 21
1652.74970661164
 31
0.0
  0
LINE
  5
11D
  8
0
  6
CONTINUOUS
 62
     7
 10
3808.33392916968
 20
1651.749706611637
 30
0.0
 11
3808.53392916968
 21
1651.749706611637
 31
0.0
  0
LINE
  5
11E
  8
0
  6
CONTINUOUS
 62
     7
 10
3808.533929169671
 20
1708.749706611637
 30
0.0
 11
3808.333929169671
 21
1708.749706611637
 31
0.0
  0
LINE
  5
11F
  8
0
  6
CONTINUOUS
 62
     8
 10
3808.533929169675
 20
1216.74970661164
 30
0.0
 11
3810.333929169689
 21
1216.749706611639
 31
0.0
  0
LINE
  5
120
  8
0
  6
CONTINUOUS
 62
     8
 10
3810.333929169689
 20
1271.749706611634
 30
0.0
 11
3808.533929169678
 21
1271.749706611636
 31
0.0
  0
LINE
  5
121
  8
0
  6
CONTINUOUS
 62
     8
 10
3808.533929169678
 20
1652.74970661164
 30
0.0
 11
3810.333929169689
 21
1652.749706611639
 31
0.0
  0
LINE
  5
122
  8
0
  6
CONTINUOUS
 62
     8
 10
3810.333929169689
 20
1707.749706611634
 30
0.0
 11
3808.533929169681
 21
1707.749706611636
 31
0.0
  0
LINE
  5
123
  8
0
  6
CONTINUOUS
 62
     7
 10
2588.717111674116
 20
2671.177820585704
 30
0.0
 11
2571.217111674116
 21
2671.177820585704
 31
0.0
  0
LINE
  5
124
  8
0
  6
CONTINUOUS
 62
     7
 10
2588.717111674116
 20
2671.177820585704
 30
0.0
 11
2588.717111674116
 21
2801.177820585704
 31
0.0
  0
LINE
  5
125
  8
0
  6
CONTINUOUS
 62
     7
 10
2588.717111674116
 20
2801.177820585704
 30
0.0
 11
2571.217111674116
 21
2801.177820585704
 31
0.0
  0
LINE
  5
126
  8
0
  6
CONTINUOUS
 62
     7
 10
2571.217111674116
 20
2671.177820585704
 30
0.0
 11
2571.217111674116
 21
2801.177820585704
 31
0.0
  0
LINE
  5
127
  8
0
  6
CONTINUOUS
 62
     7
 10
2231.217111674116
 20
2671.177820585704
 30
0.0
 11
2231.217111674116
 21
2801.177820585704
 31
0.0
  0
LINE
  5
128
  8
0
  6
CONTINUOUS
 62
     7
 10
2231.217111674116
 20
2671.177820585704
 30
0.0
 11
2213.717111674116
 21
2671.177820585704
 31
0.0
  0
LINE
  5
129
  8
0
  6
CONTINUOUS
 62
     7
 10
2231.217111674116
 20
2801.177820585704
 30
0.0
 11
2213.717111674116
 21
2801.177820585704
 31
0.0
  0
LINE
  5
12A
  8
0
  6
CONTINUOUS
 62
     7
 10
2213.717111674116
 20
2671.177820585704
 30
0.0
 11
2213.717111674116
 21
2801.177820585704
 31
0.0
  0
LINE
  5
12B
  8
0
  6
CONTINUOUS
 62
     7
 10
2587.217111674116
 20
2651.177820585704
 30
0.0
 11
2215.217111674116
 21
2651.177820585704
 31
0.0
  0
LINE
  5
12C
  8
0
  6
CONTINUOUS
 62
     7
 10
2587.217111674116
 20
2669.177820585703
 30
0.0
 11
2215.217111674116
 21
2669.177820585703
 31
0.0
  0
LINE
  5
12D
  8
0
  6
CONTINUOUS
 62
     7
 10
2215.217111674116
 20
2651.177820585704
 30
0.0
 11
2215.217111674116
 21
2669.177820585703
 31
0.0
  0
LINE
  5
12E
  8
0
  6
CONTINUOUS
 62
     7
 10
2587.217111674116
 20
2651.177820585704
 30
0.0
 11
2587.217111674116
 21
2669.177820585703
 31
0.0
  0
LINE
  5
12F
  8
0
  6
CONTINUOUS
 62
     7
 10
2252.717111678451
 20
2671.377820585695
 30
0.0
 11
2236.717111678451
 21
2671.377820585682
 31
0.0
  0
LINE
  5
130
  8
0
  6
CONTINUOUS
 62
     7
 10
2254.717111678452
 20
2669.377820585684
 30
0.0
 11
2254.717111678452
 21
2669.177820585684
 31
0.0
  0
LINE
  5
131
  8
0
  6
CONTINUOUS
 62
     7
 10
2234.71711167845
 20
2669.177820585701
 30
0.0
 11
2234.71711167845
 21
2669.377820585701
 31
0.0
  0
POLYLINE
  5
132
  8
0
  6
CONTINUOUS
 62
     7
 66
     1
 10
0.0
 20
0.0
 30
0.0
  0
VERTEX
  5
40F
  8
0
  6
CONTINUOUS
 62
     7
 10
2236.717111678451
 20
2671.377820585682
 30
0.0
  0
VERTEX
  5
410
  8
0
  6
CONTINUOUS
 62
     7
 10
2236.667880024636
 20
2671.372545356286
 30
0.0
  0
VERTEX
  5
411
  8
0
  6
CONTINUOUS
 62
     7
 10
2236.618678934605
 20
2671.367170359701
 30
0.0
  0
VERTEX
  5
412
  8
0
  6
CONTINUOUS
 62
     7
 10
2236.569538972143
 20
2671.36159582874
 30
0.0
  0
VERTEX
  5
413
  8
0
  6
CONTINUOUS
 62
     7
 10
2236.520490701031
 20
2671.35572199621
 30
0.0
  0
VERTEX
  5
414
  8
0
  6
CONTINUOUS
 62
     7
 10
2236.471564685055
 20
2671.349449094928
 30
0.0
  0
VERTEX
  5
415
  8
0
  6
CONTINUOUS
 62
     7
 10
2236.422791487999
 20
2671.342677357702
 30
0.0
  0
VERTEX
  5
416
  8
0
  6
CONTINUOUS
 62
     7
 10
2236.374201673647
 20
2671.335307017343
 30
0.0
  0
VERTEX
  5
417
  8
0
  6
CONTINUOUS
 62
     7
 10
2236.325825805782
 20
2671.327238306665
 30
0.0
  0
VERTEX
  5
418
  8
0
  6
CONTINUOUS
 62
     7
 10
2236.277694448188
 20
2671.318371458477
 30
0.0
  0
VERTEX
  5
419
  8
0
  6
CONTINUOUS
 62
     7
 10
2236.22983816465
 20
2671.308606705591
 30
0.0
  0
VERTEX
  5
41A
  8
0
  6
CONTINUOUS
 62
     7
 10
2236.18228751895
 20
2671.29784428082
 30
0.0
  0
VERTEX
  5
41B
  8
0
  6
CONTINUOUS
 62
     7
 10
2236.135073074874
 20
2671.285984416972
 30
0.0
  0
VERTEX
  5
41C
  8
0
  6
CONTINUOUS
 62
     7
 10
2236.088225396205
 20
2671.272927346861
 30
0.0
  0
VERTEX
  5
41D
  8
0
  6
CONTINUOUS
 62
     7
 10
2236.041775046726
 20
2671.258573303297
 30
0.0
  0
VERTEX
  5
41E
  8
0
  6
CONTINUOUS
 62
     7
 10
2235.995752590222
 20
2671.242822519093
 30
0.0
  0
VERTEX
  5
41F
  8
0
  6
CONTINUOUS
 62
     7
 10
2235.950188219114
 20
2671.225584124998
 30
0.0
  0
VERTEX
  5
420
  8
0
  6
CONTINUOUS
 62
     7
 10
2235.905107946518
 20
2671.206867388922
 30
0.0
  0
VERTEX
  5
421
  8
0
  6
CONTINUOUS
 62
     7
 10
2235.860535153239
 20
2671.186744649547
 30
0.0
  0
VERTEX
  5
422
  8
0
  6
CONTINUOUS
 62
     7
 10
2235.816493179001
 20
2671.165289229925
 30
0.0
  0
VERTEX
  5
423
  8
0
  6
CONTINUOUS
 62
     7
 10
2235.773005363526
 20
2671.142574453109
 30
0.0
  0
VERTEX
  5
424
  8
0
  6
CONTINUOUS
 62
     7
 10
2235.730095046535
 20
2671.118673642147
 30
0.0
  0
VERTEX
  5
425
  8
0
  6
CONTINUOUS
 62
     7
 10
2235.687785567752
 20
2671.093660120093
 30
0.0
  0
VERTEX
  5
426
  8
0
  6
CONTINUOUS
 62
     7
 10
2235.646100266899
 20
2671.067607209998
 30
0.0
  0
VERTEX
  5
427
  8
0
  6
CONTINUOUS
 62
     7
 10
2235.605062485533
 20
2671.040587787448
 30
0.0
  0
VERTEX
  5
428
  8
0
  6
CONTINUOUS
 62
     7
 10
2235.564695667744
 20
2671.012649711407
 30
0.0
  0
VERTEX
  5
429
  8
0
  6
CONTINUOUS
 62
     7
 10
2235.525023412382
 20
2670.983803082847
 30
0.0
  0
VERTEX
  5
42A
  8
0
  6
CONTINUOUS
 62
     7
 10
2235.48606933113
 20
2670.954054870857
 30
0.0
  0
VERTEX
  5
42B
  8
0
  6
CONTINUOUS
 62
     7
 10
2235.447857035673
 20
2670.923412044523
 30
0.0
  0
VERTEX
  5
42C
  8
0
  6
CONTINUOUS
 62
     7
 10
2235.410410137696
 20
2670.891881572932
 30
0.0
  0
VERTEX
  5
42D
  8
0
  6
CONTINUOUS
 62
     7
 10
2235.373752248884
 20
2670.859470425171
 30
0.0
  0
VERTEX
  5
42E
  8
0
  6
CONTINUOUS
 62
     7
 10
2235.337906980921
 20
2670.826185570326
 30
0.0
  0
VERTEX
  5
42F
  8
0
  6
CONTINUOUS
 62
     7
 10
2235.302897945492
 20
2670.792033977486
 30
0.0
  0
VERTEX
  5
430
  8
0
  6
CONTINUOUS
 62
     7
 10
2235.268745975467
 20
2670.757025384686
 30
0.0
  0
VERTEX
  5
431
  8
0
  6
CONTINUOUS
 62
     7
 10
2235.235460788613
 20
2670.721180605596
 30
0.0
  0
VERTEX
  5
432
  8
0
  6
CONTINUOUS
 62
     7
 10
2235.20304932397
 20
2670.684523222755
 30
0.0
  0
VERTEX
  5
433
  8
0
  6
CONTINUOUS
 62
     7
 10
2235.171518520573
 20
2670.647076818701
 30
0.0
  0
VERTEX
  5
434
  8
0
  6
CONTINUOUS
 62
     7
 10
2235.140875317459
 20
2670.608864975972
 30
0.0
  0
VERTEX
  5
435
  8
0
  6
CONTINUOUS
 62
     7
 10
2235.111126653663
 20
2670.569911277104
 30
0.0
  0
VERTEX
  5
436
  8
0
  6
CONTINUOUS
 62
     7
 10
2235.082279468224
 20
2670.530239304638
 30
0.0
  0
VERTEX
  5
437
  8
0
  6
CONTINUOUS
 62
     7
 10
2235.054340700176
 20
2670.489872641109
 30
0.0
  0
VERTEX
  5
438
  8
0
  6
CONTINUOUS
 62
     7
 10
2235.02732057714
 20
2670.448834858465
 30
0.0
  0
VERTEX
  5
439
  8
0
  6
CONTINUOUS
 62
     7
 10
2235.001267419864
 20
2670.407149405957
 30
0.0
  0
VERTEX
  5
43A
  8
0
  6
CONTINUOUS
 62
     7
 10
2234.976254060588
 20
2670.36483965389
 30
0.0
  0
VERTEX
  5
43B
  8
0
  6
CONTINUOUS
 62
     7
 10
2234.952353737182
 20
2670.321928971262
 30
0.0
  0
VERTEX
  5
43C
  8
0
  6
CONTINUOUS
 62
     7
 10
2234.929639687511
 20
2670.27844072707
 30
0.0
  0
VERTEX
  5
43D
  8
0
  6
CONTINUOUS
 62
     7
 10
2234.908185149442
 20
2670.234398290312
 30
0.0
  0
VERTEX
  5
43E
  8
0
  6
CONTINUOUS
 62
     7
 10
2234.888063360843
 20
2670.189825029986
 30
0.0
  0
VERTEX
  5
43F
  8
0
  6
CONTINUOUS
 62
     7
 10
2234.869347559581
 20
2670.144744315088
 30
0.0
  0
VERTEX
  5
440
  8
0
  6
CONTINUOUS
 62
     7
 10
2234.852109999699
 20
2670.099179555507
 30
0.0
  0
VERTEX
  5
441
  8
0
  6
CONTINUOUS
 62
     7
 10
2234.836359899277
 20
2670.053156781017
 30
0.0
  0
VERTEX
  5
442
  8
0
  6
CONTINUOUS
 62
     7
 10
2234.822006394512
 20
2670.006706180975
 30
0.0
  0
VERTEX
  5
443
  8
0
  6
CONTINUOUS
 62
     7
 10
2234.80894972857
 20
2669.959858314351
 30
0.0
  0
VERTEX
  5
444
  8
0
  6
CONTINUOUS
 62
     7
 10
2234.797090144619
 20
2669.912643740112
 30
0.0
  0
VERTEX
  5
445
  8
0
  6
CONTINUOUS
 62
     7
 10
2234.786327885827
 20
2669.865093017225
 30
0.0
  0
VERTEX
  5
446
  8
0
  6
CONTINUOUS
 62
     7
 10
2234.776563195361
 20
2669.817236704659
 30
0.0
  0
VERTEX
  5
447
  8
0
  6
CONTINUOUS
 62
     7
 10
2234.767696316388
 20
2669.769105361381
 30
0.0
  0
VERTEX
  5
448
  8
0
  6
CONTINUOUS
 62
     7
 10
2234.759627492075
 20
2669.72072954636
 30
0.0
  0
VERTEX
  5
449
  8
0
  6
CONTINUOUS
 62
     7
 10
2234.752256965591
 20
2669.672139818563
 30
0.0
  0
VERTEX
  5
44A
  8
0
  6
CONTINUOUS
 62
     7
 10
2234.745484980102
 20
2669.623366736959
 30
0.0
  0
VERTEX
  5
44B
  8
0
  6
CONTINUOUS
 62
     7
 10
2234.739211778776
 20
2669.574440860515
 30
0.0
  0
VERTEX
  5
44C
  8
0
  6
CONTINUOUS
 62
     7
 10
2234.733337604781
 20
2669.525392748199
 30
0.0
  0
VERTEX
  5
44D
  8
0
  6
CONTINUOUS
 62
     7
 10
2234.727762701283
 20
2669.47625295898
 30
0.0
  0
VERTEX
  5
44E
  8
0
  6
CONTINUOUS
 62
     7
 10
2234.72238731145
 20
2669.427052051824
 30
0.0
  0
VERTEX
  5
44F
  8
0
  6
CONTINUOUS
 62
     7
 10
2234.71711167845
 20
2669.377820585701
 30
0.0
  0
SEQEND
  5
49D
  8
0
  6
CONTINUOUS
 62
     7
  0
POLYLINE
  5
133
  8
0
  6
CONTINUOUS
 62
     7
 66
     1
 10
0.0
 20
0.0
 30
0.0
  0
VERTEX
  5
450
  8
0
  6
CONTINUOUS
 62
     7
 10
2254.717111678452
 20
2669.377820585684
 30
0.0
  0
VERTEX
  5
451
  8
0
  6
CONTINUOUS
 62
     7
 10
2254.711836449054
 20
2669.427052239499
 30
0.0
  0
VERTEX
  5
452
  8
0
  6
CONTINUOUS
 62
     7
 10
2254.706461452468
 20
2669.47625332953
 30
0.0
  0
VERTEX
  5
453
  8
0
  6
CONTINUOUS
 62
     7
 10
2254.700886921506
 20
2669.525393291993
 30
0.0
  0
VERTEX
  5
454
  8
0
  6
CONTINUOUS
 62
     7
 10
2254.695013088976
 20
2669.574441563104
 30
0.0
  0
VERTEX
  5
455
  8
0
  6
CONTINUOUS
 62
     7
 10
2254.688740187692
 20
2669.62336757908
 30
0.0
  0
VERTEX
  5
456
  8
0
  6
CONTINUOUS
 62
     7
 10
2254.681968450466
 20
2669.672140776136
 30
0.0
  0
VERTEX
  5
457
  8
0
  6
CONTINUOUS
 62
     7
 10
2254.674598110107
 20
2669.720730590489
 30
0.0
  0
VERTEX
  5
458
  8
0
  6
CONTINUOUS
 62
     7
 10
2254.666529399427
 20
2669.769106458354
 30
0.0
  0
VERTEX
  5
459
  8
0
  6
CONTINUOUS
 62
     7
 10
2254.657662551239
 20
2669.817237815947
 30
0.0
  0
VERTEX
  5
45A
  8
0
  6
CONTINUOUS
 62
     7
 10
2254.647897798352
 20
2669.865094099487
 30
0.0
  0
VERTEX
  5
45B
  8
0
  6
CONTINUOUS
 62
     7
 10
2254.63713537358
 20
2669.912644745186
 30
0.0
  0
VERTEX
  5
45C
  8
0
  6
CONTINUOUS
 62
     7
 10
2254.625275509732
 20
2669.959859189262
 30
0.0
  0
VERTEX
  5
45D
  8
0
  6
CONTINUOUS
 62
     7
 10
2254.612218439621
 20
2670.006706867932
 30
0.0
  0
VERTEX
  5
45E
  8
0
  6
CONTINUOUS
 62
     7
 10
2254.597864396057
 20
2670.053157217411
 30
0.0
  0
VERTEX
  5
45F
  8
0
  6
CONTINUOUS
 62
     7
 10
2254.582113611852
 20
2670.099179673915
 30
0.0
  0
VERTEX
  5
460
  8
0
  6
CONTINUOUS
 62
     7
 10
2254.564875217757
 20
2670.144744045023
 30
0.0
  0
VERTEX
  5
461
  8
0
  6
CONTINUOUS
 62
     7
 10
2254.54615848168
 20
2670.189824317619
 30
0.0
  0
VERTEX
  5
462
  8
0
  6
CONTINUOUS
 62
     7
 10
2254.526035742304
 20
2670.234397110898
 30
0.0
  0
VERTEX
  5
463
  8
0
  6
CONTINUOUS
 62
     7
 10
2254.504580322684
 20
2670.278439085137
 30
0.0
  0
VERTEX
  5
464
  8
0
  6
CONTINUOUS
 62
     7
 10
2254.481865545867
 20
2670.321926900613
 30
0.0
  0
VERTEX
  5
465
  8
0
  6
CONTINUOUS
 62
     7
 10
2254.457964734905
 20
2670.364837217604
 30
0.0
  0
VERTEX
  5
466
  8
0
  6
CONTINUOUS
 62
     7
 10
2254.432951212852
 20
2670.407146696386
 30
0.0
  0
VERTEX
  5
467
  8
0
  6
CONTINUOUS
 62
     7
 10
2254.406898302756
 20
2670.44883199724
 30
0.0
  0
VERTEX
  5
468
  8
0
  6
CONTINUOUS
 62
     7
 10
2254.379878880207
 20
2670.489869778606
 30
0.0
  0
VERTEX
  5
469
  8
0
  6
CONTINUOUS
 62
     7
 10
2254.351940804165
 20
2670.530236596395
 30
0.0
  0
VERTEX
  5
46A
  8
0
  6
CONTINUOUS
 62
     7
 10
2254.323094175606
 20
2670.569908851758
 30
0.0
  0
VERTEX
  5
46B
  8
0
  6
CONTINUOUS
 62
     7
 10
2254.293345963615
 20
2670.60886293301
 30
0.0
  0
VERTEX
  5
46C
  8
0
  6
CONTINUOUS
 62
     7
 10
2254.26270313728
 20
2670.647075228468
 30
0.0
  0
VERTEX
  5
46D
  8
0
  6
CONTINUOUS
 62
     7
 10
2254.231172665689
 20
2670.684522126445
 30
0.0
  0
VERTEX
  5
46E
  8
0
  6
CONTINUOUS
 62
     7
 10
2254.198761517929
 20
2670.721180015258
 30
0.0
  0
VERTEX
  5
46F
  8
0
  6
CONTINUOUS
 62
     7
 10
2254.165476663084
 20
2670.757025283221
 30
0.0
  0
VERTEX
  5
470
  8
0
  6
CONTINUOUS
 62
     7
 10
2254.131325070243
 20
2670.792034318649
 30
0.0
  0
VERTEX
  5
471
  8
0
  6
CONTINUOUS
 62
     7
 10
2254.096316477443
 20
2670.826186288675
 30
0.0
  0
VERTEX
  5
472
  8
0
  6
CONTINUOUS
 62
     7
 10
2254.060471698353
 20
2670.859471475529
 30
0.0
  0
VERTEX
  5
473
  8
0
  6
CONTINUOUS
 62
     7
 10
2254.023814315513
 20
2670.891882940172
 30
0.0
  0
VERTEX
  5
474
  8
0
  6
CONTINUOUS
 62
     7
 10
2253.986367911458
 20
2670.92341374357
 30
0.0
  0
VERTEX
  5
475
  8
0
  6
CONTINUOUS
 62
     7
 10
2253.948156068729
 20
2670.954056946684
 30
0.0
  0
VERTEX
  5
476
  8
0
  6
CONTINUOUS
 62
     7
 10
2253.909202369861
 20
2670.98380561048
 30
0.0
  0
VERTEX
  5
477
  8
0
  6
CONTINUOUS
 62
     7
 10
2253.869530397395
 20
2671.01265279592
 30
0.0
  0
VERTEX
  5
478
  8
0
  6
CONTINUOUS
 62
     7
 10
2253.829163733866
 20
2671.040591563967
 30
0.0
  0
VERTEX
  5
479
  8
0
  6
CONTINUOUS
 62
     7
 10
2253.788125951221
 20
2671.067611687004
 30
0.0
  0
VERTEX
  5
47A
  8
0
  6
CONTINUOUS
 62
     7
 10
2253.746440498713
 20
2671.09366484428
 30
0.0
  0
VERTEX
  5
47B
  8
0
  6
CONTINUOUS
 62
     7
 10
2253.704130746646
 20
2671.118678203555
 30
0.0
  0
VERTEX
  5
47C
  8
0
  6
CONTINUOUS
 62
     7
 10
2253.661220064017
 20
2671.142578526961
 30
0.0
  0
VERTEX
  5
47D
  8
0
  6
CONTINUOUS
 62
     7
 10
2253.617731819825
 20
2671.165292576633
 30
0.0
  0
VERTEX
  5
47E
  8
0
  6
CONTINUOUS
 62
     7
 10
2253.573689383067
 20
2671.186747114702
 30
0.0
  0
VERTEX
  5
47F
  8
0
  6
CONTINUOUS
 62
     7
 10
2253.52911612274
 20
2671.2068689033
 30
0.0
  0
VERTEX
  5
480
  8
0
  6
CONTINUOUS
 62
     7
 10
2253.484035407841
 20
2671.225584704562
 30
0.0
  0
VERTEX
  5
481
  8
0
  6
CONTINUOUS
 62
     7
 10
2253.438470648261
 20
2671.242822264445
 30
0.0
  0
VERTEX
  5
482
  8
0
  6
CONTINUOUS
 62
     7
 10
2253.392447873769
 20
2671.258572364866
 30
0.0
  0
VERTEX
  5
483
  8
0
  6
CONTINUOUS
 62
     7
 10
2253.345997273729
 20
2671.272925869631
 30
0.0
  0
VERTEX
  5
484
  8
0
  6
CONTINUOUS
 62
     7
 10
2253.299149407104
 20
2671.285982535574
 30
0.0
  0
VERTEX
  5
485
  8
0
  6
CONTINUOUS
 62
     7
 10
2253.251934832864
 20
2671.297842119524
 30
0.0
  0
VERTEX
  5
486
  8
0
  6
CONTINUOUS
 62
     7
 10
2253.204384109977
 20
2671.308604378316
 30
0.0
  0
VERTEX
  5
487
  8
0
  6
CONTINUOUS
 62
     7
 10
2253.15652779741
 20
2671.318369068783
 30
0.0
  0
VERTEX
  5
488
  8
0
  6
CONTINUOUS
 62
     7
 10
2253.108396454133
 20
2671.327235947756
 30
0.0
  0
VERTEX
  5
489
  8
0
  6
CONTINUOUS
 62
     7
 10
2253.060020639111
 20
2671.335304772069
 30
0.0
  0
VERTEX
  5
48A
  8
0
  6
CONTINUOUS
 62
     7
 10
2253.011430911315
 20
2671.342675298553
 30
0.0
  0
VERTEX
  5
48B
  8
0
  6
CONTINUOUS
 62
     7
 10
2252.96265782971
 20
2671.349447284042
 30
0.0
  0
VERTEX
  5
48C
  8
0
  6
CONTINUOUS
 62
     7
 10
2252.913731953266
 20
2671.355720485368
 30
0.0
  0
VERTEX
  5
48D
  8
0
  6
CONTINUOUS
 62
     7
 10
2252.86468384095
 20
2671.361594659364
 30
0.0
  0
VERTEX
  5
48E
  8
0
  6
CONTINUOUS
 62
     7
 10
2252.81554405173
 20
2671.367169562862
 30
0.0
  0
VERTEX
  5
48F
  8
0
  6
CONTINUOUS
 62
     7
 10
2252.766343144574
 20
2671.372544952694
 30
0.0
  0
VERTEX
  5
490
  8
0
  6
CONTINUOUS
 62
     7
 10
2252.717111678451
 20
2671.377820585695
 30
0.0
  0
SEQEND
  5
49E
  8
0
  6
CONTINUOUS
 62
     7
  0
LINE
  5
134
  8
0
  6
CONTINUOUS
 62
     7
 10
2233.71711167845
 20
2669.177820585701
 30
0.0
 11
2233.71711167845
 21
2669.377820585701
 31
0.0
  0
LINE
  5
135
  8
0
  6
CONTINUOUS
 62
     7
 10
2233.71711167845
 20
2669.377820585701
 30
0.0
 11
2234.71711167845
 21
2669.377820585701
 31
0.0
  0
LINE
  5
136
  8
0
  6
CONTINUOUS
 62
     7
 10
2255.717111678452
 20
2669.177820585694
 30
0.0
 11
2255.717111678452
 21
2669.377820585694
 31
0.0
  0
LINE
  5
137
  8
0
  6
CONTINUOUS
 62
     7
 10
2254.717111678452
 20
2669.377820585684
 30
0.0
 11
2255.717111678452
 21
2669.377820585694
 31
0.0
  0
ARC
  5
138
  8
0
  6
CONTINUOUS
 62
     7
 10
2236.71711167845
 20
2669.377820585682
 30
0.0
 40
3.0
 50
129.9445051891158
 51
179.9999999996437
  0
ARC
  5
139
  8
0
  6
CONTINUOUS
 62
     7
 10
2252.717111678452
 20
2669.377820585692
 30
0.0
 40
3.000000000000338
 50
0.000000000036088
 51
50.05549481057512
  0
LINE
  5
13A
  8
0
  6
CONTINUOUS
 62
     7
 10
2233.71711167845
 20
2669.677820585701
 30
0.0
 11
2219.529436924658
 21
2669.677820585702
 31
0.0
  0
LINE
  5
13B
  8
0
  6
CONTINUOUS
 62
     7
 10
2219.529436924658
 20
2669.677820585702
 30
0.0
 11
2219.529436924658
 21
2669.177820585703
 31
0.0
  0
LINE
  5
13C
  8
0
  6
CONTINUOUS
 62
     7
 10
2233.71711167845
 20
2669.377820585701
 30
0.0
 11
2233.71711167845
 21
2669.677820585701
 31
0.0
  0
LINE
  5
13D
  8
0
  6
CONTINUOUS
 62
     7
 10
2231.680616077845
 20
2671.677820585705
 30
0.0
 11
2231.634511365877
 21
2669.677820585694
 31
0.0
  0
LINE
  5
13E
  8
0
  6
CONTINUOUS
 62
     7
 10
2232.934856737224
 20
2669.677820585693
 30
0.0
 11
2232.980961449193
 21
2671.677820585705
 31
0.0
  0
LINE
  5
13F
  8
0
  6
CONTINUOUS
 62
     7
 10
2571.217111674116
 20
2801.177820585704
 30
0.0
 11
2231.217111674116
 21
2801.177820585704
 31
0.0
  0
LINE
  5
140
  8
0
  6
CONTINUOUS
 62
     7
 10
2571.217111674116
 20
2671.677820585704
 30
0.0
 11
2231.217111674116
 21
2671.677820585704
 31
0.0
  0
LINE
  5
141
  8
0
  6
CONTINUOUS
 62
     8
 10
2252.717111678451
 20
2671.377820585695
 30
0.0
 11
2252.717111678451
 21
2671.677820585703
 31
0.0
  0
LINE
  5
142
  8
0
  6
CONTINUOUS
 62
     8
 10
2236.717111678451
 20
2671.677820585703
 30
0.0
 11
2236.717111678451
 21
2671.377820585682
 31
0.0
  0
ENDSEC
  0
EOF
