  0
SECTION
  2
HEADER
  9
$ACADVER
  1
AC1006
  9
$DWGCODEPAGE
  3
dos932
  9
$INSBASE
 10
0.0
 20
0.0
 30
0.0
  9
$EXTMIN
 10
0.0
 20
0.0
  9
$EXTMAX
 10
5000.0
 20
3500.0
  9
$LIMMIN
 10
0.0
 20
0.0
  9
$LIMMAX
 10
5000.0
 20
3500.0
  9
$ORTHOMODE
 70
     0
  9
$REGENMODE
 70
     1
  9
$FILLMODE
 70
     1
  9
$QTEXTMODE
 70
     0
  9
$MIRRTEXT
 70
     1
  9
$DRAGMODE
 70
     2
  9
$LTSCALE
 40
1.0
  9
$OSMODE
 70
    37
  9
$ATTMODE
 70
     1
  9
$TEXTSIZE
 40
3.5
  9
$TRACEWID
 40
1.0
  9
$TEXTSTYLE
  7
STANDARD
  9
$CLAYER
  8
0
  9
$CELTYPE
  6
BYLAYER
  9
$CECOLOR
 62
   256
  9
$DIMSCALE
 40
1.0
  9
$DIMASZ
 40
3.302
  9
$DIMEXO
 40
1.0
  9
$DIMDLI
 40
3.75
  9
$DIMRND
 40
0.0
  9
$DIMDLE
 40
0.0
  9
$DIMEXE
 40
1.0
  9
$DIMTP
 40
0.0
  9
$DIMTM
 40
0.0
  9
$DIMTXT
 40
3.5
  9
$DIMCEN
 40
2.5
  9
$DIMTSZ
 40
0.0
  9
$DIMTOL
 70
     0
  9
$DIMLIM
 70
     0
  9
$DIMTIH
 70
     1
  9
$DIMTOH
 70
     1
  9
$DIMSE1
 70
     0
  9
$DIMSE2
 70
     0
  9
$DIMTAD
 70
     1
  9
$DIMZIN
 70
     0
  9
$DIMBLK
  1

  9
$DIMASO
 70
     1
  9
$DIMSHO
 70
     1
  9
$DIMPOST
  1

  9
$DIMAPOST
  1

  9
$DIMALT
 70
     0
  9
$DIMALTD
 70
     3
  9
$DIMALTF
 40
0.0393700787401575
  9
$DIMLFAC
 40
1.0
  9
$DIMTOFL
 70
     1
  9
$DIMTVP
 40
0.0
  9
$DIMTIX
 70
     0
  9
$DIMSOXD
 70
     0
  9
$DIMSAH
 70
     0
  9
$DIMBLK1
  1

  9
$DIMBLK2
  1

  9
$LUNITS
 70
     2
  9
$LUPREC
 70
     3
  9
$SKETCHINC
 40
1.0
  9
$FILLETRAD
 40
10.0
  9
$AUNITS
 70
     0
  9
$AUPREC
 70
     2
  9
$MENU
  1
.
  9
$ELEVATION
 40
0.0
  9
$THICKNESS
 40
0.0
  9
$LIMCHECK
 70
     0
  9
$CHAMFERA
 40
0.0
  9
$CHAMFERB
 40
0.0
  9
$SKPOLY
 70
     0
  9
$TDCREATE
 40
2459868.346741886
  9
$TDUPDATE
 40
2460139.214865266
  9
$TDINDWG
 40
0.0000000116
  9
$TDUSRTIMER
 40
0.0000000116
  9
$USRTIMER
 70
     1
  9
$ANGBASE
 50
0.0
  9
$ANGDIR
 70
     0
  9
$PDMODE
 70
     0
  9
$PDSIZE
 40
-1.0
  9
$PLINEWID
 40
0.0
  9
$COORDS
 70
     1
  9
$SPLFRAME
 70
     0
  9
$SPLINETYPE
 70
     6
  9
$SPLINESEGS
 70
     8
  9
$ATTDIA
 70
     0
  9
$ATTREQ
 70
     1
  9
$HANDLING
 70
     1
  9
$HANDSEED
  5
626
  9
$SURFTAB1
 70
     6
  9
$SURFTAB2
 70
     6
  9
$SURFTYPE
 70
     6
  9
$SURFU
 70
     6
  9
$SURFV
 70
     6
  9
$UCSNAME
  2

  9
$UCSORG
 10
0.0
 20
0.0
 30
0.0
  9
$UCSXDIR
 10
1.0
 20
0.0
 30
0.0
  9
$UCSYDIR
 10
0.0
 20
1.0
 30
0.0
  9
$USERI1
 70
     0
  9
$USERI2
 70
     0
  9
$USERI3
 70
     0
  9
$USERI4
 70
     0
  9
$USERI5
 70
     0
  9
$USERR1
 40
0.0
  9
$USERR2
 40
0.0
  9
$USERR3
 40
0.0
  9
$USERR4
 40
0.0
  9
$USERR5
 40
0.0
  9
$WORLDVIEW
 70
     1
  0
ENDSEC
  0
SECTION
  2
TABLES
  0
TABLE
  2
VPORT
 70
     1
  0
VPORT
  2
*ACTIVE
 70
     0
 10
0.0
 20
0.0
 11
1.0
 21
1.0
 12
2500.0
 22
1750.0
 13
0.0
 23
0.0
 14
10.0
 24
10.0
 15
10.0
 25
10.0
 16
0.0
 26
0.0
 36
1.0
 17
0.0
 27
0.0
 37
0.0
 40
3500.0
 41
1.428571428571429
 42
50.0
 43
0.0
 44
0.0
 50
0.0
 51
0.0
 71
     0
 72
  2000
 73
     1
 74
     3
 75
     0
 76
     0
 77
     0
 78
     0
  0
ENDTAB
  0
TABLE
  2
LTYPE
 70
     6
  0
LTYPE
  2
CONTINUOUS
 70
     0
  3
Solid line
 72
    65
 73
     0
 40
0.0
  0
LTYPE
  2
HIDDEN
 70
     0
  3
Hidden __ __ __ __ __ __ __ __ __ __ __ __ __ __
 72
    65
 73
     2
 40
1.905
 49
1.27
 49
-0.635
  0
LTYPE
  2
PHANTOM
 70
     0
  3
Phantom ______  __  __  ______  __  __  ______
 72
    65
 73
     6
 40
12.7
 49
6.35
 49
-1.27
 49
1.27
 49
-1.27
 49
1.27
 49
-1.27
  0
LTYPE
  2
CENTER
 70
     0
  3
Center ____ _ ____ _ ____ _ ____ _ ____ _ ____
 72
    65
 73
     4
 40
10.16
 49
6.35
 49
-1.27
 49
1.27
 49
-1.27
  0
LTYPE
  2
CENTERX2
 70
     0
  3
Center (2x) ________  __  ________  __  _____
 72
    65
 73
     4
 40
20.32
 49
12.7
 49
-2.54
 49
2.54
 49
-2.54
  0
LTYPE
  2
DOT2
 70
     0
  3
Dot (.5x) ........................................
 72
    65
 73
     2
 40
0.635
 49
0.0
 49
-0.635
  0
ENDTAB
  0
TABLE
  2
LAYER
 70
     3
  0
LAYER
  2
0
 70
     0
 62
     7
  6
CONTINUOUS
  0
LAYER
  2
SLD-0
 70
     0
 62
   179
  6
CONTINUOUS
  0
LAYER
  2
寸法
 70
     0
 62
   179
  6
CONTINUOUS
  0
ENDTAB
  0
TABLE
  2
STYLE
 70
     2
  0
STYLE
  2
STANDARD
 70
     0
 40
0.0
 41
1.0
 50
0.0
 71
     0
 42
3.5
  3
txt
  4
bigfont
  0
STYLE
  2
SLDTEXTSTYLE0
 70
     0
 40
0.0
 41
0.75
 50
0.0
 71
     0
 42
3.5
  3
TXT
  4
bigfont
  0
ENDTAB
  0
TABLE
  2
VIEW
 70
     0
  0
ENDTAB
  0
TABLE
  2
UCS
 70
     0
  0
ENDTAB
  0
ENDSEC
  0
SECTION
  2
BLOCKS
  0
ENDSEC
  0
SECTION
  2
ENTITIES
  0
LINE
  5
75
  8
0
  6
CONTINUOUS
 62
     7
 10
4801.663086450988
 20
279.1403827252221
 30
0.0
 11
3345.906222050112
 21
279.1403827252221
 31
0.0
  0
TEXT
  5
77
  8
0
  6
CONTINUOUS
 62
     7
 10
1982.495570885822
 20
1945.034307062798
 30
0.0
 40
52.91666666666666
  1
＜正面＞
 41
0.75
  7
SLDTEXTSTYLE0
  0
TEXT
  5
78
  8
0
  6
CONTINUOUS
 62
     7
 10
3377.814243189123
 20
326.489054196763
 30
0.0
 40
52.91666666666666
  1
品名：
 41
0.75
  7
SLDTEXTSTYLE0
  0
TEXT
  5
79
  8
0
  6
CONTINUOUS
 62
     7
 10
4446.663437481703
 20
332.3177187478654
 30
0.0
 40
52.91666666666666
  1
Pamouna
 41
0.75
  7
SLDTEXTSTYLE0
  0
TEXT
  5
7A
  8
寸法
  6
CONTINUOUS
 62
     7
 10
4688.007304885427
 20
165.7088516276312
 30
0.0
 40
52.91666666666666
  1
1/1
 41
0.75
  7
SLDTEXTSTYLE0
  0
TEXT
  5
7B
  8
寸法
  6
CONTINUOUS
 62
     7
 10
3611.283129349216
 20
332.2465883182592
 30
0.0
 40
66.14583333333331
  1
MA-N370E
 41
0.75
  7
SLDTEXTSTYLE0
  0
TEXT
  5
7C
  8
寸法
  6
CONTINUOUS
 62
     7
 10
4198.79693921183
 20
165.7088544215994
 30
0.0
 40
52.91666666666666
  1
2022/10/15
 41
0.75
  7
SLDTEXTSTYLE0
  0
TEXT
  5
7D
  8
寸法
  6
CONTINUOUS
 62
     7
 10
3662.466593051836
 20
1949.98353978493
 30
0.0
 40
52.91666666666666
  1
＜右側面＞
 41
0.75
  7
SLDTEXTSTYLE0
  0
TEXT
  5
7E
  8
0
  6
CONTINUOUS
 62
     7
 10
669.5723251208341
 20
1945.034307062798
 30
0.0
 40
52.91666666666666
  1
＜左側面＞
 41
0.75
  7
SLDTEXTSTYLE0
  0
TEXT
  5
7F
  8
0
  6
CONTINUOUS
 62
     7
 10
1991.208599953329
 20
2960.316099037199
 30
0.0
 40
52.91666666666666
  1
＜上面＞
 41
0.75
  7
SLDTEXTSTYLE0
  0
LINE
  5
80
  8
0
  6
CONTINUOUS
 62
     7
 10
2427.941905018051
 20
911.9003505178936
 30
0.0
 11
2427.941905018051
 21
1761.900350517894
 31
0.0
  0
LINE
  5
81
  8
0
  6
CONTINUOUS
 62
     7
 10
2410.441905018051
 20
911.9003505178936
 30
0.0
 11
2427.941905018051
 21
911.9003505178936
 31
0.0
  0
LINE
  5
82
  8
0
  6
CONTINUOUS
 62
     7
 10
2427.941905018051
 20
1761.900350517894
 30
0.0
 11
2410.441905018051
 21
1761.900350517894
 31
0.0
  0
LINE
  5
83
  8
0
  6
CONTINUOUS
 62
     7
 10
2410.441905018051
 20
1761.900350517894
 30
0.0
 11
2410.441905018051
 21
1759.900350517895
 31
0.0
  0
LINE
  5
84
  8
0
  6
CONTINUOUS
 62
     7
 10
2410.441905018051
 20
913.9003505178946
 30
0.0
 11
2410.441905018051
 21
911.9003505178936
 31
0.0
  0
LINE
  5
85
  8
0
  6
CONTINUOUS
 62
     7
 10
2426.441905018051
 20
1759.900350517895
 30
0.0
 11
2054.441905018051
 21
1759.900350517895
 31
0.0
  0
LINE
  5
86
  8
0
  6
CONTINUOUS
 62
     7
 10
2426.441905018051
 20
913.9003505178946
 30
0.0
 11
2426.441905018051
 21
1759.900350517895
 31
0.0
  0
LINE
  5
87
  8
0
  6
CONTINUOUS
 62
     7
 10
2054.441905018051
 20
913.9003505178946
 30
0.0
 11
2426.441905018051
 21
913.9003505178946
 31
0.0
  0
LINE
  5
88
  8
0
  6
CONTINUOUS
 62
     7
 10
2054.441905018051
 20
1759.900350517895
 30
0.0
 11
2054.441905018051
 21
913.9003505178946
 31
0.0
  0
LINE
  5
89
  8
0
  6
CONTINUOUS
 62
     7
 10
2070.441905018051
 20
1761.900350517894
 30
0.0
 11
2052.941905018051
 21
1761.900350517894
 31
0.0
  0
LINE
  5
8A
  8
0
  6
CONTINUOUS
 62
     7
 10
2070.441905018051
 20
911.9003505178936
 30
0.0
 11
2070.441905018051
 21
913.9003505178946
 31
0.0
  0
LINE
  5
8B
  8
0
  6
CONTINUOUS
 62
     7
 10
2070.441905018051
 20
1759.900350517895
 30
0.0
 11
2070.441905018051
 21
1761.900350517894
 31
0.0
  0
LINE
  5
8C
  8
0
  6
CONTINUOUS
 62
     7
 10
2052.941905018051
 20
1761.900350517894
 30
0.0
 11
2052.941905018051
 21
911.9003505178936
 31
0.0
  0
LINE
  5
8D
  8
0
  6
CONTINUOUS
 62
     7
 10
2052.941905018051
 20
911.9003505178936
 30
0.0
 11
2070.441905018051
 21
911.9003505178936
 31
0.0
  0
LINE
  5
8E
  8
0
  6
CONTINUOUS
 62
     7
 10
2410.44190501806
 20
912.4003505178936
 30
0.0
 11
2070.44190501806
 21
912.4003505178936
 31
0.0
  0
LINE
  5
8F
  8
0
  6
CONTINUOUS
 62
     7
 10
2410.441905018051
 20
1761.400350517893
 30
0.0
 11
2070.441905018051
 21
1761.400350517893
 31
0.0
  0
LINE
  5
90
  8
0
  6
CONTINUOUS
 62
     7
 10
881.8719241499415
 20
1345.275350517893
 30
0.0
 11
881.8719241499409
 21
1344.350350517892
 31
0.0
  0
LINE
  5
91
  8
0
  6
CONTINUOUS
 62
     7
 10
881.8719241499316
 20
1329.450350517891
 30
0.0
 11
881.8719241499311
 21
1328.525350517892
 31
0.0
  0
LINE
  5
92
  8
0
  6
CONTINUOUS
 62
     7
 10
881.8719241499311
 20
1328.525350517892
 30
0.0
 11
881.7371090749853
 21
1328.525350517892
 31
0.0
  0
LINE
  5
93
  8
0
  6
CONTINUOUS
 62
     7
 10
881.7371090749854
 20
1345.275350517893
 30
0.0
 11
881.8719241499415
 21
1345.275350517893
 31
0.0
  0
LINE
  5
94
  8
0
  6
CONTINUOUS
 62
     7
 10
883.237109075003
 20
1328.525350517892
 30
0.0
 11
881.8719241499311
 21
1328.525350517892
 31
0.0
  0
LINE
  5
95
  8
0
  6
CONTINUOUS
 62
     7
 10
881.8719241499415
 20
1345.275350517893
 30
0.0
 11
883.2371090749929
 21
1345.275350517893
 31
0.0
  0
LINE
  5
96
  8
0
  6
CONTINUOUS
 62
     7
 10
881.8719241499415
 20
1002.275350517893
 30
0.0
 11
881.8719241499409
 21
1001.350350517892
 31
0.0
  0
LINE
  5
97
  8
0
  6
CONTINUOUS
 62
     7
 10
881.8719241499316
 20
986.450350517891
 30
0.0
 11
881.8719241499311
 21
985.525350517892
 31
0.0
  0
LINE
  5
98
  8
0
  6
CONTINUOUS
 62
     7
 10
881.8719241499311
 20
985.525350517892
 30
0.0
 11
881.7371090749853
 21
985.5253505178921
 31
0.0
  0
LINE
  5
99
  8
0
  6
CONTINUOUS
 62
     7
 10
881.7371090749854
 20
1002.275350517893
 30
0.0
 11
881.8719241499415
 21
1002.275350517893
 31
0.0
  0
LINE
  5
9A
  8
0
  6
CONTINUOUS
 62
     7
 10
883.237109075003
 20
985.5253505178922
 30
0.0
 11
881.8719241499311
 21
985.525350517892
 31
0.0
  0
LINE
  5
9B
  8
0
  6
CONTINUOUS
 62
     7
 10
881.8719241499415
 20
1002.275350517893
 30
0.0
 11
883.2371090749929
 21
1002.275350517893
 31
0.0
  0
LINE
  5
9C
  8
0
  6
CONTINUOUS
 62
     7
 10
881.871924149943
 20
1688.275350517893
 30
0.0
 11
881.8719241499424
 21
1687.350350517892
 31
0.0
  0
LINE
  5
9D
  8
0
  6
CONTINUOUS
 62
     7
 10
881.8719241499331
 20
1672.450350517891
 30
0.0
 11
881.8719241499326
 21
1671.525350517892
 31
0.0
  0
LINE
  5
9E
  8
0
  6
CONTINUOUS
 62
     7
 10
881.8719241499326
 20
1671.525350517892
 30
0.0
 11
881.7371090749854
 21
1671.525350517892
 31
0.0
  0
LINE
  5
9F
  8
0
  6
CONTINUOUS
 62
     7
 10
881.7371090749854
 20
1688.275350517893
 30
0.0
 11
881.871924149943
 21
1688.275350517893
 31
0.0
  0
LINE
  5
A0
  8
0
  6
CONTINUOUS
 62
     7
 10
883.2371090750044
 20
1671.525350517892
 30
0.0
 11
881.8719241499326
 21
1671.525350517892
 31
0.0
  0
LINE
  5
A1
  8
0
  6
CONTINUOUS
 62
     7
 10
881.871924149943
 20
1688.275350517893
 30
0.0
 11
883.2371090749944
 21
1688.275350517893
 31
0.0
  0
LINE
  5
A2
  8
0
  6
CONTINUOUS
 62
     7
 10
883.2371090749946
 20
1688.856308656952
 30
0.0
 11
883.7371090749855
 21
1688.856308656952
 31
0.0
  0
LINE
  5
A3
  8
0
  6
CONTINUOUS
 62
     7
 10
883.2371090749938
 20
1687.300350517659
 30
0.0
 11
883.7371090749937
 21
1687.300350517659
 31
0.0
  0
LINE
  5
A4
  8
0
  6
CONTINUOUS
 62
     7
 10
883.2371090749938
 20
1687.300350517659
 30
0.0
 11
883.2371090749946
 21
1688.856308656952
 31
0.0
  0
LINE
  5
A5
  8
0
  6
CONTINUOUS
 62
     7
 10
883.7371090749855
 20
1670.944392378823
 30
0.0
 11
883.2371090750013
 21
1670.944392378824
 31
0.0
  0
LINE
  5
A6
  8
0
  6
CONTINUOUS
 62
     7
 10
883.2371090750013
 20
1670.944392378824
 30
0.0
 11
883.2371090750095
 21
1672.50035051811
 31
0.0
  0
LINE
  5
A7
  8
0
  6
CONTINUOUS
 62
     7
 10
883.7371090750095
 20
1672.50035051811
 30
0.0
 11
883.2371090750095
 21
1672.50035051811
 31
0.0
  0
LINE
  5
A8
  8
0
  6
CONTINUOUS
 62
     7
 10
883.5371090749957
 20
1698.291924675644
 30
0.0
 11
883.2371090749955
 21
1698.291924675644
 31
0.0
  0
LINE
  5
A9
  8
0
  6
CONTINUOUS
 62
     7
 10
883.7371090749957
 20
1698.291924675644
 30
0.0
 11
883.5371090749957
 21
1698.291924675644
 31
0.0
  0
LINE
  5
AA
  8
0
  6
CONTINUOUS
 62
     7
 10
883.2371090749955
 20
1698.291924675644
 30
0.0
 11
883.2371090749946
 21
1688.856308656952
 31
0.0
  0
LINE
  5
AB
  8
0
  6
CONTINUOUS
 62
     7
 10
883.5371090750014
 20
1661.508776360144
 30
0.0
 11
883.7371090750014
 21
1661.508776360144
 31
0.0
  0
LINE
  5
AC
  8
0
  6
CONTINUOUS
 62
     7
 10
883.2371090750014
 20
1661.508776360144
 30
0.0
 11
883.5371090750014
 21
1661.508776360144
 31
0.0
  0
LINE
  5
AD
  8
0
  6
CONTINUOUS
 62
     7
 10
883.2371090750013
 20
1670.944392378824
 30
0.0
 11
883.2371090750014
 21
1661.508776360144
 31
0.0
  0
POLYLINE
  5
AE
  8
0
  6
CONTINUOUS
 62
     7
 10
0.0
 20
0.0
 30
0.0
 66
     1
 70
     8
  0
VERTEX
  5
1A6
  8
0
  6
CONTINUOUS
 62
     7
 10
881.7371090749855
 20
1708.400350517893
 30
0.0
 70
    32
  0
VERTEX
  5
1A7
  8
0
  6
CONTINUOUS
 62
     7
 10
881.7543779003648
 20
1708.400350517893
 30
0.0
 70
    32
  0
VERTEX
  5
1A8
  8
0
  6
CONTINUOUS
 62
     7
 10
881.7718029838359
 20
1708.400350517893
 30
0.0
 70
    32
  0
VERTEX
  5
1A9
  8
0
  6
CONTINUOUS
 62
     7
 10
881.7895405834895
 20
1708.400350517893
 30
0.0
 70
    32
  0
VERTEX
  5
1AA
  8
0
  6
CONTINUOUS
 62
     7
 10
881.8077469574171
 20
1708.400350517893
 30
0.0
 70
    32
  0
VERTEX
  5
1AB
  8
0
  6
CONTINUOUS
 62
     7
 10
881.82657836371
 20
1708.400350517893
 30
0.0
 70
    32
  0
VERTEX
  5
1AC
  8
0
  6
CONTINUOUS
 62
     7
 10
881.8461910604599
 20
1708.400350517893
 30
0.0
 70
    32
  0
VERTEX
  5
1AD
  8
0
  6
CONTINUOUS
 62
     7
 10
881.8667412837483
 20
1708.400350517893
 30
0.0
 70
    32
  0
VERTEX
  5
1AE
  8
0
  6
CONTINUOUS
 62
     7
 10
881.8883390713673
 20
1708.400350517894
 30
0.0
 70
    32
  0
VERTEX
  5
1AF
  8
0
  6
CONTINUOUS
 62
     7
 10
881.9109508666876
 20
1708.400350517893
 30
0.0
 70
    32
  0
VERTEX
  5
1B0
  8
0
  6
CONTINUOUS
 62
     7
 10
881.9345152954689
 20
1708.400350517893
 30
0.0
 70
    32
  0
VERTEX
  5
1B1
  8
0
  6
CONTINUOUS
 62
     7
 10
881.9589709834694
 20
1708.400350517893
 30
0.0
 70
    32
  0
VERTEX
  5
1B2
  8
0
  6
CONTINUOUS
 62
     7
 10
881.9842565564477
 20
1708.400350517893
 30
0.0
 70
    32
  0
VERTEX
  5
1B3
  8
0
  6
CONTINUOUS
 62
     7
 10
882.0103106401625
 20
1708.400350517893
 30
0.0
 70
    32
  0
VERTEX
  5
1B4
  8
0
  6
CONTINUOUS
 62
     7
 10
882.0370718603726
 20
1708.400350517893
 30
0.0
 70
    32
  0
VERTEX
  5
1B5
  8
0
  6
CONTINUOUS
 62
     7
 10
882.0644788428364
 20
1708.400350517893
 30
0.0
 70
    32
  0
VERTEX
  5
1B6
  8
0
  6
CONTINUOUS
 62
     7
 10
882.0924702133129
 20
1708.400350517893
 30
0.0
 70
    32
  0
VERTEX
  5
1B7
  8
0
  6
CONTINUOUS
 62
     7
 10
882.1209845975609
 20
1708.400350517893
 30
0.0
 70
    32
  0
VERTEX
  5
1B8
  8
0
  6
CONTINUOUS
 62
     7
 10
882.1499692484145
 20
1708.400350517893
 30
0.0
 70
    32
  0
VERTEX
  5
1B9
  8
0
  6
CONTINUOUS
 62
     7
 10
882.1794135572952
 20
1708.400350517893
 30
0.0
 70
    32
  0
VERTEX
  5
1BA
  8
0
  6
CONTINUOUS
 62
     7
 10
882.2093197617043
 20
1708.400350517893
 30
0.0
 70
    32
  0
VERTEX
  5
1BB
  8
0
  6
CONTINUOUS
 62
     7
 10
882.2396901022507
 20
1708.400350517893
 30
0.0
 70
    32
  0
VERTEX
  5
1BC
  8
0
  6
CONTINUOUS
 62
     7
 10
882.2705268195435
 20
1708.400350517893
 30
0.0
 70
    32
  0
VERTEX
  5
1BD
  8
0
  6
CONTINUOUS
 62
     7
 10
882.3018321541916
 20
1708.400350517893
 30
0.0
 70
    32
  0
VERTEX
  5
1BE
  8
0
  6
CONTINUOUS
 62
     7
 10
882.3336083468032
 20
1708.400350517893
 30
0.0
 70
    32
  0
VERTEX
  5
1BF
  8
0
  6
CONTINUOUS
 62
     7
 10
882.3658576379875
 20
1708.400350517893
 30
0.0
 70
    32
  0
VERTEX
  5
1C0
  8
0
  6
CONTINUOUS
 62
     7
 10
882.3985822683526
 20
1708.400350517893
 30
0.0
 70
    32
  0
VERTEX
  5
1C1
  8
0
  6
CONTINUOUS
 62
     7
 10
882.431784478508
 20
1708.400350517893
 30
0.0
 70
    32
  0
VERTEX
  5
1C2
  8
0
  6
CONTINUOUS
 62
     7
 10
882.4654649173167
 20
1708.400350517893
 30
0.0
 70
    32
  0
VERTEX
  5
1C3
  8
0
  6
CONTINUOUS
 62
     7
 10
882.49961231064
 20
1708.400350517893
 30
0.0
 70
    32
  0
VERTEX
  5
1C4
  8
0
  6
CONTINUOUS
 62
     7
 10
882.5342099775507
 20
1708.400350517893
 30
0.0
 70
    32
  0
VERTEX
  5
1C5
  8
0
  6
CONTINUOUS
 62
     7
 10
882.5692412102408
 20
1708.400350517893
 30
0.0
 70
    32
  0
VERTEX
  5
1C6
  8
0
  6
CONTINUOUS
 62
     7
 10
882.6046893009025
 20
1708.400350517893
 30
0.0
 70
    32
  0
VERTEX
  5
1C7
  8
0
  6
CONTINUOUS
 62
     7
 10
882.6405375417282
 20
1708.400350517893
 30
0.0
 70
    32
  0
VERTEX
  5
1C8
  8
0
  6
CONTINUOUS
 62
     7
 10
882.6767692249108
 20
1708.400350517893
 30
0.0
 70
    32
  0
VERTEX
  5
1C9
  8
0
  6
CONTINUOUS
 62
     7
 10
882.7133676426419
 20
1708.400350517893
 30
0.0
 70
    32
  0
VERTEX
  5
1CA
  8
0
  6
CONTINUOUS
 62
     7
 10
882.7503160871138
 20
1708.400350517893
 30
0.0
 70
    32
  0
VERTEX
  5
1CB
  8
0
  6
CONTINUOUS
 62
     7
 10
882.7875978505195
 20
1708.400350517893
 30
0.0
 70
    32
  0
VERTEX
  5
1CC
  8
0
  6
CONTINUOUS
 62
     7
 10
882.8251962270567
 20
1708.400350517894
 30
0.0
 70
    32
  0
VERTEX
  5
1CD
  8
0
  6
CONTINUOUS
 62
     7
 10
882.8630945361988
 20
1708.400350517894
 30
0.0
 70
    32
  0
VERTEX
  5
1CE
  8
0
  6
CONTINUOUS
 62
     7
 10
882.9012761147063
 20
1708.400350517893
 30
0.0
 70
    32
  0
VERTEX
  5
1CF
  8
0
  6
CONTINUOUS
 62
     7
 10
882.9397242996756
 20
1708.400350517894
 30
0.0
 70
    32
  0
VERTEX
  5
1D0
  8
0
  6
CONTINUOUS
 62
     7
 10
882.9784224282027
 20
1708.400350517894
 30
0.0
 70
    32
  0
VERTEX
  5
1D1
  8
0
  6
CONTINUOUS
 62
     7
 10
883.0173538373838
 20
1708.400350517895
 30
0.0
 70
    32
  0
VERTEX
  5
1D2
  8
0
  6
CONTINUOUS
 62
     7
 10
883.0565018643152
 20
1708.400350517895
 30
0.0
 70
    32
  0
VERTEX
  5
1D3
  8
0
  6
CONTINUOUS
 62
     7
 10
883.0958498460927
 20
1708.400350517895
 30
0.0
 70
    32
  0
VERTEX
  5
1D4
  8
0
  6
CONTINUOUS
 62
     7
 10
883.1353811198127
 20
1708.400350517895
 30
0.0
 70
    32
  0
VERTEX
  5
1D5
  8
0
  6
CONTINUOUS
 62
     7
 10
883.175079022571
 20
1708.400350517896
 30
0.0
 70
    32
  0
VERTEX
  5
1D6
  8
0
  6
CONTINUOUS
 62
     7
 10
883.2149268914642
 20
1708.400350517896
 30
0.0
 70
    32
  0
VERTEX
  5
1D7
  8
0
  6
CONTINUOUS
 62
     7
 10
883.2549080635881
 20
1708.400350517896
 30
0.0
 70
    32
  0
VERTEX
  5
1D8
  8
0
  6
CONTINUOUS
 62
     7
 10
883.295005876039
 20
1708.400350517896
 30
0.0
 70
    32
  0
VERTEX
  5
1D9
  8
0
  6
CONTINUOUS
 62
     7
 10
883.335203665913
 20
1708.400350517897
 30
0.0
 70
    32
  0
VERTEX
  5
1DA
  8
0
  6
CONTINUOUS
 62
     7
 10
883.3754847703065
 20
1708.400350517897
 30
0.0
 70
    32
  0
VERTEX
  5
1DB
  8
0
  6
CONTINUOUS
 62
     7
 10
883.4158325263152
 20
1708.400350517898
 30
0.0
 70
    32
  0
VERTEX
  5
1DC
  8
0
  6
CONTINUOUS
 62
     7
 10
883.4562302710356
 20
1708.400350517898
 30
0.0
 70
    32
  0
VERTEX
  5
1DD
  8
0
  6
CONTINUOUS
 62
     7
 10
883.4966613415636
 20
1708.400350517899
 30
0.0
 70
    32
  0
VERTEX
  5
1DE
  8
0
  6
CONTINUOUS
 62
     7
 10
883.5371090749954
 20
1708.400350517899
 30
0.0
 70
    32
  0
SEQEND
  5
612
  8
0
  6
CONTINUOUS
 62
     7
  0
LINE
  5
AF
  8
0
  6
CONTINUOUS
 62
     7
 10
883.5371090749952
 20
1707.400350517899
 30
0.0
 11
883.5371090749954
 21
1708.400350517899
 31
0.0
  0
POLYLINE
  5
B0
  8
0
  6
CONTINUOUS
 62
     7
 10
0.0
 20
0.0
 30
0.0
 66
     1
 70
     8
  0
VERTEX
  5
1DF
  8
0
  6
CONTINUOUS
 62
     7
 10
883.5371090750184
 20
1651.400350517896
 30
0.0
 70
    32
  0
VERTEX
  5
1E0
  8
0
  6
CONTINUOUS
 62
     7
 10
883.4966605963206
 20
1651.400350517896
 30
0.0
 70
    32
  0
VERTEX
  5
1E1
  8
0
  6
CONTINUOUS
 62
     7
 10
883.4562287840179
 20
1651.400350517896
 30
0.0
 70
    32
  0
VERTEX
  5
1E2
  8
0
  6
CONTINUOUS
 62
     7
 10
883.4158303045048
 20
1651.400350517896
 30
0.0
 70
    32
  0
VERTEX
  5
1E3
  8
0
  6
CONTINUOUS
 62
     7
 10
883.3754818241758
 20
1651.400350517896
 30
0.0
 70
    32
  0
VERTEX
  5
1E4
  8
0
  6
CONTINUOUS
 62
     7
 10
883.3352000094262
 20
1651.400350517896
 30
0.0
 70
    32
  0
VERTEX
  5
1E5
  8
0
  6
CONTINUOUS
 62
     7
 10
883.2950015266508
 20
1651.400350517896
 30
0.0
 70
    32
  0
VERTEX
  5
1E6
  8
0
  6
CONTINUOUS
 62
     7
 10
883.2549030422443
 20
1651.400350517896
 30
0.0
 70
    32
  0
VERTEX
  5
1E7
  8
0
  6
CONTINUOUS
 62
     7
 10
883.2149212226016
 20
1651.400350517896
 30
0.0
 70
    32
  0
VERTEX
  5
1E8
  8
0
  6
CONTINUOUS
 62
     7
 10
883.1750727341171
 20
1651.400350517896
 30
0.0
 70
    32
  0
VERTEX
  5
1E9
  8
0
  6
CONTINUOUS
 62
     7
 10
883.1353742431862
 20
1651.400350517896
 30
0.0
 70
    32
  0
VERTEX
  5
1EA
  8
0
  6
CONTINUOUS
 62
     7
 10
883.0958424162034
 20
1651.400350517896
 30
0.0
 70
    32
  0
VERTEX
  5
1EB
  8
0
  6
CONTINUOUS
 62
     7
 10
883.0564939195635
 20
1651.400350517896
 30
0.0
 70
    32
  0
VERTEX
  5
1EC
  8
0
  6
CONTINUOUS
 62
     7
 10
883.0173454196615
 20
1651.400350517896
 30
0.0
 70
    32
  0
VERTEX
  5
1ED
  8
0
  6
CONTINUOUS
 62
     7
 10
882.9784135828919
 20
1651.400350517896
 30
0.0
 70
    32
  0
VERTEX
  5
1EE
  8
0
  6
CONTINUOUS
 62
     7
 10
882.9397150756499
 20
1651.400350517896
 30
0.0
 70
    32
  0
VERTEX
  5
1EF
  8
0
  6
CONTINUOUS
 62
     7
 10
882.9012665643302
 20
1651.400350517896
 30
0.0
 70
    32
  0
VERTEX
  5
1F0
  8
0
  6
CONTINUOUS
 62
     7
 10
882.8630847153273
 20
1651.400350517896
 30
0.0
 70
    32
  0
VERTEX
  5
1F1
  8
0
  6
CONTINUOUS
 62
     7
 10
882.8251861950366
 20
1651.400350517896
 30
0.0
 70
    32
  0
VERTEX
  5
1F2
  8
0
  6
CONTINUOUS
 62
     7
 10
882.7875876700946
 20
1651.400350517896
 30
0.0
 70
    32
  0
VERTEX
  5
1F3
  8
0
  6
CONTINUOUS
 62
     7
 10
882.7503058196003
 20
1651.400350517896
 30
0.0
 70
    32
  0
VERTEX
  5
1F4
  8
0
  6
CONTINUOUS
 62
     7
 10
882.7133573408576
 20
1651.400350517896
 30
0.0
 70
    32
  0
VERTEX
  5
1F5
  8
0
  6
CONTINUOUS
 62
     7
 10
882.6767589326149
 20
1651.400350517896
 30
0.0
 70
    32
  0
VERTEX
  5
1F6
  8
0
  6
CONTINUOUS
 62
     7
 10
882.6405272936197
 20
1651.400350517896
 30
0.0
 70
    32
  0
VERTEX
  5
1F7
  8
0
  6
CONTINUOUS
 62
     7
 10
882.6046791226202
 20
1651.400350517896
 30
0.0
 70
    32
  0
VERTEX
  5
1F8
  8
0
  6
CONTINUOUS
 62
     7
 10
882.5692311183642
 20
1651.400350517896
 30
0.0
 70
    32
  0
VERTEX
  5
1F9
  8
0
  6
CONTINUOUS
 62
     7
 10
882.5341999795999
 20
1651.400350517896
 30
0.0
 70
    32
  0
VERTEX
  5
1FA
  8
0
  6
CONTINUOUS
 62
     7
 10
882.4996024050747
 20
1651.400350517896
 30
0.0
 70
    32
  0
VERTEX
  5
1FB
  8
0
  6
CONTINUOUS
 62
     7
 10
882.4654550935368
 20
1651.400350517896
 30
0.0
 70
    32
  0
VERTEX
  5
1FC
  8
0
  6
CONTINUOUS
 62
     7
 10
882.431774711138
 20
1651.400350517896
 30
0.0
 70
    32
  0
VERTEX
  5
1FD
  8
0
  6
CONTINUOUS
 62
     7
 10
882.3985723645947
 20
1651.400350517896
 30
0.0
 70
    32
  0
VERTEX
  5
1FE
  8
0
  6
CONTINUOUS
 62
     7
 10
882.3658473624369
 20
1651.400350517896
 30
0.0
 70
    32
  0
VERTEX
  5
1FF
  8
0
  6
CONTINUOUS
 62
     7
 10
882.333597506659
 20
1651.400350517896
 30
0.0
 70
    32
  0
VERTEX
  5
200
  8
0
  6
CONTINUOUS
 62
     7
 10
882.301820599255
 20
1651.400350517896
 30
0.0
 70
    32
  0
VERTEX
  5
201
  8
0
  6
CONTINUOUS
 62
     7
 10
882.2705144422187
 20
1651.400350517896
 30
0.0
 70
    32
  0
VERTEX
  5
202
  8
0
  6
CONTINUOUS
 62
     7
 10
882.239676837544
 20
1651.400350517896
 30
0.0
 70
    32
  0
VERTEX
  5
203
  8
0
  6
CONTINUOUS
 62
     7
 10
882.2093055872251
 20
1651.400350517896
 30
0.0
 70
    32
  0
VERTEX
  5
204
  8
0
  6
CONTINUOUS
 62
     7
 10
882.179398493256
 20
1651.400350517896
 30
0.0
 70
    32
  0
VERTEX
  5
205
  8
0
  6
CONTINUOUS
 62
     7
 10
882.1499533576304
 20
1651.400350517896
 30
0.0
 70
    32
  0
VERTEX
  5
206
  8
0
  6
CONTINUOUS
 62
     7
 10
882.1209679855319
 20
1651.400350517896
 30
0.0
 70
    32
  0
VERTEX
  5
207
  8
0
  6
CONTINUOUS
 62
     7
 10
882.0924530552123
 20
1651.400350517896
 30
0.0
 70
    32
  0
VERTEX
  5
208
  8
0
  6
CONTINUOUS
 62
     7
 10
882.0644614000954
 20
1651.400350517896
 30
0.0
 70
    32
  0
VERTEX
  5
209
  8
0
  6
CONTINUOUS
 62
     7
 10
882.037054469072
 20
1651.400350517896
 30
0.0
 70
    32
  0
VERTEX
  5
20A
  8
0
  6
CONTINUOUS
 62
     7
 10
882.0102937110332
 20
1651.400350517896
 30
0.0
 70
    32
  0
VERTEX
  5
20B
  8
0
  6
CONTINUOUS
 62
     7
 10
881.9842405748708
 20
1651.400350517896
 30
0.0
 70
    32
  0
VERTEX
  5
20C
  8
0
  6
CONTINUOUS
 62
     7
 10
881.9589565094759
 20
1651.400350517896
 30
0.0
 70
    32
  0
VERTEX
  5
20D
  8
0
  6
CONTINUOUS
 62
     7
 10
881.9345029637394
 20
1651.400350517896
 30
0.0
 70
    32
  0
VERTEX
  5
20E
  8
0
  6
CONTINUOUS
 62
     7
 10
881.9109413865535
 20
1651.400350517896
 30
0.0
 70
    32
  0
VERTEX
  5
20F
  8
0
  6
CONTINUOUS
 62
     7
 10
881.8883332268089
 20
1651.400350517896
 30
0.0
 70
    32
  0
VERTEX
  5
210
  8
0
  6
CONTINUOUS
 62
     7
 10
881.866739933397
 20
1651.400350517896
 30
0.0
 70
    32
  0
VERTEX
  5
211
  8
0
  6
CONTINUOUS
 62
     7
 10
881.8461938683481
 20
1651.400350517896
 30
0.0
 70
    32
  0
VERTEX
  5
212
  8
0
  6
CONTINUOUS
 62
     7
 10
881.8265835052756
 20
1651.400350517896
 30
0.0
 70
    32
  0
VERTEX
  5
213
  8
0
  6
CONTINUOUS
 62
     7
 10
881.8077529044824
 20
1651.400350517896
 30
0.0
 70
    32
  0
VERTEX
  5
214
  8
0
  6
CONTINUOUS
 62
     7
 10
881.7895461135123
 20
1651.400350517896
 30
0.0
 70
    32
  0
VERTEX
  5
215
  8
0
  6
CONTINUOUS
 62
     7
 10
881.7718071799104
 20
1651.400350517896
 30
0.0
 70
    32
  0
VERTEX
  5
216
  8
0
  6
CONTINUOUS
 62
     7
 10
881.7543801512201
 20
1651.400350517896
 30
0.0
 70
    32
  0
VERTEX
  5
217
  8
0
  6
CONTINUOUS
 62
     7
 10
881.7371090749854
 20
1651.400350517896
 30
0.0
 70
    32
  0
SEQEND
  5
613
  8
0
  6
CONTINUOUS
 62
     7
  0
LINE
  5
B1
  8
0
  6
CONTINUOUS
 62
     7
 10
883.5371090750044
 20
1652.400350517895
 30
0.0
 11
883.5371090750184
 21
1651.400350517896
 31
0.0
  0
LINE
  5
B2
  8
0
  6
CONTINUOUS
 62
     7
 10
883.7371090749951
 20
1707.400350517899
 30
0.0
 11
883.5371090749952
 21
1707.400350517899
 31
0.0
  0
LINE
  5
B3
  8
0
  6
CONTINUOUS
 62
     7
 10
883.5371090749952
 20
1707.400350517899
 30
0.0
 11
883.5371090749957
 21
1698.291924675644
 31
0.0
  0
POLYLINE
  5
B4
  8
0
  6
CONTINUOUS
 62
     7
 66
     1
 10
0.0
 20
0.0
 30
0.0
  0
VERTEX
  5
218
  8
0
  6
CONTINUOUS
 62
     7
 10
881.7371090749855
 20
1690.142849159584
 30
0.0
  0
VERTEX
  5
219
  8
0
  6
CONTINUOUS
 62
     7
 10
881.745973417246
 20
1690.134052676775
 30
0.0
  0
VERTEX
  5
21A
  8
0
  6
CONTINUOUS
 62
     7
 10
881.7549567361389
 20
1690.125406877386
 30
0.0
  0
VERTEX
  5
21B
  8
0
  6
CONTINUOUS
 62
     7
 10
881.7641497617398
 20
1690.117027122799
 30
0.0
  0
VERTEX
  5
21C
  8
0
  6
CONTINUOUS
 62
     7
 10
881.7735564145855
 20
1690.108920219948
 30
0.0
  0
VERTEX
  5
21D
  8
0
  6
CONTINUOUS
 62
     7
 10
881.7831639934124
 20
1690.101072190372
 30
0.0
  0
VERTEX
  5
21E
  8
0
  6
CONTINUOUS
 62
     7
 10
881.792959796958
 20
1690.093469055613
 30
0.0
  0
VERTEX
  5
21F
  8
0
  6
CONTINUOUS
 62
     7
 10
881.8029311239587
 20
1690.08609683721
 30
0.0
  0
VERTEX
  5
220
  8
0
  6
CONTINUOUS
 62
     7
 10
881.8130652731516
 20
1690.078941556703
 30
0.0
  0
VERTEX
  5
221
  8
0
  6
CONTINUOUS
 62
     7
 10
881.8233495432731
 20
1690.071989235632
 30
0.0
  0
VERTEX
  5
222
  8
0
  6
CONTINUOUS
 62
     7
 10
881.8337712330608
 20
1690.065225895538
 30
0.0
  0
VERTEX
  5
223
  8
0
  6
CONTINUOUS
 62
     7
 10
881.8443176412511
 20
1690.05863755796
 30
0.0
  0
VERTEX
  5
224
  8
0
  6
CONTINUOUS
 62
     7
 10
881.8549760665809
 20
1690.052210244439
 30
0.0
  0
VERTEX
  5
225
  8
0
  6
CONTINUOUS
 62
     7
 10
881.8657338077874
 20
1690.045929976514
 30
0.0
  0
VERTEX
  5
226
  8
0
  6
CONTINUOUS
 62
     7
 10
881.8765781636067
 20
1690.039782775726
 30
0.0
  0
VERTEX
  5
227
  8
0
  6
CONTINUOUS
 62
     7
 10
881.8874964327764
 20
1690.033754663615
 30
0.0
  0
VERTEX
  5
228
  8
0
  6
CONTINUOUS
 62
     7
 10
881.8984759140329
 20
1690.02783166172
 30
0.0
  0
VERTEX
  5
229
  8
0
  6
CONTINUOUS
 62
     7
 10
881.9095056749271
 20
1690.022001934629
 30
0.0
  0
VERTEX
  5
22A
  8
0
  6
CONTINUOUS
 62
     7
 10
881.9205844523395
 20
1690.016265362016
 30
0.0
  0
VERTEX
  5
22B
  8
0
  6
CONTINUOUS
 62
     7
 10
881.9317142706144
 20
1690.010625806555
 30
0.0
  0
VERTEX
  5
22C
  8
0
  6
CONTINUOUS
 62
     7
 10
881.9428971568146
 20
1690.005087134218
 30
0.0
  0
VERTEX
  5
22D
  8
0
  6
CONTINUOUS
 62
     7
 10
881.9541351380036
 20
1689.999653210972
 30
0.0
  0
VERTEX
  5
22E
  8
0
  6
CONTINUOUS
 62
     7
 10
881.9654302412449
 20
1689.994327902787
 30
0.0
  0
VERTEX
  5
22F
  8
0
  6
CONTINUOUS
 62
     7
 10
881.9767844936018
 20
1689.989115075633
 30
0.0
  0
VERTEX
  5
230
  8
0
  6
CONTINUOUS
 62
     7
 10
881.9881999221374
 20
1689.984018595479
 30
0.0
  0
VERTEX
  5
231
  8
0
  6
CONTINUOUS
 62
     7
 10
881.9996785539154
 20
1689.979042328295
 30
0.0
  0
VERTEX
  5
232
  8
0
  6
CONTINUOUS
 62
     7
 10
882.0112224159985
 20
1689.974190140048
 30
0.0
  0
VERTEX
  5
233
  8
0
  6
CONTINUOUS
 62
     7
 10
882.022833535451
 20
1689.969465896711
 30
0.0
  0
VERTEX
  5
234
  8
0
  6
CONTINUOUS
 62
     7
 10
882.0345139393355
 20
1689.964873464252
 30
0.0
  0
VERTEX
  5
235
  8
0
  6
CONTINUOUS
 62
     7
 10
882.0462656547154
 20
1689.960416708639
 30
0.0
  0
VERTEX
  5
236
  8
0
  6
CONTINUOUS
 62
     7
 10
882.0580907086544
 20
1689.956099495843
 30
0.0
  0
VERTEX
  5
237
  8
0
  6
CONTINUOUS
 62
     7
 10
882.0699911017733
 20
1689.951925697415
 30
0.0
  0
VERTEX
  5
238
  8
0
  6
CONTINUOUS
 62
     7
 10
882.0819674492511
 20
1689.947899477422
 30
0.0
  0
VERTEX
  5
239
  8
0
  6
CONTINUOUS
 62
     7
 10
882.0940183271042
 20
1689.944025430467
 30
0.0
  0
VERTEX
  5
23A
  8
0
  6
CONTINUOUS
 62
     7
 10
882.1061421480085
 20
1689.940308185636
 30
0.0
  0
VERTEX
  5
23B
  8
0
  6
CONTINUOUS
 62
     7
 10
882.1183373246402
 20
1689.93675237202
 30
0.0
  0
VERTEX
  5
23C
  8
0
  6
CONTINUOUS
 62
     7
 10
882.1306022696757
 20
1689.933362618706
 30
0.0
  0
VERTEX
  5
23D
  8
0
  6
CONTINUOUS
 62
     7
 10
882.1429353957905
 20
1689.930143554785
 30
0.0
  0
VERTEX
  5
23E
  8
0
  6
CONTINUOUS
 62
     7
 10
882.1553351156613
 20
1689.927099809343
 30
0.0
  0
VERTEX
  5
23F
  8
0
  6
CONTINUOUS
 62
     7
 10
882.167799841964
 20
1689.92423601147
 30
0.0
  0
VERTEX
  5
240
  8
0
  6
CONTINUOUS
 62
     7
 10
882.1803279873748
 20
1689.921556790255
 30
0.0
  0
VERTEX
  5
241
  8
0
  6
CONTINUOUS
 62
     7
 10
882.1929179645696
 20
1689.919066774786
 30
0.0
  0
VERTEX
  5
242
  8
0
  6
CONTINUOUS
 62
     7
 10
882.2055681862247
 20
1689.916770594152
 30
0.0
  0
VERTEX
  5
243
  8
0
  6
CONTINUOUS
 62
     7
 10
882.2182770650164
 20
1689.914672877442
 30
0.0
  0
VERTEX
  5
244
  8
0
  6
CONTINUOUS
 62
     7
 10
882.2310427466349
 20
1689.912776324543
 30
0.0
  0
VERTEX
  5
245
  8
0
  6
CONTINUOUS
 62
     7
 10
882.2438615613752
 20
1689.911070517563
 30
0.0
  0
VERTEX
  5
246
  8
0
  6
CONTINUOUS
 62
     7
 10
882.2567290837569
 20
1689.909539577477
 30
0.0
  0
VERTEX
  5
247
  8
0
  6
CONTINUOUS
 62
     7
 10
882.2696408858119
 20
1689.908167607293
 30
0.0
  0
VERTEX
  5
248
  8
0
  6
CONTINUOUS
 62
     7
 10
882.2825925395738
 20
1689.906938710023
 30
0.0
  0
VERTEX
  5
249
  8
0
  6
CONTINUOUS
 62
     7
 10
882.2955796170742
 20
1689.905836988676
 30
0.0
  0
VERTEX
  5
24A
  8
0
  6
CONTINUOUS
 62
     7
 10
882.3085976903465
 20
1689.904846546261
 30
0.0
  0
VERTEX
  5
24B
  8
0
  6
CONTINUOUS
 62
     7
 10
882.3216423314229
 20
1689.903951485788
 30
0.0
  0
VERTEX
  5
24C
  8
0
  6
CONTINUOUS
 62
     7
 10
882.3347091123362
 20
1689.903135910267
 30
0.0
  0
VERTEX
  5
24D
  8
0
  6
CONTINUOUS
 62
     7
 10
882.3477936051188
 20
1689.902383922707
 30
0.0
  0
VERTEX
  5
24E
  8
0
  6
CONTINUOUS
 62
     7
 10
882.3608913818034
 20
1689.901679626118
 30
0.0
  0
VERTEX
  5
24F
  8
0
  6
CONTINUOUS
 62
     7
 10
882.3739980144233
 20
1689.90100712351
 30
0.0
  0
VERTEX
  5
250
  8
0
  6
CONTINUOUS
 62
     7
 10
882.3871090750101
 20
1689.900350517892
 30
0.0
  0
SEQEND
  5
614
  8
0
  6
CONTINUOUS
 62
     7
  0
LINE
  5
B5
  8
0
  6
CONTINUOUS
 62
     7
 10
883.2371090750033
 20
1689.900350517892
 30
0.0
 11
882.3871090750101
 21
1689.900350517892
 31
0.0
  0
LINE
  5
B6
  8
0
  6
CONTINUOUS
 62
     7
 10
883.7371090750044
 20
1652.400350517895
 30
0.0
 11
883.5371090750044
 21
1652.400350517895
 31
0.0
  0
LINE
  5
B7
  8
0
  6
CONTINUOUS
 62
     7
 10
883.5371090750014
 20
1661.508776360144
 30
0.0
 11
883.5371090750044
 21
1652.400350517895
 31
0.0
  0
POLYLINE
  5
B8
  8
0
  6
CONTINUOUS
 62
     7
 66
     1
 10
0.0
 20
0.0
 30
0.0
  0
VERTEX
  5
251
  8
0
  6
CONTINUOUS
 62
     7
 10
882.3871090749993
 20
1669.900350517892
 30
0.0
  0
VERTEX
  5
252
  8
0
  6
CONTINUOUS
 62
     7
 10
882.3718365228233
 20
1669.899532546128
 30
0.0
  0
VERTEX
  5
253
  8
0
  6
CONTINUOUS
 62
     7
 10
882.3565710904074
 20
1669.898691032686
 30
0.0
  0
VERTEX
  5
254
  8
0
  6
CONTINUOUS
 62
     7
 10
882.3413198975122
 20
1669.897802435888
 30
0.0
  0
VERTEX
  5
255
  8
0
  6
CONTINUOUS
 62
     7
 10
882.3260900638978
 20
1669.896843214055
 30
0.0
  0
VERTEX
  5
256
  8
0
  6
CONTINUOUS
 62
     7
 10
882.3108887093247
 20
1669.895789825509
 30
0.0
  0
VERTEX
  5
257
  8
0
  6
CONTINUOUS
 62
     7
 10
882.2957229535533
 20
1669.894618728574
 30
0.0
  0
VERTEX
  5
258
  8
0
  6
CONTINUOUS
 62
     7
 10
882.2805999163439
 20
1669.893306381569
 30
0.0
  0
VERTEX
  5
259
  8
0
  6
CONTINUOUS
 62
     7
 10
882.2655267174565
 20
1669.891829242817
 30
0.0
  0
VERTEX
  5
25A
  8
0
  6
CONTINUOUS
 62
     7
 10
882.2505104766517
 20
1669.890163770641
 30
0.0
  0
VERTEX
  5
25B
  8
0
  6
CONTINUOUS
 62
     7
 10
882.2355583136897
 20
1669.888286423361
 30
0.0
  0
VERTEX
  5
25C
  8
0
  6
CONTINUOUS
 62
     7
 10
882.2206773483308
 20
1669.8861736593
 30
0.0
  0
VERTEX
  5
25D
  8
0
  6
CONTINUOUS
 62
     7
 10
882.2058747001497
 20
1669.883801937646
 30
0.0
  0
VERTEX
  5
25E
  8
0
  6
CONTINUOUS
 62
     7
 10
882.1911561038193
 20
1669.881154190178
 30
0.0
  0
VERTEX
  5
25F
  8
0
  6
CONTINUOUS
 62
     7
 10
882.176522579262
 20
1669.878235383909
 30
0.0
  0
VERTEX
  5
260
  8
0
  6
CONTINUOUS
 62
     7
 10
882.1619741439883
 20
1669.875055170796
 30
0.0
  0
VERTEX
  5
261
  8
0
  6
CONTINUOUS
 62
     7
 10
882.1475108155092
 20
1669.871623202802
 30
0.0
  0
VERTEX
  5
262
  8
0
  6
CONTINUOUS
 62
     7
 10
882.1331326113364
 20
1669.867949131886
 30
0.0
  0
VERTEX
  5
263
  8
0
  6
CONTINUOUS
 62
     7
 10
882.11883954898
 20
1669.864042610011
 30
0.0
  0
VERTEX
  5
264
  8
0
  6
CONTINUOUS
 62
     7
 10
882.1046316459516
 20
1669.859913289135
 30
0.0
  0
VERTEX
  5
265
  8
0
  6
CONTINUOUS
 62
     7
 10
882.0905089197619
 20
1669.85557082122
 30
0.0
  0
VERTEX
  5
266
  8
0
  6
CONTINUOUS
 62
     7
 10
882.076471387922
 20
1669.851024858226
 30
0.0
  0
VERTEX
  5
267
  8
0
  6
CONTINUOUS
 62
     7
 10
882.062519067943
 20
1669.846285052114
 30
0.0
  0
VERTEX
  5
268
  8
0
  6
CONTINUOUS
 62
     7
 10
882.0486519773356
 20
1669.841361054844
 30
0.0
  0
VERTEX
  5
269
  8
0
  6
CONTINUOUS
 62
     7
 10
882.0348701336113
 20
1669.836262518378
 30
0.0
  0
VERTEX
  5
26A
  8
0
  6
CONTINUOUS
 62
     7
 10
882.0211739296265
 20
1669.830998074818
 30
0.0
  0
VERTEX
  5
26B
  8
0
  6
CONTINUOUS
 62
     7
 10
882.0075671503828
 20
1669.825567139452
 30
0.0
  0
VERTEX
  5
26C
  8
0
  6
CONTINUOUS
 62
     7
 10
881.9940553820218
 20
1669.819964233667
 30
0.0
  0
VERTEX
  5
26D
  8
0
  6
CONTINUOUS
 62
     7
 10
881.9806442272799
 20
1669.81418383377
 30
0.0
  0
VERTEX
  5
26E
  8
0
  6
CONTINUOUS
 62
     7
 10
881.9673392888919
 20
1669.808220416063
 30
0.0
  0
VERTEX
  5
26F
  8
0
  6
CONTINUOUS
 62
     7
 10
881.9541461695932
 20
1669.802068456852
 30
0.0
  0
VERTEX
  5
270
  8
0
  6
CONTINUOUS
 62
     7
 10
881.9410704721192
 20
1669.795722432442
 30
0.0
  0
VERTEX
  5
271
  8
0
  6
CONTINUOUS
 62
     7
 10
881.928117799205
 20
1669.789176819136
 30
0.0
  0
VERTEX
  5
272
  8
0
  6
CONTINUOUS
 62
     7
 10
881.9152937535863
 20
1669.782426093241
 30
0.0
  0
VERTEX
  5
273
  8
0
  6
CONTINUOUS
 62
     7
 10
881.9026039379983
 20
1669.77546473106
 30
0.0
  0
VERTEX
  5
274
  8
0
  6
CONTINUOUS
 62
     7
 10
881.8900539551762
 20
1669.768287208898
 30
0.0
  0
VERTEX
  5
275
  8
0
  6
CONTINUOUS
 62
     7
 10
881.8776494078554
 20
1669.76088800306
 30
0.0
  0
VERTEX
  5
276
  8
0
  6
CONTINUOUS
 62
     7
 10
881.8653942946712
 20
1669.753263746757
 30
0.0
  0
VERTEX
  5
277
  8
0
  6
CONTINUOUS
 62
     7
 10
881.8532809253622
 20
1669.745426790327
 30
0.0
  0
VERTEX
  5
278
  8
0
  6
CONTINUOUS
 62
     7
 10
881.8412964350847
 20
1669.737396441958
 30
0.0
  0
VERTEX
  5
279
  8
0
  6
CONTINUOUS
 62
     7
 10
881.8294279359354
 20
1669.729192040843
 30
0.0
  0
VERTEX
  5
27A
  8
0
  6
CONTINUOUS
 62
     7
 10
881.8176625400117
 20
1669.720832926177
 30
0.0
  0
VERTEX
  5
27B
  8
0
  6
CONTINUOUS
 62
     7
 10
881.8059873594098
 20
1669.712338437154
 30
0.0
  0
VERTEX
  5
27C
  8
0
  6
CONTINUOUS
 62
     7
 10
881.7943895062268
 20
1669.703727912967
 30
0.0
  0
VERTEX
  5
27D
  8
0
  6
CONTINUOUS
 62
     7
 10
881.7828560925595
 20
1669.695020692811
 30
0.0
  0
VERTEX
  5
27E
  8
0
  6
CONTINUOUS
 62
     7
 10
881.771374230505
 20
1669.686236115879
 30
0.0
  0
VERTEX
  5
27F
  8
0
  6
CONTINUOUS
 62
     7
 10
881.7599310321599
 20
1669.677393521365
 30
0.0
  0
VERTEX
  5
280
  8
0
  6
CONTINUOUS
 62
     7
 10
881.7485136096211
 20
1669.668512248464
 30
0.0
  0
VERTEX
  5
281
  8
0
  6
CONTINUOUS
 62
     7
 10
881.7371090749854
 20
1669.659611636368
 30
0.0
  0
SEQEND
  5
615
  8
0
  6
CONTINUOUS
 62
     7
  0
LINE
  5
B9
  8
0
  6
CONTINUOUS
 62
     7
 10
882.3871090749993
 20
1669.900350517892
 30
0.0
 11
883.2371090750032
 21
1669.900350517895
 31
0.0
  0
LINE
  5
BA
  8
0
  6
CONTINUOUS
 62
     7
 10
883.7371090749954
 20
1708.400350517899
 30
0.0
 11
883.5371090749954
 21
1708.400350517899
 31
0.0
  0
LINE
  5
BB
  8
0
  6
CONTINUOUS
 62
     7
 10
883.7371090750183
 20
1651.400350517896
 30
0.0
 11
883.5371090750184
 21
1651.400350517896
 31
0.0
  0
LINE
  5
BC
  8
0
  6
CONTINUOUS
 62
     7
 10
883.237109074993
 20
1345.856308656952
 30
0.0
 11
883.7371090749855
 21
1345.856308656952
 31
0.0
  0
LINE
  5
BD
  8
0
  6
CONTINUOUS
 62
     7
 10
883.2371090749923
 20
1344.300350517659
 30
0.0
 11
883.7371090749923
 21
1344.300350517659
 31
0.0
  0
LINE
  5
BE
  8
0
  6
CONTINUOUS
 62
     7
 10
883.2371090749923
 20
1344.300350517659
 30
0.0
 11
883.237109074993
 21
1345.856308656952
 31
0.0
  0
LINE
  5
BF
  8
0
  6
CONTINUOUS
 62
     7
 10
883.7371090749855
 20
1327.944392378823
 30
0.0
 11
883.2371090749997
 21
1327.944392378824
 31
0.0
  0
LINE
  5
C0
  8
0
  6
CONTINUOUS
 62
     7
 10
883.2371090749997
 20
1327.944392378824
 30
0.0
 11
883.2371090750081
 21
1329.50035051811
 31
0.0
  0
LINE
  5
C1
  8
0
  6
CONTINUOUS
 62
     7
 10
883.737109075008
 20
1329.50035051811
 30
0.0
 11
883.2371090750081
 21
1329.50035051811
 31
0.0
  0
LINE
  5
C2
  8
0
  6
CONTINUOUS
 62
     7
 10
883.5371090749943
 20
1355.291924675644
 30
0.0
 11
883.2371090749941
 21
1355.291924675644
 31
0.0
  0
LINE
  5
C3
  8
0
  6
CONTINUOUS
 62
     7
 10
883.7371090749942
 20
1355.291924675644
 30
0.0
 11
883.5371090749943
 21
1355.291924675644
 31
0.0
  0
LINE
  5
C4
  8
0
  6
CONTINUOUS
 62
     7
 10
883.2371090749941
 20
1355.291924675644
 30
0.0
 11
883.237109074993
 21
1345.856308656952
 31
0.0
  0
LINE
  5
C5
  8
0
  6
CONTINUOUS
 62
     7
 10
883.537109075
 20
1318.508776360144
 30
0.0
 11
883.7371090749999
 21
1318.508776360144
 31
0.0
  0
LINE
  5
C6
  8
0
  6
CONTINUOUS
 62
     7
 10
883.2371090749999
 20
1318.508776360144
 30
0.0
 11
883.537109075
 21
1318.508776360144
 31
0.0
  0
LINE
  5
C7
  8
0
  6
CONTINUOUS
 62
     7
 10
883.2371090749997
 20
1327.944392378824
 30
0.0
 11
883.2371090749999
 21
1318.508776360144
 31
0.0
  0
POLYLINE
  5
C8
  8
0
  6
CONTINUOUS
 62
     7
 10
0.0
 20
0.0
 30
0.0
 66
     1
 70
     8
  0
VERTEX
  5
282
  8
0
  6
CONTINUOUS
 62
     7
 10
881.7371090749854
 20
1365.400350517893
 30
0.0
 70
    32
  0
VERTEX
  5
283
  8
0
  6
CONTINUOUS
 62
     7
 10
881.7543779003651
 20
1365.400350517893
 30
0.0
 70
    32
  0
VERTEX
  5
284
  8
0
  6
CONTINUOUS
 62
     7
 10
881.7718029838358
 20
1365.400350517893
 30
0.0
 70
    32
  0
VERTEX
  5
285
  8
0
  6
CONTINUOUS
 62
     7
 10
881.7895405834894
 20
1365.400350517893
 30
0.0
 70
    32
  0
VERTEX
  5
286
  8
0
  6
CONTINUOUS
 62
     7
 10
881.8077469574171
 20
1365.400350517893
 30
0.0
 70
    32
  0
VERTEX
  5
287
  8
0
  6
CONTINUOUS
 62
     7
 10
881.8265783637099
 20
1365.400350517893
 30
0.0
 70
    32
  0
VERTEX
  5
288
  8
0
  6
CONTINUOUS
 62
     7
 10
881.8461910604597
 20
1365.400350517893
 30
0.0
 70
    32
  0
VERTEX
  5
289
  8
0
  6
CONTINUOUS
 62
     7
 10
881.8667412837483
 20
1365.400350517893
 30
0.0
 70
    32
  0
VERTEX
  5
28A
  8
0
  6
CONTINUOUS
 62
     7
 10
881.8883390713671
 20
1365.400350517893
 30
0.0
 70
    32
  0
VERTEX
  5
28B
  8
0
  6
CONTINUOUS
 62
     7
 10
881.9109508666879
 20
1365.400350517893
 30
0.0
 70
    32
  0
VERTEX
  5
28C
  8
0
  6
CONTINUOUS
 62
     7
 10
881.9345152954689
 20
1365.400350517893
 30
0.0
 70
    32
  0
VERTEX
  5
28D
  8
0
  6
CONTINUOUS
 62
     7
 10
881.9589709834694
 20
1365.400350517893
 30
0.0
 70
    32
  0
VERTEX
  5
28E
  8
0
  6
CONTINUOUS
 62
     7
 10
881.9842565564476
 20
1365.400350517893
 30
0.0
 70
    32
  0
VERTEX
  5
28F
  8
0
  6
CONTINUOUS
 62
     7
 10
882.0103106401624
 20
1365.400350517893
 30
0.0
 70
    32
  0
VERTEX
  5
290
  8
0
  6
CONTINUOUS
 62
     7
 10
882.0370718603727
 20
1365.400350517893
 30
0.0
 70
    32
  0
VERTEX
  5
291
  8
0
  6
CONTINUOUS
 62
     7
 10
882.0644788428367
 20
1365.400350517893
 30
0.0
 70
    32
  0
VERTEX
  5
292
  8
0
  6
CONTINUOUS
 62
     7
 10
882.092470213313
 20
1365.400350517893
 30
0.0
 70
    32
  0
VERTEX
  5
293
  8
0
  6
CONTINUOUS
 62
     7
 10
882.1209845975609
 20
1365.400350517893
 30
0.0
 70
    32
  0
VERTEX
  5
294
  8
0
  6
CONTINUOUS
 62
     7
 10
882.1499692484147
 20
1365.400350517893
 30
0.0
 70
    32
  0
VERTEX
  5
295
  8
0
  6
CONTINUOUS
 62
     7
 10
882.1794135572951
 20
1365.400350517893
 30
0.0
 70
    32
  0
VERTEX
  5
296
  8
0
  6
CONTINUOUS
 62
     7
 10
882.2093197617041
 20
1365.400350517893
 30
0.0
 70
    32
  0
VERTEX
  5
297
  8
0
  6
CONTINUOUS
 62
     7
 10
882.2396901022508
 20
1365.400350517893
 30
0.0
 70
    32
  0
VERTEX
  5
298
  8
0
  6
CONTINUOUS
 62
     7
 10
882.2705268195436
 20
1365.400350517893
 30
0.0
 70
    32
  0
VERTEX
  5
299
  8
0
  6
CONTINUOUS
 62
     7
 10
882.3018321541916
 20
1365.400350517893
 30
0.0
 70
    32
  0
VERTEX
  5
29A
  8
0
  6
CONTINUOUS
 62
     7
 10
882.3336083468031
 20
1365.400350517893
 30
0.0
 70
    32
  0
VERTEX
  5
29B
  8
0
  6
CONTINUOUS
 62
     7
 10
882.3658576379872
 20
1365.400350517893
 30
0.0
 70
    32
  0
VERTEX
  5
29C
  8
0
  6
CONTINUOUS
 62
     7
 10
882.3985822683526
 20
1365.400350517893
 30
0.0
 70
    32
  0
VERTEX
  5
29D
  8
0
  6
CONTINUOUS
 62
     7
 10
882.4317844785078
 20
1365.400350517893
 30
0.0
 70
    32
  0
VERTEX
  5
29E
  8
0
  6
CONTINUOUS
 62
     7
 10
882.4654649173168
 20
1365.400350517893
 30
0.0
 70
    32
  0
VERTEX
  5
29F
  8
0
  6
CONTINUOUS
 62
     7
 10
882.4996123106401
 20
1365.400350517893
 30
0.0
 70
    32
  0
VERTEX
  5
2A0
  8
0
  6
CONTINUOUS
 62
     7
 10
882.5342099775506
 20
1365.400350517893
 30
0.0
 70
    32
  0
VERTEX
  5
2A1
  8
0
  6
CONTINUOUS
 62
     7
 10
882.5692412102405
 20
1365.400350517893
 30
0.0
 70
    32
  0
VERTEX
  5
2A2
  8
0
  6
CONTINUOUS
 62
     7
 10
882.6046893009024
 20
1365.400350517893
 30
0.0
 70
    32
  0
VERTEX
  5
2A3
  8
0
  6
CONTINUOUS
 62
     7
 10
882.640537541728
 20
1365.400350517893
 30
0.0
 70
    32
  0
VERTEX
  5
2A4
  8
0
  6
CONTINUOUS
 62
     7
 10
882.6767692249103
 20
1365.400350517893
 30
0.0
 70
    32
  0
VERTEX
  5
2A5
  8
0
  6
CONTINUOUS
 62
     7
 10
882.7133676426413
 20
1365.400350517893
 30
0.0
 70
    32
  0
VERTEX
  5
2A6
  8
0
  6
CONTINUOUS
 62
     7
 10
882.7503160871133
 20
1365.400350517893
 30
0.0
 70
    32
  0
VERTEX
  5
2A7
  8
0
  6
CONTINUOUS
 62
     7
 10
882.787597850519
 20
1365.400350517893
 30
0.0
 70
    32
  0
VERTEX
  5
2A8
  8
0
  6
CONTINUOUS
 62
     7
 10
882.8251962270558
 20
1365.400350517893
 30
0.0
 70
    32
  0
VERTEX
  5
2A9
  8
0
  6
CONTINUOUS
 62
     7
 10
882.863094536198
 20
1365.400350517893
 30
0.0
 70
    32
  0
VERTEX
  5
2AA
  8
0
  6
CONTINUOUS
 62
     7
 10
882.9012761147055
 20
1365.400350517893
 30
0.0
 70
    32
  0
VERTEX
  5
2AB
  8
0
  6
CONTINUOUS
 62
     7
 10
882.9397242996748
 20
1365.400350517893
 30
0.0
 70
    32
  0
VERTEX
  5
2AC
  8
0
  6
CONTINUOUS
 62
     7
 10
882.9784224282021
 20
1365.400350517894
 30
0.0
 70
    32
  0
VERTEX
  5
2AD
  8
0
  6
CONTINUOUS
 62
     7
 10
883.0173538373832
 20
1365.400350517894
 30
0.0
 70
    32
  0
VERTEX
  5
2AE
  8
0
  6
CONTINUOUS
 62
     7
 10
883.0565018643141
 20
1365.400350517894
 30
0.0
 70
    32
  0
VERTEX
  5
2AF
  8
0
  6
CONTINUOUS
 62
     7
 10
883.0958498460916
 20
1365.400350517894
 30
0.0
 70
    32
  0
VERTEX
  5
2B0
  8
0
  6
CONTINUOUS
 62
     7
 10
883.1353811198114
 20
1365.400350517895
 30
0.0
 70
    32
  0
VERTEX
  5
2B1
  8
0
  6
CONTINUOUS
 62
     7
 10
883.1750790225699
 20
1365.400350517895
 30
0.0
 70
    32
  0
VERTEX
  5
2B2
  8
0
  6
CONTINUOUS
 62
     7
 10
883.2149268914629
 20
1365.400350517896
 30
0.0
 70
    32
  0
VERTEX
  5
2B3
  8
0
  6
CONTINUOUS
 62
     7
 10
883.2549080635868
 20
1365.400350517896
 30
0.0
 70
    32
  0
VERTEX
  5
2B4
  8
0
  6
CONTINUOUS
 62
     7
 10
883.2950058760377
 20
1365.400350517896
 30
0.0
 70
    32
  0
VERTEX
  5
2B5
  8
0
  6
CONTINUOUS
 62
     7
 10
883.3352036659119
 20
1365.400350517897
 30
0.0
 70
    32
  0
VERTEX
  5
2B6
  8
0
  6
CONTINUOUS
 62
     7
 10
883.3754847703053
 20
1365.400350517897
 30
0.0
 70
    32
  0
VERTEX
  5
2B7
  8
0
  6
CONTINUOUS
 62
     7
 10
883.415832526314
 20
1365.400350517898
 30
0.0
 70
    32
  0
VERTEX
  5
2B8
  8
0
  6
CONTINUOUS
 62
     7
 10
883.4562302710342
 20
1365.400350517898
 30
0.0
 70
    32
  0
VERTEX
  5
2B9
  8
0
  6
CONTINUOUS
 62
     7
 10
883.4966613415622
 20
1365.400350517898
 30
0.0
 70
    32
  0
VERTEX
  5
2BA
  8
0
  6
CONTINUOUS
 62
     7
 10
883.537109074994
 20
1365.400350517898
 30
0.0
 70
    32
  0
SEQEND
  5
616
  8
0
  6
CONTINUOUS
 62
     7
  0
LINE
  5
C9
  8
0
  6
CONTINUOUS
 62
     7
 10
883.5371090749937
 20
1364.400350517899
 30
0.0
 11
883.537109074994
 21
1365.400350517898
 31
0.0
  0
POLYLINE
  5
CA
  8
0
  6
CONTINUOUS
 62
     7
 10
0.0
 20
0.0
 30
0.0
 66
     1
 70
     8
  0
VERTEX
  5
2BB
  8
0
  6
CONTINUOUS
 62
     7
 10
883.5371090750168
 20
1308.400350517896
 30
0.0
 70
    32
  0
VERTEX
  5
2BC
  8
0
  6
CONTINUOUS
 62
     7
 10
883.4966605963191
 20
1308.400350517896
 30
0.0
 70
    32
  0
VERTEX
  5
2BD
  8
0
  6
CONTINUOUS
 62
     7
 10
883.4562287840163
 20
1308.400350517896
 30
0.0
 70
    32
  0
VERTEX
  5
2BE
  8
0
  6
CONTINUOUS
 62
     7
 10
883.4158303045033
 20
1308.400350517896
 30
0.0
 70
    32
  0
VERTEX
  5
2BF
  8
0
  6
CONTINUOUS
 62
     7
 10
883.3754818241744
 20
1308.400350517896
 30
0.0
 70
    32
  0
VERTEX
  5
2C0
  8
0
  6
CONTINUOUS
 62
     7
 10
883.3352000094251
 20
1308.400350517896
 30
0.0
 70
    32
  0
VERTEX
  5
2C1
  8
0
  6
CONTINUOUS
 62
     7
 10
883.2950015266496
 20
1308.400350517896
 30
0.0
 70
    32
  0
VERTEX
  5
2C2
  8
0
  6
CONTINUOUS
 62
     7
 10
883.2549030422433
 20
1308.400350517896
 30
0.0
 70
    32
  0
VERTEX
  5
2C3
  8
0
  6
CONTINUOUS
 62
     7
 10
883.2149212226003
 20
1308.400350517896
 30
0.0
 70
    32
  0
VERTEX
  5
2C4
  8
0
  6
CONTINUOUS
 62
     7
 10
883.175072734116
 20
1308.400350517896
 30
0.0
 70
    32
  0
VERTEX
  5
2C5
  8
0
  6
CONTINUOUS
 62
     7
 10
883.1353742431851
 20
1308.400350517896
 30
0.0
 70
    32
  0
VERTEX
  5
2C6
  8
0
  6
CONTINUOUS
 62
     7
 10
883.0958424162022
 20
1308.400350517896
 30
0.0
 70
    32
  0
VERTEX
  5
2C7
  8
0
  6
CONTINUOUS
 62
     7
 10
883.0564939195626
 20
1308.400350517896
 30
0.0
 70
    32
  0
VERTEX
  5
2C8
  8
0
  6
CONTINUOUS
 62
     7
 10
883.0173454196608
 20
1308.400350517896
 30
0.0
 70
    32
  0
VERTEX
  5
2C9
  8
0
  6
CONTINUOUS
 62
     7
 10
882.9784135828911
 20
1308.400350517896
 30
0.0
 70
    32
  0
VERTEX
  5
2CA
  8
0
  6
CONTINUOUS
 62
     7
 10
882.9397150756492
 20
1308.400350517896
 30
0.0
 70
    32
  0
VERTEX
  5
2CB
  8
0
  6
CONTINUOUS
 62
     7
 10
882.9012665643296
 20
1308.400350517896
 30
0.0
 70
    32
  0
VERTEX
  5
2CC
  8
0
  6
CONTINUOUS
 62
     7
 10
882.863084715327
 20
1308.400350517896
 30
0.0
 70
    32
  0
VERTEX
  5
2CD
  8
0
  6
CONTINUOUS
 62
     7
 10
882.8251861950362
 20
1308.400350517896
 30
0.0
 70
    32
  0
VERTEX
  5
2CE
  8
0
  6
CONTINUOUS
 62
     7
 10
882.7875876700941
 20
1308.400350517896
 30
0.0
 70
    32
  0
VERTEX
  5
2CF
  8
0
  6
CONTINUOUS
 62
     7
 10
882.7503058195999
 20
1308.400350517896
 30
0.0
 70
    32
  0
VERTEX
  5
2D0
  8
0
  6
CONTINUOUS
 62
     7
 10
882.713357340857
 20
1308.400350517896
 30
0.0
 70
    32
  0
VERTEX
  5
2D1
  8
0
  6
CONTINUOUS
 62
     7
 10
882.6767589326145
 20
1308.400350517896
 30
0.0
 70
    32
  0
VERTEX
  5
2D2
  8
0
  6
CONTINUOUS
 62
     7
 10
882.6405272936192
 20
1308.400350517896
 30
0.0
 70
    32
  0
VERTEX
  5
2D3
  8
0
  6
CONTINUOUS
 62
     7
 10
882.6046791226202
 20
1308.400350517896
 30
0.0
 70
    32
  0
VERTEX
  5
2D4
  8
0
  6
CONTINUOUS
 62
     7
 10
882.5692311183641
 20
1308.400350517896
 30
0.0
 70
    32
  0
VERTEX
  5
2D5
  8
0
  6
CONTINUOUS
 62
     7
 10
882.5341999795996
 20
1308.400350517896
 30
0.0
 70
    32
  0
VERTEX
  5
2D6
  8
0
  6
CONTINUOUS
 62
     7
 10
882.4996024050746
 20
1308.400350517896
 30
0.0
 70
    32
  0
VERTEX
  5
2D7
  8
0
  6
CONTINUOUS
 62
     7
 10
882.4654550935365
 20
1308.400350517896
 30
0.0
 70
    32
  0
VERTEX
  5
2D8
  8
0
  6
CONTINUOUS
 62
     7
 10
882.4317747111381
 20
1308.400350517896
 30
0.0
 70
    32
  0
VERTEX
  5
2D9
  8
0
  6
CONTINUOUS
 62
     7
 10
882.3985723645945
 20
1308.400350517896
 30
0.0
 70
    32
  0
VERTEX
  5
2DA
  8
0
  6
CONTINUOUS
 62
     7
 10
882.3658473624369
 20
1308.400350517896
 30
0.0
 70
    32
  0
VERTEX
  5
2DB
  8
0
  6
CONTINUOUS
 62
     7
 10
882.333597506659
 20
1308.400350517896
 30
0.0
 70
    32
  0
VERTEX
  5
2DC
  8
0
  6
CONTINUOUS
 62
     7
 10
882.3018205992549
 20
1308.400350517896
 30
0.0
 70
    32
  0
VERTEX
  5
2DD
  8
0
  6
CONTINUOUS
 62
     7
 10
882.2705144422183
 20
1308.400350517896
 30
0.0
 70
    32
  0
VERTEX
  5
2DE
  8
0
  6
CONTINUOUS
 62
     7
 10
882.2396768375438
 20
1308.400350517896
 30
0.0
 70
    32
  0
VERTEX
  5
2DF
  8
0
  6
CONTINUOUS
 62
     7
 10
882.2093055872253
 20
1308.400350517896
 30
0.0
 70
    32
  0
VERTEX
  5
2E0
  8
0
  6
CONTINUOUS
 62
     7
 10
882.179398493256
 20
1308.400350517896
 30
0.0
 70
    32
  0
VERTEX
  5
2E1
  8
0
  6
CONTINUOUS
 62
     7
 10
882.1499533576305
 20
1308.400350517896
 30
0.0
 70
    32
  0
VERTEX
  5
2E2
  8
0
  6
CONTINUOUS
 62
     7
 10
882.1209679855322
 20
1308.400350517896
 30
0.0
 70
    32
  0
VERTEX
  5
2E3
  8
0
  6
CONTINUOUS
 62
     7
 10
882.0924530552128
 20
1308.400350517896
 30
0.0
 70
    32
  0
VERTEX
  5
2E4
  8
0
  6
CONTINUOUS
 62
     7
 10
882.0644614000958
 20
1308.400350517896
 30
0.0
 70
    32
  0
VERTEX
  5
2E5
  8
0
  6
CONTINUOUS
 62
     7
 10
882.0370544690721
 20
1308.400350517896
 30
0.0
 70
    32
  0
VERTEX
  5
2E6
  8
0
  6
CONTINUOUS
 62
     7
 10
882.0102937110332
 20
1308.400350517896
 30
0.0
 70
    32
  0
VERTEX
  5
2E7
  8
0
  6
CONTINUOUS
 62
     7
 10
881.9842405748708
 20
1308.400350517896
 30
0.0
 70
    32
  0
VERTEX
  5
2E8
  8
0
  6
CONTINUOUS
 62
     7
 10
881.9589565094758
 20
1308.400350517896
 30
0.0
 70
    32
  0
VERTEX
  5
2E9
  8
0
  6
CONTINUOUS
 62
     7
 10
881.9345029637395
 20
1308.400350517896
 30
0.0
 70
    32
  0
VERTEX
  5
2EA
  8
0
  6
CONTINUOUS
 62
     7
 10
881.9109413865535
 20
1308.400350517896
 30
0.0
 70
    32
  0
VERTEX
  5
2EB
  8
0
  6
CONTINUOUS
 62
     7
 10
881.888333226809
 20
1308.400350517896
 30
0.0
 70
    32
  0
VERTEX
  5
2EC
  8
0
  6
CONTINUOUS
 62
     7
 10
881.866739933397
 20
1308.400350517896
 30
0.0
 70
    32
  0
VERTEX
  5
2ED
  8
0
  6
CONTINUOUS
 62
     7
 10
881.8461938683481
 20
1308.400350517896
 30
0.0
 70
    32
  0
VERTEX
  5
2EE
  8
0
  6
CONTINUOUS
 62
     7
 10
881.8265835052753
 20
1308.400350517896
 30
0.0
 70
    32
  0
VERTEX
  5
2EF
  8
0
  6
CONTINUOUS
 62
     7
 10
881.8077529044821
 20
1308.400350517896
 30
0.0
 70
    32
  0
VERTEX
  5
2F0
  8
0
  6
CONTINUOUS
 62
     7
 10
881.7895461135125
 20
1308.400350517896
 30
0.0
 70
    32
  0
VERTEX
  5
2F1
  8
0
  6
CONTINUOUS
 62
     7
 10
881.7718071799103
 20
1308.400350517896
 30
0.0
 70
    32
  0
VERTEX
  5
2F2
  8
0
  6
CONTINUOUS
 62
     7
 10
881.7543801512197
 20
1308.400350517896
 30
0.0
 70
    32
  0
VERTEX
  5
2F3
  8
0
  6
CONTINUOUS
 62
     7
 10
881.7371090749853
 20
1308.400350517896
 30
0.0
 70
    32
  0
SEQEND
  5
617
  8
0
  6
CONTINUOUS
 62
     7
  0
LINE
  5
CB
  8
0
  6
CONTINUOUS
 62
     7
 10
883.537109075003
 20
1309.400350517895
 30
0.0
 11
883.5371090750168
 21
1308.400350517896
 31
0.0
  0
LINE
  5
CC
  8
0
  6
CONTINUOUS
 62
     7
 10
883.7371090749937
 20
1364.400350517899
 30
0.0
 11
883.5371090749937
 21
1364.400350517899
 31
0.0
  0
LINE
  5
CD
  8
0
  6
CONTINUOUS
 62
     7
 10
883.5371090749937
 20
1364.400350517899
 30
0.0
 11
883.5371090749943
 21
1355.291924675644
 31
0.0
  0
POLYLINE
  5
CE
  8
0
  6
CONTINUOUS
 62
     7
 66
     1
 10
0.0
 20
0.0
 30
0.0
  0
VERTEX
  5
2F4
  8
0
  6
CONTINUOUS
 62
     7
 10
881.7371090749853
 20
1347.142849159582
 30
0.0
  0
VERTEX
  5
2F5
  8
0
  6
CONTINUOUS
 62
     7
 10
881.7459734172455
 20
1347.134052676773
 30
0.0
  0
VERTEX
  5
2F6
  8
0
  6
CONTINUOUS
 62
     7
 10
881.7549567361385
 20
1347.125406877383
 30
0.0
  0
VERTEX
  5
2F7
  8
0
  6
CONTINUOUS
 62
     7
 10
881.7641497617395
 20
1347.117027122797
 30
0.0
  0
VERTEX
  5
2F8
  8
0
  6
CONTINUOUS
 62
     7
 10
881.7735564145853
 20
1347.108920219946
 30
0.0
  0
VERTEX
  5
2F9
  8
0
  6
CONTINUOUS
 62
     7
 10
881.7831639934125
 20
1347.101072190371
 30
0.0
  0
VERTEX
  5
2FA
  8
0
  6
CONTINUOUS
 62
     7
 10
881.7929597969577
 20
1347.093469055612
 30
0.0
  0
VERTEX
  5
2FB
  8
0
  6
CONTINUOUS
 62
     7
 10
881.8029311239585
 20
1347.086096837209
 30
0.0
  0
VERTEX
  5
2FC
  8
0
  6
CONTINUOUS
 62
     7
 10
881.8130652731512
 20
1347.078941556702
 30
0.0
  0
VERTEX
  5
2FD
  8
0
  6
CONTINUOUS
 62
     7
 10
881.823349543273
 20
1347.071989235631
 30
0.0
  0
VERTEX
  5
2FE
  8
0
  6
CONTINUOUS
 62
     7
 10
881.8337712330607
 20
1347.065225895537
 30
0.0
  0
VERTEX
  5
2FF
  8
0
  6
CONTINUOUS
 62
     7
 10
881.8443176412511
 20
1347.058637557959
 30
0.0
  0
VERTEX
  5
300
  8
0
  6
CONTINUOUS
 62
     7
 10
881.8549760665809
 20
1347.052210244438
 30
0.0
  0
VERTEX
  5
301
  8
0
  6
CONTINUOUS
 62
     7
 10
881.865733807787
 20
1347.045929976513
 30
0.0
  0
VERTEX
  5
302
  8
0
  6
CONTINUOUS
 62
     7
 10
881.8765781636064
 20
1347.039782775725
 30
0.0
  0
VERTEX
  5
303
  8
0
  6
CONTINUOUS
 62
     7
 10
881.8874964327762
 20
1347.033754663614
 30
0.0
  0
VERTEX
  5
304
  8
0
  6
CONTINUOUS
 62
     7
 10
881.898475914033
 20
1347.02783166172
 30
0.0
  0
VERTEX
  5
305
  8
0
  6
CONTINUOUS
 62
     7
 10
881.9095056749265
 20
1347.022001934628
 30
0.0
  0
VERTEX
  5
306
  8
0
  6
CONTINUOUS
 62
     7
 10
881.9205844523393
 20
1347.016265362015
 30
0.0
  0
VERTEX
  5
307
  8
0
  6
CONTINUOUS
 62
     7
 10
881.931714270614
 20
1347.010625806555
 30
0.0
  0
VERTEX
  5
308
  8
0
  6
CONTINUOUS
 62
     7
 10
881.9428971568144
 20
1347.005087134217
 30
0.0
  0
VERTEX
  5
309
  8
0
  6
CONTINUOUS
 62
     7
 10
881.9541351380034
 20
1346.999653210972
 30
0.0
  0
VERTEX
  5
30A
  8
0
  6
CONTINUOUS
 62
     7
 10
881.9654302412448
 20
1346.994327902787
 30
0.0
  0
VERTEX
  5
30B
  8
0
  6
CONTINUOUS
 62
     7
 10
881.9767844936016
 20
1346.989115075633
 30
0.0
  0
VERTEX
  5
30C
  8
0
  6
CONTINUOUS
 62
     7
 10
881.988199922137
 20
1346.984018595479
 30
0.0
  0
VERTEX
  5
30D
  8
0
  6
CONTINUOUS
 62
     7
 10
881.9996785539149
 20
1346.979042328294
 30
0.0
  0
VERTEX
  5
30E
  8
0
  6
CONTINUOUS
 62
     7
 10
882.0112224159983
 20
1346.974190140048
 30
0.0
  0
VERTEX
  5
30F
  8
0
  6
CONTINUOUS
 62
     7
 10
882.0228335354504
 20
1346.969465896711
 30
0.0
  0
VERTEX
  5
310
  8
0
  6
CONTINUOUS
 62
     7
 10
882.0345139393348
 20
1346.964873464251
 30
0.0
  0
VERTEX
  5
311
  8
0
  6
CONTINUOUS
 62
     7
 10
882.046265654715
 20
1346.960416708638
 30
0.0
  0
VERTEX
  5
312
  8
0
  6
CONTINUOUS
 62
     7
 10
882.0580907086538
 20
1346.956099495842
 30
0.0
  0
VERTEX
  5
313
  8
0
  6
CONTINUOUS
 62
     7
 10
882.0699911017728
 20
1346.951925697415
 30
0.0
  0
VERTEX
  5
314
  8
0
  6
CONTINUOUS
 62
     7
 10
882.0819674492507
 20
1346.947899477422
 30
0.0
  0
VERTEX
  5
315
  8
0
  6
CONTINUOUS
 62
     7
 10
882.0940183271038
 20
1346.944025430466
 30
0.0
  0
VERTEX
  5
316
  8
0
  6
CONTINUOUS
 62
     7
 10
882.1061421480078
 20
1346.940308185636
 30
0.0
  0
VERTEX
  5
317
  8
0
  6
CONTINUOUS
 62
     7
 10
882.1183373246397
 20
1346.93675237202
 30
0.0
  0
VERTEX
  5
318
  8
0
  6
CONTINUOUS
 62
     7
 10
882.1306022696749
 20
1346.933362618706
 30
0.0
  0
VERTEX
  5
319
  8
0
  6
CONTINUOUS
 62
     7
 10
882.1429353957898
 20
1346.930143554784
 30
0.0
  0
VERTEX
  5
31A
  8
0
  6
CONTINUOUS
 62
     7
 10
882.1553351156605
 20
1346.927099809342
 30
0.0
  0
VERTEX
  5
31B
  8
0
  6
CONTINUOUS
 62
     7
 10
882.1677998419631
 20
1346.924236011469
 30
0.0
  0
VERTEX
  5
31C
  8
0
  6
CONTINUOUS
 62
     7
 10
882.1803279873739
 20
1346.921556790254
 30
0.0
  0
VERTEX
  5
31D
  8
0
  6
CONTINUOUS
 62
     7
 10
882.1929179645688
 20
1346.919066774786
 30
0.0
  0
VERTEX
  5
31E
  8
0
  6
CONTINUOUS
 62
     7
 10
882.2055681862239
 20
1346.916770594152
 30
0.0
  0
VERTEX
  5
31F
  8
0
  6
CONTINUOUS
 62
     7
 10
882.2182770650154
 20
1346.914672877442
 30
0.0
  0
VERTEX
  5
320
  8
0
  6
CONTINUOUS
 62
     7
 10
882.2310427466336
 20
1346.912776324543
 30
0.0
  0
VERTEX
  5
321
  8
0
  6
CONTINUOUS
 62
     7
 10
882.2438615613738
 20
1346.911070517563
 30
0.0
  0
VERTEX
  5
322
  8
0
  6
CONTINUOUS
 62
     7
 10
882.2567290837558
 20
1346.909539577476
 30
0.0
  0
VERTEX
  5
323
  8
0
  6
CONTINUOUS
 62
     7
 10
882.2696408858108
 20
1346.908167607293
 30
0.0
  0
VERTEX
  5
324
  8
0
  6
CONTINUOUS
 62
     7
 10
882.2825925395724
 20
1346.906938710023
 30
0.0
  0
VERTEX
  5
325
  8
0
  6
CONTINUOUS
 62
     7
 10
882.2955796170729
 20
1346.905836988675
 30
0.0
  0
VERTEX
  5
326
  8
0
  6
CONTINUOUS
 62
     7
 10
882.3085976903451
 20
1346.90484654626
 30
0.0
  0
VERTEX
  5
327
  8
0
  6
CONTINUOUS
 62
     7
 10
882.3216423314213
 20
1346.903951485788
 30
0.0
  0
VERTEX
  5
328
  8
0
  6
CONTINUOUS
 62
     7
 10
882.3347091123345
 20
1346.903135910266
 30
0.0
  0
VERTEX
  5
329
  8
0
  6
CONTINUOUS
 62
     7
 10
882.3477936051174
 20
1346.902383922707
 30
0.0
  0
VERTEX
  5
32A
  8
0
  6
CONTINUOUS
 62
     7
 10
882.3608913818023
 20
1346.901679626118
 30
0.0
  0
VERTEX
  5
32B
  8
0
  6
CONTINUOUS
 62
     7
 10
882.3739980144217
 20
1346.90100712351
 30
0.0
  0
VERTEX
  5
32C
  8
0
  6
CONTINUOUS
 62
     7
 10
882.3871090750087
 20
1346.900350517892
 30
0.0
  0
SEQEND
  5
618
  8
0
  6
CONTINUOUS
 62
     7
  0
LINE
  5
CF
  8
0
  6
CONTINUOUS
 62
     7
 10
883.2371090750017
 20
1346.900350517891
 30
0.0
 11
882.3871090750087
 21
1346.900350517892
 31
0.0
  0
LINE
  5
D0
  8
0
  6
CONTINUOUS
 62
     7
 10
883.7371090750029
 20
1309.400350517895
 30
0.0
 11
883.537109075003
 21
1309.400350517895
 31
0.0
  0
LINE
  5
D1
  8
0
  6
CONTINUOUS
 62
     7
 10
883.537109075
 20
1318.508776360144
 30
0.0
 11
883.537109075003
 21
1309.400350517895
 31
0.0
  0
POLYLINE
  5
D2
  8
0
  6
CONTINUOUS
 62
     7
 66
     1
 10
0.0
 20
0.0
 30
0.0
  0
VERTEX
  5
32D
  8
0
  6
CONTINUOUS
 62
     7
 10
882.387109074998
 20
1326.900350517892
 30
0.0
  0
VERTEX
  5
32E
  8
0
  6
CONTINUOUS
 62
     7
 10
882.3718365228218
 20
1326.899532546128
 30
0.0
  0
VERTEX
  5
32F
  8
0
  6
CONTINUOUS
 62
     7
 10
882.356571090406
 20
1326.898691032686
 30
0.0
  0
VERTEX
  5
330
  8
0
  6
CONTINUOUS
 62
     7
 10
882.3413198975107
 20
1326.897802435888
 30
0.0
  0
VERTEX
  5
331
  8
0
  6
CONTINUOUS
 62
     7
 10
882.3260900638967
 20
1326.896843214055
 30
0.0
  0
VERTEX
  5
332
  8
0
  6
CONTINUOUS
 62
     7
 10
882.3108887093236
 20
1326.895789825509
 30
0.0
  0
VERTEX
  5
333
  8
0
  6
CONTINUOUS
 62
     7
 10
882.2957229535524
 20
1326.894618728574
 30
0.0
  0
VERTEX
  5
334
  8
0
  6
CONTINUOUS
 62
     7
 10
882.2805999163428
 20
1326.893306381569
 30
0.0
  0
VERTEX
  5
335
  8
0
  6
CONTINUOUS
 62
     7
 10
882.2655267174553
 20
1326.891829242817
 30
0.0
  0
VERTEX
  5
336
  8
0
  6
CONTINUOUS
 62
     7
 10
882.2505104766507
 20
1326.890163770641
 30
0.0
  0
VERTEX
  5
337
  8
0
  6
CONTINUOUS
 62
     7
 10
882.2355583136887
 20
1326.888286423361
 30
0.0
  0
VERTEX
  5
338
  8
0
  6
CONTINUOUS
 62
     7
 10
882.2206773483298
 20
1326.8861736593
 30
0.0
  0
VERTEX
  5
339
  8
0
  6
CONTINUOUS
 62
     7
 10
882.205874700149
 20
1326.883801937647
 30
0.0
  0
VERTEX
  5
33A
  8
0
  6
CONTINUOUS
 62
     7
 10
882.1911561038185
 20
1326.881154190179
 30
0.0
  0
VERTEX
  5
33B
  8
0
  6
CONTINUOUS
 62
     7
 10
882.1765225792611
 20
1326.878235383909
 30
0.0
  0
VERTEX
  5
33C
  8
0
  6
CONTINUOUS
 62
     7
 10
882.1619741439873
 20
1326.875055170796
 30
0.0
  0
VERTEX
  5
33D
  8
0
  6
CONTINUOUS
 62
     7
 10
882.1475108155088
 20
1326.871623202802
 30
0.0
  0
VERTEX
  5
33E
  8
0
  6
CONTINUOUS
 62
     7
 10
882.1331326113357
 20
1326.867949131887
 30
0.0
  0
VERTEX
  5
33F
  8
0
  6
CONTINUOUS
 62
     7
 10
882.1188395489793
 20
1326.864042610011
 30
0.0
  0
VERTEX
  5
340
  8
0
  6
CONTINUOUS
 62
     7
 10
882.1046316459507
 20
1326.859913289135
 30
0.0
  0
VERTEX
  5
341
  8
0
  6
CONTINUOUS
 62
     7
 10
882.0905089197612
 20
1326.85557082122
 30
0.0
  0
VERTEX
  5
342
  8
0
  6
CONTINUOUS
 62
     7
 10
882.0764713879213
 20
1326.851024858226
 30
0.0
  0
VERTEX
  5
343
  8
0
  6
CONTINUOUS
 62
     7
 10
882.0625190679425
 20
1326.846285052114
 30
0.0
  0
VERTEX
  5
344
  8
0
  6
CONTINUOUS
 62
     7
 10
882.048651977335
 20
1326.841361054845
 30
0.0
  0
VERTEX
  5
345
  8
0
  6
CONTINUOUS
 62
     7
 10
882.0348701336106
 20
1326.836262518378
 30
0.0
  0
VERTEX
  5
346
  8
0
  6
CONTINUOUS
 62
     7
 10
882.021173929626
 20
1326.830998074819
 30
0.0
  0
VERTEX
  5
347
  8
0
  6
CONTINUOUS
 62
     7
 10
882.0075671503821
 20
1326.825567139452
 30
0.0
  0
VERTEX
  5
348
  8
0
  6
CONTINUOUS
 62
     7
 10
881.9940553820215
 20
1326.819964233668
 30
0.0
  0
VERTEX
  5
349
  8
0
  6
CONTINUOUS
 62
     7
 10
881.9806442272794
 20
1326.81418383377
 30
0.0
  0
VERTEX
  5
34A
  8
0
  6
CONTINUOUS
 62
     7
 10
881.9673392888913
 20
1326.808220416063
 30
0.0
  0
VERTEX
  5
34B
  8
0
  6
CONTINUOUS
 62
     7
 10
881.9541461695927
 20
1326.802068456852
 30
0.0
  0
VERTEX
  5
34C
  8
0
  6
CONTINUOUS
 62
     7
 10
881.9410704721184
 20
1326.795722432442
 30
0.0
  0
VERTEX
  5
34D
  8
0
  6
CONTINUOUS
 62
     7
 10
881.9281177992045
 20
1326.789176819137
 30
0.0
  0
VERTEX
  5
34E
  8
0
  6
CONTINUOUS
 62
     7
 10
881.915293753586
 20
1326.782426093241
 30
0.0
  0
VERTEX
  5
34F
  8
0
  6
CONTINUOUS
 62
     7
 10
881.9026039379979
 20
1326.775464731061
 30
0.0
  0
VERTEX
  5
350
  8
0
  6
CONTINUOUS
 62
     7
 10
881.890053955176
 20
1326.768287208899
 30
0.0
  0
VERTEX
  5
351
  8
0
  6
CONTINUOUS
 62
     7
 10
881.8776494078552
 20
1326.760888003061
 30
0.0
  0
VERTEX
  5
352
  8
0
  6
CONTINUOUS
 62
     7
 10
881.865394294671
 20
1326.753263746758
 30
0.0
  0
VERTEX
  5
353
  8
0
  6
CONTINUOUS
 62
     7
 10
881.8532809253618
 20
1326.745426790328
 30
0.0
  0
VERTEX
  5
354
  8
0
  6
CONTINUOUS
 62
     7
 10
881.8412964350846
 20
1326.737396441958
 30
0.0
  0
VERTEX
  5
355
  8
0
  6
CONTINUOUS
 62
     7
 10
881.8294279359354
 20
1326.729192040844
 30
0.0
  0
VERTEX
  5
356
  8
0
  6
CONTINUOUS
 62
     7
 10
881.8176625400115
 20
1326.720832926178
 30
0.0
  0
VERTEX
  5
357
  8
0
  6
CONTINUOUS
 62
     7
 10
881.8059873594098
 20
1326.712338437155
 30
0.0
  0
VERTEX
  5
358
  8
0
  6
CONTINUOUS
 62
     7
 10
881.7943895062267
 20
1326.703727912968
 30
0.0
  0
VERTEX
  5
359
  8
0
  6
CONTINUOUS
 62
     7
 10
881.7828560925597
 20
1326.695020692812
 30
0.0
  0
VERTEX
  5
35A
  8
0
  6
CONTINUOUS
 62
     7
 10
881.771374230505
 20
1326.68623611588
 30
0.0
  0
VERTEX
  5
35B
  8
0
  6
CONTINUOUS
 62
     7
 10
881.7599310321599
 20
1326.677393521366
 30
0.0
  0
VERTEX
  5
35C
  8
0
  6
CONTINUOUS
 62
     7
 10
881.7485136096211
 20
1326.668512248465
 30
0.0
  0
VERTEX
  5
35D
  8
0
  6
CONTINUOUS
 62
     7
 10
881.7371090749855
 20
1326.659611636369
 30
0.0
  0
SEQEND
  5
619
  8
0
  6
CONTINUOUS
 62
     7
  0
LINE
  5
D3
  8
0
  6
CONTINUOUS
 62
     7
 10
882.3871090749979
 20
1326.900350517892
 30
0.0
 11
883.2371090750016
 21
1326.900350517895
 31
0.0
  0
LINE
  5
D4
  8
0
  6
CONTINUOUS
 62
     7
 10
883.7371090749939
 20
1365.400350517898
 30
0.0
 11
883.537109074994
 21
1365.400350517898
 31
0.0
  0
LINE
  5
D5
  8
0
  6
CONTINUOUS
 62
     7
 10
883.7371090750167
 20
1308.400350517896
 30
0.0
 11
883.5371090750168
 21
1308.400350517896
 31
0.0
  0
LINE
  5
D6
  8
0
  6
CONTINUOUS
 62
     7
 10
883.237109074993
 20
1002.856308656952
 30
0.0
 11
883.7371090749853
 21
1002.856308656952
 31
0.0
  0
LINE
  5
D7
  8
0
  6
CONTINUOUS
 62
     7
 10
883.2371090749923
 20
1001.300350517659
 30
0.0
 11
883.7371090749923
 21
1001.300350517659
 31
0.0
  0
LINE
  5
D8
  8
0
  6
CONTINUOUS
 62
     7
 10
883.2371090749923
 20
1001.300350517659
 30
0.0
 11
883.237109074993
 21
1002.856308656952
 31
0.0
  0
LINE
  5
D9
  8
0
  6
CONTINUOUS
 62
     7
 10
883.7371090749853
 20
984.944392378823
 30
0.0
 11
883.2371090749997
 21
984.944392378824
 31
0.0
  0
LINE
  5
DA
  8
0
  6
CONTINUOUS
 62
     7
 10
883.2371090749997
 20
984.944392378824
 30
0.0
 11
883.2371090750081
 21
986.5003505181103
 31
0.0
  0
LINE
  5
DB
  8
0
  6
CONTINUOUS
 62
     7
 10
883.737109075008
 20
986.5003505181103
 30
0.0
 11
883.2371090750081
 21
986.5003505181103
 31
0.0
  0
LINE
  5
DC
  8
0
  6
CONTINUOUS
 62
     7
 10
883.5371090749943
 20
1012.291924675644
 30
0.0
 11
883.2371090749941
 21
1012.291924675644
 31
0.0
  0
LINE
  5
DD
  8
0
  6
CONTINUOUS
 62
     7
 10
883.7371090749942
 20
1012.291924675644
 30
0.0
 11
883.5371090749943
 21
1012.291924675644
 31
0.0
  0
LINE
  5
DE
  8
0
  6
CONTINUOUS
 62
     7
 10
883.2371090749941
 20
1012.291924675644
 30
0.0
 11
883.237109074993
 21
1002.856308656952
 31
0.0
  0
LINE
  5
DF
  8
0
  6
CONTINUOUS
 62
     7
 10
883.537109075
 20
975.5087763601445
 30
0.0
 11
883.7371090749999
 21
975.5087763601445
 31
0.0
  0
LINE
  5
E0
  8
0
  6
CONTINUOUS
 62
     7
 10
883.2371090749999
 20
975.5087763601445
 30
0.0
 11
883.537109075
 21
975.5087763601445
 31
0.0
  0
LINE
  5
E1
  8
0
  6
CONTINUOUS
 62
     7
 10
883.2371090749997
 20
984.944392378824
 30
0.0
 11
883.2371090749999
 21
975.5087763601445
 31
0.0
  0
POLYLINE
  5
E2
  8
0
  6
CONTINUOUS
 62
     7
 10
0.0
 20
0.0
 30
0.0
 66
     1
 70
     8
  0
VERTEX
  5
35E
  8
0
  6
CONTINUOUS
 62
     7
 10
881.7371090749854
 20
1022.400350517893
 30
0.0
 70
    32
  0
VERTEX
  5
35F
  8
0
  6
CONTINUOUS
 62
     7
 10
881.754377900365
 20
1022.400350517893
 30
0.0
 70
    32
  0
VERTEX
  5
360
  8
0
  6
CONTINUOUS
 62
     7
 10
881.771802983836
 20
1022.400350517893
 30
0.0
 70
    32
  0
VERTEX
  5
361
  8
0
  6
CONTINUOUS
 62
     7
 10
881.7895405834894
 20
1022.400350517893
 30
0.0
 70
    32
  0
VERTEX
  5
362
  8
0
  6
CONTINUOUS
 62
     7
 10
881.807746957417
 20
1022.400350517893
 30
0.0
 70
    32
  0
VERTEX
  5
363
  8
0
  6
CONTINUOUS
 62
     7
 10
881.8265783637099
 20
1022.400350517893
 30
0.0
 70
    32
  0
VERTEX
  5
364
  8
0
  6
CONTINUOUS
 62
     7
 10
881.8461910604595
 20
1022.400350517893
 30
0.0
 70
    32
  0
VERTEX
  5
365
  8
0
  6
CONTINUOUS
 62
     7
 10
881.8667412837484
 20
1022.400350517893
 30
0.0
 70
    32
  0
VERTEX
  5
366
  8
0
  6
CONTINUOUS
 62
     7
 10
881.888339071367
 20
1022.400350517893
 30
0.0
 70
    32
  0
VERTEX
  5
367
  8
0
  6
CONTINUOUS
 62
     7
 10
881.9109508666879
 20
1022.400350517893
 30
0.0
 70
    32
  0
VERTEX
  5
368
  8
0
  6
CONTINUOUS
 62
     7
 10
881.9345152954688
 20
1022.400350517893
 30
0.0
 70
    32
  0
VERTEX
  5
369
  8
0
  6
CONTINUOUS
 62
     7
 10
881.9589709834693
 20
1022.400350517893
 30
0.0
 70
    32
  0
VERTEX
  5
36A
  8
0
  6
CONTINUOUS
 62
     7
 10
881.9842565564475
 20
1022.400350517893
 30
0.0
 70
    32
  0
VERTEX
  5
36B
  8
0
  6
CONTINUOUS
 62
     7
 10
882.0103106401624
 20
1022.400350517893
 30
0.0
 70
    32
  0
VERTEX
  5
36C
  8
0
  6
CONTINUOUS
 62
     7
 10
882.0370718603729
 20
1022.400350517893
 30
0.0
 70
    32
  0
VERTEX
  5
36D
  8
0
  6
CONTINUOUS
 62
     7
 10
882.0644788428367
 20
1022.400350517893
 30
0.0
 70
    32
  0
VERTEX
  5
36E
  8
0
  6
CONTINUOUS
 62
     7
 10
882.0924702133133
 20
1022.400350517893
 30
0.0
 70
    32
  0
VERTEX
  5
36F
  8
0
  6
CONTINUOUS
 62
     7
 10
882.1209845975611
 20
1022.400350517893
 30
0.0
 70
    32
  0
VERTEX
  5
370
  8
0
  6
CONTINUOUS
 62
     7
 10
882.1499692484149
 20
1022.400350517893
 30
0.0
 70
    32
  0
VERTEX
  5
371
  8
0
  6
CONTINUOUS
 62
     7
 10
882.179413557295
 20
1022.400350517893
 30
0.0
 70
    32
  0
VERTEX
  5
372
  8
0
  6
CONTINUOUS
 62
     7
 10
882.2093197617043
 20
1022.400350517893
 30
0.0
 70
    32
  0
VERTEX
  5
373
  8
0
  6
CONTINUOUS
 62
     7
 10
882.239690102251
 20
1022.400350517893
 30
0.0
 70
    32
  0
VERTEX
  5
374
  8
0
  6
CONTINUOUS
 62
     7
 10
882.2705268195438
 20
1022.400350517893
 30
0.0
 70
    32
  0
VERTEX
  5
375
  8
0
  6
CONTINUOUS
 62
     7
 10
882.3018321541917
 20
1022.400350517893
 30
0.0
 70
    32
  0
VERTEX
  5
376
  8
0
  6
CONTINUOUS
 62
     7
 10
882.3336083468033
 20
1022.400350517893
 30
0.0
 70
    32
  0
VERTEX
  5
377
  8
0
  6
CONTINUOUS
 62
     7
 10
882.3658576379871
 20
1022.400350517893
 30
0.0
 70
    32
  0
VERTEX
  5
378
  8
0
  6
CONTINUOUS
 62
     7
 10
882.3985822683526
 20
1022.400350517893
 30
0.0
 70
    32
  0
VERTEX
  5
379
  8
0
  6
CONTINUOUS
 62
     7
 10
882.4317844785076
 20
1022.400350517893
 30
0.0
 70
    32
  0
VERTEX
  5
37A
  8
0
  6
CONTINUOUS
 62
     7
 10
882.4654649173166
 20
1022.400350517893
 30
0.0
 70
    32
  0
VERTEX
  5
37B
  8
0
  6
CONTINUOUS
 62
     7
 10
882.4996123106399
 20
1022.400350517893
 30
0.0
 70
    32
  0
VERTEX
  5
37C
  8
0
  6
CONTINUOUS
 62
     7
 10
882.5342099775507
 20
1022.400350517893
 30
0.0
 70
    32
  0
VERTEX
  5
37D
  8
0
  6
CONTINUOUS
 62
     7
 10
882.5692412102405
 20
1022.400350517893
 30
0.0
 70
    32
  0
VERTEX
  5
37E
  8
0
  6
CONTINUOUS
 62
     7
 10
882.6046893009024
 20
1022.400350517893
 30
0.0
 70
    32
  0
VERTEX
  5
37F
  8
0
  6
CONTINUOUS
 62
     7
 10
882.640537541728
 20
1022.400350517893
 30
0.0
 70
    32
  0
VERTEX
  5
380
  8
0
  6
CONTINUOUS
 62
     7
 10
882.6767692249102
 20
1022.400350517893
 30
0.0
 70
    32
  0
VERTEX
  5
381
  8
0
  6
CONTINUOUS
 62
     7
 10
882.7133676426411
 20
1022.400350517893
 30
0.0
 70
    32
  0
VERTEX
  5
382
  8
0
  6
CONTINUOUS
 62
     7
 10
882.7503160871134
 20
1022.400350517893
 30
0.0
 70
    32
  0
VERTEX
  5
383
  8
0
  6
CONTINUOUS
 62
     7
 10
882.787597850519
 20
1022.400350517893
 30
0.0
 70
    32
  0
VERTEX
  5
384
  8
0
  6
CONTINUOUS
 62
     7
 10
882.825196227056
 20
1022.400350517893
 30
0.0
 70
    32
  0
VERTEX
  5
385
  8
0
  6
CONTINUOUS
 62
     7
 10
882.8630945361981
 20
1022.400350517893
 30
0.0
 70
    32
  0
VERTEX
  5
386
  8
0
  6
CONTINUOUS
 62
     7
 10
882.9012761147058
 20
1022.400350517894
 30
0.0
 70
    32
  0
VERTEX
  5
387
  8
0
  6
CONTINUOUS
 62
     7
 10
882.9397242996749
 20
1022.400350517894
 30
0.0
 70
    32
  0
VERTEX
  5
388
  8
0
  6
CONTINUOUS
 62
     7
 10
882.978422428202
 20
1022.400350517894
 30
0.0
 70
    32
  0
VERTEX
  5
389
  8
0
  6
CONTINUOUS
 62
     7
 10
883.0173538373831
 20
1022.400350517894
 30
0.0
 70
    32
  0
VERTEX
  5
38A
  8
0
  6
CONTINUOUS
 62
     7
 10
883.0565018643142
 20
1022.400350517894
 30
0.0
 70
    32
  0
VERTEX
  5
38B
  8
0
  6
CONTINUOUS
 62
     7
 10
883.0958498460917
 20
1022.400350517895
 30
0.0
 70
    32
  0
VERTEX
  5
38C
  8
0
  6
CONTINUOUS
 62
     7
 10
883.1353811198115
 20
1022.400350517895
 30
0.0
 70
    32
  0
VERTEX
  5
38D
  8
0
  6
CONTINUOUS
 62
     7
 10
883.1750790225699
 20
1022.400350517895
 30
0.0
 70
    32
  0
VERTEX
  5
38E
  8
0
  6
CONTINUOUS
 62
     7
 10
883.2149268914629
 20
1022.400350517896
 30
0.0
 70
    32
  0
VERTEX
  5
38F
  8
0
  6
CONTINUOUS
 62
     7
 10
883.2549080635869
 20
1022.400350517896
 30
0.0
 70
    32
  0
VERTEX
  5
390
  8
0
  6
CONTINUOUS
 62
     7
 10
883.2950058760377
 20
1022.400350517896
 30
0.0
 70
    32
  0
VERTEX
  5
391
  8
0
  6
CONTINUOUS
 62
     7
 10
883.3352036659119
 20
1022.400350517897
 30
0.0
 70
    32
  0
VERTEX
  5
392
  8
0
  6
CONTINUOUS
 62
     7
 10
883.3754847703051
 20
1022.400350517897
 30
0.0
 70
    32
  0
VERTEX
  5
393
  8
0
  6
CONTINUOUS
 62
     7
 10
883.4158325263138
 20
1022.400350517898
 30
0.0
 70
    32
  0
VERTEX
  5
394
  8
0
  6
CONTINUOUS
 62
     7
 10
883.4562302710342
 20
1022.400350517898
 30
0.0
 70
    32
  0
VERTEX
  5
395
  8
0
  6
CONTINUOUS
 62
     7
 10
883.496661341562
 20
1022.400350517898
 30
0.0
 70
    32
  0
VERTEX
  5
396
  8
0
  6
CONTINUOUS
 62
     7
 10
883.537109074994
 20
1022.400350517899
 30
0.0
 70
    32
  0
SEQEND
  5
61A
  8
0
  6
CONTINUOUS
 62
     7
  0
LINE
  5
E3
  8
0
  6
CONTINUOUS
 62
     7
 10
883.5371090749937
 20
1021.400350517899
 30
0.0
 11
883.537109074994
 21
1022.400350517899
 31
0.0
  0
POLYLINE
  5
E4
  8
0
  6
CONTINUOUS
 62
     7
 10
0.0
 20
0.0
 30
0.0
 66
     1
 70
     8
  0
VERTEX
  5
397
  8
0
  6
CONTINUOUS
 62
     7
 10
883.5371090750168
 20
965.4003505178961
 30
0.0
 70
    32
  0
VERTEX
  5
398
  8
0
  6
CONTINUOUS
 62
     7
 10
883.4966605963192
 20
965.400350517896
 30
0.0
 70
    32
  0
VERTEX
  5
399
  8
0
  6
CONTINUOUS
 62
     7
 10
883.4562287840163
 20
965.4003505178958
 30
0.0
 70
    32
  0
VERTEX
  5
39A
  8
0
  6
CONTINUOUS
 62
     7
 10
883.4158303045032
 20
965.400350517896
 30
0.0
 70
    32
  0
VERTEX
  5
39B
  8
0
  6
CONTINUOUS
 62
     7
 10
883.3754818241746
 20
965.4003505178961
 30
0.0
 70
    32
  0
VERTEX
  5
39C
  8
0
  6
CONTINUOUS
 62
     7
 10
883.335200009425
 20
965.4003505178958
 30
0.0
 70
    32
  0
VERTEX
  5
39D
  8
0
  6
CONTINUOUS
 62
     7
 10
883.2950015266497
 20
965.400350517896
 30
0.0
 70
    32
  0
VERTEX
  5
39E
  8
0
  6
CONTINUOUS
 62
     7
 10
883.254903042243
 20
965.400350517896
 30
0.0
 70
    32
  0
VERTEX
  5
39F
  8
0
  6
CONTINUOUS
 62
     7
 10
883.2149212226002
 20
965.4003505178958
 30
0.0
 70
    32
  0
VERTEX
  5
3A0
  8
0
  6
CONTINUOUS
 62
     7
 10
883.175072734116
 20
965.400350517896
 30
0.0
 70
    32
  0
VERTEX
  5
3A1
  8
0
  6
CONTINUOUS
 62
     7
 10
883.1353742431852
 20
965.400350517896
 30
0.0
 70
    32
  0
VERTEX
  5
3A2
  8
0
  6
CONTINUOUS
 62
     7
 10
883.0958424162022
 20
965.4003505178958
 30
0.0
 70
    32
  0
VERTEX
  5
3A3
  8
0
  6
CONTINUOUS
 62
     7
 10
883.0564939195626
 20
965.400350517896
 30
0.0
 70
    32
  0
VERTEX
  5
3A4
  8
0
  6
CONTINUOUS
 62
     7
 10
883.0173454196606
 20
965.4003505178958
 30
0.0
 70
    32
  0
VERTEX
  5
3A5
  8
0
  6
CONTINUOUS
 62
     7
 10
882.9784135828913
 20
965.400350517896
 30
0.0
 70
    32
  0
VERTEX
  5
3A6
  8
0
  6
CONTINUOUS
 62
     7
 10
882.9397150756492
 20
965.400350517896
 30
0.0
 70
    32
  0
VERTEX
  5
3A7
  8
0
  6
CONTINUOUS
 62
     7
 10
882.9012665643295
 20
965.4003505178957
 30
0.0
 70
    32
  0
VERTEX
  5
3A8
  8
0
  6
CONTINUOUS
 62
     7
 10
882.863084715327
 20
965.400350517896
 30
0.0
 70
    32
  0
VERTEX
  5
3A9
  8
0
  6
CONTINUOUS
 62
     7
 10
882.8251861950359
 20
965.4003505178957
 30
0.0
 70
    32
  0
VERTEX
  5
3AA
  8
0
  6
CONTINUOUS
 62
     7
 10
882.7875876700944
 20
965.400350517896
 30
0.0
 70
    32
  0
VERTEX
  5
3AB
  8
0
  6
CONTINUOUS
 62
     7
 10
882.7503058195998
 20
965.4003505178958
 30
0.0
 70
    32
  0
VERTEX
  5
3AC
  8
0
  6
CONTINUOUS
 62
     7
 10
882.7133573408573
 20
965.4003505178958
 30
0.0
 70
    32
  0
VERTEX
  5
3AD
  8
0
  6
CONTINUOUS
 62
     7
 10
882.6767589326147
 20
965.400350517896
 30
0.0
 70
    32
  0
VERTEX
  5
3AE
  8
0
  6
CONTINUOUS
 62
     7
 10
882.6405272936194
 20
965.400350517896
 30
0.0
 70
    32
  0
VERTEX
  5
3AF
  8
0
  6
CONTINUOUS
 62
     7
 10
882.60467912262
 20
965.4003505178958
 30
0.0
 70
    32
  0
VERTEX
  5
3B0
  8
0
  6
CONTINUOUS
 62
     7
 10
882.5692311183642
 20
965.400350517896
 30
0.0
 70
    32
  0
VERTEX
  5
3B1
  8
0
  6
CONTINUOUS
 62
     7
 10
882.5341999795996
 20
965.4003505178957
 30
0.0
 70
    32
  0
VERTEX
  5
3B2
  8
0
  6
CONTINUOUS
 62
     7
 10
882.4996024050745
 20
965.4003505178958
 30
0.0
 70
    32
  0
VERTEX
  5
3B3
  8
0
  6
CONTINUOUS
 62
     7
 10
882.4654550935367
 20
965.4003505178958
 30
0.0
 70
    32
  0
VERTEX
  5
3B4
  8
0
  6
CONTINUOUS
 62
     7
 10
882.4317747111381
 20
965.4003505178958
 30
0.0
 70
    32
  0
VERTEX
  5
3B5
  8
0
  6
CONTINUOUS
 62
     7
 10
882.3985723645945
 20
965.400350517896
 30
0.0
 70
    32
  0
VERTEX
  5
3B6
  8
0
  6
CONTINUOUS
 62
     7
 10
882.3658473624369
 20
965.4003505178958
 30
0.0
 70
    32
  0
VERTEX
  5
3B7
  8
0
  6
CONTINUOUS
 62
     7
 10
882.3335975066589
 20
965.4003505178958
 30
0.0
 70
    32
  0
VERTEX
  5
3B8
  8
0
  6
CONTINUOUS
 62
     7
 10
882.3018205992552
 20
965.400350517896
 30
0.0
 70
    32
  0
VERTEX
  5
3B9
  8
0
  6
CONTINUOUS
 62
     7
 10
882.2705144422187
 20
965.4003505178958
 30
0.0
 70
    32
  0
VERTEX
  5
3BA
  8
0
  6
CONTINUOUS
 62
     7
 10
882.2396768375442
 20
965.400350517896
 30
0.0
 70
    32
  0
VERTEX
  5
3BB
  8
0
  6
CONTINUOUS
 62
     7
 10
882.2093055872252
 20
965.4003505178958
 30
0.0
 70
    32
  0
VERTEX
  5
3BC
  8
0
  6
CONTINUOUS
 62
     7
 10
882.1793984932561
 20
965.400350517896
 30
0.0
 70
    32
  0
VERTEX
  5
3BD
  8
0
  6
CONTINUOUS
 62
     7
 10
882.1499533576305
 20
965.4003505178961
 30
0.0
 70
    32
  0
VERTEX
  5
3BE
  8
0
  6
CONTINUOUS
 62
     7
 10
882.120967985532
 20
965.400350517896
 30
0.0
 70
    32
  0
VERTEX
  5
3BF
  8
0
  6
CONTINUOUS
 62
     7
 10
882.0924530552128
 20
965.4003505178958
 30
0.0
 70
    32
  0
VERTEX
  5
3C0
  8
0
  6
CONTINUOUS
 62
     7
 10
882.0644614000958
 20
965.400350517896
 30
0.0
 70
    32
  0
VERTEX
  5
3C1
  8
0
  6
CONTINUOUS
 62
     7
 10
882.0370544690721
 20
965.4003505178957
 30
0.0
 70
    32
  0
VERTEX
  5
3C2
  8
0
  6
CONTINUOUS
 62
     7
 10
882.0102937110335
 20
965.4003505178961
 30
0.0
 70
    32
  0
VERTEX
  5
3C3
  8
0
  6
CONTINUOUS
 62
     7
 10
881.9842405748707
 20
965.4003505178958
 30
0.0
 70
    32
  0
VERTEX
  5
3C4
  8
0
  6
CONTINUOUS
 62
     7
 10
881.9589565094759
 20
965.400350517896
 30
0.0
 70
    32
  0
VERTEX
  5
3C5
  8
0
  6
CONTINUOUS
 62
     7
 10
881.9345029637398
 20
965.4003505178961
 30
0.0
 70
    32
  0
VERTEX
  5
3C6
  8
0
  6
CONTINUOUS
 62
     7
 10
881.9109413865536
 20
965.4003505178961
 30
0.0
 70
    32
  0
VERTEX
  5
3C7
  8
0
  6
CONTINUOUS
 62
     7
 10
881.8883332268089
 20
965.4003505178958
 30
0.0
 70
    32
  0
VERTEX
  5
3C8
  8
0
  6
CONTINUOUS
 62
     7
 10
881.8667399333967
 20
965.4003505178957
 30
0.0
 70
    32
  0
VERTEX
  5
3C9
  8
0
  6
CONTINUOUS
 62
     7
 10
881.846193868348
 20
965.4003505178957
 30
0.0
 70
    32
  0
VERTEX
  5
3CA
  8
0
  6
CONTINUOUS
 62
     7
 10
881.8265835052754
 20
965.4003505178958
 30
0.0
 70
    32
  0
VERTEX
  5
3CB
  8
0
  6
CONTINUOUS
 62
     7
 10
881.8077529044823
 20
965.400350517896
 30
0.0
 70
    32
  0
VERTEX
  5
3CC
  8
0
  6
CONTINUOUS
 62
     7
 10
881.7895461135124
 20
965.4003505178958
 30
0.0
 70
    32
  0
VERTEX
  5
3CD
  8
0
  6
CONTINUOUS
 62
     7
 10
881.7718071799103
 20
965.4003505178957
 30
0.0
 70
    32
  0
VERTEX
  5
3CE
  8
0
  6
CONTINUOUS
 62
     7
 10
881.7543801512197
 20
965.4003505178958
 30
0.0
 70
    32
  0
VERTEX
  5
3CF
  8
0
  6
CONTINUOUS
 62
     7
 10
881.7371090749853
 20
965.4003505178958
 30
0.0
 70
    32
  0
SEQEND
  5
61B
  8
0
  6
CONTINUOUS
 62
     7
  0
LINE
  5
E5
  8
0
  6
CONTINUOUS
 62
     7
 10
883.537109075003
 20
966.4003505178948
 30
0.0
 11
883.5371090750168
 21
965.4003505178961
 31
0.0
  0
LINE
  5
E6
  8
0
  6
CONTINUOUS
 62
     7
 10
883.7371090749937
 20
1021.400350517899
 30
0.0
 11
883.5371090749937
 21
1021.400350517899
 31
0.0
  0
LINE
  5
E7
  8
0
  6
CONTINUOUS
 62
     7
 10
883.5371090749937
 20
1021.400350517899
 30
0.0
 11
883.5371090749943
 21
1012.291924675644
 31
0.0
  0
POLYLINE
  5
E8
  8
0
  6
CONTINUOUS
 62
     7
 66
     1
 10
0.0
 20
0.0
 30
0.0
  0
VERTEX
  5
3D0
  8
0
  6
CONTINUOUS
 62
     7
 10
881.7371090749853
 20
1004.142849159582
 30
0.0
  0
VERTEX
  5
3D1
  8
0
  6
CONTINUOUS
 62
     7
 10
881.7459734172455
 20
1004.134052676773
 30
0.0
  0
VERTEX
  5
3D2
  8
0
  6
CONTINUOUS
 62
     7
 10
881.7549567361388
 20
1004.125406877384
 30
0.0
  0
VERTEX
  5
3D3
  8
0
  6
CONTINUOUS
 62
     7
 10
881.7641497617395
 20
1004.117027122797
 30
0.0
  0
VERTEX
  5
3D4
  8
0
  6
CONTINUOUS
 62
     7
 10
881.7735564145851
 20
1004.108920219946
 30
0.0
  0
VERTEX
  5
3D5
  8
0
  6
CONTINUOUS
 62
     7
 10
881.7831639934125
 20
1004.101072190371
 30
0.0
  0
VERTEX
  5
3D6
  8
0
  6
CONTINUOUS
 62
     7
 10
881.7929597969576
 20
1004.093469055612
 30
0.0
  0
VERTEX
  5
3D7
  8
0
  6
CONTINUOUS
 62
     7
 10
881.8029311239585
 20
1004.086096837209
 30
0.0
  0
VERTEX
  5
3D8
  8
0
  6
CONTINUOUS
 62
     7
 10
881.8130652731513
 20
1004.078941556702
 30
0.0
  0
VERTEX
  5
3D9
  8
0
  6
CONTINUOUS
 62
     7
 10
881.823349543273
 20
1004.071989235631
 30
0.0
  0
VERTEX
  5
3DA
  8
0
  6
CONTINUOUS
 62
     7
 10
881.8337712330606
 20
1004.065225895537
 30
0.0
  0
VERTEX
  5
3DB
  8
0
  6
CONTINUOUS
 62
     7
 10
881.8443176412511
 20
1004.058637557959
 30
0.0
  0
VERTEX
  5
3DC
  8
0
  6
CONTINUOUS
 62
     7
 10
881.8549760665807
 20
1004.052210244438
 30
0.0
  0
VERTEX
  5
3DD
  8
0
  6
CONTINUOUS
 62
     7
 10
881.865733807787
 20
1004.045929976513
 30
0.0
  0
VERTEX
  5
3DE
  8
0
  6
CONTINUOUS
 62
     7
 10
881.8765781636067
 20
1004.039782775725
 30
0.0
  0
VERTEX
  5
3DF
  8
0
  6
CONTINUOUS
 62
     7
 10
881.8874964327763
 20
1004.033754663614
 30
0.0
  0
VERTEX
  5
3E0
  8
0
  6
CONTINUOUS
 62
     7
 10
881.898475914033
 20
1004.02783166172
 30
0.0
  0
VERTEX
  5
3E1
  8
0
  6
CONTINUOUS
 62
     7
 10
881.9095056749265
 20
1004.022001934628
 30
0.0
  0
VERTEX
  5
3E2
  8
0
  6
CONTINUOUS
 62
     7
 10
881.9205844523393
 20
1004.016265362015
 30
0.0
  0
VERTEX
  5
3E3
  8
0
  6
CONTINUOUS
 62
     7
 10
881.9317142706141
 20
1004.010625806555
 30
0.0
  0
VERTEX
  5
3E4
  8
0
  6
CONTINUOUS
 62
     7
 10
881.9428971568144
 20
1004.005087134218
 30
0.0
  0
VERTEX
  5
3E5
  8
0
  6
CONTINUOUS
 62
     7
 10
881.9541351380035
 20
1003.999653210972
 30
0.0
  0
VERTEX
  5
3E6
  8
0
  6
CONTINUOUS
 62
     7
 10
881.9654302412447
 20
1003.994327902787
 30
0.0
  0
VERTEX
  5
3E7
  8
0
  6
CONTINUOUS
 62
     7
 10
881.9767844936014
 20
1003.989115075633
 30
0.0
  0
VERTEX
  5
3E8
  8
0
  6
CONTINUOUS
 62
     7
 10
881.988199922137
 20
1003.984018595479
 30
0.0
  0
VERTEX
  5
3E9
  8
0
  6
CONTINUOUS
 62
     7
 10
881.9996785539147
 20
1003.979042328294
 30
0.0
  0
VERTEX
  5
3EA
  8
0
  6
CONTINUOUS
 62
     7
 10
882.0112224159982
 20
1003.974190140048
 30
0.0
  0
VERTEX
  5
3EB
  8
0
  6
CONTINUOUS
 62
     7
 10
882.0228335354506
 20
1003.969465896711
 30
0.0
  0
VERTEX
  5
3EC
  8
0
  6
CONTINUOUS
 62
     7
 10
882.034513939335
 20
1003.964873464251
 30
0.0
  0
VERTEX
  5
3ED
  8
0
  6
CONTINUOUS
 62
     7
 10
882.046265654715
 20
1003.960416708638
 30
0.0
  0
VERTEX
  5
3EE
  8
0
  6
CONTINUOUS
 62
     7
 10
882.0580907086537
 20
1003.956099495842
 30
0.0
  0
VERTEX
  5
3EF
  8
0
  6
CONTINUOUS
 62
     7
 10
882.0699911017726
 20
1003.951925697415
 30
0.0
  0
VERTEX
  5
3F0
  8
0
  6
CONTINUOUS
 62
     7
 10
882.0819674492504
 20
1003.947899477422
 30
0.0
  0
VERTEX
  5
3F1
  8
0
  6
CONTINUOUS
 62
     7
 10
882.0940183271034
 20
1003.944025430466
 30
0.0
  0
VERTEX
  5
3F2
  8
0
  6
CONTINUOUS
 62
     7
 10
882.1061421480077
 20
1003.940308185636
 30
0.0
  0
VERTEX
  5
3F3
  8
0
  6
CONTINUOUS
 62
     7
 10
882.1183373246395
 20
1003.93675237202
 30
0.0
  0
VERTEX
  5
3F4
  8
0
  6
CONTINUOUS
 62
     7
 10
882.1306022696749
 20
1003.933362618706
 30
0.0
  0
VERTEX
  5
3F5
  8
0
  6
CONTINUOUS
 62
     7
 10
882.1429353957898
 20
1003.930143554784
 30
0.0
  0
VERTEX
  5
3F6
  8
0
  6
CONTINUOUS
 62
     7
 10
882.1553351156605
 20
1003.927099809343
 30
0.0
  0
VERTEX
  5
3F7
  8
0
  6
CONTINUOUS
 62
     7
 10
882.1677998419631
 20
1003.92423601147
 30
0.0
  0
VERTEX
  5
3F8
  8
0
  6
CONTINUOUS
 62
     7
 10
882.1803279873736
 20
1003.921556790254
 30
0.0
  0
VERTEX
  5
3F9
  8
0
  6
CONTINUOUS
 62
     7
 10
882.1929179645684
 20
1003.919066774786
 30
0.0
  0
VERTEX
  5
3FA
  8
0
  6
CONTINUOUS
 62
     7
 10
882.2055681862239
 20
1003.916770594152
 30
0.0
  0
VERTEX
  5
3FB
  8
0
  6
CONTINUOUS
 62
     7
 10
882.2182770650154
 20
1003.914672877442
 30
0.0
  0
VERTEX
  5
3FC
  8
0
  6
CONTINUOUS
 62
     7
 10
882.2310427466335
 20
1003.912776324543
 30
0.0
  0
VERTEX
  5
3FD
  8
0
  6
CONTINUOUS
 62
     7
 10
882.2438615613743
 20
1003.911070517563
 30
0.0
  0
VERTEX
  5
3FE
  8
0
  6
CONTINUOUS
 62
     7
 10
882.2567290837558
 20
1003.909539577476
 30
0.0
  0
VERTEX
  5
3FF
  8
0
  6
CONTINUOUS
 62
     7
 10
882.2696408858109
 20
1003.908167607293
 30
0.0
  0
VERTEX
  5
400
  8
0
  6
CONTINUOUS
 62
     7
 10
882.2825925395724
 20
1003.906938710023
 30
0.0
  0
VERTEX
  5
401
  8
0
  6
CONTINUOUS
 62
     7
 10
882.2955796170731
 20
1003.905836988676
 30
0.0
  0
VERTEX
  5
402
  8
0
  6
CONTINUOUS
 62
     7
 10
882.3085976903451
 20
1003.904846546261
 30
0.0
  0
VERTEX
  5
403
  8
0
  6
CONTINUOUS
 62
     7
 10
882.3216423314216
 20
1003.903951485788
 30
0.0
  0
VERTEX
  5
404
  8
0
  6
CONTINUOUS
 62
     7
 10
882.3347091123346
 20
1003.903135910267
 30
0.0
  0
VERTEX
  5
405
  8
0
  6
CONTINUOUS
 62
     7
 10
882.3477936051173
 20
1003.902383922707
 30
0.0
  0
VERTEX
  5
406
  8
0
  6
CONTINUOUS
 62
     7
 10
882.3608913818022
 20
1003.901679626118
 30
0.0
  0
VERTEX
  5
407
  8
0
  6
CONTINUOUS
 62
     7
 10
882.3739980144219
 20
1003.90100712351
 30
0.0
  0
VERTEX
  5
408
  8
0
  6
CONTINUOUS
 62
     7
 10
882.3871090750087
 20
1003.900350517892
 30
0.0
  0
SEQEND
  5
61C
  8
0
  6
CONTINUOUS
 62
     7
  0
LINE
  5
E9
  8
0
  6
CONTINUOUS
 62
     7
 10
883.2371090750017
 20
1003.900350517892
 30
0.0
 11
882.3871090750087
 21
1003.900350517892
 31
0.0
  0
LINE
  5
EA
  8
0
  6
CONTINUOUS
 62
     7
 10
883.7371090750029
 20
966.4003505178948
 30
0.0
 11
883.537109075003
 21
966.4003505178948
 31
0.0
  0
LINE
  5
EB
  8
0
  6
CONTINUOUS
 62
     7
 10
883.537109075
 20
975.5087763601445
 30
0.0
 11
883.537109075003
 21
966.4003505178948
 31
0.0
  0
POLYLINE
  5
EC
  8
0
  6
CONTINUOUS
 62
     7
 66
     1
 10
0.0
 20
0.0
 30
0.0
  0
VERTEX
  5
409
  8
0
  6
CONTINUOUS
 62
     7
 10
882.3871090749979
 20
983.9003505178921
 30
0.0
  0
VERTEX
  5
40A
  8
0
  6
CONTINUOUS
 62
     7
 10
882.3718365228219
 20
983.8995325461284
 30
0.0
  0
VERTEX
  5
40B
  8
0
  6
CONTINUOUS
 62
     7
 10
882.3565710904061
 20
983.8986910326859
 30
0.0
  0
VERTEX
  5
40C
  8
0
  6
CONTINUOUS
 62
     7
 10
882.3413198975109
 20
983.8978024358875
 30
0.0
  0
VERTEX
  5
40D
  8
0
  6
CONTINUOUS
 62
     7
 10
882.3260900638966
 20
983.8968432140546
 30
0.0
  0
VERTEX
  5
40E
  8
0
  6
CONTINUOUS
 62
     7
 10
882.3108887093235
 20
983.8957898255093
 30
0.0
  0
VERTEX
  5
40F
  8
0
  6
CONTINUOUS
 62
     7
 10
882.2957229535522
 20
983.8946187285734
 30
0.0
  0
VERTEX
  5
410
  8
0
  6
CONTINUOUS
 62
     7
 10
882.2805999163425
 20
983.8933063815686
 30
0.0
  0
VERTEX
  5
411
  8
0
  6
CONTINUOUS
 62
     7
 10
882.2655267174554
 20
983.8918292428172
 30
0.0
  0
VERTEX
  5
412
  8
0
  6
CONTINUOUS
 62
     7
 10
882.2505104766506
 20
983.8901637706407
 30
0.0
  0
VERTEX
  5
413
  8
0
  6
CONTINUOUS
 62
     7
 10
882.2355583136884
 20
983.888286423361
 30
0.0
  0
VERTEX
  5
414
  8
0
  6
CONTINUOUS
 62
     7
 10
882.2206773483298
 20
983.8861736593003
 30
0.0
  0
VERTEX
  5
415
  8
0
  6
CONTINUOUS
 62
     7
 10
882.205874700149
 20
983.8838019376466
 30
0.0
  0
VERTEX
  5
416
  8
0
  6
CONTINUOUS
 62
     7
 10
882.1911561038187
 20
983.881154190179
 30
0.0
  0
VERTEX
  5
417
  8
0
  6
CONTINUOUS
 62
     7
 10
882.176522579261
 20
983.8782353839089
 30
0.0
  0
VERTEX
  5
418
  8
0
  6
CONTINUOUS
 62
     7
 10
882.1619741439875
 20
983.8750551707961
 30
0.0
  0
VERTEX
  5
419
  8
0
  6
CONTINUOUS
 62
     7
 10
882.1475108155086
 20
983.8716232028021
 30
0.0
  0
VERTEX
  5
41A
  8
0
  6
CONTINUOUS
 62
     7
 10
882.1331326113356
 20
983.8679491318868
 30
0.0
  0
VERTEX
  5
41B
  8
0
  6
CONTINUOUS
 62
     7
 10
882.1188395489793
 20
983.8640426100111
 30
0.0
  0
VERTEX
  5
41C
  8
0
  6
CONTINUOUS
 62
     7
 10
882.1046316459508
 20
983.8599132891352
 30
0.0
  0
VERTEX
  5
41D
  8
0
  6
CONTINUOUS
 62
     7
 10
882.090508919761
 20
983.8555708212201
 30
0.0
  0
VERTEX
  5
41E
  8
0
  6
CONTINUOUS
 62
     7
 10
882.0764713879212
 20
983.8510248582262
 30
0.0
  0
VERTEX
  5
41F
  8
0
  6
CONTINUOUS
 62
     7
 10
882.0625190679423
 20
983.8462850521144
 30
0.0
  0
VERTEX
  5
420
  8
0
  6
CONTINUOUS
 62
     7
 10
882.048651977335
 20
983.8413610548446
 30
0.0
  0
VERTEX
  5
421
  8
0
  6
CONTINUOUS
 62
     7
 10
882.0348701336104
 20
983.8362625183777
 30
0.0
  0
VERTEX
  5
422
  8
0
  6
CONTINUOUS
 62
     7
 10
882.021173929626
 20
983.8309980748187
 30
0.0
  0
VERTEX
  5
423
  8
0
  6
CONTINUOUS
 62
     7
 10
882.0075671503821
 20
983.8255671394523
 30
0.0
  0
VERTEX
  5
424
  8
0
  6
CONTINUOUS
 62
     7
 10
881.9940553820215
 20
983.8199642336682
 30
0.0
  0
VERTEX
  5
425
  8
0
  6
CONTINUOUS
 62
     7
 10
881.9806442272796
 20
983.8141838337702
 30
0.0
  0
VERTEX
  5
426
  8
0
  6
CONTINUOUS
 62
     7
 10
881.9673392888914
 20
983.8082204160634
 30
0.0
  0
VERTEX
  5
427
  8
0
  6
CONTINUOUS
 62
     7
 10
881.9541461695928
 20
983.8020684568523
 30
0.0
  0
VERTEX
  5
428
  8
0
  6
CONTINUOUS
 62
     7
 10
881.9410704721186
 20
983.7957224324418
 30
0.0
  0
VERTEX
  5
429
  8
0
  6
CONTINUOUS
 62
     7
 10
881.9281177992046
 20
983.7891768191366
 30
0.0
  0
VERTEX
  5
42A
  8
0
  6
CONTINUOUS
 62
     7
 10
881.915293753586
 20
983.7824260932412
 30
0.0
  0
VERTEX
  5
42B
  8
0
  6
CONTINUOUS
 62
     7
 10
881.9026039379979
 20
983.7754647310604
 30
0.0
  0
VERTEX
  5
42C
  8
0
  6
CONTINUOUS
 62
     7
 10
881.8900539551761
 20
983.7682872088988
 30
0.0
  0
VERTEX
  5
42D
  8
0
  6
CONTINUOUS
 62
     7
 10
881.8776494078554
 20
983.7608880030612
 30
0.0
  0
VERTEX
  5
42E
  8
0
  6
CONTINUOUS
 62
     7
 10
881.865394294671
 20
983.7532637467579
 30
0.0
  0
VERTEX
  5
42F
  8
0
  6
CONTINUOUS
 62
     7
 10
881.8532809253619
 20
983.7454267903277
 30
0.0
  0
VERTEX
  5
430
  8
0
  6
CONTINUOUS
 62
     7
 10
881.8412964350846
 20
983.7373964419586
 30
0.0
  0
VERTEX
  5
431
  8
0
  6
CONTINUOUS
 62
     7
 10
881.8294279359353
 20
983.7291920408437
 30
0.0
  0
VERTEX
  5
432
  8
0
  6
CONTINUOUS
 62
     7
 10
881.8176625400114
 20
983.720832926178
 30
0.0
  0
VERTEX
  5
433
  8
0
  6
CONTINUOUS
 62
     7
 10
881.8059873594098
 20
983.7123384371548
 30
0.0
  0
VERTEX
  5
434
  8
0
  6
CONTINUOUS
 62
     7
 10
881.7943895062268
 20
983.7037279129681
 30
0.0
  0
VERTEX
  5
435
  8
0
  6
CONTINUOUS
 62
     7
 10
881.7828560925598
 20
983.6950206928119
 30
0.0
  0
VERTEX
  5
436
  8
0
  6
CONTINUOUS
 62
     7
 10
881.7713742305051
 20
983.68623611588
 30
0.0
  0
VERTEX
  5
437
  8
0
  6
CONTINUOUS
 62
     7
 10
881.7599310321598
 20
983.677393521366
 30
0.0
  0
VERTEX
  5
438
  8
0
  6
CONTINUOUS
 62
     7
 10
881.7485136096211
 20
983.6685122484647
 30
0.0
  0
VERTEX
  5
439
  8
0
  6
CONTINUOUS
 62
     7
 10
881.7371090749854
 20
983.6596116363692
 30
0.0
  0
SEQEND
  5
61D
  8
0
  6
CONTINUOUS
 62
     7
  0
LINE
  5
ED
  8
0
  6
CONTINUOUS
 62
     7
 10
882.3871090749979
 20
983.9003505178921
 30
0.0
 11
883.2371090750016
 21
983.9003505178949
 31
0.0
  0
LINE
  5
EE
  8
0
  6
CONTINUOUS
 62
     7
 10
883.7371090749939
 20
1022.400350517899
 30
0.0
 11
883.537109074994
 21
1022.400350517899
 31
0.0
  0
LINE
  5
EF
  8
0
  6
CONTINUOUS
 62
     7
 10
883.7371090750167
 20
965.4003505178961
 30
0.0
 11
883.5371090750168
 21
965.4003505178961
 31
0.0
  0
LINE
  5
F0
  8
0
  6
CONTINUOUS
 62
     7
 10
881.7371090749853
 20
1343.400350517892
 30
0.0
 11
883.737109075
 21
1343.400350517892
 31
0.0
  0
LINE
  5
F1
  8
0
  6
CONTINUOUS
 62
     7
 10
883.7371090749999
 20
1330.400350517891
 30
0.0
 11
881.7371090749853
 21
1330.400350517894
 31
0.0
  0
LINE
  5
F2
  8
0
  6
CONTINUOUS
 62
     7
 10
882.4658265298146
 20
1329.450350517891
 30
0.0
 11
882.4658265298143
 21
1330.400350517894
 31
0.0
  0
LINE
  5
F3
  8
0
  6
CONTINUOUS
 62
     7
 10
882.4658265298093
 20
1343.400350517892
 30
0.0
 11
882.4658265298089
 21
1344.350350517892
 31
0.0
  0
LINE
  5
F4
  8
0
  6
CONTINUOUS
 62
     7
 10
882.4658265298146
 20
1329.450350517891
 30
0.0
 11
881.7371090749854
 21
1329.450350517891
 31
0.0
  0
LINE
  5
F5
  8
0
  6
CONTINUOUS
 62
     7
 10
882.4658265298089
 20
1344.350350517892
 30
0.0
 11
881.7371090749854
 21
1344.350350517892
 31
0.0
  0
LINE
  5
F6
  8
0
  6
CONTINUOUS
 62
     7
 10
882.5271960254099
 20
1329.450350517893
 30
0.0
 11
882.5271960254103
 21
1330.400350517894
 31
0.0
  0
LINE
  5
F7
  8
0
  6
CONTINUOUS
 62
     7
 10
882.5271960254147
 20
1343.400350517892
 30
0.0
 11
882.527196025415
 21
1344.35035051789
 31
0.0
  0
LINE
  5
F8
  8
0
  6
CONTINUOUS
 62
     7
 10
882.5271960254099
 20
1329.450350517893
 30
0.0
 11
882.4658265298146
 21
1329.450350517891
 31
0.0
  0
LINE
  5
F9
  8
0
  6
CONTINUOUS
 62
     7
 10
882.527196025415
 20
1344.35035051789
 30
0.0
 11
882.4658265298089
 21
1344.350350517892
 31
0.0
  0
LINE
  5
FA
  8
0
  6
CONTINUOUS
 62
     7
 10
881.7371090749853
 20
1000.400350517892
 30
0.0
 11
883.737109075
 21
1000.400350517892
 31
0.0
  0
LINE
  5
FB
  8
0
  6
CONTINUOUS
 62
     7
 10
883.7371090749999
 20
987.4003505178906
 30
0.0
 11
881.7371090749853
 21
987.4003505178939
 31
0.0
  0
LINE
  5
FC
  8
0
  6
CONTINUOUS
 62
     7
 10
882.4658265298146
 20
986.4503505178913
 30
0.0
 11
882.4658265298143
 21
987.4003505178939
 31
0.0
  0
LINE
  5
FD
  8
0
  6
CONTINUOUS
 62
     7
 10
882.4658265298093
 20
1000.400350517892
 30
0.0
 11
882.4658265298089
 21
1001.350350517892
 31
0.0
  0
LINE
  5
FE
  8
0
  6
CONTINUOUS
 62
     7
 10
882.4658265298146
 20
986.4503505178913
 30
0.0
 11
881.7371090749854
 21
986.4503505178909
 31
0.0
  0
LINE
  5
FF
  8
0
  6
CONTINUOUS
 62
     7
 10
882.4658265298089
 20
1001.350350517892
 30
0.0
 11
881.7371090749854
 21
1001.350350517892
 31
0.0
  0
LINE
  5
100
  8
0
  6
CONTINUOUS
 62
     7
 10
882.5271960254099
 20
986.4503505178936
 30
0.0
 11
882.5271960254103
 21
987.4003505178939
 31
0.0
  0
LINE
  5
101
  8
0
  6
CONTINUOUS
 62
     7
 10
882.5271960254147
 20
1000.400350517893
 30
0.0
 11
882.527196025415
 21
1001.35035051789
 31
0.0
  0
LINE
  5
102
  8
0
  6
CONTINUOUS
 62
     7
 10
882.5271960254099
 20
986.4503505178936
 30
0.0
 11
882.4658265298146
 21
986.4503505178913
 31
0.0
  0
LINE
  5
103
  8
0
  6
CONTINUOUS
 62
     7
 10
882.527196025415
 20
1001.35035051789
 30
0.0
 11
882.4658265298089
 21
1001.350350517892
 31
0.0
  0
LINE
  5
104
  8
0
  6
CONTINUOUS
 62
     7
 10
881.7371090749853
 20
1686.400350517892
 30
0.0
 11
883.7371090750016
 21
1686.400350517892
 31
0.0
  0
LINE
  5
105
  8
0
  6
CONTINUOUS
 62
     7
 10
883.7371090750015
 20
1673.400350517891
 30
0.0
 11
881.7371090749853
 21
1673.400350517894
 31
0.0
  0
LINE
  5
106
  8
0
  6
CONTINUOUS
 62
     7
 10
882.4658265298162
 20
1672.450350517891
 30
0.0
 11
882.4658265298159
 21
1673.400350517894
 31
0.0
  0
LINE
  5
107
  8
0
  6
CONTINUOUS
 62
     7
 10
882.4658265298108
 20
1686.400350517892
 30
0.0
 11
882.4658265298104
 21
1687.350350517892
 31
0.0
  0
LINE
  5
108
  8
0
  6
CONTINUOUS
 62
     7
 10
882.4658265298162
 20
1672.450350517891
 30
0.0
 11
881.7371090749854
 21
1672.450350517891
 31
0.0
  0
LINE
  5
109
  8
0
  6
CONTINUOUS
 62
     7
 10
882.4658265298104
 20
1687.350350517892
 30
0.0
 11
881.7371090749854
 21
1687.350350517892
 31
0.0
  0
LINE
  5
10A
  8
0
  6
CONTINUOUS
 62
     7
 10
882.5271960254114
 20
1672.450350517894
 30
0.0
 11
882.5271960254117
 21
1673.400350517894
 31
0.0
  0
LINE
  5
10B
  8
0
  6
CONTINUOUS
 62
     7
 10
882.5271960254162
 20
1686.400350517893
 30
0.0
 11
882.5271960254165
 21
1687.35035051789
 31
0.0
  0
LINE
  5
10C
  8
0
  6
CONTINUOUS
 62
     7
 10
882.5271960254114
 20
1672.450350517894
 30
0.0
 11
882.4658265298162
 21
1672.450350517891
 31
0.0
  0
LINE
  5
10D
  8
0
  6
CONTINUOUS
 62
     7
 10
882.5271960254165
 20
1687.35035051789
 30
0.0
 11
882.4658265298104
 21
1687.350350517892
 31
0.0
  0
LINE
  5
10E
  8
0
  6
CONTINUOUS
 62
     7
 10
883.2371090750078
 20
1329.425350517892
 30
0.0
 11
882.9255432721703
 21
1329.425350517891
 31
0.0
  0
LINE
  5
10F
  8
0
  6
CONTINUOUS
 62
     7
 10
882.9255432721733
 20
1344.375350517892
 30
0.0
 11
882.9255432721731
 21
1343.400350517893
 31
0.0
  0
LINE
  5
110
  8
0
  6
CONTINUOUS
 62
     7
 10
882.9255432721706
 20
1330.400350517894
 30
0.0
 11
882.9255432721703
 21
1329.425350517891
 31
0.0
  0
LINE
  5
111
  8
0
  6
CONTINUOUS
 62
     7
 10
883.2371090749924
 20
1344.375350517892
 30
0.0
 11
882.9255432721733
 21
1344.375350517892
 31
0.0
  0
LINE
  5
112
  8
0
  6
CONTINUOUS
 62
     7
 10
882.9255432721703
 20
1329.425350517891
 30
0.0
 11
882.8864006777108
 21
1329.425350517891
 31
0.0
  0
LINE
  5
113
  8
0
  6
CONTINUOUS
 62
     7
 10
882.9255432721733
 20
1344.375350517892
 30
0.0
 11
882.8864006777135
 21
1344.375350517892
 31
0.0
  0
LINE
  5
114
  8
0
  6
CONTINUOUS
 62
     7
 10
883.2371090750078
 20
986.4253505178916
 30
0.0
 11
882.9255432721703
 21
986.4253505178915
 31
0.0
  0
LINE
  5
115
  8
0
  6
CONTINUOUS
 62
     7
 10
882.9255432721733
 20
1001.375350517892
 30
0.0
 11
882.9255432721731
 21
1000.400350517893
 31
0.0
  0
LINE
  5
116
  8
0
  6
CONTINUOUS
 62
     7
 10
882.9255432721706
 20
987.4003505178939
 30
0.0
 11
882.9255432721703
 21
986.4253505178915
 31
0.0
  0
LINE
  5
117
  8
0
  6
CONTINUOUS
 62
     7
 10
883.2371090749924
 20
1001.375350517892
 30
0.0
 11
882.9255432721733
 21
1001.375350517892
 31
0.0
  0
LINE
  5
118
  8
0
  6
CONTINUOUS
 62
     7
 10
882.9255432721703
 20
986.4253505178915
 30
0.0
 11
882.8864006777108
 21
986.4253505178915
 31
0.0
  0
LINE
  5
119
  8
0
  6
CONTINUOUS
 62
     7
 10
882.9255432721733
 20
1001.375350517892
 30
0.0
 11
882.8864006777135
 21
1001.375350517892
 31
0.0
  0
LINE
  5
11A
  8
0
  6
CONTINUOUS
 62
     7
 10
883.2371090750091
 20
1672.425350517892
 30
0.0
 11
882.9255432721718
 21
1672.425350517892
 31
0.0
  0
LINE
  5
11B
  8
0
  6
CONTINUOUS
 62
     7
 10
882.9255432721748
 20
1687.375350517892
 30
0.0
 11
882.9255432721745
 21
1686.400350517893
 31
0.0
  0
LINE
  5
11C
  8
0
  6
CONTINUOUS
 62
     7
 10
882.925543272172
 20
1673.400350517894
 30
0.0
 11
882.9255432721718
 21
1672.425350517892
 31
0.0
  0
LINE
  5
11D
  8
0
  6
CONTINUOUS
 62
     7
 10
883.2371090749939
 20
1687.375350517892
 30
0.0
 11
882.9255432721748
 21
1687.375350517892
 31
0.0
  0
LINE
  5
11E
  8
0
  6
CONTINUOUS
 62
     7
 10
882.9255432721718
 20
1672.425350517892
 30
0.0
 11
882.8864006777122
 21
1672.425350517892
 31
0.0
  0
LINE
  5
11F
  8
0
  6
CONTINUOUS
 62
     7
 10
882.9255432721748
 20
1687.375350517892
 30
0.0
 11
882.8864006777151
 21
1687.375350517892
 31
0.0
  0
LINE
  5
120
  8
0
  6
CONTINUOUS
 62
     7
 10
901.7371090749853
 20
1759.900350517895
 30
0.0
 11
883.7371090749855
 21
1759.900350517895
 31
0.0
  0
LINE
  5
121
  8
0
  6
CONTINUOUS
 62
     7
 10
901.7371090749853
 20
1759.900350517895
 30
0.0
 11
901.7371090749853
 21
913.9003505178946
 31
0.0
  0
LINE
  5
122
  8
0
  6
CONTINUOUS
 62
     7
 10
901.7371090749853
 20
913.9003505178946
 30
0.0
 11
883.7371090749853
 21
913.9003505178946
 31
0.0
  0
LINE
  5
123
  8
0
  6
CONTINUOUS
 62
     7
 10
883.7371090749855
 20
1759.900350517895
 30
0.0
 11
883.7371090749853
 21
913.9003505178946
 31
0.0
  0
LINE
  5
124
  8
0
  6
CONTINUOUS
 62
     7
 10
881.7371090749853
 20
1761.900350517894
 30
0.0
 11
751.7371090749853
 21
1761.900350517894
 31
0.0
  0
LINE
  5
125
  8
0
  6
CONTINUOUS
 62
     7
 10
881.7371090749853
 20
1761.900350517894
 30
0.0
 11
881.7371090749853
 21
911.9003505178936
 31
0.0
  0
LINE
  5
126
  8
0
  6
CONTINUOUS
 62
     7
 10
881.7371090749853
 20
911.9003505178936
 30
0.0
 11
751.7371090749853
 21
911.9003505178936
 31
0.0
  0
LINE
  5
127
  8
0
  6
CONTINUOUS
 62
     7
 10
751.7371090749853
 20
1761.900350517894
 30
0.0
 11
751.7371090749853
 21
911.9003505178936
 31
0.0
  0
LINE
  5
128
  8
0
  6
CONTINUOUS
 62
     8
 10
883.5371090749952
 20
1707.400350517899
 30
0.0
 11
881.7371090749851
 21
1707.4003505179
 31
0.0
  0
LINE
  5
129
  8
0
  6
CONTINUOUS
 62
     8
 10
883.5371090750044
 20
1652.400350517895
 30
0.0
 11
881.7371090749851
 21
1652.400350517896
 31
0.0
  0
LINE
  5
12A
  8
0
  6
CONTINUOUS
 62
     8
 10
882.3871090750035
 20
1688.275350517892
 30
0.0
 11
882.3871090750008
 21
1689.900350517889
 31
0.0
  0
LINE
  5
12B
  8
0
  6
CONTINUOUS
 62
     8
 10
882.387109075016
 20
1669.900350517893
 30
0.0
 11
882.3871090750035
 21
1671.525350517893
 31
0.0
  0
LINE
  5
12C
  8
0
  6
CONTINUOUS
 62
     8
 10
883.5371090749937
 20
1364.400350517899
 30
0.0
 11
881.7371090749851
 21
1364.4003505179
 31
0.0
  0
LINE
  5
12D
  8
0
  6
CONTINUOUS
 62
     8
 10
883.537109075003
 20
1309.400350517895
 30
0.0
 11
881.7371090749851
 21
1309.400350517896
 31
0.0
  0
LINE
  5
12E
  8
0
  6
CONTINUOUS
 62
     8
 10
882.3871090750021
 20
1345.275350517892
 30
0.0
 11
882.3871090749993
 21
1346.900350517889
 31
0.0
  0
LINE
  5
12F
  8
0
  6
CONTINUOUS
 62
     8
 10
882.3871090750146
 20
1326.900350517893
 30
0.0
 11
882.387109075002
 21
1328.525350517893
 31
0.0
  0
LINE
  5
130
  8
0
  6
CONTINUOUS
 62
     8
 10
883.5371090749937
 20
1021.400350517899
 30
0.0
 11
881.7371090749851
 21
1021.4003505179
 31
0.0
  0
LINE
  5
131
  8
0
  6
CONTINUOUS
 62
     8
 10
883.537109075003
 20
966.4003505178948
 30
0.0
 11
881.7371090749851
 21
966.4003505178957
 31
0.0
  0
LINE
  5
132
  8
0
  6
CONTINUOUS
 62
     8
 10
882.3871090750021
 20
1002.275350517892
 30
0.0
 11
882.3871090749993
 21
1003.90035051789
 31
0.0
  0
LINE
  5
133
  8
0
  6
CONTINUOUS
 62
     8
 10
882.3871090750146
 20
983.9003505178935
 30
0.0
 11
882.387109075002
 21
985.5253505178935
 31
0.0
  0
LINE
  5
134
  8
0
  6
CONTINUOUS
 62
     7
 10
3787.996512025616
 20
911.9003505178936
 30
0.0
 11
3917.996512025616
 21
911.9003505178936
 31
0.0
  0
LINE
  5
135
  8
0
  6
CONTINUOUS
 62
     7
 10
3787.996512025616
 20
911.9003505178936
 30
0.0
 11
3787.996512025616
 21
1761.900350517894
 31
0.0
  0
LINE
  5
136
  8
0
  6
CONTINUOUS
 62
     7
 10
3917.996512025616
 20
911.9003505178936
 30
0.0
 11
3917.996512025616
 21
1761.900350517894
 31
0.0
  0
LINE
  5
137
  8
0
  6
CONTINUOUS
 62
     7
 10
3787.996512025616
 20
1761.900350517894
 30
0.0
 11
3917.996512025616
 21
1761.900350517894
 31
0.0
  0
POLYLINE
  5
138
  8
0
  6
CONTINUOUS
 62
     7
 10
0.0
 20
0.0
 30
0.0
 66
     1
 70
     8
  0
VERTEX
  5
43A
  8
0
  6
CONTINUOUS
 62
     7
 10
3787.996512025615
 20
1651.400350517896
 30
0.0
 70
    32
  0
VERTEX
  5
43B
  8
0
  6
CONTINUOUS
 62
     7
 10
3787.979243200235
 20
1651.400350517896
 30
0.0
 70
    32
  0
VERTEX
  5
43C
  8
0
  6
CONTINUOUS
 62
     7
 10
3787.961818116764
 20
1651.400350517896
 30
0.0
 70
    32
  0
VERTEX
  5
43D
  8
0
  6
CONTINUOUS
 62
     7
 10
3787.94408051711
 20
1651.400350517896
 30
0.0
 70
    32
  0
VERTEX
  5
43E
  8
0
  6
CONTINUOUS
 62
     7
 10
3787.925874143183
 20
1651.400350517896
 30
0.0
 70
    32
  0
VERTEX
  5
43F
  8
0
  6
CONTINUOUS
 62
     7
 10
3787.90704273689
 20
1651.400350517896
 30
0.0
 70
    32
  0
VERTEX
  5
440
  8
0
  6
CONTINUOUS
 62
     7
 10
3787.88743004014
 20
1651.400350517896
 30
0.0
 70
    32
  0
VERTEX
  5
441
  8
0
  6
CONTINUOUS
 62
     7
 10
3787.866879816851
 20
1651.400350517896
 30
0.0
 70
    32
  0
VERTEX
  5
442
  8
0
  6
CONTINUOUS
 62
     7
 10
3787.845282029232
 20
1651.400350517896
 30
0.0
 70
    32
  0
VERTEX
  5
443
  8
0
  6
CONTINUOUS
 62
     7
 10
3787.822670233913
 20
1651.400350517896
 30
0.0
 70
    32
  0
VERTEX
  5
444
  8
0
  6
CONTINUOUS
 62
     7
 10
3787.799105805131
 20
1651.400350517896
 30
0.0
 70
    32
  0
VERTEX
  5
445
  8
0
  6
CONTINUOUS
 62
     7
 10
3787.77465011713
 20
1651.400350517896
 30
0.0
 70
    32
  0
VERTEX
  5
446
  8
0
  6
CONTINUOUS
 62
     7
 10
3787.749364544152
 20
1651.400350517896
 30
0.0
 70
    32
  0
VERTEX
  5
447
  8
0
  6
CONTINUOUS
 62
     7
 10
3787.723310460437
 20
1651.400350517896
 30
0.0
 70
    32
  0
VERTEX
  5
448
  8
0
  6
CONTINUOUS
 62
     7
 10
3787.696549240227
 20
1651.400350517896
 30
0.0
 70
    32
  0
VERTEX
  5
449
  8
0
  6
CONTINUOUS
 62
     7
 10
3787.669142257763
 20
1651.400350517896
 30
0.0
 70
    32
  0
VERTEX
  5
44A
  8
0
  6
CONTINUOUS
 62
     7
 10
3787.641150887287
 20
1651.400350517896
 30
0.0
 70
    32
  0
VERTEX
  5
44B
  8
0
  6
CONTINUOUS
 62
     7
 10
3787.612636503039
 20
1651.400350517896
 30
0.0
 70
    32
  0
VERTEX
  5
44C
  8
0
  6
CONTINUOUS
 62
     7
 10
3787.583651852185
 20
1651.400350517896
 30
0.0
 70
    32
  0
VERTEX
  5
44D
  8
0
  6
CONTINUOUS
 62
     7
 10
3787.554207543304
 20
1651.400350517896
 30
0.0
 70
    32
  0
VERTEX
  5
44E
  8
0
  6
CONTINUOUS
 62
     7
 10
3787.524301338894
 20
1651.400350517896
 30
0.0
 70
    32
  0
VERTEX
  5
44F
  8
0
  6
CONTINUOUS
 62
     7
 10
3787.493930998348
 20
1651.400350517896
 30
0.0
 70
    32
  0
VERTEX
  5
450
  8
0
  6
CONTINUOUS
 62
     7
 10
3787.463094281055
 20
1651.400350517896
 30
0.0
 70
    32
  0
VERTEX
  5
451
  8
0
  6
CONTINUOUS
 62
     7
 10
3787.431788946406
 20
1651.400350517896
 30
0.0
 70
    32
  0
VERTEX
  5
452
  8
0
  6
CONTINUOUS
 62
     7
 10
3787.400012753795
 20
1651.400350517896
 30
0.0
 70
    32
  0
VERTEX
  5
453
  8
0
  6
CONTINUOUS
 62
     7
 10
3787.367763462611
 20
1651.400350517896
 30
0.0
 70
    32
  0
VERTEX
  5
454
  8
0
  6
CONTINUOUS
 62
     7
 10
3787.335038832246
 20
1651.400350517896
 30
0.0
 70
    32
  0
VERTEX
  5
455
  8
0
  6
CONTINUOUS
 62
     7
 10
3787.301836622091
 20
1651.400350517896
 30
0.0
 70
    32
  0
VERTEX
  5
456
  8
0
  6
CONTINUOUS
 62
     7
 10
3787.268156183282
 20
1651.400350517896
 30
0.0
 70
    32
  0
VERTEX
  5
457
  8
0
  6
CONTINUOUS
 62
     7
 10
3787.234008789958
 20
1651.400350517896
 30
0.0
 70
    32
  0
VERTEX
  5
458
  8
0
  6
CONTINUOUS
 62
     7
 10
3787.199411123047
 20
1651.400350517896
 30
0.0
 70
    32
  0
VERTEX
  5
459
  8
0
  6
CONTINUOUS
 62
     7
 10
3787.164379890356
 20
1651.400350517896
 30
0.0
 70
    32
  0
VERTEX
  5
45A
  8
0
  6
CONTINUOUS
 62
     7
 10
3787.128931799694
 20
1651.400350517896
 30
0.0
 70
    32
  0
VERTEX
  5
45B
  8
0
  6
CONTINUOUS
 62
     7
 10
3787.093083558869
 20
1651.400350517896
 30
0.0
 70
    32
  0
VERTEX
  5
45C
  8
0
  6
CONTINUOUS
 62
     7
 10
3787.056851875686
 20
1651.400350517896
 30
0.0
 70
    32
  0
VERTEX
  5
45D
  8
0
  6
CONTINUOUS
 62
     7
 10
3787.020253457955
 20
1651.400350517896
 30
0.0
 70
    32
  0
VERTEX
  5
45E
  8
0
  6
CONTINUOUS
 62
     7
 10
3786.983305013483
 20
1651.400350517896
 30
0.0
 70
    32
  0
VERTEX
  5
45F
  8
0
  6
CONTINUOUS
 62
     7
 10
3786.946023250077
 20
1651.400350517896
 30
0.0
 70
    32
  0
VERTEX
  5
460
  8
0
  6
CONTINUOUS
 62
     7
 10
3786.90842487354
 20
1651.400350517896
 30
0.0
 70
    32
  0
VERTEX
  5
461
  8
0
  6
CONTINUOUS
 62
     7
 10
3786.870526564398
 20
1651.400350517896
 30
0.0
 70
    32
  0
VERTEX
  5
462
  8
0
  6
CONTINUOUS
 62
     7
 10
3786.83234498589
 20
1651.400350517896
 30
0.0
 70
    32
  0
VERTEX
  5
463
  8
0
  6
CONTINUOUS
 62
     7
 10
3786.793896800921
 20
1651.400350517896
 30
0.0
 70
    32
  0
VERTEX
  5
464
  8
0
  6
CONTINUOUS
 62
     7
 10
3786.755198672393
 20
1651.400350517896
 30
0.0
 70
    32
  0
VERTEX
  5
465
  8
0
  6
CONTINUOUS
 62
     7
 10
3786.716267263212
 20
1651.400350517896
 30
0.0
 70
    32
  0
VERTEX
  5
466
  8
0
  6
CONTINUOUS
 62
     7
 10
3786.677119236281
 20
1651.400350517896
 30
0.0
 70
    32
  0
VERTEX
  5
467
  8
0
  6
CONTINUOUS
 62
     7
 10
3786.637771254502
 20
1651.400350517895
 30
0.0
 70
    32
  0
VERTEX
  5
468
  8
0
  6
CONTINUOUS
 62
     7
 10
3786.598239980783
 20
1651.400350517895
 30
0.0
 70
    32
  0
VERTEX
  5
469
  8
0
  6
CONTINUOUS
 62
     7
 10
3786.558542078024
 20
1651.400350517895
 30
0.0
 70
    32
  0
VERTEX
  5
46A
  8
0
  6
CONTINUOUS
 62
     7
 10
3786.518694209131
 20
1651.400350517895
 30
0.0
 70
    32
  0
VERTEX
  5
46B
  8
0
  6
CONTINUOUS
 62
     7
 10
3786.478713037007
 20
1651.400350517895
 30
0.0
 70
    32
  0
VERTEX
  5
46C
  8
0
  6
CONTINUOUS
 62
     7
 10
3786.438615224556
 20
1651.400350517894
 30
0.0
 70
    32
  0
VERTEX
  5
46D
  8
0
  6
CONTINUOUS
 62
     7
 10
3786.398417434681
 20
1651.400350517894
 30
0.0
 70
    32
  0
VERTEX
  5
46E
  8
0
  6
CONTINUOUS
 62
     7
 10
3786.358136330287
 20
1651.400350517894
 30
0.0
 70
    32
  0
VERTEX
  5
46F
  8
0
  6
CONTINUOUS
 62
     7
 10
3786.317788574279
 20
1651.400350517894
 30
0.0
 70
    32
  0
VERTEX
  5
470
  8
0
  6
CONTINUOUS
 62
     7
 10
3786.277390829558
 20
1651.400350517894
 30
0.0
 70
    32
  0
VERTEX
  5
471
  8
0
  6
CONTINUOUS
 62
     7
 10
3786.23695975903
 20
1651.400350517894
 30
0.0
 70
    32
  0
VERTEX
  5
472
  8
0
  6
CONTINUOUS
 62
     7
 10
3786.196512025598
 20
1651.400350517894
 30
0.0
 70
    32
  0
SEQEND
  5
61E
  8
0
  6
CONTINUOUS
 62
     7
  0
LINE
  5
139
  8
0
  6
CONTINUOUS
 62
     7
 10
3786.196512025595
 20
1652.400350517896
 30
0.0
 11
3786.196512025598
 21
1651.400350517894
 31
0.0
  0
LINE
  5
13A
  8
0
  6
CONTINUOUS
 62
     7
 10
3786.196512025589
 20
1708.400350517893
 30
0.0
 11
3786.196512025598
 21
1707.400350517892
 31
0.0
  0
POLYLINE
  5
13B
  8
0
  6
CONTINUOUS
 62
     7
 10
0.0
 20
0.0
 30
0.0
 66
     1
 70
     8
  0
VERTEX
  5
473
  8
0
  6
CONTINUOUS
 62
     7
 10
3786.196512025589
 20
1708.400350517893
 30
0.0
 70
    32
  0
VERTEX
  5
474
  8
0
  6
CONTINUOUS
 62
     7
 10
3786.236960504286
 20
1708.400350517893
 30
0.0
 70
    32
  0
VERTEX
  5
475
  8
0
  6
CONTINUOUS
 62
     7
 10
3786.277392316589
 20
1708.400350517893
 30
0.0
 70
    32
  0
VERTEX
  5
476
  8
0
  6
CONTINUOUS
 62
     7
 10
3786.317790796102
 20
1708.400350517893
 30
0.0
 70
    32
  0
VERTEX
  5
477
  8
0
  6
CONTINUOUS
 62
     7
 10
3786.358139276431
 20
1708.400350517893
 30
0.0
 70
    32
  0
VERTEX
  5
478
  8
0
  6
CONTINUOUS
 62
     7
 10
3786.39842109118
 20
1708.400350517894
 30
0.0
 70
    32
  0
VERTEX
  5
479
  8
0
  6
CONTINUOUS
 62
     7
 10
3786.438619573955
 20
1708.400350517894
 30
0.0
 70
    32
  0
VERTEX
  5
47A
  8
0
  6
CONTINUOUS
 62
     7
 10
3786.478718058362
 20
1708.400350517893
 30
0.0
 70
    32
  0
VERTEX
  5
47B
  8
0
  6
CONTINUOUS
 62
     7
 10
3786.518699878005
 20
1708.400350517893
 30
0.0
 70
    32
  0
VERTEX
  5
47C
  8
0
  6
CONTINUOUS
 62
     7
 10
3786.558548366489
 20
1708.400350517893
 30
0.0
 70
    32
  0
VERTEX
  5
47D
  8
0
  6
CONTINUOUS
 62
     7
 10
3786.598246857419
 20
1708.400350517893
 30
0.0
 70
    32
  0
VERTEX
  5
47E
  8
0
  6
CONTINUOUS
 62
     7
 10
3786.637778684401
 20
1708.400350517893
 30
0.0
 70
    32
  0
VERTEX
  5
47F
  8
0
  6
CONTINUOUS
 62
     7
 10
3786.677127181042
 20
1708.400350517893
 30
0.0
 70
    32
  0
VERTEX
  5
480
  8
0
  6
CONTINUOUS
 62
     7
 10
3786.716275680943
 20
1708.400350517893
 30
0.0
 70
    32
  0
VERTEX
  5
481
  8
0
  6
CONTINUOUS
 62
     7
 10
3786.755207517713
 20
1708.400350517893
 30
0.0
 70
    32
  0
VERTEX
  5
482
  8
0
  6
CONTINUOUS
 62
     7
 10
3786.793906024954
 20
1708.400350517893
 30
0.0
 70
    32
  0
VERTEX
  5
483
  8
0
  6
CONTINUOUS
 62
     7
 10
3786.832354536274
 20
1708.400350517893
 30
0.0
 70
    32
  0
VERTEX
  5
484
  8
0
  6
CONTINUOUS
 62
     7
 10
3786.870536385277
 20
1708.400350517893
 30
0.0
 70
    32
  0
VERTEX
  5
485
  8
0
  6
CONTINUOUS
 62
     7
 10
3786.908434905567
 20
1708.400350517893
 30
0.0
 70
    32
  0
VERTEX
  5
486
  8
0
  6
CONTINUOUS
 62
     7
 10
3786.946033430508
 20
1708.400350517893
 30
0.0
 70
    32
  0
VERTEX
  5
487
  8
0
  6
CONTINUOUS
 62
     7
 10
3786.983315281003
 20
1708.400350517893
 30
0.0
 70
    32
  0
VERTEX
  5
488
  8
0
  6
CONTINUOUS
 62
     7
 10
3787.020263759746
 20
1708.400350517893
 30
0.0
 70
    32
  0
VERTEX
  5
489
  8
0
  6
CONTINUOUS
 62
     7
 10
3787.056862167988
 20
1708.400350517893
 30
0.0
 70
    32
  0
VERTEX
  5
48A
  8
0
  6
CONTINUOUS
 62
     7
 10
3787.093093806983
 20
1708.400350517893
 30
0.0
 70
    32
  0
VERTEX
  5
48B
  8
0
  6
CONTINUOUS
 62
     7
 10
3787.128941977982
 20
1708.400350517893
 30
0.0
 70
    32
  0
VERTEX
  5
48C
  8
0
  6
CONTINUOUS
 62
     7
 10
3787.164389982237
 20
1708.400350517893
 30
0.0
 70
    32
  0
VERTEX
  5
48D
  8
0
  6
CONTINUOUS
 62
     7
 10
3787.199421121002
 20
1708.400350517893
 30
0.0
 70
    32
  0
VERTEX
  5
48E
  8
0
  6
CONTINUOUS
 62
     7
 10
3787.234018695527
 20
1708.400350517893
 30
0.0
 70
    32
  0
VERTEX
  5
48F
  8
0
  6
CONTINUOUS
 62
     7
 10
3787.268166007065
 20
1708.400350517893
 30
0.0
 70
    32
  0
VERTEX
  5
490
  8
0
  6
CONTINUOUS
 62
     7
 10
3787.301846389464
 20
1708.400350517893
 30
0.0
 70
    32
  0
VERTEX
  5
491
  8
0
  6
CONTINUOUS
 62
     7
 10
3787.335048736007
 20
1708.400350517893
 30
0.0
 70
    32
  0
VERTEX
  5
492
  8
0
  6
CONTINUOUS
 62
     7
 10
3787.367773738164
 20
1708.400350517893
 30
0.0
 70
    32
  0
VERTEX
  5
493
  8
0
  6
CONTINUOUS
 62
     7
 10
3787.400023593943
 20
1708.400350517893
 30
0.0
 70
    32
  0
VERTEX
  5
494
  8
0
  6
CONTINUOUS
 62
     7
 10
3787.431800501347
 20
1708.400350517893
 30
0.0
 70
    32
  0
VERTEX
  5
495
  8
0
  6
CONTINUOUS
 62
     7
 10
3787.463106658383
 20
1708.400350517893
 30
0.0
 70
    32
  0
VERTEX
  5
496
  8
0
  6
CONTINUOUS
 62
     7
 10
3787.493944263057
 20
1708.400350517893
 30
0.0
 70
    32
  0
VERTEX
  5
497
  8
0
  6
CONTINUOUS
 62
     7
 10
3787.524315513377
 20
1708.400350517893
 30
0.0
 70
    32
  0
VERTEX
  5
498
  8
0
  6
CONTINUOUS
 62
     7
 10
3787.554222607345
 20
1708.400350517893
 30
0.0
 70
    32
  0
VERTEX
  5
499
  8
0
  6
CONTINUOUS
 62
     7
 10
3787.583667742971
 20
1708.400350517893
 30
0.0
 70
    32
  0
VERTEX
  5
49A
  8
0
  6
CONTINUOUS
 62
     7
 10
3787.612653115069
 20
1708.400350517893
 30
0.0
 70
    32
  0
VERTEX
  5
49B
  8
0
  6
CONTINUOUS
 62
     7
 10
3787.641168045388
 20
1708.400350517893
 30
0.0
 70
    32
  0
VERTEX
  5
49C
  8
0
  6
CONTINUOUS
 62
     7
 10
3787.669159700505
 20
1708.400350517893
 30
0.0
 70
    32
  0
VERTEX
  5
49D
  8
0
  6
CONTINUOUS
 62
     7
 10
3787.696566631529
 20
1708.400350517893
 30
0.0
 70
    32
  0
VERTEX
  5
49E
  8
0
  6
CONTINUOUS
 62
     7
 10
3787.723327389567
 20
1708.400350517893
 30
0.0
 70
    32
  0
VERTEX
  5
49F
  8
0
  6
CONTINUOUS
 62
     7
 10
3787.749380525729
 20
1708.400350517893
 30
0.0
 70
    32
  0
VERTEX
  5
4A0
  8
0
  6
CONTINUOUS
 62
     7
 10
3787.774664591124
 20
1708.400350517893
 30
0.0
 70
    32
  0
VERTEX
  5
4A1
  8
0
  6
CONTINUOUS
 62
     7
 10
3787.799118136861
 20
1708.400350517893
 30
0.0
 70
    32
  0
VERTEX
  5
4A2
  8
0
  6
CONTINUOUS
 62
     7
 10
3787.822679714046
 20
1708.400350517893
 30
0.0
 70
    32
  0
VERTEX
  5
4A3
  8
0
  6
CONTINUOUS
 62
     7
 10
3787.845287873791
 20
1708.400350517893
 30
0.0
 70
    32
  0
VERTEX
  5
4A4
  8
0
  6
CONTINUOUS
 62
     7
 10
3787.866881167203
 20
1708.400350517893
 30
0.0
 70
    32
  0
VERTEX
  5
4A5
  8
0
  6
CONTINUOUS
 62
     7
 10
3787.887427232251
 20
1708.400350517893
 30
0.0
 70
    32
  0
VERTEX
  5
4A6
  8
0
  6
CONTINUOUS
 62
     7
 10
3787.907037595324
 20
1708.400350517893
 30
0.0
 70
    32
  0
VERTEX
  5
4A7
  8
0
  6
CONTINUOUS
 62
     7
 10
3787.925868196117
 20
1708.400350517893
 30
0.0
 70
    32
  0
VERTEX
  5
4A8
  8
0
  6
CONTINUOUS
 62
     7
 10
3787.944074987087
 20
1708.400350517893
 30
0.0
 70
    32
  0
VERTEX
  5
4A9
  8
0
  6
CONTINUOUS
 62
     7
 10
3787.961813920689
 20
1708.400350517893
 30
0.0
 70
    32
  0
VERTEX
  5
4AA
  8
0
  6
CONTINUOUS
 62
     7
 10
3787.97924094938
 20
1708.400350517893
 30
0.0
 70
    32
  0
VERTEX
  5
4AB
  8
0
  6
CONTINUOUS
 62
     7
 10
3787.996512025615
 20
1708.400350517893
 30
0.0
 70
    32
  0
SEQEND
  5
61F
  8
0
  6
CONTINUOUS
 62
     7
  0
LINE
  5
13C
  8
0
  6
CONTINUOUS
 62
     7
 10
3786.196512025595
 20
1652.400350517896
 30
0.0
 11
3786.196512025598
 21
1707.400350517892
 31
0.0
  0
LINE
  5
13D
  8
0
  6
CONTINUOUS
 62
     7
 10
3785.996512025598
 20
1707.400350517892
 30
0.0
 11
3786.196512025598
 21
1707.400350517892
 31
0.0
  0
LINE
  5
13E
  8
0
  6
CONTINUOUS
 62
     7
 10
3785.996512025596
 20
1652.400350517896
 30
0.0
 11
3786.196512025595
 21
1652.400350517896
 31
0.0
  0
LINE
  5
13F
  8
0
  6
CONTINUOUS
 62
     7
 10
3785.996512025598
 20
1651.400350517894
 30
0.0
 11
3786.196512025598
 21
1651.400350517894
 31
0.0
  0
LINE
  5
140
  8
0
  6
CONTINUOUS
 62
     7
 10
3786.196512025589
 20
1708.400350517893
 30
0.0
 11
3785.996512025589
 21
1708.400350517893
 31
0.0
  0
POLYLINE
  5
141
  8
0
  6
CONTINUOUS
 62
     7
 10
0.0
 20
0.0
 30
0.0
 66
     1
 70
     8
  0
VERTEX
  5
4AC
  8
0
  6
CONTINUOUS
 62
     7
 10
3787.996512025616
 20
1308.400350517896
 30
0.0
 70
    32
  0
VERTEX
  5
4AD
  8
0
  6
CONTINUOUS
 62
     7
 10
3787.979243200236
 20
1308.400350517896
 30
0.0
 70
    32
  0
VERTEX
  5
4AE
  8
0
  6
CONTINUOUS
 62
     7
 10
3787.961818116765
 20
1308.400350517896
 30
0.0
 70
    32
  0
VERTEX
  5
4AF
  8
0
  6
CONTINUOUS
 62
     7
 10
3787.944080517112
 20
1308.400350517896
 30
0.0
 70
    32
  0
VERTEX
  5
4B0
  8
0
  6
CONTINUOUS
 62
     7
 10
3787.925874143184
 20
1308.400350517896
 30
0.0
 70
    32
  0
VERTEX
  5
4B1
  8
0
  6
CONTINUOUS
 62
     7
 10
3787.907042736891
 20
1308.400350517896
 30
0.0
 70
    32
  0
VERTEX
  5
4B2
  8
0
  6
CONTINUOUS
 62
     7
 10
3787.887430040141
 20
1308.400350517896
 30
0.0
 70
    32
  0
VERTEX
  5
4B3
  8
0
  6
CONTINUOUS
 62
     7
 10
3787.866879816853
 20
1308.400350517896
 30
0.0
 70
    32
  0
VERTEX
  5
4B4
  8
0
  6
CONTINUOUS
 62
     7
 10
3787.845282029234
 20
1308.400350517896
 30
0.0
 70
    32
  0
VERTEX
  5
4B5
  8
0
  6
CONTINUOUS
 62
     7
 10
3787.822670233913
 20
1308.400350517896
 30
0.0
 70
    32
  0
VERTEX
  5
4B6
  8
0
  6
CONTINUOUS
 62
     7
 10
3787.799105805133
 20
1308.400350517896
 30
0.0
 70
    32
  0
VERTEX
  5
4B7
  8
0
  6
CONTINUOUS
 62
     7
 10
3787.774650117131
 20
1308.400350517896
 30
0.0
 70
    32
  0
VERTEX
  5
4B8
  8
0
  6
CONTINUOUS
 62
     7
 10
3787.749364544153
 20
1308.400350517896
 30
0.0
 70
    32
  0
VERTEX
  5
4B9
  8
0
  6
CONTINUOUS
 62
     7
 10
3787.723310460439
 20
1308.400350517896
 30
0.0
 70
    32
  0
VERTEX
  5
4BA
  8
0
  6
CONTINUOUS
 62
     7
 10
3787.696549240228
 20
1308.400350517896
 30
0.0
 70
    32
  0
VERTEX
  5
4BB
  8
0
  6
CONTINUOUS
 62
     7
 10
3787.669142257764
 20
1308.400350517896
 30
0.0
 70
    32
  0
VERTEX
  5
4BC
  8
0
  6
CONTINUOUS
 62
     7
 10
3787.641150887288
 20
1308.400350517896
 30
0.0
 70
    32
  0
VERTEX
  5
4BD
  8
0
  6
CONTINUOUS
 62
     7
 10
3787.61263650304
 20
1308.400350517896
 30
0.0
 70
    32
  0
VERTEX
  5
4BE
  8
0
  6
CONTINUOUS
 62
     7
 10
3787.583651852186
 20
1308.400350517896
 30
0.0
 70
    32
  0
VERTEX
  5
4BF
  8
0
  6
CONTINUOUS
 62
     7
 10
3787.554207543306
 20
1308.400350517896
 30
0.0
 70
    32
  0
VERTEX
  5
4C0
  8
0
  6
CONTINUOUS
 62
     7
 10
3787.524301338896
 20
1308.400350517896
 30
0.0
 70
    32
  0
VERTEX
  5
4C1
  8
0
  6
CONTINUOUS
 62
     7
 10
3787.493930998349
 20
1308.400350517896
 30
0.0
 70
    32
  0
VERTEX
  5
4C2
  8
0
  6
CONTINUOUS
 62
     7
 10
3787.463094281057
 20
1308.400350517896
 30
0.0
 70
    32
  0
VERTEX
  5
4C3
  8
0
  6
CONTINUOUS
 62
     7
 10
3787.431788946408
 20
1308.400350517896
 30
0.0
 70
    32
  0
VERTEX
  5
4C4
  8
0
  6
CONTINUOUS
 62
     7
 10
3787.400012753797
 20
1308.400350517896
 30
0.0
 70
    32
  0
VERTEX
  5
4C5
  8
0
  6
CONTINUOUS
 62
     7
 10
3787.367763462613
 20
1308.400350517896
 30
0.0
 70
    32
  0
VERTEX
  5
4C6
  8
0
  6
CONTINUOUS
 62
     7
 10
3787.335038832247
 20
1308.400350517896
 30
0.0
 70
    32
  0
VERTEX
  5
4C7
  8
0
  6
CONTINUOUS
 62
     7
 10
3787.301836622092
 20
1308.400350517896
 30
0.0
 70
    32
  0
VERTEX
  5
4C8
  8
0
  6
CONTINUOUS
 62
     7
 10
3787.268156183282
 20
1308.400350517896
 30
0.0
 70
    32
  0
VERTEX
  5
4C9
  8
0
  6
CONTINUOUS
 62
     7
 10
3787.234008789959
 20
1308.400350517896
 30
0.0
 70
    32
  0
VERTEX
  5
4CA
  8
0
  6
CONTINUOUS
 62
     7
 10
3787.199411123048
 20
1308.400350517896
 30
0.0
 70
    32
  0
VERTEX
  5
4CB
  8
0
  6
CONTINUOUS
 62
     7
 10
3787.164379890359
 20
1308.400350517896
 30
0.0
 70
    32
  0
VERTEX
  5
4CC
  8
0
  6
CONTINUOUS
 62
     7
 10
3787.128931799696
 20
1308.400350517896
 30
0.0
 70
    32
  0
VERTEX
  5
4CD
  8
0
  6
CONTINUOUS
 62
     7
 10
3787.093083558871
 20
1308.400350517896
 30
0.0
 70
    32
  0
VERTEX
  5
4CE
  8
0
  6
CONTINUOUS
 62
     7
 10
3787.056851875687
 20
1308.400350517896
 30
0.0
 70
    32
  0
VERTEX
  5
4CF
  8
0
  6
CONTINUOUS
 62
     7
 10
3787.020253457957
 20
1308.400350517896
 30
0.0
 70
    32
  0
VERTEX
  5
4D0
  8
0
  6
CONTINUOUS
 62
     7
 10
3786.983305013485
 20
1308.400350517896
 30
0.0
 70
    32
  0
VERTEX
  5
4D1
  8
0
  6
CONTINUOUS
 62
     7
 10
3786.946023250079
 20
1308.400350517896
 30
0.0
 70
    32
  0
VERTEX
  5
4D2
  8
0
  6
CONTINUOUS
 62
     7
 10
3786.908424873542
 20
1308.400350517896
 30
0.0
 70
    32
  0
VERTEX
  5
4D3
  8
0
  6
CONTINUOUS
 62
     7
 10
3786.870526564398
 20
1308.400350517896
 30
0.0
 70
    32
  0
VERTEX
  5
4D4
  8
0
  6
CONTINUOUS
 62
     7
 10
3786.832344985891
 20
1308.400350517896
 30
0.0
 70
    32
  0
VERTEX
  5
4D5
  8
0
  6
CONTINUOUS
 62
     7
 10
3786.793896800922
 20
1308.400350517896
 30
0.0
 70
    32
  0
VERTEX
  5
4D6
  8
0
  6
CONTINUOUS
 62
     7
 10
3786.755198672393
 20
1308.400350517896
 30
0.0
 70
    32
  0
VERTEX
  5
4D7
  8
0
  6
CONTINUOUS
 62
     7
 10
3786.716267263213
 20
1308.400350517895
 30
0.0
 70
    32
  0
VERTEX
  5
4D8
  8
0
  6
CONTINUOUS
 62
     7
 10
3786.677119236282
 20
1308.400350517895
 30
0.0
 70
    32
  0
VERTEX
  5
4D9
  8
0
  6
CONTINUOUS
 62
     7
 10
3786.637771254504
 20
1308.400350517895
 30
0.0
 70
    32
  0
VERTEX
  5
4DA
  8
0
  6
CONTINUOUS
 62
     7
 10
3786.598239980784
 20
1308.400350517895
 30
0.0
 70
    32
  0
VERTEX
  5
4DB
  8
0
  6
CONTINUOUS
 62
     7
 10
3786.558542078026
 20
1308.400350517895
 30
0.0
 70
    32
  0
VERTEX
  5
4DC
  8
0
  6
CONTINUOUS
 62
     7
 10
3786.518694209132
 20
1308.400350517895
 30
0.0
 70
    32
  0
VERTEX
  5
4DD
  8
0
  6
CONTINUOUS
 62
     7
 10
3786.478713037008
 20
1308.400350517895
 30
0.0
 70
    32
  0
VERTEX
  5
4DE
  8
0
  6
CONTINUOUS
 62
     7
 10
3786.438615224557
 20
1308.400350517895
 30
0.0
 70
    32
  0
VERTEX
  5
4DF
  8
0
  6
CONTINUOUS
 62
     7
 10
3786.398417434683
 20
1308.400350517894
 30
0.0
 70
    32
  0
VERTEX
  5
4E0
  8
0
  6
CONTINUOUS
 62
     7
 10
3786.358136330289
 20
1308.400350517894
 30
0.0
 70
    32
  0
VERTEX
  5
4E1
  8
0
  6
CONTINUOUS
 62
     7
 10
3786.317788574281
 20
1308.400350517894
 30
0.0
 70
    32
  0
VERTEX
  5
4E2
  8
0
  6
CONTINUOUS
 62
     7
 10
3786.277390829559
 20
1308.400350517894
 30
0.0
 70
    32
  0
VERTEX
  5
4E3
  8
0
  6
CONTINUOUS
 62
     7
 10
3786.236959759032
 20
1308.400350517894
 30
0.0
 70
    32
  0
VERTEX
  5
4E4
  8
0
  6
CONTINUOUS
 62
     7
 10
3786.1965120256
 20
1308.400350517894
 30
0.0
 70
    32
  0
SEQEND
  5
620
  8
0
  6
CONTINUOUS
 62
     7
  0
LINE
  5
142
  8
0
  6
CONTINUOUS
 62
     7
 10
3786.196512025597
 20
1309.400350517896
 30
0.0
 11
3786.1965120256
 21
1308.400350517894
 31
0.0
  0
LINE
  5
143
  8
0
  6
CONTINUOUS
 62
     7
 10
3786.19651202559
 20
1365.400350517893
 30
0.0
 11
3786.1965120256
 21
1364.400350517892
 31
0.0
  0
POLYLINE
  5
144
  8
0
  6
CONTINUOUS
 62
     7
 10
0.0
 20
0.0
 30
0.0
 66
     1
 70
     8
  0
VERTEX
  5
4E5
  8
0
  6
CONTINUOUS
 62
     7
 10
3786.19651202559
 20
1365.400350517893
 30
0.0
 70
    32
  0
VERTEX
  5
4E6
  8
0
  6
CONTINUOUS
 62
     7
 10
3786.236960504288
 20
1365.400350517893
 30
0.0
 70
    32
  0
VERTEX
  5
4E7
  8
0
  6
CONTINUOUS
 62
     7
 10
3786.277392316591
 20
1365.400350517893
 30
0.0
 70
    32
  0
VERTEX
  5
4E8
  8
0
  6
CONTINUOUS
 62
     7
 10
3786.317790796103
 20
1365.400350517893
 30
0.0
 70
    32
  0
VERTEX
  5
4E9
  8
0
  6
CONTINUOUS
 62
     7
 10
3786.358139276431
 20
1365.400350517893
 30
0.0
 70
    32
  0
VERTEX
  5
4EA
  8
0
  6
CONTINUOUS
 62
     7
 10
3786.398421091182
 20
1365.400350517893
 30
0.0
 70
    32
  0
VERTEX
  5
4EB
  8
0
  6
CONTINUOUS
 62
     7
 10
3786.438619573957
 20
1365.400350517893
 30
0.0
 70
    32
  0
VERTEX
  5
4EC
  8
0
  6
CONTINUOUS
 62
     7
 10
3786.478718058363
 20
1365.400350517893
 30
0.0
 70
    32
  0
VERTEX
  5
4ED
  8
0
  6
CONTINUOUS
 62
     7
 10
3786.518699878006
 20
1365.400350517893
 30
0.0
 70
    32
  0
VERTEX
  5
4EE
  8
0
  6
CONTINUOUS
 62
     7
 10
3786.55854836649
 20
1365.400350517893
 30
0.0
 70
    32
  0
VERTEX
  5
4EF
  8
0
  6
CONTINUOUS
 62
     7
 10
3786.59824685742
 20
1365.400350517893
 30
0.0
 70
    32
  0
VERTEX
  5
4F0
  8
0
  6
CONTINUOUS
 62
     7
 10
3786.637778684403
 20
1365.400350517893
 30
0.0
 70
    32
  0
VERTEX
  5
4F1
  8
0
  6
CONTINUOUS
 62
     7
 10
3786.677127181044
 20
1365.400350517893
 30
0.0
 70
    32
  0
VERTEX
  5
4F2
  8
0
  6
CONTINUOUS
 62
     7
 10
3786.716275680945
 20
1365.400350517893
 30
0.0
 70
    32
  0
VERTEX
  5
4F3
  8
0
  6
CONTINUOUS
 62
     7
 10
3786.755207517715
 20
1365.400350517893
 30
0.0
 70
    32
  0
VERTEX
  5
4F4
  8
0
  6
CONTINUOUS
 62
     7
 10
3786.793906024956
 20
1365.400350517893
 30
0.0
 70
    32
  0
VERTEX
  5
4F5
  8
0
  6
CONTINUOUS
 62
     7
 10
3786.832354536275
 20
1365.400350517893
 30
0.0
 70
    32
  0
VERTEX
  5
4F6
  8
0
  6
CONTINUOUS
 62
     7
 10
3786.870536385278
 20
1365.400350517893
 30
0.0
 70
    32
  0
VERTEX
  5
4F7
  8
0
  6
CONTINUOUS
 62
     7
 10
3786.908434905569
 20
1365.400350517893
 30
0.0
 70
    32
  0
VERTEX
  5
4F8
  8
0
  6
CONTINUOUS
 62
     7
 10
3786.946033430511
 20
1365.400350517893
 30
0.0
 70
    32
  0
VERTEX
  5
4F9
  8
0
  6
CONTINUOUS
 62
     7
 10
3786.983315281005
 20
1365.400350517893
 30
0.0
 70
    32
  0
VERTEX
  5
4FA
  8
0
  6
CONTINUOUS
 62
     7
 10
3787.020263759747
 20
1365.400350517893
 30
0.0
 70
    32
  0
VERTEX
  5
4FB
  8
0
  6
CONTINUOUS
 62
     7
 10
3787.056862167989
 20
1365.400350517893
 30
0.0
 70
    32
  0
VERTEX
  5
4FC
  8
0
  6
CONTINUOUS
 62
     7
 10
3787.093093806984
 20
1365.400350517893
 30
0.0
 70
    32
  0
VERTEX
  5
4FD
  8
0
  6
CONTINUOUS
 62
     7
 10
3787.128941977983
 20
1365.400350517893
 30
0.0
 70
    32
  0
VERTEX
  5
4FE
  8
0
  6
CONTINUOUS
 62
     7
 10
3787.16438998224
 20
1365.400350517893
 30
0.0
 70
    32
  0
VERTEX
  5
4FF
  8
0
  6
CONTINUOUS
 62
     7
 10
3787.199421121003
 20
1365.400350517893
 30
0.0
 70
    32
  0
VERTEX
  5
500
  8
0
  6
CONTINUOUS
 62
     7
 10
3787.234018695529
 20
1365.400350517893
 30
0.0
 70
    32
  0
VERTEX
  5
501
  8
0
  6
CONTINUOUS
 62
     7
 10
3787.268166007067
 20
1365.400350517893
 30
0.0
 70
    32
  0
VERTEX
  5
502
  8
0
  6
CONTINUOUS
 62
     7
 10
3787.301846389465
 20
1365.400350517893
 30
0.0
 70
    32
  0
VERTEX
  5
503
  8
0
  6
CONTINUOUS
 62
     7
 10
3787.335048736008
 20
1365.400350517893
 30
0.0
 70
    32
  0
VERTEX
  5
504
  8
0
  6
CONTINUOUS
 62
     7
 10
3787.367773738166
 20
1365.400350517893
 30
0.0
 70
    32
  0
VERTEX
  5
505
  8
0
  6
CONTINUOUS
 62
     7
 10
3787.400023593944
 20
1365.400350517893
 30
0.0
 70
    32
  0
VERTEX
  5
506
  8
0
  6
CONTINUOUS
 62
     7
 10
3787.431800501348
 20
1365.400350517893
 30
0.0
 70
    32
  0
VERTEX
  5
507
  8
0
  6
CONTINUOUS
 62
     7
 10
3787.463106658385
 20
1365.400350517893
 30
0.0
 70
    32
  0
VERTEX
  5
508
  8
0
  6
CONTINUOUS
 62
     7
 10
3787.493944263058
 20
1365.400350517893
 30
0.0
 70
    32
  0
VERTEX
  5
509
  8
0
  6
CONTINUOUS
 62
     7
 10
3787.524315513377
 20
1365.400350517893
 30
0.0
 70
    32
  0
VERTEX
  5
50A
  8
0
  6
CONTINUOUS
 62
     7
 10
3787.554222607347
 20
1365.400350517893
 30
0.0
 70
    32
  0
VERTEX
  5
50B
  8
0
  6
CONTINUOUS
 62
     7
 10
3787.583667742972
 20
1365.400350517893
 30
0.0
 70
    32
  0
VERTEX
  5
50C
  8
0
  6
CONTINUOUS
 62
     7
 10
3787.612653115069
 20
1365.400350517893
 30
0.0
 70
    32
  0
VERTEX
  5
50D
  8
0
  6
CONTINUOUS
 62
     7
 10
3787.64116804539
 20
1365.400350517893
 30
0.0
 70
    32
  0
VERTEX
  5
50E
  8
0
  6
CONTINUOUS
 62
     7
 10
3787.669159700506
 20
1365.400350517893
 30
0.0
 70
    32
  0
VERTEX
  5
50F
  8
0
  6
CONTINUOUS
 62
     7
 10
3787.69656663153
 20
1365.400350517893
 30
0.0
 70
    32
  0
VERTEX
  5
510
  8
0
  6
CONTINUOUS
 62
     7
 10
3787.723327389569
 20
1365.400350517893
 30
0.0
 70
    32
  0
VERTEX
  5
511
  8
0
  6
CONTINUOUS
 62
     7
 10
3787.749380525731
 20
1365.400350517893
 30
0.0
 70
    32
  0
VERTEX
  5
512
  8
0
  6
CONTINUOUS
 62
     7
 10
3787.774664591125
 20
1365.400350517893
 30
0.0
 70
    32
  0
VERTEX
  5
513
  8
0
  6
CONTINUOUS
 62
     7
 10
3787.799118136862
 20
1365.400350517893
 30
0.0
 70
    32
  0
VERTEX
  5
514
  8
0
  6
CONTINUOUS
 62
     7
 10
3787.822679714048
 20
1365.400350517893
 30
0.0
 70
    32
  0
VERTEX
  5
515
  8
0
  6
CONTINUOUS
 62
     7
 10
3787.845287873793
 20
1365.400350517893
 30
0.0
 70
    32
  0
VERTEX
  5
516
  8
0
  6
CONTINUOUS
 62
     7
 10
3787.866881167203
 20
1365.400350517893
 30
0.0
 70
    32
  0
VERTEX
  5
517
  8
0
  6
CONTINUOUS
 62
     7
 10
3787.887427232253
 20
1365.400350517893
 30
0.0
 70
    32
  0
VERTEX
  5
518
  8
0
  6
CONTINUOUS
 62
     7
 10
3787.907037595326
 20
1365.400350517893
 30
0.0
 70
    32
  0
VERTEX
  5
519
  8
0
  6
CONTINUOUS
 62
     7
 10
3787.925868196119
 20
1365.400350517893
 30
0.0
 70
    32
  0
VERTEX
  5
51A
  8
0
  6
CONTINUOUS
 62
     7
 10
3787.944074987087
 20
1365.400350517893
 30
0.0
 70
    32
  0
VERTEX
  5
51B
  8
0
  6
CONTINUOUS
 62
     7
 10
3787.96181392069
 20
1365.400350517893
 30
0.0
 70
    32
  0
VERTEX
  5
51C
  8
0
  6
CONTINUOUS
 62
     7
 10
3787.979240949381
 20
1365.400350517893
 30
0.0
 70
    32
  0
VERTEX
  5
51D
  8
0
  6
CONTINUOUS
 62
     7
 10
3787.996512025616
 20
1365.400350517893
 30
0.0
 70
    32
  0
SEQEND
  5
621
  8
0
  6
CONTINUOUS
 62
     7
  0
LINE
  5
145
  8
0
  6
CONTINUOUS
 62
     7
 10
3786.196512025597
 20
1309.400350517896
 30
0.0
 11
3786.1965120256
 21
1364.400350517892
 31
0.0
  0
LINE
  5
146
  8
0
  6
CONTINUOUS
 62
     7
 10
3785.9965120256
 20
1364.400350517892
 30
0.0
 11
3786.1965120256
 21
1364.400350517892
 31
0.0
  0
LINE
  5
147
  8
0
  6
CONTINUOUS
 62
     7
 10
3785.996512025597
 20
1309.400350517896
 30
0.0
 11
3786.196512025597
 21
1309.400350517896
 31
0.0
  0
LINE
  5
148
  8
0
  6
CONTINUOUS
 62
     7
 10
3785.9965120256
 20
1308.400350517894
 30
0.0
 11
3786.1965120256
 21
1308.400350517894
 31
0.0
  0
LINE
  5
149
  8
0
  6
CONTINUOUS
 62
     7
 10
3786.19651202559
 20
1365.400350517893
 30
0.0
 11
3785.99651202559
 21
1365.400350517893
 31
0.0
  0
POLYLINE
  5
14A
  8
0
  6
CONTINUOUS
 62
     7
 10
0.0
 20
0.0
 30
0.0
 66
     1
 70
     8
  0
VERTEX
  5
51E
  8
0
  6
CONTINUOUS
 62
     7
 10
3787.996512025616
 20
965.4003505178958
 30
0.0
 70
    32
  0
VERTEX
  5
51F
  8
0
  6
CONTINUOUS
 62
     7
 10
3787.979243200236
 20
965.4003505178958
 30
0.0
 70
    32
  0
VERTEX
  5
520
  8
0
  6
CONTINUOUS
 62
     7
 10
3787.961818116765
 20
965.4003505178956
 30
0.0
 70
    32
  0
VERTEX
  5
521
  8
0
  6
CONTINUOUS
 62
     7
 10
3787.944080517112
 20
965.4003505178958
 30
0.0
 70
    32
  0
VERTEX
  5
522
  8
0
  6
CONTINUOUS
 62
     7
 10
3787.925874143185
 20
965.4003505178958
 30
0.0
 70
    32
  0
VERTEX
  5
523
  8
0
  6
CONTINUOUS
 62
     7
 10
3787.907042736891
 20
965.4003505178958
 30
0.0
 70
    32
  0
VERTEX
  5
524
  8
0
  6
CONTINUOUS
 62
     7
 10
3787.887430040141
 20
965.400350517896
 30
0.0
 70
    32
  0
VERTEX
  5
525
  8
0
  6
CONTINUOUS
 62
     7
 10
3787.866879816854
 20
965.4003505178961
 30
0.0
 70
    32
  0
VERTEX
  5
526
  8
0
  6
CONTINUOUS
 62
     7
 10
3787.845282029234
 20
965.4003505178958
 30
0.0
 70
    32
  0
VERTEX
  5
527
  8
0
  6
CONTINUOUS
 62
     7
 10
3787.822670233914
 20
965.4003505178961
 30
0.0
 70
    32
  0
VERTEX
  5
528
  8
0
  6
CONTINUOUS
 62
     7
 10
3787.799105805132
 20
965.4003505178961
 30
0.0
 70
    32
  0
VERTEX
  5
529
  8
0
  6
CONTINUOUS
 62
     7
 10
3787.774650117132
 20
965.4003505178961
 30
0.0
 70
    32
  0
VERTEX
  5
52A
  8
0
  6
CONTINUOUS
 62
     7
 10
3787.749364544153
 20
965.4003505178957
 30
0.0
 70
    32
  0
VERTEX
  5
52B
  8
0
  6
CONTINUOUS
 62
     7
 10
3787.723310460439
 20
965.400350517896
 30
0.0
 70
    32
  0
VERTEX
  5
52C
  8
0
  6
CONTINUOUS
 62
     7
 10
3787.696549240229
 20
965.400350517896
 30
0.0
 70
    32
  0
VERTEX
  5
52D
  8
0
  6
CONTINUOUS
 62
     7
 10
3787.669142257764
 20
965.4003505178958
 30
0.0
 70
    32
  0
VERTEX
  5
52E
  8
0
  6
CONTINUOUS
 62
     7
 10
3787.641150887288
 20
965.400350517896
 30
0.0
 70
    32
  0
VERTEX
  5
52F
  8
0
  6
CONTINUOUS
 62
     7
 10
3787.612636503039
 20
965.4003505178958
 30
0.0
 70
    32
  0
VERTEX
  5
530
  8
0
  6
CONTINUOUS
 62
     7
 10
3787.583651852186
 20
965.400350517896
 30
0.0
 70
    32
  0
VERTEX
  5
531
  8
0
  6
CONTINUOUS
 62
     7
 10
3787.554207543305
 20
965.400350517896
 30
0.0
 70
    32
  0
VERTEX
  5
532
  8
0
  6
CONTINUOUS
 62
     7
 10
3787.524301338896
 20
965.400350517896
 30
0.0
 70
    32
  0
VERTEX
  5
533
  8
0
  6
CONTINUOUS
 62
     7
 10
3787.493930998349
 20
965.4003505178958
 30
0.0
 70
    32
  0
VERTEX
  5
534
  8
0
  6
CONTINUOUS
 62
     7
 10
3787.463094281056
 20
965.4003505178958
 30
0.0
 70
    32
  0
VERTEX
  5
535
  8
0
  6
CONTINUOUS
 62
     7
 10
3787.431788946409
 20
965.400350517896
 30
0.0
 70
    32
  0
VERTEX
  5
536
  8
0
  6
CONTINUOUS
 62
     7
 10
3787.400012753797
 20
965.400350517896
 30
0.0
 70
    32
  0
VERTEX
  5
537
  8
0
  6
CONTINUOUS
 62
     7
 10
3787.367763462612
 20
965.400350517896
 30
0.0
 70
    32
  0
VERTEX
  5
538
  8
0
  6
CONTINUOUS
 62
     7
 10
3787.335038832247
 20
965.400350517896
 30
0.0
 70
    32
  0
VERTEX
  5
539
  8
0
  6
CONTINUOUS
 62
     7
 10
3787.301836622091
 20
965.4003505178957
 30
0.0
 70
    32
  0
VERTEX
  5
53A
  8
0
  6
CONTINUOUS
 62
     7
 10
3787.268156183283
 20
965.4003505178961
 30
0.0
 70
    32
  0
VERTEX
  5
53B
  8
0
  6
CONTINUOUS
 62
     7
 10
3787.23400878996
 20
965.4003505178963
 30
0.0
 70
    32
  0
VERTEX
  5
53C
  8
0
  6
CONTINUOUS
 62
     7
 10
3787.199411123049
 20
965.4003505178961
 30
0.0
 70
    32
  0
VERTEX
  5
53D
  8
0
  6
CONTINUOUS
 62
     7
 10
3787.164379890358
 20
965.4003505178961
 30
0.0
 70
    32
  0
VERTEX
  5
53E
  8
0
  6
CONTINUOUS
 62
     7
 10
3787.128931799697
 20
965.4003505178962
 30
0.0
 70
    32
  0
VERTEX
  5
53F
  8
0
  6
CONTINUOUS
 62
     7
 10
3787.09308355887
 20
965.4003505178961
 30
0.0
 70
    32
  0
VERTEX
  5
540
  8
0
  6
CONTINUOUS
 62
     7
 10
3787.056851875688
 20
965.400350517896
 30
0.0
 70
    32
  0
VERTEX
  5
541
  8
0
  6
CONTINUOUS
 62
     7
 10
3787.020253457956
 20
965.400350517896
 30
0.0
 70
    32
  0
VERTEX
  5
542
  8
0
  6
CONTINUOUS
 62
     7
 10
3786.983305013484
 20
965.4003505178958
 30
0.0
 70
    32
  0
VERTEX
  5
543
  8
0
  6
CONTINUOUS
 62
     7
 10
3786.946023250078
 20
965.4003505178958
 30
0.0
 70
    32
  0
VERTEX
  5
544
  8
0
  6
CONTINUOUS
 62
     7
 10
3786.908424873541
 20
965.400350517896
 30
0.0
 70
    32
  0
VERTEX
  5
545
  8
0
  6
CONTINUOUS
 62
     7
 10
3786.870526564399
 20
965.400350517896
 30
0.0
 70
    32
  0
VERTEX
  5
546
  8
0
  6
CONTINUOUS
 62
     7
 10
3786.83234498589
 20
965.4003505178957
 30
0.0
 70
    32
  0
VERTEX
  5
547
  8
0
  6
CONTINUOUS
 62
     7
 10
3786.793896800922
 20
965.4003505178958
 30
0.0
 70
    32
  0
VERTEX
  5
548
  8
0
  6
CONTINUOUS
 62
     7
 10
3786.755198672395
 20
965.4003505178957
 30
0.0
 70
    32
  0
VERTEX
  5
549
  8
0
  6
CONTINUOUS
 62
     7
 10
3786.716267263213
 20
965.4003505178957
 30
0.0
 70
    32
  0
VERTEX
  5
54A
  8
0
  6
CONTINUOUS
 62
     7
 10
3786.677119236281
 20
965.4003505178953
 30
0.0
 70
    32
  0
VERTEX
  5
54B
  8
0
  6
CONTINUOUS
 62
     7
 10
3786.637771254505
 20
965.4003505178955
 30
0.0
 70
    32
  0
VERTEX
  5
54C
  8
0
  6
CONTINUOUS
 62
     7
 10
3786.598239980784
 20
965.400350517895
 30
0.0
 70
    32
  0
VERTEX
  5
54D
  8
0
  6
CONTINUOUS
 62
     7
 10
3786.558542078025
 20
965.4003505178949
 30
0.0
 70
    32
  0
VERTEX
  5
54E
  8
0
  6
CONTINUOUS
 62
     7
 10
3786.518694209133
 20
965.4003505178949
 30
0.0
 70
    32
  0
VERTEX
  5
54F
  8
0
  6
CONTINUOUS
 62
     7
 10
3786.478713037008
 20
965.4003505178947
 30
0.0
 70
    32
  0
VERTEX
  5
550
  8
0
  6
CONTINUOUS
 62
     7
 10
3786.438615224558
 20
965.4003505178948
 30
0.0
 70
    32
  0
VERTEX
  5
551
  8
0
  6
CONTINUOUS
 62
     7
 10
3786.398417434683
 20
965.4003505178946
 30
0.0
 70
    32
  0
VERTEX
  5
552
  8
0
  6
CONTINUOUS
 62
     7
 10
3786.358136330289
 20
965.4003505178941
 30
0.0
 70
    32
  0
VERTEX
  5
553
  8
0
  6
CONTINUOUS
 62
     7
 10
3786.317788574281
 20
965.4003505178941
 30
0.0
 70
    32
  0
VERTEX
  5
554
  8
0
  6
CONTINUOUS
 62
     7
 10
3786.27739082956
 20
965.400350517894
 30
0.0
 70
    32
  0
VERTEX
  5
555
  8
0
  6
CONTINUOUS
 62
     7
 10
3786.236959759032
 20
965.4003505178939
 30
0.0
 70
    32
  0
VERTEX
  5
556
  8
0
  6
CONTINUOUS
 62
     7
 10
3786.1965120256
 20
965.4003505178937
 30
0.0
 70
    32
  0
SEQEND
  5
622
  8
0
  6
CONTINUOUS
 62
     7
  0
LINE
  5
14B
  8
0
  6
CONTINUOUS
 62
     7
 10
3786.196512025597
 20
966.4003505178962
 30
0.0
 11
3786.1965120256
 21
965.4003505178937
 31
0.0
  0
LINE
  5
14C
  8
0
  6
CONTINUOUS
 62
     7
 10
3786.19651202559
 20
1022.400350517894
 30
0.0
 11
3786.1965120256
 21
1021.400350517892
 31
0.0
  0
POLYLINE
  5
14D
  8
0
  6
CONTINUOUS
 62
     7
 10
0.0
 20
0.0
 30
0.0
 66
     1
 70
     8
  0
VERTEX
  5
557
  8
0
  6
CONTINUOUS
 62
     7
 10
3786.19651202559
 20
1022.400350517894
 30
0.0
 70
    32
  0
VERTEX
  5
558
  8
0
  6
CONTINUOUS
 62
     7
 10
3786.236960504287
 20
1022.400350517893
 30
0.0
 70
    32
  0
VERTEX
  5
559
  8
0
  6
CONTINUOUS
 62
     7
 10
3786.27739231659
 20
1022.400350517894
 30
0.0
 70
    32
  0
VERTEX
  5
55A
  8
0
  6
CONTINUOUS
 62
     7
 10
3786.317790796103
 20
1022.400350517894
 30
0.0
 70
    32
  0
VERTEX
  5
55B
  8
0
  6
CONTINUOUS
 62
     7
 10
3786.358139276432
 20
1022.400350517893
 30
0.0
 70
    32
  0
VERTEX
  5
55C
  8
0
  6
CONTINUOUS
 62
     7
 10
3786.398421091182
 20
1022.400350517893
 30
0.0
 70
    32
  0
VERTEX
  5
55D
  8
0
  6
CONTINUOUS
 62
     7
 10
3786.438619573957
 20
1022.400350517893
 30
0.0
 70
    32
  0
VERTEX
  5
55E
  8
0
  6
CONTINUOUS
 62
     7
 10
3786.478718058364
 20
1022.400350517894
 30
0.0
 70
    32
  0
VERTEX
  5
55F
  8
0
  6
CONTINUOUS
 62
     7
 10
3786.518699878006
 20
1022.400350517893
 30
0.0
 70
    32
  0
VERTEX
  5
560
  8
0
  6
CONTINUOUS
 62
     7
 10
3786.558548366491
 20
1022.400350517893
 30
0.0
 70
    32
  0
VERTEX
  5
561
  8
0
  6
CONTINUOUS
 62
     7
 10
3786.598246857421
 20
1022.400350517893
 30
0.0
 70
    32
  0
VERTEX
  5
562
  8
0
  6
CONTINUOUS
 62
     7
 10
3786.637778684404
 20
1022.400350517893
 30
0.0
 70
    32
  0
VERTEX
  5
563
  8
0
  6
CONTINUOUS
 62
     7
 10
3786.677127181043
 20
1022.400350517893
 30
0.0
 70
    32
  0
VERTEX
  5
564
  8
0
  6
CONTINUOUS
 62
     7
 10
3786.716275680945
 20
1022.400350517893
 30
0.0
 70
    32
  0
VERTEX
  5
565
  8
0
  6
CONTINUOUS
 62
     7
 10
3786.755207517714
 20
1022.400350517893
 30
0.0
 70
    32
  0
VERTEX
  5
566
  8
0
  6
CONTINUOUS
 62
     7
 10
3786.793906024956
 20
1022.400350517893
 30
0.0
 70
    32
  0
VERTEX
  5
567
  8
0
  6
CONTINUOUS
 62
     7
 10
3786.832354536275
 20
1022.400350517893
 30
0.0
 70
    32
  0
VERTEX
  5
568
  8
0
  6
CONTINUOUS
 62
     7
 10
3786.870536385278
 20
1022.400350517893
 30
0.0
 70
    32
  0
VERTEX
  5
569
  8
0
  6
CONTINUOUS
 62
     7
 10
3786.908434905568
 20
1022.400350517893
 30
0.0
 70
    32
  0
VERTEX
  5
56A
  8
0
  6
CONTINUOUS
 62
     7
 10
3786.94603343051
 20
1022.400350517893
 30
0.0
 70
    32
  0
VERTEX
  5
56B
  8
0
  6
CONTINUOUS
 62
     7
 10
3786.983315281005
 20
1022.400350517893
 30
0.0
 70
    32
  0
VERTEX
  5
56C
  8
0
  6
CONTINUOUS
 62
     7
 10
3787.020263759746
 20
1022.400350517893
 30
0.0
 70
    32
  0
VERTEX
  5
56D
  8
0
  6
CONTINUOUS
 62
     7
 10
3787.056862167989
 20
1022.400350517893
 30
0.0
 70
    32
  0
VERTEX
  5
56E
  8
0
  6
CONTINUOUS
 62
     7
 10
3787.093093806984
 20
1022.400350517893
 30
0.0
 70
    32
  0
VERTEX
  5
56F
  8
0
  6
CONTINUOUS
 62
     7
 10
3787.128941977983
 20
1022.400350517893
 30
0.0
 70
    32
  0
VERTEX
  5
570
  8
0
  6
CONTINUOUS
 62
     7
 10
3787.164389982238
 20
1022.400350517893
 30
0.0
 70
    32
  0
VERTEX
  5
571
  8
0
  6
CONTINUOUS
 62
     7
 10
3787.199421121004
 20
1022.400350517893
 30
0.0
 70
    32
  0
VERTEX
  5
572
  8
0
  6
CONTINUOUS
 62
     7
 10
3787.234018695529
 20
1022.400350517893
 30
0.0
 70
    32
  0
VERTEX
  5
573
  8
0
  6
CONTINUOUS
 62
     7
 10
3787.268166007067
 20
1022.400350517893
 30
0.0
 70
    32
  0
VERTEX
  5
574
  8
0
  6
CONTINUOUS
 62
     7
 10
3787.301846389465
 20
1022.400350517893
 30
0.0
 70
    32
  0
VERTEX
  5
575
  8
0
  6
CONTINUOUS
 62
     7
 10
3787.335048736009
 20
1022.400350517893
 30
0.0
 70
    32
  0
VERTEX
  5
576
  8
0
  6
CONTINUOUS
 62
     7
 10
3787.367773738165
 20
1022.400350517893
 30
0.0
 70
    32
  0
VERTEX
  5
577
  8
0
  6
CONTINUOUS
 62
     7
 10
3787.400023593944
 20
1022.400350517893
 30
0.0
 70
    32
  0
VERTEX
  5
578
  8
0
  6
CONTINUOUS
 62
     7
 10
3787.431800501349
 20
1022.400350517893
 30
0.0
 70
    32
  0
VERTEX
  5
579
  8
0
  6
CONTINUOUS
 62
     7
 10
3787.463106658384
 20
1022.400350517893
 30
0.0
 70
    32
  0
VERTEX
  5
57A
  8
0
  6
CONTINUOUS
 62
     7
 10
3787.493944263059
 20
1022.400350517893
 30
0.0
 70
    32
  0
VERTEX
  5
57B
  8
0
  6
CONTINUOUS
 62
     7
 10
3787.524315513377
 20
1022.400350517893
 30
0.0
 70
    32
  0
VERTEX
  5
57C
  8
0
  6
CONTINUOUS
 62
     7
 10
3787.554222607347
 20
1022.400350517893
 30
0.0
 70
    32
  0
VERTEX
  5
57D
  8
0
  6
CONTINUOUS
 62
     7
 10
3787.583667742972
 20
1022.400350517893
 30
0.0
 70
    32
  0
VERTEX
  5
57E
  8
0
  6
CONTINUOUS
 62
     7
 10
3787.61265311507
 20
1022.400350517893
 30
0.0
 70
    32
  0
VERTEX
  5
57F
  8
0
  6
CONTINUOUS
 62
     7
 10
3787.641168045389
 20
1022.400350517893
 30
0.0
 70
    32
  0
VERTEX
  5
580
  8
0
  6
CONTINUOUS
 62
     7
 10
3787.669159700507
 20
1022.400350517893
 30
0.0
 70
    32
  0
VERTEX
  5
581
  8
0
  6
CONTINUOUS
 62
     7
 10
3787.696566631529
 20
1022.400350517893
 30
0.0
 70
    32
  0
VERTEX
  5
582
  8
0
  6
CONTINUOUS
 62
     7
 10
3787.723327389568
 20
1022.400350517893
 30
0.0
 70
    32
  0
VERTEX
  5
583
  8
0
  6
CONTINUOUS
 62
     7
 10
3787.749380525731
 20
1022.400350517893
 30
0.0
 70
    32
  0
VERTEX
  5
584
  8
0
  6
CONTINUOUS
 62
     7
 10
3787.774664591125
 20
1022.400350517893
 30
0.0
 70
    32
  0
VERTEX
  5
585
  8
0
  6
CONTINUOUS
 62
     7
 10
3787.799118136862
 20
1022.400350517893
 30
0.0
 70
    32
  0
VERTEX
  5
586
  8
0
  6
CONTINUOUS
 62
     7
 10
3787.822679714047
 20
1022.400350517893
 30
0.0
 70
    32
  0
VERTEX
  5
587
  8
0
  6
CONTINUOUS
 62
     7
 10
3787.845287873792
 20
1022.400350517893
 30
0.0
 70
    32
  0
VERTEX
  5
588
  8
0
  6
CONTINUOUS
 62
     7
 10
3787.866881167203
 20
1022.400350517893
 30
0.0
 70
    32
  0
VERTEX
  5
589
  8
0
  6
CONTINUOUS
 62
     7
 10
3787.887427232253
 20
1022.400350517893
 30
0.0
 70
    32
  0
VERTEX
  5
58A
  8
0
  6
CONTINUOUS
 62
     7
 10
3787.907037595325
 20
1022.400350517893
 30
0.0
 70
    32
  0
VERTEX
  5
58B
  8
0
  6
CONTINUOUS
 62
     7
 10
3787.925868196118
 20
1022.400350517893
 30
0.0
 70
    32
  0
VERTEX
  5
58C
  8
0
  6
CONTINUOUS
 62
     7
 10
3787.944074987089
 20
1022.400350517893
 30
0.0
 70
    32
  0
VERTEX
  5
58D
  8
0
  6
CONTINUOUS
 62
     7
 10
3787.96181392069
 20
1022.400350517893
 30
0.0
 70
    32
  0
VERTEX
  5
58E
  8
0
  6
CONTINUOUS
 62
     7
 10
3787.979240949381
 20
1022.400350517893
 30
0.0
 70
    32
  0
VERTEX
  5
58F
  8
0
  6
CONTINUOUS
 62
     7
 10
3787.996512025616
 20
1022.400350517893
 30
0.0
 70
    32
  0
SEQEND
  5
623
  8
0
  6
CONTINUOUS
 62
     7
  0
LINE
  5
14E
  8
0
  6
CONTINUOUS
 62
     7
 10
3786.196512025597
 20
966.4003505178962
 30
0.0
 11
3786.1965120256
 21
1021.400350517892
 31
0.0
  0
LINE
  5
14F
  8
0
  6
CONTINUOUS
 62
     7
 10
3785.9965120256
 20
965.4003505178937
 30
0.0
 11
3786.1965120256
 21
965.4003505178937
 31
0.0
  0
LINE
  5
150
  8
0
  6
CONTINUOUS
 62
     7
 10
3785.996512025597
 20
966.4003505178962
 30
0.0
 11
3786.196512025597
 21
966.4003505178962
 31
0.0
  0
LINE
  5
151
  8
0
  6
CONTINUOUS
 62
     7
 10
3785.9965120256
 20
1021.400350517892
 30
0.0
 11
3786.1965120256
 21
1021.400350517892
 31
0.0
  0
LINE
  5
152
  8
0
  6
CONTINUOUS
 62
     7
 10
3786.19651202559
 20
1022.400350517894
 30
0.0
 11
3785.99651202559
 21
1022.400350517894
 31
0.0
  0
LINE
  5
153
  8
0
  6
CONTINUOUS
 62
     7
 10
3767.996512025616
 20
913.9003505178946
 30
0.0
 11
3785.996512025616
 21
913.9003505178946
 31
0.0
  0
LINE
  5
154
  8
0
  6
CONTINUOUS
 62
     7
 10
3767.996512025616
 20
913.9003505178946
 30
0.0
 11
3767.996512025616
 21
1759.900350517895
 31
0.0
  0
LINE
  5
155
  8
0
  6
CONTINUOUS
 62
     7
 10
3767.996512025616
 20
1759.900350517895
 30
0.0
 11
3785.996512025616
 21
1759.900350517895
 31
0.0
  0
LINE
  5
156
  8
0
  6
CONTINUOUS
 62
     7
 10
3785.996512025616
 20
913.9003505178946
 30
0.0
 11
3785.996512025616
 21
1759.900350517895
 31
0.0
  0
LINE
  5
157
  8
0
  6
CONTINUOUS
 62
     8
 10
3786.196512025595
 20
1652.400350517896
 30
0.0
 11
3787.996512025615
 21
1652.400350517895
 31
0.0
  0
LINE
  5
158
  8
0
  6
CONTINUOUS
 62
     8
 10
3787.996512025615
 20
1707.400350517891
 30
0.0
 11
3786.196512025598
 21
1707.400350517892
 31
0.0
  0
LINE
  5
159
  8
0
  6
CONTINUOUS
 62
     8
 10
3786.196512025597
 20
1309.400350517896
 30
0.0
 11
3787.996512025615
 21
1309.400350517895
 31
0.0
  0
LINE
  5
15A
  8
0
  6
CONTINUOUS
 62
     8
 10
3787.996512025615
 20
1364.400350517891
 30
0.0
 11
3786.1965120256
 21
1364.400350517892
 31
0.0
  0
LINE
  5
15B
  8
0
  6
CONTINUOUS
 62
     8
 10
3786.196512025597
 20
966.4003505178962
 30
0.0
 11
3787.996512025615
 21
966.400350517895
 31
0.0
  0
LINE
  5
15C
  8
0
  6
CONTINUOUS
 62
     8
 10
3787.996512025615
 20
1021.400350517891
 30
0.0
 11
3786.1965120256
 21
1021.400350517892
 31
0.0
  0
LINE
  5
15D
  8
0
  6
CONTINUOUS
 62
     7
 10
2427.941905018051
 20
2639.757856325616
 30
0.0
 11
2410.441905018051
 21
2639.757856325616
 31
0.0
  0
LINE
  5
15E
  8
0
  6
CONTINUOUS
 62
     7
 10
2410.441905018051
 20
2639.757856325616
 30
0.0
 11
2410.441905018051
 21
2769.757856325616
 31
0.0
  0
LINE
  5
15F
  8
0
  6
CONTINUOUS
 62
     7
 10
2427.941905018051
 20
2769.757856325616
 30
0.0
 11
2410.441905018051
 21
2769.757856325616
 31
0.0
  0
LINE
  5
160
  8
0
  6
CONTINUOUS
 62
     7
 10
2427.941905018051
 20
2639.757856325616
 30
0.0
 11
2427.941905018051
 21
2769.757856325616
 31
0.0
  0
LINE
  5
161
  8
0
  6
CONTINUOUS
 62
     7
 10
2091.941905022383
 20
2639.957856325599
 30
0.0
 11
2075.941905022383
 21
2639.957856325587
 31
0.0
  0
LINE
  5
162
  8
0
  6
CONTINUOUS
 62
     7
 10
2093.941905022383
 20
2637.957856325589
 30
0.0
 11
2093.941905022384
 21
2637.757856325589
 31
0.0
  0
LINE
  5
163
  8
0
  6
CONTINUOUS
 62
     7
 10
2073.941905022381
 20
2637.757856325606
 30
0.0
 11
2073.941905022382
 21
2637.957856325605
 31
0.0
  0
POLYLINE
  5
164
  8
0
  6
CONTINUOUS
 62
     7
 66
     1
 10
0.0
 20
0.0
 30
0.0
  0
VERTEX
  5
590
  8
0
  6
CONTINUOUS
 62
     7
 10
2075.941905022383
 20
2639.957856325587
 30
0.0
  0
VERTEX
  5
591
  8
0
  6
CONTINUOUS
 62
     7
 10
2075.892673368568
 20
2639.95258109619
 30
0.0
  0
VERTEX
  5
592
  8
0
  6
CONTINUOUS
 62
     7
 10
2075.843472278537
 20
2639.947206099606
 30
0.0
  0
VERTEX
  5
593
  8
0
  6
CONTINUOUS
 62
     7
 10
2075.794332316074
 20
2639.941631568644
 30
0.0
  0
VERTEX
  5
594
  8
0
  6
CONTINUOUS
 62
     7
 10
2075.745284044964
 20
2639.935757736116
 30
0.0
  0
VERTEX
  5
595
  8
0
  6
CONTINUOUS
 62
     7
 10
2075.696358028987
 20
2639.929484834832
 30
0.0
  0
VERTEX
  5
596
  8
0
  6
CONTINUOUS
 62
     7
 10
2075.647584831931
 20
2639.922713097606
 30
0.0
  0
VERTEX
  5
597
  8
0
  6
CONTINUOUS
 62
     7
 10
2075.598995017579
 20
2639.915342757248
 30
0.0
  0
VERTEX
  5
598
  8
0
  6
CONTINUOUS
 62
     7
 10
2075.550619149714
 20
2639.90727404657
 30
0.0
  0
VERTEX
  5
599
  8
0
  6
CONTINUOUS
 62
     7
 10
2075.50248779212
 20
2639.898407198382
 30
0.0
  0
VERTEX
  5
59A
  8
0
  6
CONTINUOUS
 62
     7
 10
2075.454631508581
 20
2639.888642445496
 30
0.0
  0
VERTEX
  5
59B
  8
0
  6
CONTINUOUS
 62
     7
 10
2075.407080862882
 20
2639.877880020724
 30
0.0
  0
VERTEX
  5
59C
  8
0
  6
CONTINUOUS
 62
     7
 10
2075.359866418806
 20
2639.866020156877
 30
0.0
  0
VERTEX
  5
59D
  8
0
  6
CONTINUOUS
 62
     7
 10
2075.313018740137
 20
2639.852963086766
 30
0.0
  0
VERTEX
  5
59E
  8
0
  6
CONTINUOUS
 62
     7
 10
2075.266568390658
 20
2639.838609043202
 30
0.0
  0
VERTEX
  5
59F
  8
0
  6
CONTINUOUS
 62
     7
 10
2075.220545934154
 20
2639.822858258997
 30
0.0
  0
VERTEX
  5
5A0
  8
0
  6
CONTINUOUS
 62
     7
 10
2075.174981563046
 20
2639.805619864903
 30
0.0
  0
VERTEX
  5
5A1
  8
0
  6
CONTINUOUS
 62
     7
 10
2075.12990129045
 20
2639.786903128825
 30
0.0
  0
VERTEX
  5
5A2
  8
0
  6
CONTINUOUS
 62
     7
 10
2075.085328497172
 20
2639.766780389451
 30
0.0
  0
VERTEX
  5
5A3
  8
0
  6
CONTINUOUS
 62
     7
 10
2075.041286522933
 20
2639.74532496983
 30
0.0
  0
VERTEX
  5
5A4
  8
0
  6
CONTINUOUS
 62
     7
 10
2074.997798707457
 20
2639.722610193013
 30
0.0
  0
VERTEX
  5
5A5
  8
0
  6
CONTINUOUS
 62
     7
 10
2074.954888390467
 20
2639.698709382052
 30
0.0
  0
VERTEX
  5
5A6
  8
0
  6
CONTINUOUS
 62
     7
 10
2074.912578911684
 20
2639.673695859998
 30
0.0
  0
VERTEX
  5
5A7
  8
0
  6
CONTINUOUS
 62
     7
 10
2074.870893610831
 20
2639.647642949902
 30
0.0
  0
VERTEX
  5
5A8
  8
0
  6
CONTINUOUS
 62
     7
 10
2074.829855829465
 20
2639.620623527353
 30
0.0
  0
VERTEX
  5
5A9
  8
0
  6
CONTINUOUS
 62
     7
 10
2074.789489011676
 20
2639.592685451311
 30
0.0
  0
VERTEX
  5
5AA
  8
0
  6
CONTINUOUS
 62
     7
 10
2074.749816756314
 20
2639.563838822752
 30
0.0
  0
VERTEX
  5
5AB
  8
0
  6
CONTINUOUS
 62
     7
 10
2074.710862675062
 20
2639.534090610762
 30
0.0
  0
VERTEX
  5
5AC
  8
0
  6
CONTINUOUS
 62
     7
 10
2074.672650379605
 20
2639.503447784427
 30
0.0
  0
VERTEX
  5
5AD
  8
0
  6
CONTINUOUS
 62
     7
 10
2074.635203481628
 20
2639.471917312836
 30
0.0
  0
VERTEX
  5
5AE
  8
0
  6
CONTINUOUS
 62
     7
 10
2074.598545592816
 20
2639.439506165075
 30
0.0
  0
VERTEX
  5
5AF
  8
0
  6
CONTINUOUS
 62
     7
 10
2074.562700324853
 20
2639.406221310231
 30
0.0
  0
VERTEX
  5
5B0
  8
0
  6
CONTINUOUS
 62
     7
 10
2074.527691289425
 20
2639.372069717391
 30
0.0
  0
VERTEX
  5
5B1
  8
0
  6
CONTINUOUS
 62
     7
 10
2074.493539319399
 20
2639.33706112459
 30
0.0
  0
VERTEX
  5
5B2
  8
0
  6
CONTINUOUS
 62
     7
 10
2074.460254132546
 20
2639.301216345501
 30
0.0
  0
VERTEX
  5
5B3
  8
0
  6
CONTINUOUS
 62
     7
 10
2074.427842667902
 20
2639.26455896266
 30
0.0
  0
VERTEX
  5
5B4
  8
0
  6
CONTINUOUS
 62
     7
 10
2074.396311864505
 20
2639.227112558606
 30
0.0
  0
VERTEX
  5
5B5
  8
0
  6
CONTINUOUS
 62
     7
 10
2074.365668661391
 20
2639.188900715876
 30
0.0
  0
VERTEX
  5
5B6
  8
0
  6
CONTINUOUS
 62
     7
 10
2074.335919997595
 20
2639.149947017009
 30
0.0
  0
VERTEX
  5
5B7
  8
0
  6
CONTINUOUS
 62
     7
 10
2074.307072812156
 20
2639.110275044542
 30
0.0
  0
VERTEX
  5
5B8
  8
0
  6
CONTINUOUS
 62
     7
 10
2074.279134044109
 20
2639.069908381014
 30
0.0
  0
VERTEX
  5
5B9
  8
0
  6
CONTINUOUS
 62
     7
 10
2074.252113921072
 20
2639.028870598369
 30
0.0
  0
VERTEX
  5
5BA
  8
0
  6
CONTINUOUS
 62
     7
 10
2074.226060763795
 20
2638.987185145862
 30
0.0
  0
VERTEX
  5
5BB
  8
0
  6
CONTINUOUS
 62
     7
 10
2074.201047404521
 20
2638.944875393795
 30
0.0
  0
VERTEX
  5
5BC
  8
0
  6
CONTINUOUS
 62
     7
 10
2074.177147081114
 20
2638.901964711166
 30
0.0
  0
VERTEX
  5
5BD
  8
0
  6
CONTINUOUS
 62
     7
 10
2074.154433031443
 20
2638.858476466974
 30
0.0
  0
VERTEX
  5
5BE
  8
0
  6
CONTINUOUS
 62
     7
 10
2074.132978493374
 20
2638.814434030216
 30
0.0
  0
VERTEX
  5
5BF
  8
0
  6
CONTINUOUS
 62
     7
 10
2074.112856704775
 20
2638.76986076989
 30
0.0
  0
VERTEX
  5
5C0
  8
0
  6
CONTINUOUS
 62
     7
 10
2074.094140903513
 20
2638.724780054993
 30
0.0
  0
VERTEX
  5
5C1
  8
0
  6
CONTINUOUS
 62
     7
 10
2074.07690334363
 20
2638.679215295411
 30
0.0
  0
VERTEX
  5
5C2
  8
0
  6
CONTINUOUS
 62
     7
 10
2074.061153243209
 20
2638.633192520922
 30
0.0
  0
VERTEX
  5
5C3
  8
0
  6
CONTINUOUS
 62
     7
 10
2074.046799738443
 20
2638.58674192088
 30
0.0
  0
VERTEX
  5
5C4
  8
0
  6
CONTINUOUS
 62
     7
 10
2074.033743072502
 20
2638.539894054255
 30
0.0
  0
VERTEX
  5
5C5
  8
0
  6
CONTINUOUS
 62
     7
 10
2074.021883488551
 20
2638.492679480016
 30
0.0
  0
VERTEX
  5
5C6
  8
0
  6
CONTINUOUS
 62
     7
 10
2074.011121229759
 20
2638.445128757129
 30
0.0
  0
VERTEX
  5
5C7
  8
0
  6
CONTINUOUS
 62
     7
 10
2074.001356539293
 20
2638.397272444563
 30
0.0
  0
VERTEX
  5
5C8
  8
0
  6
CONTINUOUS
 62
     7
 10
2073.99248966032
 20
2638.349141101286
 30
0.0
  0
VERTEX
  5
5C9
  8
0
  6
CONTINUOUS
 62
     7
 10
2073.984420836007
 20
2638.300765286265
 30
0.0
  0
VERTEX
  5
5CA
  8
0
  6
CONTINUOUS
 62
     7
 10
2073.977050309523
 20
2638.252175558468
 30
0.0
  0
VERTEX
  5
5CB
  8
0
  6
CONTINUOUS
 62
     7
 10
2073.970278324034
 20
2638.203402476863
 30
0.0
  0
VERTEX
  5
5CC
  8
0
  6
CONTINUOUS
 62
     7
 10
2073.964005122708
 20
2638.154476600419
 30
0.0
  0
VERTEX
  5
5CD
  8
0
  6
CONTINUOUS
 62
     7
 10
2073.958130948713
 20
2638.105428488104
 30
0.0
  0
VERTEX
  5
5CE
  8
0
  6
CONTINUOUS
 62
     7
 10
2073.952556045214
 20
2638.056288698884
 30
0.0
  0
VERTEX
  5
5CF
  8
0
  6
CONTINUOUS
 62
     7
 10
2073.947180655382
 20
2638.007087791729
 30
0.0
  0
VERTEX
  5
5D0
  8
0
  6
CONTINUOUS
 62
     7
 10
2073.941905022382
 20
2637.957856325605
 30
0.0
  0
SEQEND
  5
624
  8
0
  6
CONTINUOUS
 62
     7
  0
POLYLINE
  5
165
  8
0
  6
CONTINUOUS
 62
     7
 66
     1
 10
0.0
 20
0.0
 30
0.0
  0
VERTEX
  5
5D1
  8
0
  6
CONTINUOUS
 62
     7
 10
2093.941905022383
 20
2637.957856325589
 30
0.0
  0
VERTEX
  5
5D2
  8
0
  6
CONTINUOUS
 62
     7
 10
2093.936629792986
 20
2638.007087979403
 30
0.0
  0
VERTEX
  5
5D3
  8
0
  6
CONTINUOUS
 62
     7
 10
2093.9312547964
 20
2638.056289069435
 30
0.0
  0
VERTEX
  5
5D4
  8
0
  6
CONTINUOUS
 62
     7
 10
2093.925680265437
 20
2638.105429031897
 30
0.0
  0
VERTEX
  5
5D5
  8
0
  6
CONTINUOUS
 62
     7
 10
2093.919806432908
 20
2638.154477303009
 30
0.0
  0
VERTEX
  5
5D6
  8
0
  6
CONTINUOUS
 62
     7
 10
2093.913533531624
 20
2638.203403318984
 30
0.0
  0
VERTEX
  5
5D7
  8
0
  6
CONTINUOUS
 62
     7
 10
2093.906761794397
 20
2638.25217651604
 30
0.0
  0
VERTEX
  5
5D8
  8
0
  6
CONTINUOUS
 62
     7
 10
2093.899391454038
 20
2638.300766330393
 30
0.0
  0
VERTEX
  5
5D9
  8
0
  6
CONTINUOUS
 62
     7
 10
2093.891322743359
 20
2638.349142198259
 30
0.0
  0
VERTEX
  5
5DA
  8
0
  6
CONTINUOUS
 62
     7
 10
2093.882455895171
 20
2638.397273555852
 30
0.0
  0
VERTEX
  5
5DB
  8
0
  6
CONTINUOUS
 62
     7
 10
2093.872691142285
 20
2638.445129839391
 30
0.0
  0
VERTEX
  5
5DC
  8
0
  6
CONTINUOUS
 62
     7
 10
2093.861928717512
 20
2638.49268048509
 30
0.0
  0
VERTEX
  5
5DD
  8
0
  6
CONTINUOUS
 62
     7
 10
2093.850068853664
 20
2638.539894929168
 30
0.0
  0
VERTEX
  5
5DE
  8
0
  6
CONTINUOUS
 62
     7
 10
2093.837011783552
 20
2638.586742607837
 30
0.0
  0
VERTEX
  5
5DF
  8
0
  6
CONTINUOUS
 62
     7
 10
2093.822657739988
 20
2638.633192957316
 30
0.0
  0
VERTEX
  5
5E0
  8
0
  6
CONTINUOUS
 62
     7
 10
2093.806906955784
 20
2638.67921541382
 30
0.0
  0
VERTEX
  5
5E1
  8
0
  6
CONTINUOUS
 62
     7
 10
2093.789668561688
 20
2638.724779784928
 30
0.0
  0
VERTEX
  5
5E2
  8
0
  6
CONTINUOUS
 62
     7
 10
2093.770951825612
 20
2638.769860057524
 30
0.0
  0
VERTEX
  5
5E3
  8
0
  6
CONTINUOUS
 62
     7
 10
2093.750829086237
 20
2638.814432850803
 30
0.0
  0
VERTEX
  5
5E4
  8
0
  6
CONTINUOUS
 62
     7
 10
2093.729373666615
 20
2638.858474825042
 30
0.0
  0
VERTEX
  5
5E5
  8
0
  6
CONTINUOUS
 62
     7
 10
2093.706658889798
 20
2638.901962640517
 30
0.0
  0
VERTEX
  5
5E6
  8
0
  6
CONTINUOUS
 62
     7
 10
2093.682758078837
 20
2638.944872957509
 30
0.0
  0
VERTEX
  5
5E7
  8
0
  6
CONTINUOUS
 62
     7
 10
2093.657744556784
 20
2638.987182436292
 30
0.0
  0
VERTEX
  5
5E8
  8
0
  6
CONTINUOUS
 62
     7
 10
2093.631691646688
 20
2639.028867737145
 30
0.0
  0
VERTEX
  5
5E9
  8
0
  6
CONTINUOUS
 62
     7
 10
2093.604672224139
 20
2639.069905518511
 30
0.0
  0
VERTEX
  5
5EA
  8
0
  6
CONTINUOUS
 62
     7
 10
2093.576734148096
 20
2639.1102723363
 30
0.0
  0
VERTEX
  5
5EB
  8
0
  6
CONTINUOUS
 62
     7
 10
2093.547887519537
 20
2639.149944591662
 30
0.0
  0
VERTEX
  5
5EC
  8
0
  6
CONTINUOUS
 62
     7
 10
2093.518139307547
 20
2639.188898672915
 30
0.0
  0
VERTEX
  5
5ED
  8
0
  6
CONTINUOUS
 62
     7
 10
2093.487496481213
 20
2639.227110968372
 30
0.0
  0
VERTEX
  5
5EE
  8
0
  6
CONTINUOUS
 62
     7
 10
2093.455966009622
 20
2639.26455786635
 30
0.0
  0
VERTEX
  5
5EF
  8
0
  6
CONTINUOUS
 62
     7
 10
2093.42355486186
 20
2639.301215755161
 30
0.0
  0
VERTEX
  5
5F0
  8
0
  6
CONTINUOUS
 62
     7
 10
2093.390270007016
 20
2639.337061023125
 30
0.0
  0
VERTEX
  5
5F1
  8
0
  6
CONTINUOUS
 62
     7
 10
2093.356118414175
 20
2639.372070058554
 30
0.0
  0
VERTEX
  5
5F2
  8
0
  6
CONTINUOUS
 62
     7
 10
2093.321109821375
 20
2639.40622202858
 30
0.0
  0
VERTEX
  5
5F3
  8
0
  6
CONTINUOUS
 62
     7
 10
2093.285265042286
 20
2639.439507215433
 30
0.0
  0
VERTEX
  5
5F4
  8
0
  6
CONTINUOUS
 62
     7
 10
2093.248607659444
 20
2639.471918680077
 30
0.0
  0
VERTEX
  5
5F5
  8
0
  6
CONTINUOUS
 62
     7
 10
2093.21116125539
 20
2639.503449483474
 30
0.0
  0
VERTEX
  5
5F6
  8
0
  6
CONTINUOUS
 62
     7
 10
2093.17294941266
 20
2639.534092686589
 30
0.0
  0
VERTEX
  5
5F7
  8
0
  6
CONTINUOUS
 62
     7
 10
2093.133995713793
 20
2639.563841350384
 30
0.0
  0
VERTEX
  5
5F8
  8
0
  6
CONTINUOUS
 62
     7
 10
2093.094323741326
 20
2639.592688535824
 30
0.0
  0
VERTEX
  5
5F9
  8
0
  6
CONTINUOUS
 62
     7
 10
2093.053957077797
 20
2639.620627303872
 30
0.0
  0
VERTEX
  5
5FA
  8
0
  6
CONTINUOUS
 62
     7
 10
2093.012919295153
 20
2639.647647426908
 30
0.0
  0
VERTEX
  5
5FB
  8
0
  6
CONTINUOUS
 62
     7
 10
2092.971233842645
 20
2639.673700584185
 30
0.0
  0
VERTEX
  5
5FC
  8
0
  6
CONTINUOUS
 62
     7
 10
2092.928924090578
 20
2639.69871394346
 30
0.0
  0
VERTEX
  5
5FD
  8
0
  6
CONTINUOUS
 62
     7
 10
2092.886013407949
 20
2639.722614266866
 30
0.0
  0
VERTEX
  5
5FE
  8
0
  6
CONTINUOUS
 62
     7
 10
2092.842525163757
 20
2639.745328316537
 30
0.0
  0
VERTEX
  5
5FF
  8
0
  6
CONTINUOUS
 62
     7
 10
2092.798482726999
 20
2639.766782854606
 30
0.0
  0
VERTEX
  5
600
  8
0
  6
CONTINUOUS
 62
     7
 10
2092.753909466672
 20
2639.786904643205
 30
0.0
  0
VERTEX
  5
601
  8
0
  6
CONTINUOUS
 62
     7
 10
2092.708828751774
 20
2639.805620444467
 30
0.0
  0
VERTEX
  5
602
  8
0
  6
CONTINUOUS
 62
     7
 10
2092.663263992192
 20
2639.822858004349
 30
0.0
  0
VERTEX
  5
603
  8
0
  6
CONTINUOUS
 62
     7
 10
2092.617241217702
 20
2639.838608104771
 30
0.0
  0
VERTEX
  5
604
  8
0
  6
CONTINUOUS
 62
     7
 10
2092.570790617661
 20
2639.852961609536
 30
0.0
  0
VERTEX
  5
605
  8
0
  6
CONTINUOUS
 62
     7
 10
2092.523942751036
 20
2639.866018275478
 30
0.0
  0
VERTEX
  5
606
  8
0
  6
CONTINUOUS
 62
     7
 10
2092.476728176796
 20
2639.877877859429
 30
0.0
  0
VERTEX
  5
607
  8
0
  6
CONTINUOUS
 62
     7
 10
2092.429177453909
 20
2639.888640118221
 30
0.0
  0
VERTEX
  5
608
  8
0
  6
CONTINUOUS
 62
     7
 10
2092.381321141342
 20
2639.898404808687
 30
0.0
  0
VERTEX
  5
609
  8
0
  6
CONTINUOUS
 62
     7
 10
2092.333189798064
 20
2639.907271687661
 30
0.0
  0
VERTEX
  5
60A
  8
0
  6
CONTINUOUS
 62
     7
 10
2092.284813983043
 20
2639.915340511973
 30
0.0
  0
VERTEX
  5
60B
  8
0
  6
CONTINUOUS
 62
     7
 10
2092.236224255247
 20
2639.922711038458
 30
0.0
  0
VERTEX
  5
60C
  8
0
  6
CONTINUOUS
 62
     7
 10
2092.187451173642
 20
2639.929483023947
 30
0.0
  0
VERTEX
  5
60D
  8
0
  6
CONTINUOUS
 62
     7
 10
2092.138525297198
 20
2639.935756225273
 30
0.0
  0
VERTEX
  5
60E
  8
0
  6
CONTINUOUS
 62
     7
 10
2092.089477184882
 20
2639.941630399269
 30
0.0
  0
VERTEX
  5
60F
  8
0
  6
CONTINUOUS
 62
     7
 10
2092.040337395662
 20
2639.947205302766
 30
0.0
  0
VERTEX
  5
610
  8
0
  6
CONTINUOUS
 62
     7
 10
2091.991136488507
 20
2639.952580692599
 30
0.0
  0
VERTEX
  5
611
  8
0
  6
CONTINUOUS
 62
     7
 10
2091.941905022383
 20
2639.957856325599
 30
0.0
  0
SEQEND
  5
625
  8
0
  6
CONTINUOUS
 62
     7
  0
LINE
  5
166
  8
0
  6
CONTINUOUS
 62
     7
 10
2072.941905022382
 20
2637.757856325606
 30
0.0
 11
2072.941905022382
 21
2637.957856325605
 31
0.0
  0
LINE
  5
167
  8
0
  6
CONTINUOUS
 62
     7
 10
2072.941905022382
 20
2637.957856325605
 30
0.0
 11
2073.941905022382
 21
2637.957856325605
 31
0.0
  0
LINE
  5
168
  8
0
  6
CONTINUOUS
 62
     7
 10
2094.941905022384
 20
2637.757856325598
 30
0.0
 11
2094.941905022383
 21
2637.957856325599
 31
0.0
  0
LINE
  5
169
  8
0
  6
CONTINUOUS
 62
     7
 10
2093.941905022383
 20
2637.957856325589
 30
0.0
 11
2094.941905022383
 21
2637.957856325599
 31
0.0
  0
ARC
  5
16A
  8
0
  6
CONTINUOUS
 62
     7
 10
2075.941905022382
 20
2637.957856325587
 30
0.0
 40
2.999999999999929
 50
129.9445051889556
 51
179.9999999996437
  0
ARC
  5
16B
  8
0
  6
CONTINUOUS
 62
     7
 10
2091.941905022384
 20
2637.957856325598
 30
0.0
 40
2.999999999999545
 50
0.0000000000313143
 51
50.05549481073076
  0
LINE
  5
16C
  8
0
  6
CONTINUOUS
 62
     7
 10
2072.941905022382
 20
2638.257856325605
 30
0.0
 11
2058.75423026859
 21
2638.257856325607
 31
0.0
  0
LINE
  5
16D
  8
0
  6
CONTINUOUS
 62
     7
 10
2072.941905022382
 20
2637.957856325605
 30
0.0
 11
2072.941905022382
 21
2638.257856325605
 31
0.0
  0
LINE
  5
16E
  8
0
  6
CONTINUOUS
 62
     7
 10
2058.75423026859
 20
2638.257856325607
 30
0.0
 11
2058.75423026859
 21
2637.757856325615
 31
0.0
  0
LINE
  5
16F
  8
0
  6
CONTINUOUS
 62
     7
 10
2070.905409421777
 20
2640.257856325615
 30
0.0
 11
2070.859304709809
 21
2638.257856325599
 31
0.0
  0
LINE
  5
170
  8
0
  6
CONTINUOUS
 62
     7
 10
2072.159650081156
 20
2638.257856325598
 30
0.0
 11
2072.205754793125
 21
2640.257856325615
 31
0.0
  0
LINE
  5
171
  8
0
  6
CONTINUOUS
 62
     7
 10
2426.441905018051
 20
2619.757856325616
 30
0.0
 11
2054.441905018051
 21
2619.757856325616
 31
0.0
  0
LINE
  5
172
  8
0
  6
CONTINUOUS
 62
     7
 10
2054.441905018051
 20
2619.757856325616
 30
0.0
 11
2054.441905018051
 21
2637.757856325616
 31
0.0
  0
LINE
  5
173
  8
0
  6
CONTINUOUS
 62
     7
 10
2426.441905018051
 20
2637.757856325616
 30
0.0
 11
2054.441905018051
 21
2637.757856325616
 31
0.0
  0
LINE
  5
174
  8
0
  6
CONTINUOUS
 62
     7
 10
2426.441905018051
 20
2619.757856325616
 30
0.0
 11
2426.441905018051
 21
2637.757856325616
 31
0.0
  0
LINE
  5
175
  8
0
  6
CONTINUOUS
 62
     7
 10
2070.441905018051
 20
2639.757856325616
 30
0.0
 11
2052.941905018051
 21
2639.757856325616
 31
0.0
  0
LINE
  5
176
  8
0
  6
CONTINUOUS
 62
     7
 10
2052.941905018051
 20
2639.757856325616
 30
0.0
 11
2052.941905018051
 21
2769.757856325616
 31
0.0
  0
LINE
  5
177
  8
0
  6
CONTINUOUS
 62
     7
 10
2070.441905018051
 20
2639.757856325616
 30
0.0
 11
2070.441905018051
 21
2769.757856325616
 31
0.0
  0
LINE
  5
178
  8
0
  6
CONTINUOUS
 62
     7
 10
2070.441905018051
 20
2769.757856325616
 30
0.0
 11
2052.941905018051
 21
2769.757856325616
 31
0.0
  0
LINE
  5
179
  8
0
  6
CONTINUOUS
 62
     7
 10
2410.441905018051
 20
2769.757856325616
 30
0.0
 11
2070.441905018051
 21
2769.757856325616
 31
0.0
  0
LINE
  5
17A
  8
0
  6
CONTINUOUS
 62
     7
 10
2410.441905018051
 20
2640.257856325616
 30
0.0
 11
2070.441905018051
 21
2640.257856325616
 31
0.0
  0
LINE
  5
17B
  8
0
  6
CONTINUOUS
 62
     8
 10
2091.941905022383
 20
2639.957856325599
 30
0.0
 11
2091.941905022383
 21
2640.257856325615
 31
0.0
  0
LINE
  5
17C
  8
0
  6
CONTINUOUS
 62
     8
 10
2075.941905022383
 20
2640.257856325615
 30
0.0
 11
2075.941905022383
 21
2639.957856325587
 31
0.0
  0
ENDSEC
  0
EOF
