  0
SECTION
  2
HEADER
  9
$ACADVER
  1
AC1006
  9
$DWGCODEPAGE
  3
ansi_932
  9
$INSBASE
 10
0.0
 20
0.0
 30
0.0
  9
$EXTMIN
 10
386.0619272904793
 20
165.7088516276313
  9
$EXTMAX
 10
4839.484712179223
 20
2176.54550968097
  9
$LIMMIN
 10
0.0
 20
0.0
  9
$LIMMAX
 10
5000.0
 20
3500.0
  9
$ORTHOMODE
 70
     1
  9
$REGENMODE
 70
     1
  9
$FILLMODE
 70
     1
  9
$QTEXTMODE
 70
     0
  9
$MIRRTEXT
 70
     1
  9
$DRAGMODE
 70
     2
  9
$LTSCALE
 40
1.0
  9
$OSMODE
 70
    37
  9
$ATTMODE
 70
     1
  9
$TEXTSIZE
 40
3.5
  9
$TRACEWID
 40
1.0
  9
$TEXTSTYLE
  7
STANDARD
  9
$CLAYER
  8
0
  9
$CELTYPE
  6
BYLAYER
  9
$CECOLOR
 62
   256
  9
$DIMSCALE
 40
1.0
  9
$DIMASZ
 40
3.302
  9
$DIMEXO
 40
1.0
  9
$DIMDLI
 40
3.75
  9
$DIMRND
 40
0.0
  9
$DIMDLE
 40
0.0
  9
$DIMEXE
 40
1.0
  9
$DIMTP
 40
0.0
  9
$DIMTM
 40
0.0
  9
$DIMTXT
 40
3.5
  9
$DIMCEN
 40
2.5
  9
$DIMTSZ
 40
0.0
  9
$DIMTOL
 70
     0
  9
$DIMLIM
 70
     0
  9
$DIMTIH
 70
     1
  9
$DIMTOH
 70
     1
  9
$DIMSE1
 70
     0
  9
$DIMSE2
 70
     0
  9
$DIMTAD
 70
     1
  9
$DIMZIN
 70
     0
  9
$DIMBLK
  1

  9
$DIMASO
 70
     1
  9
$DIMSHO
 70
     1
  9
$DIMPOST
  1

  9
$DIMAPOST
  1

  9
$DIMALT
 70
     0
  9
$DIMALTD
 70
     3
  9
$DIMALTF
 40
0.0393700787401575
  9
$DIMLFAC
 40
1.0
  9
$DIMTOFL
 70
     1
  9
$DIMTVP
 40
0.0
  9
$DIMTIX
 70
     0
  9
$DIMSOXD
 70
     0
  9
$DIMSAH
 70
     0
  9
$DIMBLK1
  1

  9
$DIMBLK2
  1

  9
$LUNITS
 70
     2
  9
$LUPREC
 70
     2
  9
$SKETCHINC
 40
1.0
  9
$FILLETRAD
 40
10.0
  9
$AUNITS
 70
     0
  9
$AUPREC
 70
     2
  9
$MENU
  1
.
  9
$ELEVATION
 40
0.0
  9
$THICKNESS
 40
0.0
  9
$LIMCHECK
 70
     0
  9
$CHAMFERA
 40
0.0
  9
$CHAMFERB
 40
0.0
  9
$SKPOLY
 70
     0
  9
$TDCREATE
 40
2459488.194582014
  9
$TDUPDATE
 40
2460139.213697442
  9
$TDINDWG
 40
0.0039994097
  9
$TDUSRTIMER
 40
0.0039994097
  9
$USRTIMER
 70
     1
  9
$ANGBASE
 50
0.0
  9
$ANGDIR
 70
     0
  9
$PDMODE
 70
     0
  9
$PDSIZE
 40
-1.0
  9
$PLINEWID
 40
0.0
  9
$COORDS
 70
     1
  9
$SPLFRAME
 70
     0
  9
$SPLINETYPE
 70
     6
  9
$SPLINESEGS
 70
     8
  9
$ATTDIA
 70
     0
  9
$ATTREQ
 70
     1
  9
$HANDLING
 70
     1
  9
$HANDSEED
  5
176
  9
$SURFTAB1
 70
     6
  9
$SURFTAB2
 70
     6
  9
$SURFTYPE
 70
     6
  9
$SURFU
 70
     6
  9
$SURFV
 70
     6
  9
$UCSNAME
  2

  9
$UCSORG
 10
0.0
 20
0.0
 30
0.0
  9
$UCSXDIR
 10
1.0
 20
0.0
 30
0.0
  9
$UCSYDIR
 10
0.0
 20
1.0
 30
0.0
  9
$USERI1
 70
     0
  9
$USERI2
 70
     0
  9
$USERI3
 70
     0
  9
$USERI4
 70
     0
  9
$USERI5
 70
     0
  9
$USERR1
 40
0.0
  9
$USERR2
 40
0.0
  9
$USERR3
 40
0.0
  9
$USERR4
 40
0.0
  9
$USERR5
 40
0.0
  9
$WORLDVIEW
 70
     1
  0
ENDSEC
  0
SECTION
  2
TABLES
  0
TABLE
  2
VPORT
 70
     1
  0
VPORT
  2
*ACTIVE
 70
     0
 10
0.0
 20
0.0
 11
1.0
 21
1.0
 12
3057.562407925499
 22
1328.798217025274
 13
0.0
 23
0.0
 14
10.0
 24
10.0
 15
10.0
 25
10.0
 16
0.0
 26
0.0
 36
1.0
 17
0.0
 27
0.0
 37
0.0
 40
2928.109689859533
 41
2.235364396654719
 42
50.0
 43
0.0
 44
0.0
 50
0.0
 51
0.0
 71
     0
 72
  2000
 73
     1
 74
     3
 75
     0
 76
     0
 77
     0
 78
     0
  0
ENDTAB
  0
TABLE
  2
LTYPE
 70
     6
  0
LTYPE
  2
CONTINUOUS
 70
     0
  3
Solid line
 72
    65
 73
     0
 40
0.0
  0
LTYPE
  2
HIDDEN
 70
     0
  3
Hidden __ __ __ __ __ __ __ __ __ __ __ __ __ __
 72
    65
 73
     2
 40
1.905
 49
1.27
 49
-0.635
  0
LTYPE
  2
PHANTOM
 70
     0
  3
Phantom ______  __  __  ______  __  __  ______
 72
    65
 73
     6
 40
12.7
 49
6.35
 49
-1.27
 49
1.27
 49
-1.27
 49
1.27
 49
-1.27
  0
LTYPE
  2
CENTER
 70
     0
  3
Center ____ _ ____ _ ____ _ ____ _ ____ _ ____
 72
    65
 73
     4
 40
10.16
 49
6.35
 49
-1.27
 49
1.27
 49
-1.27
  0
LTYPE
  2
CENTERX2
 70
     0
  3
Center (2x) ________  __  ________  __  _____
 72
    65
 73
     4
 40
20.32
 49
12.7
 49
-2.54
 49
2.54
 49
-2.54
  0
LTYPE
  2
DOT2
 70
     0
  3
Dot (.5x) ........................................
 72
    65
 73
     2
 40
0.635
 49
0.0
 49
-0.635
  0
ENDTAB
  0
TABLE
  2
LAYER
 70
     4
  0
LAYER
  2
0
 70
     0
 62
     7
  6
CONTINUOUS
  0
LAYER
  2
SLD-0
 70
     0
 62
   179
  6
CONTINUOUS
  0
LAYER
  2
寸法
 70
     0
 62
   179
  6
CONTINUOUS
  0
LAYER
  2
DEFPOINTS
 70
     0
 62
     7
  6
CONTINUOUS
  0
ENDTAB
  0
TABLE
  2
STYLE
 70
     2
  0
STYLE
  2
STANDARD
 70
     0
 40
0.0
 41
1.0
 50
0.0
 71
     0
 42
3.5
  3
txt
  4
bigfont
  0
STYLE
  2
SLDTEXTSTYLE0
 70
     0
 40
0.0
 41
0.75
 50
0.0
 71
     0
 42
3.5
  3
TXT
  4
bigfont
  0
ENDTAB
  0
TABLE
  2
VIEW
 70
     0
  0
ENDTAB
  0
TABLE
  2
UCS
 70
     0
  0
ENDTAB
  0
ENDSEC
  0
SECTION
  2
BLOCKS
  0
ENDSEC
  0
SECTION
  2
ENTITIES
  0
LINE
  5
75
  8
0
  6
CONTINUOUS
 62
     7
 10
4839.484712179223
 20
258.5233124172521
 30
0.0
 11
3312.374599790194
 21
258.5233124172519
 31
0.0
  0
TEXT
  5
77
  8
0
  6
CONTINUOUS
 62
     7
 10
378.1244272904793
 20
2123.628843014302
 30
0.0
 40
52.91666666666666
  1
＜左側面＞
 41
0.75
  7
SLDTEXTSTYLE0
  0
TEXT
  5
78
  8
0
  6
CONTINUOUS
 62
     7
 10
4114.255696364864
 20
2123.628843014302
 30
0.0
 40
52.91666666666666
  1
＜右側面＞
 41
0.75
  7
SLDTEXTSTYLE0
  0
TEXT
  5
79
  8
0
  6
CONTINUOUS
 62
     7
 10
1631.380635646767
 20
2123.628843014302
 30
0.0
 40
52.91666666666666
  1
＜正面＞
 41
0.75
  7
SLDTEXTSTYLE0
  0
TEXT
  5
7A
  8
0
  6
CONTINUOUS
 62
     7
 10
3377.814243189123
 20
326.489054196763
 30
0.0
 40
52.91666666666666
  1
品名：
 41
0.75
  7
SLDTEXTSTYLE0
  0
TEXT
  5
7B
  8
0
  6
CONTINUOUS
 62
     7
 10
4446.663437481703
 20
332.3177187478654
 30
0.0
 40
52.91666666666666
  1
Pamouna
 41
0.75
  7
SLDTEXTSTYLE0
  0
TEXT
  5
7C
  8
寸法
  6
CONTINUOUS
 62
     7
 10
4688.007304885427
 20
165.7088516276312
 30
0.0
 40
52.91666666666666
  1
1/1
 41
0.75
  7
SLDTEXTSTYLE0
  0
TEXT
  5
7D
  8
寸法
  6
CONTINUOUS
 62
     7
 10
4198.79693921183
 20
165.7088544215994
 30
0.0
 40
52.91666666666666
  1
2022/09/24
 41
0.75
  7
SLDTEXTSTYLE0
  0
TEXT
  5
7E
  8
寸法
  6
CONTINUOUS
 62
     7
 10
3611.283129349215
 20
326.4179237671586
 30
0.0
 40
66.14583333333331
  1
MA-M900
 41
0.75
  7
SLDTEXTSTYLE0
  0
LINE
  5
7F
  8
0
  6
CONTINUOUS
 62
     7
 10
2052.39464433984
 20
1333.778735705574
 30
0.0
 11
2066.394644339841
 21
1333.778735705574
 31
0.0
  0
LINE
  5
80
  8
0
  6
CONTINUOUS
 62
     7
 10
2096.394644339841
 20
1333.778735705574
 30
0.0
 11
2906.394644341529
 21
1333.778735705574
 31
0.0
  0
LINE
  5
82
  8
0
  6
CONTINUOUS
 62
     7
 10
2936.39464433984
 20
1333.778735705574
 30
0.0
 11
2950.394644339841
 21
1333.778735705574
 31
0.0
  0
LINE
  5
83
  8
0
  6
CONTINUOUS
 62
     7
 10
2950.394644339841
 20
1333.778735705574
 30
0.0
 11
2951.39464433984
 21
1332.778735705574
 31
0.0
  0
LINE
  5
84
  8
0
  6
CONTINUOUS
 62
     7
 10
2951.39464433984
 20
1332.778735705574
 30
0.0
 11
2936.39464433984
 21
1332.778735705574
 31
0.0
  0
LINE
  5
86
  8
0
  6
CONTINUOUS
 62
     7
 10
2906.394644341528
 20
1332.778735705574
 30
0.0
 11
2096.394644339841
 21
1332.778735705574
 31
0.0
  0
LINE
  5
87
  8
0
  6
CONTINUOUS
 62
     7
 10
2066.394644339841
 20
1332.778735705574
 30
0.0
 11
2051.39464433984
 21
1332.778735705574
 31
0.0
  0
LINE
  5
88
  8
0
  6
CONTINUOUS
 62
     7
 10
2051.39464433984
 20
1332.778735705574
 30
0.0
 11
2052.39464433984
 21
1333.778735705574
 31
0.0
  0
LINE
  5
89
  8
0
  6
CONTINUOUS
 62
     7
 10
2950.394644339841
 20
1919.778735705574
 30
0.0
 11
2936.394644341528
 21
1919.778735705574
 31
0.0
  0
LINE
  5
8B
  8
0
  6
CONTINUOUS
 62
     7
 10
2906.394644341527
 20
1919.778735705574
 30
0.0
 11
2096.394644338152
 21
1919.778735705574
 31
0.0
  0
LINE
  5
8C
  8
0
  6
CONTINUOUS
 62
     7
 10
2066.394644338152
 20
1919.778735705574
 30
0.0
 11
2052.39464433984
 21
1919.778735705574
 31
0.0
  0
LINE
  5
8D
  8
0
  6
CONTINUOUS
 62
     7
 10
2051.39464433984
 20
1920.778735705574
 30
0.0
 11
2052.39464433984
 21
1919.778735705574
 31
0.0
  0
LINE
  5
8E
  8
0
  6
CONTINUOUS
 62
     7
 10
2051.39464433984
 20
1920.778735705574
 30
0.0
 11
2066.394644338154
 21
1920.778735705574
 31
0.0
  0
LINE
  5
8F
  8
0
  6
CONTINUOUS
 62
     7
 10
2096.394644338153
 20
1920.778735705574
 30
0.0
 11
2906.394644341528
 21
1920.778735705574
 31
0.0
  0
LINE
  5
91
  8
0
  6
CONTINUOUS
 62
     7
 10
2936.39464434153
 20
1920.778735705574
 30
0.0
 11
2951.39464433984
 21
1920.778735705574
 31
0.0
  0
LINE
  5
92
  8
0
  6
CONTINUOUS
 62
     7
 10
2950.394644339841
 20
1919.778735705574
 30
0.0
 11
2951.39464433984
 21
1920.778735705574
 31
0.0
  0
LINE
  5
93
  8
0
  6
CONTINUOUS
 62
     7
 10
2052.39464433984
 20
1919.778735705574
 30
0.0
 11
2052.39464433984
 21
1333.778735705574
 31
0.0
  0
LINE
  5
94
  8
0
  6
CONTINUOUS
 62
     7
 10
2950.394644339841
 20
1333.778735705574
 30
0.0
 11
2950.394644339841
 21
1919.778735705574
 31
0.0
  0
LINE
  5
95
  8
0
  6
CONTINUOUS
 62
     7
 10
2951.39464433984
 20
1920.778735705574
 30
0.0
 11
2951.39464433984
 21
1332.778735705574
 31
0.0
  0
LINE
  5
96
  8
0
  6
CONTINUOUS
 62
     7
 10
2051.39464433984
 20
1332.778735705574
 30
0.0
 11
2051.39464433984
 21
1920.778735705574
 31
0.0
  0
LINE
  5
97
  8
0
  6
CONTINUOUS
 62
     7
 10
2936.394644341526
 20
1914.778735706686
 30
0.0
 11
2936.394644341529
 21
1921.778735706686
 31
0.0
  0
LINE
  5
98
  8
0
  6
CONTINUOUS
 62
     7
 10
2935.394644341528
 20
1913.778735706686
 30
0.0
 11
2936.394644341526
 21
1914.778735706686
 31
0.0
  0
LINE
  5
99
  8
0
  6
CONTINUOUS
 62
     7
 10
2935.394644341528
 20
1913.778735706686
 30
0.0
 11
2907.394644341528
 21
1913.778735706686
 31
0.0
  0
LINE
  5
9A
  8
0
  6
CONTINUOUS
 62
     7
 10
2906.394644341529
 20
1921.778735706686
 30
0.0
 11
2906.394644341526
 21
1914.778735706686
 31
0.0
  0
LINE
  5
9B
  8
0
  6
CONTINUOUS
 62
     7
 10
2936.394644341529
 20
1921.778735706686
 30
0.0
 11
2906.394644341529
 21
1921.778735706686
 31
0.0
  0
LINE
  5
9C
  8
0
  6
CONTINUOUS
 62
     7
 10
2906.394644341526
 20
1914.778735706686
 30
0.0
 11
2907.394644341528
 21
1913.778735706686
 31
0.0
  0
LINE
  5
9D
  8
0
  6
CONTINUOUS
 62
     7
 10
2066.39464433984
 20
1331.778735705574
 30
0.0
 11
2096.39464433984
 21
1331.778735705574
 31
0.0
  0
LINE
  5
9E
  8
0
  6
CONTINUOUS
 62
     7
 10
2066.394644339843
 20
1338.778735705574
 30
0.0
 11
2066.39464433984
 21
1331.778735705574
 31
0.0
  0
LINE
  5
9F
  8
0
  6
CONTINUOUS
 62
     7
 10
2067.394644339841
 20
1339.778735705574
 30
0.0
 11
2066.394644339843
 21
1338.778735705574
 31
0.0
  0
LINE
  5
A0
  8
0
  6
CONTINUOUS
 62
     7
 10
2096.39464433984
 20
1331.778735705574
 30
0.0
 11
2096.394644339843
 21
1338.778735705574
 31
0.0
  0
LINE
  5
A1
  8
0
  6
CONTINUOUS
 62
     7
 10
2096.394644339843
 20
1338.778735705574
 30
0.0
 11
2095.394644339841
 21
1339.778735705574
 31
0.0
  0
LINE
  5
A2
  8
0
  6
CONTINUOUS
 62
     7
 10
2067.394644339841
 20
1339.778735705574
 30
0.0
 11
2095.394644339841
 21
1339.778735705574
 31
0.0
  0
LINE
  5
A3
  8
0
  6
CONTINUOUS
 62
     7
 10
2095.394644338151
 20
1913.778735706686
 30
0.0
 11
2096.39464433815
 21
1914.778735706686
 31
0.0
  0
LINE
  5
A4
  8
0
  6
CONTINUOUS
 62
     7
 10
2066.39464433815
 20
1914.778735706686
 30
0.0
 11
2067.394644338151
 21
1913.778735706686
 31
0.0
  0
LINE
  5
A5
  8
0
  6
CONTINUOUS
 62
     7
 10
2066.394644338153
 20
1921.778735706686
 30
0.0
 11
2066.39464433815
 21
1914.778735706686
 31
0.0
  0
LINE
  5
A6
  8
0
  6
CONTINUOUS
 62
     7
 10
2095.394644338151
 20
1913.778735706686
 30
0.0
 11
2067.394644338151
 21
1913.778735706686
 31
0.0
  0
LINE
  5
A7
  8
0
  6
CONTINUOUS
 62
     7
 10
2096.394644338153
 20
1921.778735706686
 30
0.0
 11
2066.394644338153
 21
1921.778735706686
 31
0.0
  0
LINE
  5
A8
  8
0
  6
CONTINUOUS
 62
     7
 10
2096.39464433815
 20
1914.778735706686
 30
0.0
 11
2096.394644338153
 21
1921.778735706686
 31
0.0
  0
LINE
  5
B5
  8
0
  6
CONTINUOUS
 62
     7
 10
2907.394644339841
 20
1339.778735705574
 30
0.0
 11
2906.394644339843
 21
1338.778735705574
 31
0.0
  0
LINE
  5
B6
  8
0
  6
CONTINUOUS
 62
     7
 10
2907.394644339841
 20
1339.778735705574
 30
0.0
 11
2935.394644339841
 21
1339.778735705574
 31
0.0
  0
LINE
  5
B7
  8
0
  6
CONTINUOUS
 62
     7
 10
2936.394644339839
 20
1331.778735705574
 30
0.0
 11
2936.394644339843
 21
1338.778735705574
 31
0.0
  0
LINE
  5
B8
  8
0
  6
CONTINUOUS
 62
     7
 10
2906.394644339843
 20
1338.778735705574
 30
0.0
 11
2906.39464433984
 21
1331.778735705574
 31
0.0
  0
LINE
  5
B9
  8
0
  6
CONTINUOUS
 62
     7
 10
2936.394644339843
 20
1338.778735705574
 30
0.0
 11
2935.394644339841
 21
1339.778735705574
 31
0.0
  0
LINE
  5
BA
  8
0
  6
CONTINUOUS
 62
     7
 10
2906.39464433984
 20
1331.778735705574
 30
0.0
 11
2936.394644339839
 21
1331.778735705574
 31
0.0
  0
LINE
  5
BB
  8
0
  6
CONTINUOUS
 62
     7
 10
555.354282472251
 20
1920.778735705574
 30
0.0
 11
555.354282472251
 21
1332.778735705574
 31
0.0
  0
LINE
  5
BC
  8
0
  6
CONTINUOUS
 62
     7
 10
559.354282472251
 20
1920.778735705574
 30
0.0
 11
555.354282472251
 21
1920.778735705574
 31
0.0
  0
LINE
  5
BD
  8
0
  6
CONTINUOUS
 62
     7
 10
559.354282472251
 20
1332.778735705574
 30
0.0
 11
559.354282472251
 21
1920.778735705574
 31
0.0
  0
LINE
  5
BE
  8
0
  6
CONTINUOUS
 62
     7
 10
559.354282472251
 20
1332.778735705574
 30
0.0
 11
555.354282472251
 21
1332.778735705574
 31
0.0
  0
LINE
  5
BF
  8
0
  6
CONTINUOUS
 62
     7
 10
560.3542824722509
 20
1919.778735705574
 30
0.0
 11
560.3542824722509
 21
1333.778735705574
 31
0.0
  0
LINE
  5
C0
  8
0
  6
CONTINUOUS
 62
     7
 10
559.354282472251
 20
1332.778735705574
 30
0.0
 11
560.3542824722509
 21
1333.778735705574
 31
0.0
  0
LINE
  5
C1
  8
0
  6
CONTINUOUS
 62
     7
 10
559.354282472251
 20
1920.778735705574
 30
0.0
 11
560.3542824722509
 21
1919.778735705574
 31
0.0
  0
LINE
  5
C2
  8
0
  6
CONTINUOUS
 62
     7
 10
555.3542824719214
 20
1893.778735705881
 30
0.0
 11
551.3542824719214
 21
1893.778735705881
 31
0.0
  0
LINE
  5
C3
  8
0
  6
CONTINUOUS
 62
     7
 10
551.3542824722575
 20
1361.042158543369
 30
0.0
 11
555.3542824722575
 21
1361.042158543369
 31
0.0
  0
LINE
  5
C4
  8
0
  6
CONTINUOUS
 62
     7
 10
555.354282472251
 20
1334.042158543369
 30
0.0
 11
551.354282472251
 21
1334.042158543369
 31
0.0
  0
LINE
  5
C5
  8
0
  6
CONTINUOUS
 62
     7
 10
551.354282472251
 20
1332.778735705574
 30
0.0
 11
555.354282472251
 21
1332.778735705574
 31
0.0
  0
LINE
  5
C6
  8
0
  6
CONTINUOUS
 62
     7
 10
559.354282472251
 20
1332.778735705574
 30
0.0
 11
560.3542824722512
 21
1332.778735705574
 31
0.0
  0
LINE
  5
C7
  8
0
  6
CONTINUOUS
 62
     7
 10
560.3542824722512
 20
1332.778735705574
 30
0.0
 11
560.3542824722509
 21
1333.778735705574
 31
0.0
  0
LINE
  5
C8
  8
0
  6
CONTINUOUS
 62
     7
 10
561.3542824722508
 20
1338.778735705574
 30
0.0
 11
560.3542824722509
 21
1338.778735705574
 31
0.0
  0
LINE
  5
C9
  8
0
  6
CONTINUOUS
 62
     7
 10
561.3542824722508
 20
1338.778735705574
 30
0.0
 11
561.3542824722559
 21
1331.778735705574
 31
0.0
  0
LINE
  5
CA
  8
0
  6
CONTINUOUS
 62
     7
 10
561.3542824722559
 20
1331.778735705574
 30
0.0
 11
550.354282472256
 21
1331.778735705574
 31
0.0
  0
LINE
  5
CB
  8
0
  6
CONTINUOUS
 62
     7
 10
551.3542824722559
 20
1360.778735705574
 30
0.0
 11
550.354282472256
 21
1360.778735705574
 31
0.0
  0
LINE
  5
CC
  8
0
  6
CONTINUOUS
 62
     7
 10
551.3542824722559
 20
1360.778735705574
 30
0.0
 11
551.354282472251
 21
1332.778735705574
 31
0.0
  0
LINE
  5
CD
  8
0
  6
CONTINUOUS
 62
     7
 10
550.354282472256
 20
1360.778735705574
 30
0.0
 11
550.354282472256
 21
1331.778735705574
 31
0.0
  0
LINE
  5
CE
  8
0
  6
CONTINUOUS
 62
     7
 10
550.354282472256
 20
1361.778735705574
 30
0.0
 11
551.3542824722559
 21
1361.778735705574
 31
0.0
  0
LINE
  5
CF
  8
0
  6
CONTINUOUS
 62
     7
 10
551.3542824722559
 20
1361.778735705574
 30
0.0
 11
551.3542824722559
 21
1360.778735705574
 31
0.0
  0
LINE
  5
D0
  8
0
  6
CONTINUOUS
 62
     7
 10
550.354282472256
 20
1360.778735705574
 30
0.0
 11
550.354282472256
 21
1361.778735705574
 31
0.0
  0
LINE
  5
D1
  8
0
  6
CONTINUOUS
 62
     7
 10
560.3542824722509
 20
1339.778735705574
 30
0.0
 11
561.3542824722508
 21
1339.778735705574
 31
0.0
  0
LINE
  5
D2
  8
0
  6
CONTINUOUS
 62
     7
 10
561.3542824722508
 20
1339.778735705574
 30
0.0
 11
561.3542824722508
 21
1338.778735705574
 31
0.0
  0
LINE
  5
D3
  8
0
  6
CONTINUOUS
 62
     7
 10
560.3542824711008
 20
1914.778735706686
 30
0.0
 11
561.3542824711006
 21
1914.778735706686
 31
0.0
  0
LINE
  5
D4
  8
0
  6
CONTINUOUS
 62
     7
 10
561.3542824711058
 20
1913.778735706686
 30
0.0
 11
560.3542824711059
 21
1913.778735706686
 31
0.0
  0
LINE
  5
D5
  8
0
  6
CONTINUOUS
 62
     7
 10
561.3542824711006
 20
1914.778735706686
 30
0.0
 11
561.3542824711058
 21
1913.778735706686
 31
0.0
  0
LINE
  5
D6
  8
0
  6
CONTINUOUS
 62
     7
 10
561.3542824711006
 20
1921.778735706686
 30
0.0
 11
550.3542824711008
 21
1921.778735706686
 31
0.0
  0
LINE
  5
D7
  8
0
  6
CONTINUOUS
 62
     7
 10
551.3542824711006
 20
1920.778735706686
 30
0.0
 11
555.354282472279
 21
1920.778735706686
 31
0.0
  0
LINE
  5
D8
  8
0
  6
CONTINUOUS
 62
     7
 10
559.3542824711393
 20
1920.778735706686
 30
0.0
 11
560.3542824711008
 21
1920.778735706686
 31
0.0
  0
LINE
  5
D9
  8
0
  6
CONTINUOUS
 62
     7
 10
551.3542824711006
 20
1920.778735706686
 30
0.0
 11
551.3542824711058
 21
1892.778735706686
 31
0.0
  0
LINE
  5
DA
  8
0
  6
CONTINUOUS
 62
     7
 10
550.3542824711059
 20
1892.778735706686
 30
0.0
 11
551.3542824711058
 21
1892.778735706686
 31
0.0
  0
LINE
  5
DB
  8
0
  6
CONTINUOUS
 62
     7
 10
550.3542824711008
 20
1921.778735706686
 30
0.0
 11
550.3542824711059
 21
1892.778735706686
 31
0.0
  0
LINE
  5
DC
  8
0
  6
CONTINUOUS
 62
     7
 10
560.3542824711008
 20
1920.778735706686
 30
0.0
 11
560.3542824711008
 21
1919.778735706724
 31
0.0
  0
LINE
  5
DD
  8
0
  6
CONTINUOUS
 62
     7
 10
561.3542824711006
 20
1921.778735706686
 30
0.0
 11
561.3542824711006
 21
1914.778735706686
 31
0.0
  0
LINE
  5
DE
  8
0
  6
CONTINUOUS
 62
     7
 10
551.3542824711009
 20
1891.778735706686
 30
0.0
 11
550.354282471101
 21
1891.778735706686
 31
0.0
  0
LINE
  5
DF
  8
0
  6
CONTINUOUS
 62
     7
 10
551.3542824711058
 20
1892.778735706686
 30
0.0
 11
551.3542824711009
 21
1891.778735706686
 31
0.0
  0
LINE
  5
E0
  8
0
  6
CONTINUOUS
 62
     7
 10
550.354282471101
 20
1891.778735706686
 30
0.0
 11
550.3542824711059
 21
1892.778735706686
 31
0.0
  0
LINE
  5
E1
  8
0
  6
CONTINUOUS
 62
     7
 10
4302.368687391556
 20
1361.042158543369
 30
0.0
 11
4306.368687391555
 21
1361.042158543369
 31
0.0
  0
LINE
  5
E2
  8
0
  6
CONTINUOUS
 62
     7
 10
4306.368687391552
 20
1893.778735705335
 30
0.0
 11
4302.368687391553
 21
1893.778735705335
 31
0.0
  0
LINE
  5
E3
  8
0
  6
CONTINUOUS
 62
     7
 10
4306.368687391552
 20
1894.278735705335
 30
0.0
 11
4306.368687391552
 21
1893.778735705335
 31
0.0
  0
LINE
  5
E4
  8
0
  6
CONTINUOUS
 62
     7
 10
4306.368687391539
 20
1920.778735705335
 30
0.0
 11
4306.368687391552
 21
1894.278735705335
 31
0.0
  0
LINE
  5
E5
  8
0
  6
CONTINUOUS
 62
     7
 10
4306.368687391539
 20
1920.778735705335
 30
0.0
 11
4302.368687391539
 21
1920.778735705335
 31
0.0
  0
LINE
  5
E6
  8
0
  6
CONTINUOUS
 62
     7
 10
4302.368687391556
 20
1359.778735705574
 30
0.0
 11
4306.368687391556
 21
1359.778735705574
 31
0.0
  0
LINE
  5
E7
  8
0
  6
CONTINUOUS
 62
     7
 10
4306.368687391556
 20
1359.778735705574
 30
0.0
 11
4306.368687391556
 21
1359.278735705574
 31
0.0
  0
LINE
  5
E8
  8
0
  6
CONTINUOUS
 62
     7
 10
4306.368687391569
 20
1332.778735705574
 30
0.0
 11
4306.368687391556
 21
1359.278735705574
 31
0.0
  0
LINE
  5
E9
  8
0
  6
CONTINUOUS
 62
     7
 10
4302.368687391569
 20
1332.778735705574
 30
0.0
 11
4306.368687391569
 21
1332.778735705574
 31
0.0
  0
LINE
  5
EA
  8
0
  6
CONTINUOUS
 62
     7
 10
4298.368687391566
 20
1920.778735705572
 30
0.0
 11
4297.368687391569
 21
1920.778735705572
 31
0.0
  0
LINE
  5
EB
  8
0
  6
CONTINUOUS
 62
     7
 10
4297.368687391569
 20
1920.778735705572
 30
0.0
 11
4297.368687391569
 21
1919.778735705574
 31
0.0
  0
LINE
  5
EC
  8
0
  6
CONTINUOUS
 62
     7
 10
4296.368687391569
 20
1914.778735705572
 30
0.0
 11
4297.36868739157
 21
1914.778735705572
 31
0.0
  0
LINE
  5
ED
  8
0
  6
CONTINUOUS
 62
     7
 10
4296.368687391569
 20
1914.778735705572
 30
0.0
 11
4296.368687391564
 21
1921.778735705572
 31
0.0
  0
LINE
  5
EE
  8
0
  6
CONTINUOUS
 62
     7
 10
4296.368687391564
 20
1921.778735705572
 30
0.0
 11
4307.368687391564
 21
1921.778735705572
 31
0.0
  0
LINE
  5
EF
  8
0
  6
CONTINUOUS
 62
     7
 10
4307.368687391564
 20
1892.778735705572
 30
0.0
 11
4307.368687391564
 21
1921.778735705572
 31
0.0
  0
LINE
  5
F0
  8
0
  6
CONTINUOUS
 62
     7
 10
4306.368687391564
 20
1892.778735705572
 30
0.0
 11
4307.368687391564
 21
1892.778735705572
 31
0.0
  0
LINE
  5
F1
  8
0
  6
CONTINUOUS
 62
     7
 10
4306.368687391564
 20
1892.778735705572
 30
0.0
 11
4306.368687391564
 21
1893.778735705335
 31
0.0
  0
LINE
  5
F2
  8
0
  6
CONTINUOUS
 62
     7
 10
4307.368687391564
 20
1891.778735705572
 30
0.0
 11
4306.368687391564
 21
1891.778735705572
 31
0.0
  0
LINE
  5
F3
  8
0
  6
CONTINUOUS
 62
     7
 10
4306.368687391564
 20
1891.778735705572
 30
0.0
 11
4306.368687391564
 21
1892.778735705572
 31
0.0
  0
LINE
  5
F4
  8
0
  6
CONTINUOUS
 62
     7
 10
4307.368687391564
 20
1892.778735705572
 30
0.0
 11
4307.368687391564
 21
1891.778735705572
 31
0.0
  0
LINE
  5
F5
  8
0
  6
CONTINUOUS
 62
     7
 10
4297.36868739157
 20
1913.778735705572
 30
0.0
 11
4296.368687391569
 21
1913.778735705572
 31
0.0
  0
LINE
  5
F6
  8
0
  6
CONTINUOUS
 62
     7
 10
4296.368687391569
 20
1913.778735705572
 30
0.0
 11
4296.368687391569
 21
1914.778735705572
 31
0.0
  0
LINE
  5
F7
  8
0
  6
CONTINUOUS
 62
     7
 10
4296.368687391569
 20
1331.778735705574
 30
0.0
 11
4307.368687391569
 21
1331.778735705574
 31
0.0
  0
LINE
  5
F8
  8
0
  6
CONTINUOUS
 62
     7
 10
4296.368687391569
 20
1331.778735705574
 30
0.0
 11
4296.368687391569
 21
1338.778735705574
 31
0.0
  0
LINE
  5
F9
  8
0
  6
CONTINUOUS
 62
     7
 10
4297.368687391569
 20
1338.778735705574
 30
0.0
 11
4296.368687391569
 21
1338.778735705574
 31
0.0
  0
LINE
  5
FA
  8
0
  6
CONTINUOUS
 62
     7
 10
4297.368687391569
 20
1332.778735705574
 30
0.0
 11
4297.368687391569
 21
1333.778735705574
 31
0.0
  0
LINE
  5
FB
  8
0
  6
CONTINUOUS
 62
     7
 10
4298.368687391568
 20
1332.778735705574
 30
0.0
 11
4297.368687391569
 21
1332.778735705574
 31
0.0
  0
LINE
  5
FC
  8
0
  6
CONTINUOUS
 62
     7
 10
4306.368687391565
 20
1359.778735705574
 30
0.0
 11
4306.368687391564
 21
1360.778735705574
 31
0.0
  0
LINE
  5
FD
  8
0
  6
CONTINUOUS
 62
     7
 10
4307.368687391564
 20
1360.778735705574
 30
0.0
 11
4306.368687391564
 21
1360.778735705574
 31
0.0
  0
LINE
  5
FE
  8
0
  6
CONTINUOUS
 62
     7
 10
4307.368687391569
 20
1331.778735705574
 30
0.0
 11
4307.368687391564
 21
1360.778735705574
 31
0.0
  0
LINE
  5
FF
  8
0
  6
CONTINUOUS
 62
     7
 10
4296.368687391563
 20
1339.778735705574
 30
0.0
 11
4297.368687391564
 21
1339.778735705574
 31
0.0
  0
LINE
  5
100
  8
0
  6
CONTINUOUS
 62
     7
 10
4296.368687391569
 20
1338.778735705574
 30
0.0
 11
4296.368687391563
 21
1339.778735705574
 31
0.0
  0
LINE
  5
101
  8
0
  6
CONTINUOUS
 62
     7
 10
4306.368687391569
 20
1361.778735705574
 30
0.0
 11
4307.368687391569
 21
1361.778735705574
 31
0.0
  0
LINE
  5
102
  8
0
  6
CONTINUOUS
 62
     7
 10
4307.368687391569
 20
1361.778735705574
 30
0.0
 11
4307.368687391564
 21
1360.778735705574
 31
0.0
  0
LINE
  5
103
  8
0
  6
CONTINUOUS
 62
     7
 10
4306.368687391564
 20
1360.778735705574
 30
0.0
 11
4306.368687391569
 21
1361.778735705574
 31
0.0
  0
LINE
  5
104
  8
0
  6
CONTINUOUS
 62
     7
 10
4302.368687391569
 20
1332.778735705574
 30
0.0
 11
4302.368687391569
 21
1920.778735705574
 31
0.0
  0
LINE
  5
105
  8
0
  6
CONTINUOUS
 62
     7
 10
4298.368687391569
 20
1332.778735705574
 30
0.0
 11
4302.368687391569
 21
1332.778735705574
 31
0.0
  0
LINE
  5
106
  8
0
  6
CONTINUOUS
 62
     7
 10
4298.368687391569
 20
1920.778735705574
 30
0.0
 11
4298.368687391569
 21
1332.778735705574
 31
0.0
  0
LINE
  5
107
  8
0
  6
CONTINUOUS
 62
     7
 10
4298.368687391569
 20
1920.778735705574
 30
0.0
 11
4302.368687391569
 21
1920.778735705574
 31
0.0
  0
LINE
  5
108
  8
0
  6
CONTINUOUS
 62
     7
 10
4297.368687391569
 20
1333.778735705574
 30
0.0
 11
4297.368687391569
 21
1919.778735705574
 31
0.0
  0
LINE
  5
109
  8
0
  6
CONTINUOUS
 62
     7
 10
4297.368687391569
 20
1919.778735705574
 30
0.0
 11
4298.368687391569
 21
1920.778735705574
 31
0.0
  0
LINE
  5
10A
  8
0
  6
CONTINUOUS
 62
     7
 10
4297.368687391569
 20
1333.778735705574
 30
0.0
 11
4298.368687391569
 21
1332.778735705574
 31
0.0
  0
ENDSEC
  0
EOF
