  0
SECTION
  2
HEADER
  9
$ACADVER
  1
AC1015
  9
$ACADMAINTVER
 70
     6
  9
$DWGCODEPAGE
  3
DOS932
  9
$INSBASE
 10
0.0
 20
0.0
 30
0.0
  9
$EXTMIN
 10
0.0
 20
0.0
 30
0.0
  9
$EXTMAX
 10
5000.0
 20
3500.0
 30
0.0
  9
$LIMMIN
 10
0.0
 20
0.0
  9
$LIMMAX
 10
5000.0
 20
3500.0
  9
$ORTHOMODE
 70
     0
  9
$REGENMODE
 70
     1
  9
$FILLMODE
 70
     1
  9
$QTEXTMODE
 70
     0
  9
$MIRRTEXT
 70
     1
  9
$LTSCALE
 40
1.0
  9
$ATTMODE
 70
     1
  9
$TEXTSIZE
 40
3.5
  9
$TRACEWID
 40
1.0
  9
$TEXTSTYLE
  7
Standard
  9
$CLAYER
  8
0
  9
$CELTYPE
  6
ByLayer
  9
$CECOLOR
 62
   256
  9
$CELTSCALE
 40
1.0
  9
$DISPSILH
 70
     0
  9
$DIMSCALE
 40
1.0
  9
$DIMASZ
 40
3.302
  9
$DIMEXO
 40
1.0
  9
$DIMDLI
 40
3.75
  9
$DIMRND
 40
0.0
  9
$DIMDLE
 40
0.0
  9
$DIMEXE
 40
1.0
  9
$DIMTP
 40
0.0
  9
$DIMTM
 40
0.0
  9
$DIMTXT
 40
3.5
  9
$DIMCEN
 40
2.5
  9
$DIMTSZ
 40
0.0
  9
$DIMTOL
 70
     0
  9
$DIMLIM
 70
     0
  9
$DIMTIH
 70
     1
  9
$DIMTOH
 70
     1
  9
$DIMSE1
 70
     0
  9
$DIMSE2
 70
     0
  9
$DIMTAD
 70
     1
  9
$DIMZIN
 70
     0
  9
$DIMBLK
  1

  9
$DIMASO
 70
     1
  9
$DIMSHO
 70
     1
  9
$DIMPOST
  1

  9
$DIMAPOST
  1

  9
$DIMALT
 70
     0
  9
$DIMALTD
 70
     3
  9
$DIMALTF
 40
0.0393700787
  9
$DIMLFAC
 40
1.0
  9
$DIMTOFL
 70
     1
  9
$DIMTVP
 40
0.0
  9
$DIMTIX
 70
     0
  9
$DIMSOXD
 70
     0
  9
$DIMSAH
 70
     0
  9
$DIMBLK1
  1

  9
$DIMBLK2
  1

  9
$DIMSTYLE
  2
ISO-25
  9
$DIMCLRD
 70
     0
  9
$DIMCLRE
 70
     0
  9
$DIMCLRT
 70
     0
  9
$DIMTFAC
 40
1.0
  9
$DIMGAP
 40
1.524
  9
$DIMJUST
 70
     0
  9
$DIMSD1
 70
     0
  9
$DIMSD2
 70
     0
  9
$DIMTOLJ
 70
     0
  9
$DIMTZIN
 70
     0
  9
$DIMALTZ
 70
     0
  9
$DIMALTTZ
 70
     0
  9
$DIMUPT
 70
     0
  9
$DIMDEC
 70
     2
  9
$DIMTDEC
 70
     2
  9
$DIMALTU
 70
     2
  9
$DIMALTTD
 70
     3
  9
$DIMTXSTY
  7
Standard
  9
$DIMAUNIT
 70
     0
  9
$DIMADEC
 70
     2
  9
$DIMALTRND
 40
0.0
  9
$DIMAZIN
 70
     0
  9
$DIMDSEP
 70
    44
  9
$DIMATFIT
 70
     3
  9
$DIMFRAC
 70
     0
  9
$DIMLDRBLK
  1

  9
$DIMLUNIT
 70
     2
  9
$DIMLWD
 70
    -2
  9
$DIMLWE
 70
    -2
  9
$DIMTMOVE
 70
     0
  9
$LUNITS
 70
     2
  9
$LUPREC
 70
     3
  9
$SKETCHINC
 40
1.0
  9
$FILLETRAD
 40
0.0
  9
$AUNITS
 70
     0
  9
$AUPREC
 70
     2
  9
$MENU
  1
.
  9
$ELEVATION
 40
0.0
  9
$PELEVATION
 40
0.0
  9
$THICKNESS
 40
0.0
  9
$LIMCHECK
 70
     0
  9
$CHAMFERA
 40
0.0
  9
$CHAMFERB
 40
0.0
  9
$CHAMFERC
 40
0.0
  9
$CHAMFERD
 40
0.0
  9
$SKPOLY
 70
     0
  9
$TDCREATE
 40
2460384.636449109
  9
$TDUCREATE
 40
2460384.261449109
  9
$TDUPDATE
 40
2460384.636449398
  9
$TDUUPDATE
 40
2460384.261449398
  9
$TDINDWG
 40
0.0000000116
  9
$TDUSRTIMER
 40
0.0000000116
  9
$USRTIMER
 70
     1
  9
$ANGBASE
 50
0.0
  9
$ANGDIR
 70
     0
  9
$PDMODE
 70
     0
  9
$PDSIZE
 40
-1.0
  9
$PLINEWID
 40
0.0
  9
$SPLFRAME
 70
     0
  9
$SPLINETYPE
 70
     6
  9
$SPLINESEGS
 70
     8
  9
$HANDSEED
  5
28D
  9
$SURFTAB1
 70
     6
  9
$SURFTAB2
 70
     6
  9
$SURFTYPE
 70
     6
  9
$SURFU
 70
     6
  9
$SURFV
 70
     6
  9
$UCSBASE
  2

  9
$UCSNAME
  2

  9
$UCSORG
 10
0.0
 20
0.0
 30
0.0
  9
$UCSXDIR
 10
1.0
 20
0.0
 30
0.0
  9
$UCSYDIR
 10
0.0
 20
1.0
 30
0.0
  9
$UCSORTHOREF
  2

  9
$UCSORTHOVIEW
 70
     0
  9
$UCSORGTOP
 10
0.0
 20
0.0
 30
0.0
  9
$UCSORGBOTTOM
 10
0.0
 20
0.0
 30
0.0
  9
$UCSORGLEFT
 10
0.0
 20
0.0
 30
0.0
  9
$UCSORGRIGHT
 10
0.0
 20
0.0
 30
0.0
  9
$UCSORGFRONT
 10
0.0
 20
0.0
 30
0.0
  9
$UCSORGBACK
 10
0.0
 20
0.0
 30
0.0
  9
$PUCSBASE
  2

  9
$PUCSNAME
  2

  9
$PUCSORG
 10
0.0
 20
0.0
 30
0.0
  9
$PUCSXDIR
 10
1.0
 20
0.0
 30
0.0
  9
$PUCSYDIR
 10
0.0
 20
1.0
 30
0.0
  9
$PUCSORTHOREF
  2

  9
$PUCSORTHOVIEW
 70
     0
  9
$PUCSORGTOP
 10
0.0
 20
0.0
 30
0.0
  9
$PUCSORGBOTTOM
 10
0.0
 20
0.0
 30
0.0
  9
$PUCSORGLEFT
 10
0.0
 20
0.0
 30
0.0
  9
$PUCSORGRIGHT
 10
0.0
 20
0.0
 30
0.0
  9
$PUCSORGFRONT
 10
0.0
 20
0.0
 30
0.0
  9
$PUCSORGBACK
 10
0.0
 20
0.0
 30
0.0
  9
$USERI1
 70
     0
  9
$USERI2
 70
     0
  9
$USERI3
 70
     0
  9
$USERI4
 70
     0
  9
$USERI5
 70
     0
  9
$USERR1
 40
0.0
  9
$USERR2
 40
0.0
  9
$USERR3
 40
0.0
  9
$USERR4
 40
0.0
  9
$USERR5
 40
0.0
  9
$WORLDVIEW
 70
     1
  9
$SHADEDGE
 70
     3
  9
$SHADEDIF
 70
    70
  9
$TILEMODE
 70
     1
  9
$MAXACTVP
 70
    64
  9
$PINSBASE
 10
0.0
 20
0.0
 30
0.0
  9
$PLIMCHECK
 70
     0
  9
$PEXTMIN
 10
1.0000000000E+20
 20
1.0000000000E+20
 30
1.0000000000E+20
  9
$PEXTMAX
 10
-1.0000000000E+20
 20
-1.0000000000E+20
 30
-1.0000000000E+20
  9
$PLIMMIN
 10
0.0
 20
0.0
  9
$PLIMMAX
 10
420.0
 20
297.0
  9
$UNITMODE
 70
     0
  9
$VISRETAIN
 70
     1
  9
$PLINEGEN
 70
     0
  9
$PSLTSCALE
 70
     1
  9
$TREEDEPTH
 70
  3020
  9
$CMLSTYLE
  2
Standard
  9
$CMLJUST
 70
     0
  9
$CMLSCALE
 40
20.0
  9
$PROXYGRAPHICS
 70
     1
  9
$MEASUREMENT
 70
     1
  9
$CELWEIGHT
370
    -1
  9
$ENDCAPS
280
     0
  9
$JOINSTYLE
280
     0
  9
$LWDISPLAY
290
     1
  9
$INSUNITS
 70
     4
  9
$HYPERLINKBASE
  1

  9
$STYLESHEET
  1

  9
$XEDIT
290
     1
  9
$CEPSNTYPE
380
     0
  9
$PSTYLEMODE
290
     1
  9
$FINGERPRINTGUID
  2
{b8ee85d8-ddee-4a50-86fe-1e41ae158d6b}
  9
$VERSIONGUID
  2
{FAEB1C32-E019-11D5-929B-00C0DF256EC4}
  9
$EXTNAMES
290
     1
  9
$PSVPSCALE
 40
0.0
  9
$OLESTARTUP
290
     0
  0
ENDSEC
  0
SECTION
  2
CLASSES
  0
CLASS
  1
ACDBDICTIONARYWDFLT
  2
AcDbDictionaryWithDefault
  3
ObjectDBX Classes
 90
        0
280
     0
281
     0
  0
CLASS
  1
VISUALSTYLE
  2
AcDbVisualStyle
  3
ObjectDBX Classes
 90
     4095
280
     0
281
     0
  0
CLASS
  1
MATERIAL
  2
AcDbMaterial
  3
ObjectDBX Classes
 90
     1153
280
     0
281
     0
  0
CLASS
  1
SCALE
  2
AcDbScale
  3
ObjectDBX Classes
 90
     1153
280
     0
281
     0
  0
CLASS
  1
TABLESTYLE
  2
AcDbTableStyle
  3
ObjectDBX Classes
 90
     4095
280
     0
281
     0
  0
CLASS
  1
MLEADERSTYLE
  2
AcDbMLeaderStyle
  3
ACDB_MLEADERSTYLE_CLASS
 90
     4095
280
     0
281
     0
  0
CLASS
  1
SUN
  2
AcDbSun
  3
SCENEOE
 90
     1153
280
     0
281
     0
  0
CLASS
  1
ACDBPLACEHOLDER
  2
AcDbPlaceHolder
  3
ObjectDBX Classes
 90
        0
280
     0
281
     0
  0
CLASS
  1
LAYOUT
  2
AcDbLayout
  3
ObjectDBX Classes
 90
        0
280
     0
281
     0
  0
ENDSEC
  0
SECTION
  2
TABLES
  0
TABLE
  2
VPORT
  5
8
330
0
100
AcDbSymbolTable
 70
     1
  0
VPORT
  5
29
330
8
100
AcDbSymbolTableRecord
100
AcDbViewportTableRecord
  2
*Active
 70
     0
 10
0.0
 20
0.0
 11
1.0
 21
1.0
 12
2500.0
 22
1750.0
 13
0.0
 23
0.0
 14
10.0
 24
10.0
 15
10.0
 25
10.0
 16
0.0
 26
0.0
 36
1.0
 17
0.0
 27
0.0
 37
0.0
 40
3500.0
 41
1.4285714286
 42
50.0
 43
0.0
 44
0.0
 50
0.0
 51
0.0
 71
     0
 72
  2000
 73
     1
 74
     3
 75
     0
 76
     0
 77
     0
 78
     0
281
     0
 65
     1
110
0.0
120
0.0
130
0.0
111
1.0
121
0.0
131
0.0
112
0.0
122
1.0
132
0.0
 79
     0
146
0.0
  0
ENDTAB
  0
TABLE
  2
LTYPE
  5
5
330
0
100
AcDbSymbolTable
 70
     6
  0
LTYPE
  5
14
330
5
100
AcDbSymbolTableRecord
100
AcDbLinetypeTableRecord
  2
ByBlock
 70
     0
  3

 72
    65
 73
     0
 40
0.0
  0
LTYPE
  5
15
330
5
100
AcDbSymbolTableRecord
100
AcDbLinetypeTableRecord
  2
ByLayer
 70
     0
  3

 72
    65
 73
     0
 40
0.0
  0
LTYPE
  5
16
330
5
100
AcDbSymbolTableRecord
100
AcDbLinetypeTableRecord
  2
Continuous
 70
     0
  3
Solid line
 72
    65
 73
     0
 40
0.0
  0
LTYPE
  5
5E
330
5
100
AcDbSymbolTableRecord
100
AcDbLinetypeTableRecord
  2
HIDDEN
 70
     0
  3
Hidden __ __ __ __ __ __ __ __ __ __ __ __ __ __
 72
    65
 73
     2
 40
1.905
 49
1.27
 74
     0
 49
-0.635
 74
     0
  0
LTYPE
  5
5F
330
5
100
AcDbSymbolTableRecord
100
AcDbLinetypeTableRecord
  2
PHANTOM
 70
     0
  3
Phantom ______  __  __  ______  __  __  ______
 72
    65
 73
     6
 40
12.7
 49
6.35
 74
     0
 49
-1.27
 74
     0
 49
1.27
 74
     0
 49
-1.27
 74
     0
 49
1.27
 74
     0
 49
-1.27
 74
     0
  0
LTYPE
  5
60
330
5
100
AcDbSymbolTableRecord
100
AcDbLinetypeTableRecord
  2
CENTER
 70
     0
  3
Center ____ _ ____ _ ____ _ ____ _ ____ _ ____
 72
    65
 73
     4
 40
10.16
 49
6.35
 74
     0
 49
-1.27
 74
     0
 49
1.27
 74
     0
 49
-1.27
 74
     0
  0
LTYPE
  5
61
330
5
100
AcDbSymbolTableRecord
100
AcDbLinetypeTableRecord
  2
CENTERX2
 70
     0
  3
Center (2x) ________  __  ________  __  _____
 72
    65
 73
     4
 40
20.32
 49
12.7
 74
     0
 49
-2.54
 74
     0
 49
2.54
 74
     0
 49
-2.54
 74
     0
  0
LTYPE
  5
62
330
5
100
AcDbSymbolTableRecord
100
AcDbLinetypeTableRecord
  2
DOT2
 70
     0
  3
Dot (.5x) ........................................
 72
    65
 73
     2
 40
0.635
 49
0.0
 74
     0
 49
-0.635
 74
     0
  0
ENDTAB
  0
TABLE
  2
LAYER
  5
2
330
0
100
AcDbSymbolTable
 70
     3
  0
LAYER
  5
10
330
2
100
AcDbSymbolTableRecord
100
AcDbLayerTableRecord
  2
0
 70
     0
 62
     7
  6
Continuous
370
    -3
390
F
  0
LAYER
  5
63
330
2
100
AcDbSymbolTableRecord
100
AcDbLayerTableRecord
  2
SLD-0
 70
     0
 62
   179
  6
Continuous
370
    -3
390
F
  0
LAYER
  5
64
330
2
100
AcDbSymbolTableRecord
100
AcDbLayerTableRecord
  2
寸法
 70
     0
 62
   179
  6
Continuous
370
    -3
390
F
  0
ENDTAB
  0
TABLE
  2
STYLE
  5
3
330
0
100
AcDbSymbolTable
 70
     2
  0
STYLE
  5
11
330
3
100
AcDbSymbolTableRecord
100
AcDbTextStyleTableRecord
  2
Standard
 70
     0
 40
0.0
 41
1.0
 50
0.0
 71
     0
 42
3.5
  3
txt
  4
bigfont
  0
STYLE
  5
66
330
3
100
AcDbSymbolTableRecord
100
AcDbTextStyleTableRecord
  2
SLDTEXTSTYLE0
 70
     0
 40
0.0
 41
0.75
 50
0.0
 71
     0
 42
3.5
  3
TXT
  4
bigfont
  0
ENDTAB
  0
TABLE
  2
VIEW
  5
6
330
0
100
AcDbSymbolTable
 70
     0
  0
ENDTAB
  0
TABLE
  2
UCS
  5
7
330
0
100
AcDbSymbolTable
 70
     0
  0
ENDTAB
  0
TABLE
  2
APPID
  5
9
330
0
100
AcDbSymbolTable
 70
     1
  0
APPID
  5
12
330
9
100
AcDbSymbolTableRecord
100
AcDbRegAppTableRecord
  2
ACAD
 70
     0
  0
ENDTAB
  0
TABLE
  2
DIMSTYLE
  5
A
330
0
100
AcDbSymbolTable
 70
     1
100
AcDbDimStyleTable
  0
DIMSTYLE
105
27
330
A
100
AcDbSymbolTableRecord
100
AcDbDimStyleTableRecord
  2
ISO-25
 70
     0
 41
2.5
 42
0.625
 43
3.75
 44
1.25
 73
     0
 74
     0
 77
     1
 78
     8
140
2.5
141
2.5
143
0.0393700787
147
0.625
171
     3
172
     1
178
     0
271
     2
272
     2
274
     3
278
    44
283
     0
284
     8
340
11
  0
ENDTAB
  0
TABLE
  2
BLOCK_RECORD
  5
1
330
0
100
AcDbSymbolTable
 70
     1
  0
BLOCK_RECORD
  5
1F
330
1
100
AcDbSymbolTableRecord
100
AcDbBlockTableRecord
  2
*Model_Space
340
22
  0
BLOCK_RECORD
  5
1B
330
1
100
AcDbSymbolTableRecord
100
AcDbBlockTableRecord
  2
*Paper_Space
340
1E
  0
BLOCK_RECORD
  5
23
330
1
100
AcDbSymbolTableRecord
100
AcDbBlockTableRecord
  2
*Paper_Space0
340
26
  0
ENDTAB
  0
ENDSEC
  0
SECTION
  2
BLOCKS
  0
BLOCK
  5
20
330
1F
100
AcDbEntity
  8
0
100
AcDbBlockBegin
  2
*Model_Space
 70
     0
 10
0.0
 20
0.0
 30
0.0
  3
*Model_Space
  1

  0
ENDBLK
  5
21
330
1F
100
AcDbEntity
  8
0
100
AcDbBlockEnd
  0
BLOCK
  5
1C
330
1B
100
AcDbEntity
 67
     1
  8
0
100
AcDbBlockBegin
  2
*Paper_Space
 70
     0
 10
0.0
 20
0.0
 30
0.0
  3
*Paper_Space
  1

  0
ENDBLK
  5
1D
330
1B
100
AcDbEntity
 67
     1
  8
0
100
AcDbBlockEnd
  0
BLOCK
  5
24
330
23
100
AcDbEntity
  8
0
100
AcDbBlockBegin
  2
*Paper_Space0
 70
     0
 10
0.0
 20
0.0
 30
0.0
  3
*Paper_Space0
  1

  0
ENDBLK
  5
25
330
23
100
AcDbEntity
  8
0
100
AcDbBlockEnd
  0
ENDSEC
  0
SECTION
  2
ENTITIES
  0
LINE
  5
65
330
1F
100
AcDbEntity
  8
0
  6
Continuous
 62
     7
370
    18
100
AcDbLine
 10
4801.663086451
 20
279.1403827252
 30
0.0
 11
3345.9062220501
 21
279.1403827252
 31
0.0
  0
MTEXT
  5
67
330
1F
100
AcDbEntity
  8
0
  6
Continuous
 62
     7
370
     0
100
AcDbMText
 10
1882.8324799637
 20
1989.2846179971
 30
0.0
 40
52.9166666667
 41
0.0
 71
     1
 72
     1
  1
＜正面＞
  7
SLDTEXTSTYLE0
 73
     1
 44
1.0
  0
MTEXT
  5
68
330
1F
100
AcDbEntity
  8
0
  6
Continuous
 62
     7
370
     0
100
AcDbMText
 10
3377.8142431891
 20
379.4057208634
 30
0.0
 40
52.9166666667
 41
0.0
 71
     1
 72
     1
  1
品名：
  7
SLDTEXTSTYLE0
 73
     1
 44
1.0
  0
MTEXT
  5
69
330
1F
100
AcDbEntity
  8
0
  6
Continuous
 62
     7
370
     0
100
AcDbMText
 10
4446.6634374817
 20
385.2343854145
 30
0.0
 40
52.9166666667
 41
0.0
 71
     1
 72
     1
  1
Pamouna
  7
SLDTEXTSTYLE0
 73
     1
 44
1.0
  0
MTEXT
  5
6A
330
1F
100
AcDbEntity
  8
寸法
 62
     7
100
AcDbMText
 10
4688.0073048854
 20
218.6255182943
 30
0.0
 40
52.9166666667
 41
0.0
 71
     1
 72
     1
  1
1/1
  7
SLDTEXTSTYLE0
 73
     1
 44
1.0
  0
MTEXT
  5
6B
330
1F
100
AcDbEntity
  8
寸法
 62
     7
100
AcDbMText
 10
3611.2831293492
 20
398.3924235142
 30
0.0
 40
66.1458333333
 41
0.0
 71
     1
 72
     1
  1
MAGS46L
  7
SLDTEXTSTYLE0
 73
     1
 44
1.0
  0
MTEXT
  5
6C
330
1F
100
AcDbEntity
  8
寸法
 62
     7
100
AcDbMText
 10
4198.7969392118
 20
218.6255210883
 30
0.0
 40
52.9166666667
 41
0.0
 71
     1
 72
     1
  1
2024/03/14
  7
SLDTEXTSTYLE0
 73
     1
 44
1.0
  0
MTEXT
  5
6D
330
1F
100
AcDbEntity
  8
寸法
 62
     7
100
AcDbMText
 10
3662.4665930518
 20
2002.9002064516
 30
0.0
 40
52.9166666667
 41
0.0
 71
     1
 72
     1
  1
＜右側面＞
  7
SLDTEXTSTYLE0
 73
     1
 44
1.0
  0
MTEXT
  5
6E
330
1F
100
AcDbEntity
  8
0
  6
Continuous
 62
     7
370
     0
100
AcDbMText
 10
1921.8777540945
 20
2965.5678091759
 30
0.0
 40
52.9166666667
 41
0.0
 71
     1
 72
     1
  1
＜上面＞
  7
SLDTEXTSTYLE0
 73
     1
 44
1.0
  0
MTEXT
  5
6F
330
1F
100
AcDbEntity
  8
0
  6
Continuous
 62
     7
370
     0
100
AcDbMText
 10
599.5723251208
 20
1997.9509737295
 30
0.0
 40
52.9166666667
 41
0.0
 71
     1
 72
     1
  1
＜左側面＞
  7
SLDTEXTSTYLE0
 73
     1
 44
1.0
  0
LINE
  5
70
330
1F
100
AcDbEntity
  8
0
  6
Continuous
 62
     7
370
    25
100
AcDbLine
 10
2650.2454585654
 20
1617.2543978663
 30
0.0
 11
2648.4454585654
 21
1617.2543978663
 31
0.0
  0
ARC
  5
71
330
1F
100
AcDbEntity
  8
0
  6
Continuous
 62
     7
370
    25
100
AcDbCircle
 10
2650.2454585654
 20
1617.0543978663
 30
0.0
 40
0.2000000000002728
100
AcDbArc
 50
0.0
 51
90.0
  0
LINE
  5
72
330
1F
100
AcDbEntity
  8
0
  6
Continuous
 62
     7
370
    25
100
AcDbLine
 10
2648.4454585654
 20
1617.2543978663
 30
0.0
 11
2206.4454585653
 21
1617.2543978663
 31
0.0
  0
LINE
  5
73
330
1F
100
AcDbEntity
  8
0
  6
Continuous
 62
     7
370
    25
100
AcDbLine
 10
2206.4454585653
 20
1617.2543978663
 30
0.0
 11
2204.6454585653
 21
1617.2543978663
 31
0.0
  0
ARC
  5
74
330
1F
100
AcDbEntity
  8
0
  6
Continuous
 62
     7
370
    25
100
AcDbCircle
 10
2204.6454585654
 20
1617.0543978663
 30
0.0
 40
0.2000000000000455
100
AcDbArc
 50
90.0
 51
180.0
  0
LINE
  5
75
330
1F
100
AcDbEntity
  8
0
  6
Continuous
 62
     7
370
    25
100
AcDbLine
 10
2204.4454585654
 20
986.7543978663
 30
0.0
 11
2650.4454585654
 21
986.7543978663
 31
0.0
  0
LINE
  5
76
330
1F
100
AcDbEntity
  8
0
  6
Continuous
 62
     7
370
    25
100
AcDbLine
 10
2650.4454585654
 20
1616.7543978663
 30
0.0
 11
2204.4454585654
 21
1616.7543978663
 31
0.0
  0
LINE
  5
77
330
1F
100
AcDbEntity
  8
0
  6
Continuous
 62
     7
370
    25
100
AcDbLine
 10
2650.4454585654
 20
986.7543978663
 30
0.0
 11
2650.4454585654
 21
1616.7543978663
 31
0.0
  0
LINE
  5
78
330
1F
100
AcDbEntity
  8
0
  6
Continuous
 62
     7
370
    25
100
AcDbLine
 10
2204.4454585654
 20
1616.7543978663
 30
0.0
 11
2204.4454585654
 21
986.7543978663
 31
0.0
  0
LINE
  5
79
330
1F
100
AcDbEntity
  8
0
  6
Continuous
 62
     7
370
    25
100
AcDbLine
 10
2651.9454585654
 20
976.7543978663
 30
0.0
 11
2651.9454585654
 21
1598.2543978663
 31
0.0
  0
LINE
  5
7A
330
1F
100
AcDbEntity
  8
0
  6
Continuous
 62
     7
370
    25
100
AcDbLine
 10
2634.4454585654
 20
986.7543978663
 30
0.0
 11
2634.4454585654
 21
976.7543978663
 31
0.0
  0
LINE
  5
7B
330
1F
100
AcDbEntity
  8
0
  6
Continuous
 62
     7
370
    25
100
AcDbLine
 10
2634.4454585654
 20
976.7543978663
 30
0.0
 11
2651.9454585654
 21
976.7543978663
 31
0.0
  0
LINE
  5
7C
330
1F
100
AcDbEntity
  8
0
  6
Continuous
 62
     7
370
    25
100
AcDbLine
 10
2332.9454585654
 20
976.7543978663
 30
0.0
 11
2332.9454585654
 21
986.7543978663
 31
0.0
  0
LINE
  5
7D
330
1F
100
AcDbEntity
  8
0
  6
Continuous
 62
     7
370
    25
100
AcDbLine
 10
2315.4454585654
 20
986.7543978663
 30
0.0
 11
2315.4454585654
 21
976.7543978663
 31
0.0
  0
LINE
  5
7E
330
1F
100
AcDbEntity
  8
0
  6
Continuous
 62
     7
370
    25
100
AcDbLine
 10
2315.4454585654
 20
976.7543978663
 30
0.0
 11
2332.9454585654
 21
976.7543978663
 31
0.0
  0
LINE
  5
7F
330
1F
100
AcDbEntity
  8
0
  6
Continuous
 62
     7
370
    25
100
AcDbLine
 10
2652.9454585654
 20
1626.7543978663
 30
0.0
 11
2202.4454585654
 21
1626.7543978663
 31
0.0
  0
LINE
  5
80
330
1F
100
AcDbEntity
  8
0
  6
Continuous
 62
     7
370
    25
100
AcDbLine
 10
2652.9454585654
 20
1598.2543978663
 30
0.0
 11
2650.4454585654
 21
1598.2543978663
 31
0.0
  0
LINE
  5
81
330
1F
100
AcDbEntity
  8
0
  6
Continuous
 62
     7
370
    25
100
AcDbLine
 10
2204.4454585654
 20
1598.2543978663
 30
0.0
 11
2202.4454585654
 21
1598.2543978663
 31
0.0
  0
LINE
  5
82
330
1F
100
AcDbEntity
  8
0
  6
Continuous
 62
     7
370
    25
100
AcDbLine
 10
2652.9454585654
 20
1626.7543978663
 30
0.0
 11
2652.9454585654
 21
1598.2543978663
 31
0.0
  0
LINE
  5
83
330
1F
100
AcDbEntity
  8
0
  6
Continuous
 62
     7
370
    25
100
AcDbLine
 10
2202.4454585654
 20
1626.7543978663
 30
0.0
 11
2202.4454585654
 21
1598.2543978663
 31
0.0
  0
LINE
  5
84
330
1F
100
AcDbEntity
  8
0
  6
Continuous
 62
     7
370
    25
100
AcDbLine
 10
2650.4454585654
 20
1617.0432491446
 30
0.0
 11
2650.4454585654
 21
1616.9543978663
 31
0.0
  0
LINE
  5
85
330
1F
100
AcDbEntity
  8
0
  6
Continuous
 62
     7
370
    25
100
AcDbLine
 10
2650.2454585654
 20
1616.7543978663
 30
0.0
 11
2650.2454585654
 21
1617.2404619641
 31
0.0
  0
ARC
  5
86
330
1F
100
AcDbEntity
  8
0
  6
Continuous
 62
     7
370
    25
100
AcDbCircle
 10
2650.2468424451
 20
1617.0418457066
 30
0.0
 40
0.1986210785923617
100
AcDbArc
 50
0.4048499762
 51
90.3992079347
  0
SPLINE
  5
87
330
1F
100
AcDbEntity
  8
0
  6
Continuous
 62
     7
370
    25
100
AcDbSpline
210
0.0
220
0.0
230
1.0
 70
     8
 71
     3
 72
    13
 73
     9
 74
     0
 42
0.00000001
 43
0.00000001
 40
0.0
 40
0.0
 40
0.0
 40
0.0
 40
0.0075029974114413
 40
0.3818974549664034
 40
0.6070018873272421
 40
0.7653769096343175
 40
0.882460504981042
 40
1.0
 40
1.0
 40
1.0
 40
1.0
 10
2650.445458565365
 20
1616.954397866314
 30
0.0
 10
2650.44545760976
 20
1616.953959868419
 30
0.0
 10
2650.445408970148
 20
1616.93166607405
 30
0.0
 10
2650.439286865407
 20
1616.884781685834
 30
0.0
 10
2650.397270759933
 20
1616.818497248798
 30
0.0
 10
2650.348459957967
 20
1616.780235689626
 30
0.0
 10
2650.297729310651
 20
1616.75847991389
 30
0.0
 10
2650.262904703201
 20
1616.755760310341
 30
0.0
 10
2650.245458565365
 20
1616.754397866314
 30
0.0
  0
LINE
  5
88
330
1F
100
AcDbEntity
  8
0
  6
Continuous
 62
     7
370
    25
100
AcDbLine
 10
2648.4454585654
 20
1617.2404619641
 30
0.0
 11
2648.4454585654
 21
1616.7543978663
 31
0.0
  0
LINE
  5
89
330
1F
100
AcDbEntity
  8
0
  6
Continuous
 62
     7
370
    25
100
AcDbLine
 10
2650.2454585654
 20
1617.2404619641
 30
0.0
 11
2648.4454585654
 21
1617.2404619641
 31
0.0
  0
LINE
  5
8A
330
1F
100
AcDbEntity
  8
0
  6
Continuous
 62
     7
370
    25
100
AcDbLine
 10
2648.4454585654
 20
1617.2543978663
 30
0.0
 11
2648.4454585654
 21
1617.2404619641
 31
0.0
  0
LINE
  5
8B
330
1F
100
AcDbEntity
  8
0
  6
Continuous
 62
     7
370
    25
100
AcDbLine
 10
2650.4454585654
 20
1617.0543978663
 30
0.0
 11
2650.4454585654
 21
1617.0432491446
 31
0.0
  0
LINE
  5
8C
330
1F
100
AcDbEntity
  8
0
  6
Continuous
 62
     7
370
    25
100
AcDbLine
 10
2650.4454585654
 20
1616.9543978663
 30
0.0
 11
2650.4454585654
 21
1616.7543978663
 31
0.0
  0
LINE
  5
8D
330
1F
100
AcDbEntity
  8
0
  6
Continuous
 62
     7
370
    25
100
AcDbLine
 10
2648.4454585654
 20
1617.2404619641
 30
0.0
 11
2206.4454585654
 21
1617.2404619641
 31
0.0
  0
LINE
  5
8E
330
1F
100
AcDbEntity
  8
0
  6
Continuous
 62
     7
370
    25
100
AcDbLine
 10
2206.4454585654
 20
1616.7543978663
 30
0.0
 11
2206.4454585654
 21
1617.2404619641
 31
0.0
  0
LINE
  5
8F
330
1F
100
AcDbEntity
  8
0
  6
Continuous
 62
     7
370
    25
100
AcDbLine
 10
2206.4454585654
 20
1617.2404619641
 30
0.0
 11
2206.4454585654
 21
1617.2543978663
 31
0.0
  0
LINE
  5
90
330
1F
100
AcDbEntity
  8
0
  6
Continuous
 62
     7
370
    25
100
AcDbLine
 10
2204.4454585654
 20
1616.9543978663
 30
0.0
 11
2204.4454585654
 21
1617.0432491446
 31
0.0
  0
ARC
  5
91
330
1F
100
AcDbEntity
  8
0
  6
Continuous
 62
     7
370
    25
100
AcDbCircle
 10
2204.6440746856
 20
1617.0418457066
 30
0.0
 40
0.1986210785908042
100
AcDbArc
 50
89.6007920651
 51
179.5951500241
  0
LINE
  5
92
330
1F
100
AcDbEntity
  8
0
  6
Continuous
 62
     7
370
    25
100
AcDbLine
 10
2204.6454585654
 20
1617.2404619641
 30
0.0
 11
2204.6454585654
 21
1616.7543978663
 31
0.0
  0
SPLINE
  5
93
330
1F
100
AcDbEntity
  8
0
  6
Continuous
 62
     7
370
    25
100
AcDbSpline
210
0.0
220
0.0
230
1.0
 70
     8
 71
     3
 72
    13
 73
     9
 74
     0
 42
0.00000001
 43
0.00000001
 40
0.0
 40
0.0
 40
0.0
 40
0.0
 40
0.0075029974113241
 40
0.3818974549655675
 40
0.6070018873266094
 40
0.7653769096339128
 40
0.8824605049806455
 40
0.9999999999999999
 40
0.9999999999999999
 40
0.9999999999999999
 40
0.9999999999999999
 10
2204.445458565361
 20
1616.954397866314
 30
0.0
 10
2204.445459520966
 20
1616.953959868419
 30
0.0
 10
2204.445508160581
 20
1616.931666074048
 30
0.0
 10
2204.45163026532
 20
1616.884781685835
 30
0.0
 10
2204.493646370794
 20
1616.818497248798
 30
0.0
 10
2204.54245717276
 20
1616.780235689625
 30
0.0
 10
2204.593187820075
 20
1616.75847991389
 30
0.0
 10
2204.628012427526
 20
1616.755760310341
 30
0.0
 10
2204.645458565362
 20
1616.754397866314
 30
0.0
  0
LINE
  5
94
330
1F
100
AcDbEntity
  8
0
  6
Continuous
 62
     7
370
    25
100
AcDbLine
 10
2206.4454585654
 20
1617.2404619641
 30
0.0
 11
2204.6454585654
 21
1617.2404619641
 31
0.0
  0
LINE
  5
95
330
1F
100
AcDbEntity
  8
0
  6
Continuous
 62
     7
370
    25
100
AcDbLine
 10
2204.4454585654
 20
1617.0432491446
 30
0.0
 11
2204.4454585654
 21
1617.0543978663
 31
0.0
  0
LINE
  5
96
330
1F
100
AcDbEntity
  8
0
  6
Continuous
 62
     7
370
    25
100
AcDbLine
 10
2204.4454585654
 20
1616.7543978663
 30
0.0
 11
2204.4454585654
 21
1616.9543978663
 31
0.0
  0
LINE
  5
97
330
1F
100
AcDbEntity
  8
0
  6
Continuous
 62
     7
370
    25
100
AcDbLine
 10
2203.4454585654
 20
977.2543978663
 30
0.0
 11
2315.4454585654
 21
977.2543978663
 31
0.0
  0
LINE
  5
98
330
1F
100
AcDbEntity
  8
0
  6
Continuous
 62
     7
370
    25
100
AcDbLine
 10
2203.4454585654
 20
1598.2543978663
 30
0.0
 11
2203.4454585654
 21
977.2543978663
 31
0.0
  0
LINE
  5
99
330
1F
100
AcDbEntity
  8
0
  6
Continuous
 62
     7
370
    25
100
AcDbLine
 10
2634.4454585654
 20
977.7543978663
 30
0.0
 11
2332.9454585654
 21
977.7543978663
 31
0.0
  0
LINE
  5
9A
330
1F
100
AcDbEntity
  8
0
  6
Continuous
 62
     7
370
    25
100
AcDbLine
 10
2650.2454585654
 20
1617.2404619641
 30
0.0
 11
2650.2454585654
 21
1617.2543978663
 31
0.0
  0
LINE
  5
9B
330
1F
100
AcDbEntity
  8
0
  6
Continuous
 62
     7
370
    25
100
AcDbLine
 10
2204.6454585654
 20
1617.2543978663
 30
0.0
 11
2204.6454585654
 21
1617.2404619641
 31
0.0
  0
LINE
  5
9C
330
1F
100
AcDbEntity
  8
0
  6
Continuous
 62
     7
370
    25
100
AcDbLine
 10
755.7831445376
 20
1529.5267567878
 30
0.0
 11
757.7608646997
 21
1529.4749683628
 31
0.0
  0
LINE
  5
9D
330
1F
100
AcDbEntity
  8
0
  6
Continuous
 62
     7
370
    25
100
AcDbLine
 10
757.7608646997
 20
1534.9768537215
 30
0.0
 11
755.9271177533
 21
1535.0248720752
 31
0.0
  0
ARC
  5
9E
330
1F
100
AcDbEntity
  8
0
  6
Continuous
 62
     7
370
    25
100
AcDbCircle
 10
755.7909976221
 20
1529.8266539853
 30
0.0
 40
0.3000000000001063
100
AcDbArc
 50
178.5000000001
 51
268.5000000001
  0
ARC
  5
9F
330
1F
100
AcDbEntity
  8
0
  6
Continuous
 62
     7
370
    25
100
AcDbCircle
 10
755.9192646688
 20
1534.7249748777
 30
0.0
 40
0.2999999999999897
100
AcDbArc
 50
88.5000000001
 51
178.5000000001
  0
ARC
  5
A0
330
1F
100
AcDbEntity
  8
0
  6
Continuous
 62
     7
370
    25
100
AcDbCircle
 10
754.280819647
 20
1558.1258832752
 30
0.0
 40
1.200000000000198
100
AcDbArc
 50
88.5000000001
 51
173.5000000035
  0
ARC
  5
A1
330
1F
100
AcDbEntity
  8
0
  6
Continuous
 62
     7
370
    25
100
AcDbCircle
 10
753.8201053568
 20
1540.5319143556
 30
0.0
 40
1.199999999999974
100
AcDbArc
 50
183.4999999967
 51
268.5000000001
  0
LINE
  5
A2
330
1F
100
AcDbEntity
  8
0
  6
Continuous
 62
     7
370
    25
100
AcDbLine
 10
755.0624227623
 20
1559.3058276283
 30
0.0
 11
754.312231985
 21
1559.3254720652
 31
0.0
  0
LINE
  5
A3
330
1F
100
AcDbEntity
  8
0
  6
Continuous
 62
     7
370
    25
100
AcDbLine
 10
753.7886930188
 20
1539.3323255657
 30
0.0
 11
754.5388837961
 21
1539.3126811288
 31
0.0
  0
ARC
  5
A4
330
1F
100
AcDbEntity
  8
0
  6
Continuous
 62
     7
370
    25
100
AcDbCircle
 10
755.0571873726
 20
1559.1058961633
 30
0.0
 40
0.2000000000000718
100
AcDbArc
 50
358.5000000001
 51
88.5000000001
  0
ARC
  5
A5
330
1F
100
AcDbEntity
  8
0
  6
Continuous
 62
     7
370
    25
100
AcDbCircle
 10
754.5441191858
 20
1539.5126125938
 30
0.0
 40
0.2000000000000659
100
AcDbArc
 50
268.5000000001
 51
358.5000000001
  0
LINE
  5
A6
330
1F
100
AcDbEntity
  8
0
  6
Continuous
 62
     7
370
    25
100
AcDbLine
 10
753.0885334202
 20
1558.2617271317
 30
0.0
 11
752.9067456257
 21
1556.6661961367
 31
0.0
  0
LINE
  5
A7
330
1F
100
AcDbEntity
  8
0
  6
Continuous
 62
     7
370
    25
100
AcDbLine
 10
752.5243085784
 20
1542.0615145215
 30
0.0
 11
752.6223435987
 21
1540.4586561083
 31
0.0
  0
ARC
  5
A8
330
1F
100
AcDbEntity
  8
0
  6
Continuous
 62
     7
370
    25
100
AcDbCircle
 10
782.713901296
 20
1553.2700997237
 30
0.0
 40
30.000000000002
100
AcDbArc
 50
173.5000000001
 51
178.5000000001
  0
ARC
  5
A9
330
1F
100
AcDbEntity
  8
0
  6
Continuous
 62
     7
370
    25
100
AcDbCircle
 10
782.4683525311
 20
1543.8929707076
 30
0.0
 40
30.00000000000214
100
AcDbArc
 50
178.5000000001
 51
183.5000000001
  0
SPLINE
  5
AA
330
1F
100
AcDbEntity
  8
0
  6
Continuous
 62
     7
370
    25
100
AcDbSpline
210
0.0
220
0.0
230
1.0
 70
     8
 71
     3
 72
    13
 73
     9
 74
     0
 42
0.00000001
 43
0.00000001
 40
0.0
 40
0.0
 40
0.0
 40
0.0
 40
0.2397374167669482
 40
0.368539800728544
 40
0.5000035787007464
 40
0.631457162003275
 40
0.760237199905735
 40
1.0
 40
1.0
 40
1.0
 40
1.0
 10
755.6182095108177
 20
1553.78938224283
 30
0.0
 10
755.5551483398748
 20
1553.797732001858
 30
0.0
 10
755.458206645556
 20
1553.81056778932
 30
0.0
 10
755.3427620111739
 20
1553.876504447241
 30
0.0
 10
755.2641552458638
 20
1553.94361384277
 30
0.0
 10
755.2018152157501
 20
1554.025852176282
 30
0.0
 10
755.1429820569524
 20
1554.144464357311
 30
0.0
 10
755.1360317651787
 20
1554.241032751232
 30
0.0
 10
755.1315101160098
 20
1554.303857221389
 30
0.0
  0
SPLINE
  5
AB
330
1F
100
AcDbEntity
  8
0
  6
Continuous
 62
     7
370
    25
100
AcDbSpline
210
0.0
220
0.0
230
1.0
 70
     8
 71
     3
 72
    13
 73
     9
 74
     0
 42
0.00000001
 43
0.00000001
 40
0.0
 40
0.0
 40
0.0
 40
0.0
 40
0.239762800098228
 40
0.3685428380024688
 40
0.4999964213058286
 40
0.6314601992774947
 40
0.7602625832373314
 40
1.0
 40
1.0
 40
1.0
 40
1.0
 10
754.8696593723906
 20
1544.304180756398
 30
0.0
 10
754.8774628035175
 20
1544.36668248297
 30
0.0
 10
754.8894575693963
 20
1544.4627547831
 30
0.0
 10
754.9544177813104
 20
1544.578125320637
 30
0.0
 10
755.0209763984033
 20
1544.656988324285
 30
0.0
 10
755.1029876702613
 20
1544.719891788492
 30
0.0
 10
755.221724949828
 20
1544.779696177183
 30
0.0
 10
755.3192055621349
 20
1544.787440837369
 30
0.0
 10
755.3826173025577
 20
1544.792478786658
 30
0.0
  0
LINE
  5
AC
330
1F
100
AcDbEntity
  8
0
  6
Continuous
 62
     7
370
    25
100
AcDbLine
 10
757.7608646997
 20
1553.7332810807
 30
0.0
 11
755.6182096741
 21
1553.7893884771
 31
0.0
  0
LINE
  5
AD
330
1F
100
AcDbEntity
  8
0
  6
Continuous
 62
     7
370
    25
100
AcDbLine
 10
755.3826171393
 20
1544.7924725523
 30
0.0
 11
757.7608646997
 21
1544.7301959483
 31
0.0
  0
LINE
  5
AE
330
1F
100
AcDbEntity
  8
0
  6
Continuous
 62
     7
370
    25
100
AcDbLine
 10
1139.7608646997
 20
1603.7543978663
 30
0.0
 11
1139.7608646997
 21
1583.2543978663
 31
0.0
  0
LINE
  5
AF
330
1F
100
AcDbEntity
  8
0
  6
Continuous
 62
     7
370
    25
100
AcDbLine
 10
1152.2608646997
 20
1603.7543978663
 30
0.0
 11
1139.7608646997
 21
1603.7543978663
 31
0.0
  0
LINE
  5
B0
330
1F
100
AcDbEntity
  8
0
  6
Continuous
 62
     7
370
    25
100
AcDbLine
 10
1152.2608646997
 20
1616.7543978663
 30
0.0
 11
1152.2608646997
 21
1603.7543978663
 31
0.0
  0
LINE
  5
B1
330
1F
100
AcDbEntity
  8
0
  6
Continuous
 62
     7
370
    25
100
AcDbLine
 10
1156.2608646997
 20
1616.7543978663
 30
0.0
 11
1152.2608646997
 21
1616.7543978663
 31
0.0
  0
LINE
  5
B2
330
1F
100
AcDbEntity
  8
0
  6
Continuous
 62
     7
370
    25
100
AcDbLine
 10
1156.2608646997
 20
1616.7543978663
 30
0.0
 11
1156.2608646997
 21
986.7543978663
 31
0.0
  0
LINE
  5
B3
330
1F
100
AcDbEntity
  8
0
  6
Continuous
 62
     7
370
    25
100
AcDbLine
 10
1138.2608646997
 20
1583.2543978663
 30
0.0
 11
1138.2608646997
 21
986.7543978663
 31
0.0
  0
LINE
  5
B4
330
1F
100
AcDbEntity
  8
0
  6
Continuous
 62
     7
370
    25
100
AcDbLine
 10
1139.7608646997
 20
1583.2543978663
 30
0.0
 11
1138.2608646997
 21
1583.2543978663
 31
0.0
  0
LINE
  5
B5
330
1F
100
AcDbEntity
  8
0
  6
Continuous
 62
     7
370
    25
100
AcDbLine
 10
1156.2608646997
 20
986.7543978663
 30
0.0
 11
1138.2608646997
 21
986.7543978663
 31
0.0
  0
LINE
  5
B6
330
1F
100
AcDbEntity
  8
0
  6
Continuous
 62
     7
370
    25
100
AcDbLine
 10
1136.2608646997
 20
1598.2543978663
 30
0.0
 11
1136.2608646997
 21
976.7543978663
 31
0.0
  0
LINE
  5
B7
330
1F
100
AcDbEntity
  8
0
  6
Continuous
 62
     7
370
    25
100
AcDbLine
 10
1136.2608646997
 20
976.7543978663
 30
0.0
 11
757.7608646997
 21
976.7543978663
 31
0.0
  0
LINE
  5
B8
330
1F
100
AcDbEntity
  8
0
  6
Continuous
 62
     7
370
    25
100
AcDbLine
 10
757.7608646997
 20
1598.2543978663
 30
0.0
 11
757.7608646997
 21
976.7543978663
 31
0.0
  0
LINE
  5
B9
330
1F
100
AcDbEntity
  8
0
  6
Continuous
 62
     7
370
    25
100
AcDbLine
 10
1136.7608646997
 20
1626.7543978663
 30
0.0
 11
1136.7608646997
 21
1598.2543978663
 31
0.0
  0
LINE
  5
BA
330
1F
100
AcDbEntity
  8
0
  6
Continuous
 62
     7
370
    25
100
AcDbLine
 10
757.7608646997
 20
1598.2543978663
 30
0.0
 11
757.7608646997
 21
1626.7543978663
 31
0.0
  0
LINE
  5
BB
330
1F
100
AcDbEntity
  8
0
  6
Continuous
 62
     7
370
    25
100
AcDbLine
 10
1136.7608646997
 20
1598.2543978663
 30
0.0
 11
757.7608646997
 21
1598.2543978663
 31
0.0
  0
LINE
  5
BC
330
1F
100
AcDbEntity
  8
0
  6
Continuous
 62
     7
370
    25
100
AcDbLine
 10
757.7608646997
 20
1626.7543978663
 30
0.0
 11
1136.7608646997
 21
1626.7543978663
 31
0.0
  0
LINE
  5
BD
330
1F
100
AcDbEntity
  8
0
  6
Continuous
 62
     7
370
    25
100
AcDbLine
 10
1139.7608646997
 20
1583.7543978663
 30
0.0
 11
1139.5608646997
 21
1583.9543978663
 31
0.0
  0
LINE
  5
BE
330
1F
100
AcDbEntity
  8
0
  6
Continuous
 62
     7
370
    25
100
AcDbLine
 10
1139.5608646997
 20
1583.9543978663
 30
0.0
 11
1139.5608646997
 21
1603.9543978663
 31
0.0
  0
LINE
  5
BF
330
1F
100
AcDbEntity
  8
0
  6
Continuous
 62
     7
370
    25
100
AcDbLine
 10
1139.7608646997
 20
1603.7543978663
 30
0.0
 11
1139.5608646997
 21
1603.9543978663
 31
0.0
  0
LINE
  5
C0
330
1F
100
AcDbEntity
  8
0
  6
Continuous
 62
     7
370
    25
100
AcDbLine
 10
1139.7608646997
 20
1583.7543978663
 30
0.0
 11
1138.1608646997
 21
1583.7543978663
 31
0.0
  0
LINE
  5
C1
330
1F
100
AcDbEntity
  8
0
  6
Continuous
 62
     7
370
    25
100
AcDbLine
 10
1138.1608646997
 20
1583.7543978663
 30
0.0
 11
1138.1608646997
 21
1583.9543978663
 31
0.0
  0
LINE
  5
C2
330
1F
100
AcDbEntity
  8
0
  6
Continuous
 62
     7
370
    25
100
AcDbLine
 10
1138.1608646997
 20
1583.9543978663
 30
0.0
 11
1139.5608646997
 21
1583.9543978663
 31
0.0
  0
ARC
  5
C3
330
1F
100
AcDbEntity
  8
0
  6
Continuous
 62
     7
370
    25
100
AcDbCircle
 10
1149.3440509297
 20
1606.7543978663
 30
0.0
 40
1.199999999999941
100
AcDbArc
 50
270.0
 51
355.0300534053
  0
LINE
  5
C4
330
1F
100
AcDbEntity
  8
0
  6
Continuous
 62
     7
370
    25
100
AcDbLine
 10
1151.3807278807
 20
1616.323704423
 30
0.0
 11
1150.539539262
 21
1606.6504380312
 31
0.0
  0
ARC
  5
C5
330
1F
100
AcDbEntity
  8
0
  6
Continuous
 62
     7
370
    25
100
AcDbCircle
 10
1152.1777201022
 20
1616.2543978663
 30
0.0
 40
0.8000000000002069
100
AcDbArc
 50
80.4234115189
 51
175.0300534053
  0
ARC
  5
C6
330
1F
100
AcDbEntity
  8
0
  6
Continuous
 62
     7
370
    25
100
AcDbCircle
 10
1152.2609030256
 20
1616.7474299152
 30
0.0
 40
0.3000000000001072
100
AcDbArc
 50
43.6216529673
 51
80.4234115189
  0
LINE
  5
C7
330
1F
100
AcDbEntity
  8
0
  6
Continuous
 62
     7
370
    25
100
AcDbLine
 10
1152.0608646997
 20
1616.9543978663
 30
0.0
 11
1152.4780763832
 21
1616.9543978663
 31
0.0
  0
LINE
  5
C8
330
1F
100
AcDbEntity
  8
0
  6
Continuous
 62
     7
370
    25
100
AcDbLine
 10
1152.0608646997
 20
1603.9543978663
 30
0.0
 11
1152.0608646997
 21
1616.9543978663
 31
0.0
  0
LINE
  5
C9
330
1F
100
AcDbEntity
  8
0
  6
Continuous
 62
     7
370
    25
100
AcDbLine
 10
1139.5608646997
 20
1603.9543978663
 30
0.0
 11
1152.0608646997
 21
1603.9543978663
 31
0.0
  0
LINE
  5
CA
330
1F
100
AcDbEntity
  8
0
  6
Continuous
 62
     7
370
    25
100
AcDbLine
 10
1138.1608646997
 20
1604.7543978663
 30
0.0
 11
1138.1608646997
 21
1583.9543978663
 31
0.0
  0
ARC
  5
CB
330
1F
100
AcDbEntity
  8
0
  6
Continuous
 62
     7
370
    25
100
AcDbCircle
 10
1138.9608646997
 20
1604.7543978663
 30
0.0
 40
0.7999999999999545
100
AcDbArc
 50
90.0
 51
180.0
  0
LINE
  5
CC
330
1F
100
AcDbEntity
  8
0
  6
Continuous
 62
     7
370
    25
100
AcDbLine
 10
1149.3440509297
 20
1605.5543978663
 30
0.0
 11
1138.9608646997
 21
1605.5543978663
 31
0.0
  0
LINE
  5
CD
330
1F
100
AcDbEntity
  8
0
  6
Continuous
 62
     7
370
    25
100
AcDbLine
 10
1137.9608646997
 20
1583.9543978663
 30
0.0
 11
1137.9608646997
 21
1604.7543978663
 31
0.0
  0
LINE
  5
CE
330
1F
100
AcDbEntity
  8
0
  6
Continuous
 62
     7
370
    25
100
AcDbLine
 10
1137.9608646997
 20
1604.7543978663
 30
0.0
 11
1138.1608646997
 21
1604.7543978663
 31
0.0
  0
LINE
  5
CF
330
1F
100
AcDbEntity
  8
0
  6
Continuous
 62
     7
370
    25
100
AcDbLine
 10
1137.9608646997
 20
1583.9543978663
 30
0.0
 11
1138.1608646997
 21
1583.9543978663
 31
0.0
  0
ARC
  5
D0
330
1F
100
AcDbEntity
  8
0
  6
Continuous
 62
     7
370
    25
100
AcDbCircle
 10
1138.1608646997
 20
1583.9543978663
 30
0.0
 40
0.2000000000000455
100
AcDbArc
 50
180.0
 51
270.0
  0
ARC
  5
D1
330
1F
100
AcDbEntity
  8
0
  6
Continuous
 62
     7
370
    25
100
AcDbCircle
 10
1138.9608646997
 20
1604.7543978663
 30
0.0
 40
1.000000000000227
100
AcDbArc
 50
90.0
 51
180.0
  0
LINE
  5
D2
330
1F
100
AcDbEntity
  8
0
  6
Continuous
 62
     7
370
    25
100
AcDbLine
 10
1138.9608646997
 20
1605.5543978663
 30
0.0
 11
1138.9608646997
 21
1605.7543978663
 31
0.0
  0
LINE
  5
D3
330
1F
100
AcDbEntity
  8
0
  6
Continuous
 62
     7
370
    25
100
AcDbLine
 10
1138.9608646997
 20
1605.7543978663
 30
0.0
 11
1149.3440509297
 21
1605.7543978663
 31
0.0
  0
LINE
  5
D4
330
1F
100
AcDbEntity
  8
0
  6
Continuous
 62
     7
370
    25
100
AcDbLine
 10
1149.3440509297
 20
1605.5543978663
 30
0.0
 11
1149.3440509297
 21
1605.7543978663
 31
0.0
  0
LINE
  5
D5
330
1F
100
AcDbEntity
  8
0
  6
Continuous
 62
     7
370
    25
100
AcDbLine
 10
1152.2608646997
 20
1603.7543978663
 30
0.0
 11
1152.0608646997
 21
1603.9543978663
 31
0.0
  0
LINE
  5
D6
330
1F
100
AcDbEntity
  8
0
  6
Continuous
 62
     7
370
    25
100
AcDbLine
 10
1152.2608646997
 20
1616.7543978663
 30
0.0
 11
1152.0608646997
 21
1616.9543978663
 31
0.0
  0
ARC
  5
D7
330
1F
100
AcDbEntity
  8
0
  6
Continuous
 62
     7
370
    25
100
AcDbCircle
 10
1149.3440509297
 20
1606.7543978663
 30
0.0
 40
0.9999999999999509
100
AcDbArc
 50
270.0
 51
355.0300534053
  0
LINE
  5
D8
330
1F
100
AcDbEntity
  8
0
  6
Continuous
 62
     7
370
    25
100
AcDbLine
 10
1150.539539262
 20
1606.6504380312
 30
0.0
 11
1150.3402912066
 21
1606.6677646704
 31
0.0
  0
LINE
  5
D9
330
1F
100
AcDbEntity
  8
0
  6
Continuous
 62
     7
370
    25
100
AcDbLine
 10
1150.3402912066
 20
1606.6677646704
 30
0.0
 11
1151.1814798253
 21
1616.3410310622
 31
0.0
  0
LINE
  5
DA
330
1F
100
AcDbEntity
  8
0
  6
Continuous
 62
     7
370
    25
100
AcDbLine
 10
1151.3807278807
 20
1616.323704423
 30
0.0
 11
1151.1814798253
 21
1616.3410310622
 31
0.0
  0
ARC
  5
DB
330
1F
100
AcDbEntity
  8
0
  6
Continuous
 62
     7
370
    25
100
AcDbCircle
 10
1152.1777201022
 20
1616.2543978663
 30
0.0
 40
0.9999999999999706
100
AcDbArc
 50
80.4234115189
 51
175.0300534053
  0
LINE
  5
DC
330
1F
100
AcDbEntity
  8
0
  6
Continuous
 62
     7
370
    25
100
AcDbLine
 10
1152.3108127797
 20
1617.0432491446
 30
0.0
 11
1152.3440859491
 21
1617.2404619641
 31
0.0
  0
SPLINE
  5
DD
330
1F
100
AcDbEntity
  8
0
  6
Continuous
 62
     7
370
    25
100
AcDbSpline
210
0.0
220
0.0
230
1.0
 70
     8
 71
     3
 72
    13
 73
     9
 74
     0
 42
0.00000001
 43
0.00000001
 40
0.0
 40
0.0
 40
0.0
 40
0.0
 40
0.0075029974113241
 40
0.3818974549655675
 40
0.6070018873266094
 40
0.7653769096339128
 40
0.8824605049806455
 40
0.9999999999999999
 40
0.9999999999999999
 40
0.9999999999999999
 40
0.9999999999999999
 10
1152.478076383159
 20
1616.954397866314
 30
0.0
 10
1152.479094159775
 20
1616.953959868419
 30
0.0
 10
1152.530898295914
 20
1616.931666074048
 30
0.0
 10
1152.609483661282
 20
1616.884781685835
 30
0.0
 10
1152.692123125314
 20
1616.818497248798
 30
0.0
 10
1152.734219243413
 20
1616.780235689625
 30
0.0
 10
1152.756742670248
 20
1616.75847991389
 30
0.0
 10
1152.759482096362
 20
1616.755760310341
 30
0.0
 10
1152.76085447093
 20
1616.754397866314
 30
0.0
  0
ARC
  5
DE
330
1F
100
AcDbEntity
  8
0
  6
Continuous
 62
     7
370
    25
100
AcDbCircle
 10
1152.2609030256
 20
1616.7474299152
 30
0.0
 40
0.499999999999965
100
AcDbArc
 50
0.7984942261
 51
80.423411519
  0
LINE
  5
DF
330
1F
100
AcDbEntity
  8
0
  6
Continuous
 62
     7
370
    25
100
AcDbLine
 10
1115.5108646997
 20
988.7543978663
 30
0.0
 11
1115.5108646997
 21
1005.7543978663
 31
0.0
  0
LINE
  5
E0
330
1F
100
AcDbEntity
  8
0
  6
Continuous
 62
     7
370
    25
100
AcDbLine
 10
776.0108646997
 20
1005.7543978663
 30
0.0
 11
776.0108646997
 21
988.7543978663
 31
0.0
  0
LINE
  5
E1
330
1F
100
AcDbEntity
  8
0
  6
Continuous
 62
     7
370
    25
100
AcDbLine
 10
776.0108646997
 20
988.7543978663
 30
0.0
 11
1115.5108646997
 21
988.7543978663
 31
0.0
  0
LINE
  5
E2
330
1F
100
AcDbEntity
  8
0
  6
Continuous
 62
     7
370
    25
100
AcDbLine
 10
1115.5108646997
 20
1005.7543978663
 30
0.0
 11
776.0108646997
 21
1005.7543978663
 31
0.0
  0
LINE
  5
E3
330
1F
100
AcDbEntity
  8
0
  6
Continuous
 62
     7
370
    25
100
AcDbLine
 10
1115.5108646997
 20
1393.7543978663
 30
0.0
 11
776.0108646997
 21
1393.7543978663
 31
0.0
  0
LINE
  5
E4
330
1F
100
AcDbEntity
  8
0
  6
Continuous
 62
     7
370
    25
100
AcDbLine
 10
1115.5108646997
 20
1376.7543978663
 30
0.0
 11
1115.5108646997
 21
1393.7543978663
 31
0.0
  0
LINE
  5
E5
330
1F
100
AcDbEntity
  8
0
  6
Continuous
 62
     7
370
    25
100
AcDbLine
 10
776.0108646997
 20
1376.7543978663
 30
0.0
 11
1115.5108646997
 21
1376.7543978663
 31
0.0
  0
LINE
  5
E6
330
1F
100
AcDbEntity
  8
0
  6
Continuous
 62
     7
370
    25
100
AcDbLine
 10
776.0108646997
 20
1393.7543978663
 30
0.0
 11
776.0108646997
 21
1376.7543978663
 31
0.0
  0
SPLINE
  5
E7
330
1F
100
AcDbEntity
  8
0
  6
Continuous
 62
     7
370
    25
100
AcDbSpline
210
0.0
220
0.0
230
1.0
 70
     8
 71
     3
 72
    11
 73
     7
 74
     0
 42
0.00000001
 43
0.00000001
 40
0.0
 40
0.0
 40
0.0
 40
0.0
 40
0.2382247349846021
 40
0.4921376904586314
 40
0.7460575595465647
 40
0.9999999999999999
 40
0.9999999999999999
 40
0.9999999999999999
 40
0.9999999999999999
 10
755.49137421888
 20
1529.84496285126
 30
0.0
 10
755.4920466031264
 20
1529.870640170775
 30
0.0
 10
755.4934356512878
 20
1529.923685782199
 30
0.0
 10
755.5069732494507
 20
1530.44066578092
 30
0.0
 10
755.5270738372164
 20
1531.20827632688
 30
0.0
 10
755.5434574874948
 20
1531.833942518907
 30
0.0
 10
755.5516496767106
 20
1532.146789518433
 30
0.0
  0
LINE
  5
E8
330
1F
100
AcDbEntity
  8
0
  6
Continuous
 62
     7
370
    25
100
AcDbLine
 10
755.5516496767
 20
1532.1467895184
 30
0.0
 11
755.555233948
 21
1532.283667516
 31
0.0
  0
SPLINE
  5
E9
330
1F
100
AcDbEntity
  8
0
  6
Continuous
 62
     7
370
    25
100
AcDbSpline
210
0.0
220
0.0
230
1.0
 70
    24
 71
     3
 72
    12
 73
     8
 74
     0
 42
0.00000001
 43
0.00000001
 40
0.0
 40
0.0
 40
0.0
 40
0.0
 40
0.2460973337377529
 40
0.4921955654187475
 40
0.7383025770437512
 40
0.984416004048393
 40
1.0
 40
1.0
 40
1.0
 40
1.0
 10
755.5552339479592
 20
1532.283667516009
 30
0.0
 10
755.56346342496
 20
1532.597938563504
 30
0.0
 10
755.5799224089889
 20
1533.226481805187
 30
0.0
 10
755.6012384120985
 20
1534.040507122346
 30
0.0
 10
755.6147786748439
 20
1534.557588895094
 30
0.0
 10
755.6206981519271
 20
1534.783644604748
 30
0.0
 10
755.6191779215884
 20
1534.725589350336
 30
0.0
 10
755.6190873923688
 20
1534.722132178922
 30
0.0
  0
SPLINE
  5
EA
330
1F
100
AcDbEntity
  8
0
  6
Continuous
 62
     7
370
    25
100
AcDbSpline
210
0.0
220
0.0
230
1.0
 70
    24
 71
     3
 72
    13
 73
     9
 74
     0
 42
0.00000001
 43
0.00000001
 40
0.0
 40
0.0
 40
0.0
 40
0.0
 40
0.153858158365166
 40
0.30796768624527
 40
0.453507780238519
 40
0.587834007834603
 40
0.8177872163814238
 40
1.0
 40
1.0
 40
1.0
 40
1.0
 10
755.256885149161
 20
1559.091736571934
 30
0.0
 10
755.2555656725175
 20
1559.041347791842
 30
0.0
 10
755.2529245635037
 20
1558.94048790776
 30
0.0
 10
755.2306977780913
 20
1558.091681217706
 30
0.0
 10
755.198529767795
 20
1556.86323446579
 30
0.0
 10
755.1492668362071
 20
1554.981959007917
 30
0.0
 10
755.0834475074677
 20
1552.468420251287
 30
0.0
 10
755.0287224443202
 20
1550.378554404698
 30
0.0
 10
755.0045292641954
 20
1549.454654130209
 30
0.0
  0
SPLINE
  5
EB
330
1F
100
AcDbEntity
  8
0
  6
Continuous
 62
     7
370
    25
100
AcDbSpline
210
0.0
220
0.0
230
1.0
 70
    24
 71
     3
 72
    13
 73
     9
 74
     0
 42
0.00000001
 43
0.00000001
 40
0.0
 40
0.0
 40
0.0
 40
0.0
 40
0.1813201537907394
 40
0.4101468448380243
 40
0.5438150184964855
 40
0.6886421238875603
 40
0.841996687412684
 40
0.9999999999999999
 40
0.9999999999999999
 40
0.9999999999999999
 40
0.9999999999999999
 10
755.0005847441996
 20
1549.304018988896
 30
0.0
 10
754.9763578705571
 20
1548.378832010855
 30
0.0
 10
754.9215565945981
 20
1546.286055714368
 30
0.0
 10
754.8551963635755
 20
1543.751860732932
 30
0.0
 10
754.8052253470224
 20
1541.84354460119
 30
0.0
 10
754.772303258307
 20
1540.586300756259
 30
0.0
 10
754.7490210995805
 20
1539.697190985352
 30
0.0
 10
754.7457289061716
 20
1539.571467191354
 30
0.0
 10
754.744058232313
 20
1539.507666730705
 30
0.0
  0
LINE
  5
EC
330
1F
100
AcDbEntity
  8
0
  6
Continuous
 62
     7
370
    25
100
AcDbLine
 10
752.4786327818
 20
1544.6782791568
 30
0.0
 11
752.7241815467
 21
1554.0554081729
 31
0.0
  0
SPLINE
  5
ED
330
1F
100
AcDbEntity
  8
0
  6
Continuous
 62
     7
370
    25
100
AcDbSpline
210
0.0
220
0.0
230
1.0
 70
     8
 71
     3
 72
    11
 73
     7
 74
     0
 42
0.00000001
 43
0.00000001
 40
0.0
 40
0.0
 40
0.0
 40
0.0
 40
0.2702619356885839
 40
0.5624305486188059
 40
0.789737407372785
 40
0.9999999999999999
 40
0.9999999999999999
 40
0.9999999999999999
 40
0.9999999999999999
 10
755.4965437889327
 20
1549.143155774593
 30
0.0
 10
755.425706594645
 20
1549.144721041438
 30
0.0
 10
755.27829034106
 20
1549.147978451283
 30
0.0
 10
755.1105191259036
 20
1549.147927095694
 30
0.0
 10
755.0127956958044
 20
1549.144958610175
 30
0.0
 10
755.0016438762427
 20
1549.141490841416
 30
0.0
 10
754.9962851600751
 20
1549.139824495542
 30
0.0
  0
LINE
  5
EE
330
1F
100
AcDbEntity
  8
0
  6
Continuous
 62
     7
370
    25
100
AcDbLine
 10
775.7608646997
 20
977.2543978663
 30
0.0
 11
758.2608646997
 21
977.2543978663
 31
0.0
  0
LINE
  5
EF
330
1F
100
AcDbEntity
  8
0
  6
Continuous
 62
     7
370
    25
100
AcDbLine
 10
758.2608646997
 20
977.2543978663
 30
0.0
 11
758.2608646997
 21
1598.2543978663
 31
0.0
  0
LINE
  5
F0
330
1F
100
AcDbEntity
  8
0
  6
Continuous
 62
     7
370
    25
100
AcDbLine
 10
775.7608646997
 20
1598.2543978663
 30
0.0
 11
775.7608646997
 21
977.2543978663
 31
0.0
  0
LINE
  5
F1
330
1F
100
AcDbEntity
  8
0
  6
Continuous
 62
     7
370
    25
100
AcDbLine
 10
1133.2608646997
 20
977.2543978663
 30
0.0
 11
1115.7608646997
 21
977.2543978663
 31
0.0
  0
LINE
  5
F2
330
1F
100
AcDbEntity
  8
0
  6
Continuous
 62
     7
370
    25
100
AcDbLine
 10
1115.7608646997
 20
977.2543978663
 30
0.0
 11
1115.7608646997
 21
1598.2543978663
 31
0.0
  0
LINE
  5
F3
330
1F
100
AcDbEntity
  8
0
  6
Continuous
 62
     7
370
    25
100
AcDbLine
 10
1133.2608646997
 20
1598.2543978663
 30
0.0
 11
1133.2608646997
 21
977.2543978663
 31
0.0
  0
LINE
  5
F4
330
1F
100
AcDbEntity
  8
0
  6
Continuous
 62
     7
370
    25
100
AcDbLine
 10
1137.0608646997
 20
1584.0543978663
 30
0.0
 11
1137.0608646997
 21
1585.2543978663
 31
0.0
  0
LINE
  5
F5
330
1F
100
AcDbEntity
  8
0
  6
Continuous
 62
     7
370
    25
100
AcDbLine
 10
1136.2608646997
 20
1584.0543978663
 30
0.0
 11
1137.0608646997
 21
1584.0543978663
 31
0.0
  0
LINE
  5
F6
330
1F
100
AcDbEntity
  8
0
  6
Continuous
 62
     7
370
    25
100
AcDbLine
 10
1136.2608646997
 20
1585.2543978663
 30
0.0
 11
1137.0608646997
 21
1585.2543978663
 31
0.0
  0
LINE
  5
F7
330
1F
100
AcDbEntity
  8
0
  6
Continuous
 62
     7
370
    25
100
AcDbLine
 10
1137.0608646997
 20
1584.0543978663
 30
0.0
 11
1137.9608646997
 21
1584.0543978663
 31
0.0
  0
LINE
  5
F8
330
1F
100
AcDbEntity
  8
0
  6
Continuous
 62
     7
370
    25
100
AcDbLine
 10
1137.0608646997
 20
1585.2543978663
 30
0.0
 11
1137.9608646997
 21
1585.2543978663
 31
0.0
  0
LINE
  5
F9
330
1F
100
AcDbEntity
  8
0
  6
Continuous
 62
     7
370
    25
100
AcDbLine
 10
1138.2608646997
 20
1563.2543978663
 30
0.0
 11
1137.0608646997
 21
1563.2543978663
 31
0.0
  0
LINE
  5
FA
330
1F
100
AcDbEntity
  8
0
  6
Continuous
 62
     7
370
    25
100
AcDbLine
 10
1137.0608646997
 20
1566.2543978663
 30
0.0
 11
1138.2608646997
 21
1566.2543978663
 31
0.0
  0
LINE
  5
FB
330
1F
100
AcDbEntity
  8
0
  6
Continuous
 62
     7
370
    25
100
AcDbLine
 10
1137.0608646997
 20
1563.2543978663
 30
0.0
 11
1137.0608646997
 21
1566.2543978663
 31
0.0
  0
LINE
  5
FC
330
1F
100
AcDbEntity
  8
0
  6
Continuous
 62
     7
370
    25
100
AcDbLine
 10
1137.0608646997
 20
1566.2543978663
 30
0.0
 11
1137.0608646997
 21
1584.0543978663
 31
0.0
  0
LINE
  5
FD
330
1F
100
AcDbEntity
  8
0
  6
Continuous
 62
     7
370
    25
100
AcDbLine
 10
1138.2608646997
 20
1583.2543978663
 30
0.0
 11
1138.2608646997
 21
1583.7543978663
 31
0.0
  0
SPLINE
  5
FE
330
1F
100
AcDbEntity
  8
0
  6
Continuous
 62
     7
370
    25
100
AcDbSpline
210
0.0
220
0.0
230
1.0
 70
    24
 71
     3
 72
    11
 73
     7
 74
     0
 42
0.00000001
 43
0.00000001
 40
0.0
 40
0.0
 40
0.0
 40
0.0
 40
0.2307910683623323
 40
0.5695709634412873
 40
0.9079062644161583
 40
1.0
 40
1.0
 40
1.0
 40
1.0
 10
1136.260864699701
 20
1565.254397866317
 30
0.0
 10
1136.300516430173
 20
1565.254397866317
 30
0.0
 10
1136.398373225445
 20
1565.254397866317
 30
0.0
 10
1136.640735642003
 20
1565.254397866317
 30
0.0
 10
1136.872379655311
 20
1565.254397866316
 30
0.0
 10
1137.02764453636
 20
1565.254397866317
 30
0.0
 10
1137.060864699699
 20
1565.254397866317
 30
0.0
  0
LINE
  5
FF
330
1F
100
AcDbEntity
  8
0
  6
Continuous
 62
     7
370
    25
100
AcDbLine
 10
1138.0608646997
 20
1508.2543978663
 30
0.0
 11
1138.0608646997
 21
1509.2543978663
 31
0.0
  0
SPLINE
  5
100
330
1F
100
AcDbEntity
  8
0
  6
Continuous
 62
     7
370
    25
100
AcDbSpline
210
0.0
220
0.0
230
1.0
 70
    24
 71
     3
 72
    12
 73
     8
 74
     0
 42
0.00000001
 43
0.00000001
 40
0.0
 40
0.0
 40
0.0
 40
0.0
 40
0.3329369653760484
 40
0.5139656098163045
 40
0.6952322446470766
 40
0.8762609961851989
 40
1.0
 40
1.0
 40
1.0
 40
1.0
 10
1138.060864699708
 20
1508.254397866318
 30
0.0
 10
1137.809467286564
 20
1508.254397866318
 30
0.0
 10
1137.421376932565
 20
1508.254397866318
 30
0.0
 10
1136.95444766289
 20
1508.254397866318
 30
0.0
 10
1136.638928773869
 20
1508.254397866318
 30
0.0
 10
1136.398804555356
 20
1508.254397866318
 30
0.0
 10
1136.300697304345
 20
1508.254397866318
 30
0.0
 10
1136.260864699701
 20
1508.254397866318
 30
0.0
  0
LINE
  5
101
330
1F
100
AcDbEntity
  8
0
  6
Continuous
 62
     7
370
    25
100
AcDbLine
 10
1138.2608646997
 20
1509.2543978663
 30
0.0
 11
1138.0608646997
 21
1509.2543978663
 31
0.0
  0
LINE
  5
102
330
1F
100
AcDbEntity
  8
0
  6
Continuous
 62
     7
370
    25
100
AcDbLine
 10
1138.0608646997
 20
1508.2543978663
 30
0.0
 11
1138.2608646997
 21
1508.2543978663
 31
0.0
  0
SPLINE
  5
103
330
1F
100
AcDbEntity
  8
0
  6
Continuous
 62
     7
370
    25
100
AcDbSpline
210
0.0
220
0.0
230
1.0
 70
    24
 71
     3
 72
    12
 73
     8
 74
     0
 42
0.00000001
 43
0.00000001
 40
0.0
 40
0.0
 40
0.0
 40
0.0
 40
0.1234882189635595
 40
0.3047574776087079
 40
0.4857888495173173
 40
0.6670582153991252
 40
1.0
 40
1.0
 40
1.0
 40
1.0
 10
1136.260864699701
 20
1095.254397866317
 30
0.0
 10
1136.300611268739
 20
1095.254397866317
 30
0.0
 10
1136.398702116798
 20
1095.254397866317
 30
0.0
 10
1136.63867540516
 20
1095.254397866317
 30
0.0
 10
1136.954289593654
 20
1095.254397866317
 30
0.0
 10
1137.421199682756
 20
1095.254397866317
 30
0.0
 10
1137.809468282994
 20
1095.254397866317
 30
0.0
 10
1138.060864699712
 20
1095.254397866316
 30
0.0
  0
LINE
  5
104
330
1F
100
AcDbEntity
  8
0
  6
Continuous
 62
     7
370
    25
100
AcDbLine
 10
1138.0608646997
 20
1094.2543978663
 30
0.0
 11
1138.0608646997
 21
1095.2543978663
 31
0.0
  0
LINE
  5
105
330
1F
100
AcDbEntity
  8
0
  6
Continuous
 62
     7
370
    25
100
AcDbLine
 10
1138.0608646997
 20
1038.2543978663
 30
0.0
 11
1138.0608646997
 21
1039.2543978663
 31
0.0
  0
SPLINE
  5
106
330
1F
100
AcDbEntity
  8
0
  6
Continuous
 62
     7
370
    25
100
AcDbSpline
210
0.0
220
0.0
230
1.0
 70
    24
 71
     3
 72
    12
 73
     8
 74
     0
 42
0.00000001
 43
0.00000001
 40
0.0
 40
0.0
 40
0.0
 40
0.0
 40
0.3329369653760484
 40
0.5139656098163045
 40
0.6952322446470766
 40
0.8762609961851989
 40
1.0
 40
1.0
 40
1.0
 40
1.0
 10
1138.060864699708
 20
1038.254397866318
 30
0.0
 10
1137.809467286564
 20
1038.254397866318
 30
0.0
 10
1137.421376932565
 20
1038.254397866318
 30
0.0
 10
1136.95444766289
 20
1038.254397866318
 30
0.0
 10
1136.638928773869
 20
1038.254397866318
 30
0.0
 10
1136.398804555356
 20
1038.254397866318
 30
0.0
 10
1136.300697304345
 20
1038.254397866318
 30
0.0
 10
1136.260864699701
 20
1038.254397866318
 30
0.0
  0
LINE
  5
107
330
1F
100
AcDbEntity
  8
0
  6
Continuous
 62
     7
370
    25
100
AcDbLine
 10
1138.0608646997
 20
1094.2543978663
 30
0.0
 11
1138.0608646997
 21
1039.2543978663
 31
0.0
  0
LINE
  5
108
330
1F
100
AcDbEntity
  8
0
  6
Continuous
 62
     7
370
    25
100
AcDbLine
 10
1138.2608646997
 20
1095.2543978663
 30
0.0
 11
1138.0608646997
 21
1095.2543978663
 31
0.0
  0
LINE
  5
109
330
1F
100
AcDbEntity
  8
0
  6
Continuous
 62
     7
370
    25
100
AcDbLine
 10
1138.2608646997
 20
1094.2543978663
 30
0.0
 11
1138.0608646997
 21
1094.2543978663
 31
0.0
  0
LINE
  5
10A
330
1F
100
AcDbEntity
  8
0
  6
Continuous
 62
     7
370
    25
100
AcDbLine
 10
1138.2608646997
 20
1039.2543978663
 30
0.0
 11
1138.0608646997
 21
1039.2543978663
 31
0.0
  0
LINE
  5
10B
330
1F
100
AcDbEntity
  8
0
  6
Continuous
 62
     7
370
    25
100
AcDbLine
 10
1138.0608646997
 20
1038.2543978663
 30
0.0
 11
1138.2608646997
 21
1038.2543978663
 31
0.0
  0
LINE
  5
10C
330
1F
100
AcDbEntity
  8
0
  6
Continuous
 62
     7
370
    25
100
AcDbLine
 10
755.9271177533
 20
1535.0248720752
 30
0.0
 11
755.7831445376
 21
1529.5267567878
 31
0.0
  0
LINE
  5
10D
330
1F
100
AcDbEntity
  8
0
  6
Continuous
 62
     7
370
    25
100
AcDbLine
 10
754.312231985
 20
1559.3254720652
 30
0.0
 11
753.7886930188
 21
1539.3323255657
 31
0.0
  0
LINE
  5
10E
330
1F
100
AcDbEntity
  8
0
  6
Continuous
 62
     7
370
    25
100
AcDbLine
 10
752.6223435987
 20
1540.4586561083
 30
0.0
 11
753.0885334202
 21
1558.2617271317
 31
0.0
  0
LINE
  5
10F
330
1F
100
AcDbEntity
  8
0
  6
Continuous
 62
     7
370
    25
100
AcDbLine
 10
754.8081328374
 20
1549.5948871838
 30
0.0
 11
755.0624227623
 21
1559.3058276283
 31
0.0
  0
LINE
  5
110
330
1F
100
AcDbEntity
  8
0
  6
Continuous
 62
     7
370
    25
100
AcDbLine
 10
752.9067456257
 20
1556.6661961367
 30
0.0
 11
752.5243085784
 21
1542.0615145215
 31
0.0
  0
LINE
  5
111
330
1F
100
AcDbEntity
  8
0
  6
Continuous
 62
     7
370
    25
100
AcDbLine
 10
755.6182085764
 20
1553.7893465579
 30
0.0
 11
755.4965437888
 21
1549.1431557708
 31
0.0
  0
LINE
  5
112
330
1F
100
AcDbEntity
  8
0
  6
Continuous
 62
     7
370
    25
100
AcDbLine
 10
755.4965437888
 20
1549.1431557708
 30
0.0
 11
755.382618237
 21
1544.7925144716
 31
0.0
  0
LINE
  5
113
330
1F
100
AcDbEntity
  8
0
  6
Continuous
 62
     7
370
    25
100
AcDbLine
 10
1137.0608646997
 20
1564.2543978663
 30
0.0
 11
1136.2608646997
 21
1564.2543978663
 31
0.0
  0
LINE
  5
114
330
1F
100
AcDbEntity
  8
0
  6
Continuous
 62
     7
370
    25
100
AcDbLine
 10
1136.2608646997
 20
1509.2543978663
 30
0.0
 11
1138.0608646997
 21
1509.2543978663
 31
0.0
  0
LINE
  5
115
330
1F
100
AcDbEntity
  8
0
  6
Continuous
 62
     7
370
    25
100
AcDbLine
 10
1138.0608646997
 20
1563.2543978663
 30
0.0
 11
1138.0608646997
 21
1509.2543978663
 31
0.0
  0
LINE
  5
116
330
1F
100
AcDbEntity
  8
0
  6
Continuous
 62
     7
370
    25
100
AcDbLine
 10
1138.0608646997
 20
1094.2543978663
 30
0.0
 11
1136.2608646997
 21
1094.2543978663
 31
0.0
  0
LINE
  5
117
330
1F
100
AcDbEntity
  8
0
  6
Continuous
 62
     7
370
    25
100
AcDbLine
 10
1136.2608646997
 20
1039.2543978663
 30
0.0
 11
1138.0608646997
 21
1039.2543978663
 31
0.0
  0
LINE
  5
118
330
1F
100
AcDbEntity
  8
0
  6
Continuous
 62
     7
370
    25
100
AcDbLine
 10
4220.4562626188
 20
1535.0248720752
 30
0.0
 11
4218.6225156724
 21
1534.9768537215
 31
0.0
  0
LINE
  5
119
330
1F
100
AcDbEntity
  8
0
  6
Continuous
 62
     7
370
    25
100
AcDbLine
 10
4218.6225156724
 20
1529.4749683628
 30
0.0
 11
4220.6002358345
 21
1529.5267567878
 31
0.0
  0
ARC
  5
11A
330
1F
100
AcDbEntity
  8
0
  6
Continuous
 62
     7
370
    25
100
AcDbCircle
 10
4220.4641157033
 20
1534.7249748777
 30
0.0
 40
0.3000000000003306
100
AcDbArc
 50
1.4999999999
 51
91.5
  0
ARC
  5
11B
330
1F
100
AcDbEntity
  8
0
  6
Continuous
 62
     7
370
    25
100
AcDbCircle
 10
4220.59238275
 20
1529.8266539853
 30
0.0
 40
0.3000000000003306
100
AcDbArc
 50
271.5
 51
1.4999999999
  0
ARC
  5
11C
330
1F
100
AcDbEntity
  8
0
  6
Continuous
 62
     7
370
    25
100
AcDbCircle
 10
4221.8392611863
 20
1539.5126125938
 30
0.0
 40
0.2000000000000808
100
AcDbArc
 50
181.5
 51
271.5
  0
ARC
  5
11D
330
1F
100
AcDbEntity
  8
0
  6
Continuous
 62
     7
370
    25
100
AcDbCircle
 10
4221.3261929994
 20
1559.1058961633
 30
0.0
 40
0.2000000000000808
100
AcDbArc
 50
91.5
 51
181.5
  0
LINE
  5
11E
330
1F
100
AcDbEntity
  8
0
  6
Continuous
 62
     7
370
    25
100
AcDbLine
 10
4221.8444965759
 20
1539.3126811288
 30
0.0
 11
4222.5946873532
 21
1539.3323255657
 31
0.0
  0
LINE
  5
11F
330
1F
100
AcDbEntity
  8
0
  6
Continuous
 62
     7
370
    25
100
AcDbLine
 10
4222.0711483871
 20
1559.3254720652
 30
0.0
 11
4221.3209576098
 21
1559.3058276283
 31
0.0
  0
ARC
  5
120
330
1F
100
AcDbEntity
  8
0
  6
Continuous
 62
     7
370
    25
100
AcDbCircle
 10
4222.5632750153
 20
1540.5319143556
 30
0.0
 40
1.200000000000983
100
AcDbArc
 50
271.5
 51
356.5000000033
  0
ARC
  5
121
330
1F
100
AcDbEntity
  8
0
  6
Continuous
 62
     7
370
    25
100
AcDbCircle
 10
4222.1025607251
 20
1558.1258832752
 30
0.0
 40
1.200000000000143
100
AcDbArc
 50
6.4999999966
 51
91.5
  0
LINE
  5
122
330
1F
100
AcDbEntity
  8
0
  6
Continuous
 62
     7
370
    25
100
AcDbLine
 10
4223.7610367734
 20
1540.4586561083
 30
0.0
 11
4223.8590717937
 21
1542.0615145215
 31
0.0
  0
LINE
  5
123
330
1F
100
AcDbEntity
  8
0
  6
Continuous
 62
     7
370
    25
100
AcDbLine
 10
4223.4766347464
 20
1556.6661961367
 30
0.0
 11
4223.2948469519
 21
1558.2617271317
 31
0.0
  0
ARC
  5
124
330
1F
100
AcDbEntity
  8
0
  6
Continuous
 62
     7
370
    25
100
AcDbCircle
 10
4193.915027841
 20
1543.8929707076
 30
0.0
 40
30.00000000000258
100
AcDbArc
 50
356.5
 51
1.4999999999
  0
ARC
  5
125
330
1F
100
AcDbEntity
  8
0
  6
Continuous
 62
     7
370
    25
100
AcDbCircle
 10
4193.6694790761
 20
1553.2700997237
 30
0.0
 40
30.00000000000346
100
AcDbArc
 50
1.4999999999
 51
6.4999999999
  0
LINE
  5
126
330
1F
100
AcDbEntity
  8
0
  6
Continuous
 62
     7
370
    25
100
AcDbLine
 10
4223.7844466987
 20
1549.2723848583
 30
0.0
 11
4223.7819732078
 21
1549.3668436648
 31
0.0
  0
SPLINE
  5
127
330
1F
100
AcDbEntity
  8
0
  6
Continuous
 62
     7
370
    25
100
AcDbSpline
210
0.0
220
0.0
230
1.0
 70
     8
 71
     3
 72
    13
 73
     9
 74
     0
 42
0.00000001
 43
0.00000001
 40
0.0
 40
0.0
 40
0.0
 40
0.0
 40
0.2397374167626784
 40
0.3685398007225177
 40
0.5000035786941088
 40
0.6314571619974821
 40
0.7602371999017351
 40
1.0
 40
1.0
 40
1.0
 40
1.0
 10
4221.000763069504
 20
1544.792478786655
 30
0.0
 10
4221.064174809927
 20
1544.787440837367
 30
0.0
 10
4221.161655422234
 20
1544.77969617718
 30
0.0
 10
4221.280392701801
 20
1544.71989178849
 30
0.0
 10
4221.362403973658
 20
1544.656988324283
 30
0.0
 10
4221.428962590751
 20
1544.578125320635
 30
0.0
 10
4221.493922802665
 20
1544.462754783098
 30
0.0
 10
4221.505917568545
 20
1544.366682482968
 30
0.0
 10
4221.51372099967
 20
1544.304180756396
 30
0.0
  0
SPLINE
  5
128
330
1F
100
AcDbEntity
  8
0
  6
Continuous
 62
     7
370
    25
100
AcDbSpline
210
0.0
220
0.0
230
1.0
 70
     8
 71
     3
 72
    13
 73
     9
 74
     0
 42
0.00000001
 43
0.00000001
 40
0.0
 40
0.0
 40
0.0
 40
0.0
 40
0.239762800094134
 40
0.3685428379966034
 40
0.4999964212992476
 40
0.6314601992713679
 40
0.7602625832330381
 40
1.0
 40
1.0
 40
1.0
 40
1.0
 10
4221.251870256052
 20
1554.303857221386
 30
0.0
 10
4221.247348606883
 20
1554.24103275123
 30
0.0
 10
4221.240398315109
 20
1554.144464357308
 30
0.0
 10
4221.181565156311
 20
1554.02585217628
 30
0.0
 10
4221.119225126198
 20
1553.943613842768
 30
0.0
 10
4221.040618360888
 20
1553.876504447239
 30
0.0
 10
4220.925173726506
 20
1553.810567789318
 30
0.0
 10
4220.828232032186
 20
1553.797732001855
 30
0.0
 10
4220.765170861244
 20
1553.789382242827
 30
0.0
  0
LINE
  5
129
330
1F
100
AcDbEntity
  8
0
  6
Continuous
 62
     7
370
    25
100
AcDbLine
 10
4218.6225156724
 20
1544.7301959483
 30
0.0
 11
4221.0007632328
 21
1544.7924725523
 31
0.0
  0
LINE
  5
12A
330
1F
100
AcDbEntity
  8
0
  6
Continuous
 62
     7
370
    25
100
AcDbLine
 10
4220.765170698
 20
1553.7893884771
 30
0.0
 11
4218.6225156724
 21
1553.7332810807
 31
0.0
  0
LINE
  5
12B
330
1F
100
AcDbEntity
  8
0
  6
Continuous
 62
     7
370
    25
100
AcDbLine
 10
3838.1225156724
 20
986.7543978663
 30
0.0
 11
3838.1225156724
 21
1583.2543978663
 31
0.0
  0
LINE
  5
12C
330
1F
100
AcDbEntity
  8
0
  6
Continuous
 62
     7
370
    25
100
AcDbLine
 10
3820.1225156724
 20
986.7543978663
 30
0.0
 11
3838.1225156724
 21
986.7543978663
 31
0.0
  0
LINE
  5
12D
330
1F
100
AcDbEntity
  8
0
  6
Continuous
 62
     7
370
    25
100
AcDbLine
 10
3820.1225156724
 20
986.7543978663
 30
0.0
 11
3820.1225156724
 21
1616.7543978663
 31
0.0
  0
LINE
  5
12E
330
1F
100
AcDbEntity
  8
0
  6
Continuous
 62
     7
370
    25
100
AcDbLine
 10
3820.1225156724
 20
1616.7543978663
 30
0.0
 11
3824.1225156724
 21
1616.7543978663
 31
0.0
  0
LINE
  5
12F
330
1F
100
AcDbEntity
  8
0
  6
Continuous
 62
     7
370
    25
100
AcDbLine
 10
3824.1225156724
 20
1603.7543978663
 30
0.0
 11
3824.1225156724
 21
1616.7543978663
 31
0.0
  0
LINE
  5
130
330
1F
100
AcDbEntity
  8
0
  6
Continuous
 62
     7
370
    25
100
AcDbLine
 10
3836.6225156724
 20
1603.7543978663
 30
0.0
 11
3824.1225156724
 21
1603.7543978663
 31
0.0
  0
LINE
  5
131
330
1F
100
AcDbEntity
  8
0
  6
Continuous
 62
     7
370
    25
100
AcDbLine
 10
3836.6225156724
 20
1583.2543978663
 30
0.0
 11
3836.6225156724
 21
1603.7543978663
 31
0.0
  0
LINE
  5
132
330
1F
100
AcDbEntity
  8
0
  6
Continuous
 62
     7
370
    25
100
AcDbLine
 10
3838.1225156724
 20
1583.2543978663
 30
0.0
 11
3836.6225156724
 21
1583.2543978663
 31
0.0
  0
LINE
  5
133
330
1F
100
AcDbEntity
  8
0
  6
Continuous
 62
     7
370
    25
100
AcDbLine
 10
3840.1225156724
 20
976.7543978663
 30
0.0
 11
4218.6225156724
 21
976.7543978663
 31
0.0
  0
LINE
  5
134
330
1F
100
AcDbEntity
  8
0
  6
Continuous
 62
     7
370
    25
100
AcDbLine
 10
3840.1225156724
 20
976.7543978663
 30
0.0
 11
3840.1225156724
 21
1598.2543978663
 31
0.0
  0
LINE
  5
135
330
1F
100
AcDbEntity
  8
0
  6
Continuous
 62
     7
370
    25
100
AcDbLine
 10
4218.6225156724
 20
976.7543978663
 30
0.0
 11
4218.6225156724
 21
1598.2543978663
 31
0.0
  0
LINE
  5
136
330
1F
100
AcDbEntity
  8
0
  6
Continuous
 62
     7
370
    25
100
AcDbLine
 10
3839.6225156724
 20
1598.2543978663
 30
0.0
 11
4218.6225156724
 21
1598.2543978663
 31
0.0
  0
LINE
  5
137
330
1F
100
AcDbEntity
  8
0
  6
Continuous
 62
     7
370
    25
100
AcDbLine
 10
3839.6225156724
 20
1626.7543978663
 30
0.0
 11
3839.6225156724
 21
1598.2543978663
 31
0.0
  0
LINE
  5
138
330
1F
100
AcDbEntity
  8
0
  6
Continuous
 62
     7
370
    25
100
AcDbLine
 10
4218.6225156724
 20
1626.7543978663
 30
0.0
 11
3839.6225156724
 21
1626.7543978663
 31
0.0
  0
LINE
  5
139
330
1F
100
AcDbEntity
  8
0
  6
Continuous
 62
     7
370
    25
100
AcDbLine
 10
4218.6225156724
 20
1598.2543978663
 30
0.0
 11
4218.6225156724
 21
1626.7543978663
 31
0.0
  0
LINE
  5
13A
330
1F
100
AcDbEntity
  8
0
  6
Continuous
 62
     7
370
    25
100
AcDbLine
 10
3838.2225156724
 20
1583.7543978663
 30
0.0
 11
3838.2225156724
 21
1583.9543978663
 31
0.0
  0
LINE
  5
13B
330
1F
100
AcDbEntity
  8
0
  6
Continuous
 62
     7
370
    25
100
AcDbLine
 10
3838.4225156724
 20
1583.9543978663
 30
0.0
 11
3838.2225156724
 21
1583.9543978663
 31
0.0
  0
ARC
  5
13C
330
1F
100
AcDbEntity
  8
0
  6
Continuous
 62
     7
370
    25
100
AcDbCircle
 10
3838.2225156724
 20
1583.9543978663
 30
0.0
 40
0.1999999999998181
100
AcDbArc
 50
270.0
 51
0.0
  0
LINE
  5
13D
330
1F
100
AcDbEntity
  8
0
  6
Continuous
 62
     7
370
    25
100
AcDbLine
 10
3836.8225156724
 20
1603.9543978663
 30
0.0
 11
3836.8225156724
 21
1583.9543978663
 31
0.0
  0
LINE
  5
13E
330
1F
100
AcDbEntity
  8
0
  6
Continuous
 62
     7
370
    25
100
AcDbLine
 10
3836.6225156724
 20
1583.7543978663
 30
0.0
 11
3836.8225156724
 21
1583.9543978663
 31
0.0
  0
LINE
  5
13F
330
1F
100
AcDbEntity
  8
0
  6
Continuous
 62
     7
370
    25
100
AcDbLine
 10
3836.8225156724
 20
1603.9543978663
 30
0.0
 11
3836.6225156724
 21
1603.7543978663
 31
0.0
  0
LINE
  5
140
330
1F
100
AcDbEntity
  8
0
  6
Continuous
 62
     7
370
    25
100
AcDbLine
 10
3838.2225156724
 20
1583.7543978663
 30
0.0
 11
3836.6225156724
 21
1583.7543978663
 31
0.0
  0
LINE
  5
141
330
1F
100
AcDbEntity
  8
0
  6
Continuous
 62
     7
370
    25
100
AcDbLine
 10
3836.8225156724
 20
1583.9543978663
 30
0.0
 11
3838.2225156724
 21
1583.9543978663
 31
0.0
  0
LINE
  5
142
330
1F
100
AcDbEntity
  8
0
  6
Continuous
 62
     7
370
    25
100
AcDbLine
 10
3824.3225156724
 20
1616.9543978663
 30
0.0
 11
3824.3225156724
 21
1603.9543978663
 31
0.0
  0
LINE
  5
143
330
1F
100
AcDbEntity
  8
0
  6
Continuous
 62
     7
370
    25
100
AcDbLine
 10
3823.9053039889
 20
1616.9543978663
 30
0.0
 11
3824.3225156724
 21
1616.9543978663
 31
0.0
  0
ARC
  5
144
330
1F
100
AcDbEntity
  8
0
  6
Continuous
 62
     7
370
    25
100
AcDbCircle
 10
3824.1224773464
 20
1616.7474299152
 30
0.0
 40
0.3000000000004442
100
AcDbArc
 50
99.5765884811
 51
136.3783470328
  0
ARC
  5
145
330
1F
100
AcDbEntity
  8
0
  6
Continuous
 62
     7
370
    25
100
AcDbCircle
 10
3824.2056602699
 20
1616.2543978663
 30
0.0
 40
0.7999999999999607
100
AcDbArc
 50
4.9699465947
 51
99.576588481
  0
LINE
  5
146
330
1F
100
AcDbEntity
  8
0
  6
Continuous
 62
     7
370
    25
100
AcDbLine
 10
3825.84384111
 20
1606.6504380312
 30
0.0
 11
3825.0026524914
 21
1616.323704423
 31
0.0
  0
ARC
  5
147
330
1F
100
AcDbEntity
  8
0
  6
Continuous
 62
     7
370
    25
100
AcDbCircle
 10
3827.0393294423
 20
1606.7543978663
 30
0.0
 40
1.200000000000414
100
AcDbArc
 50
184.9699465947
 51
270.0
  0
LINE
  5
148
330
1F
100
AcDbEntity
  8
0
  6
Continuous
 62
     7
370
    25
100
AcDbLine
 10
3837.4225156724
 20
1605.5543978663
 30
0.0
 11
3827.0393294423
 21
1605.5543978663
 31
0.0
  0
ARC
  5
149
330
1F
100
AcDbEntity
  8
0
  6
Continuous
 62
     7
370
    25
100
AcDbCircle
 10
3837.4225156724
 20
1604.7543978663
 30
0.0
 40
0.7999999999999545
100
AcDbArc
 50
0.0
 51
90.0
  0
LINE
  5
14A
330
1F
100
AcDbEntity
  8
0
  6
Continuous
 62
     7
370
    25
100
AcDbLine
 10
3838.2225156724
 20
1583.9543978663
 30
0.0
 11
3838.2225156724
 21
1604.7543978663
 31
0.0
  0
LINE
  5
14B
330
1F
100
AcDbEntity
  8
0
  6
Continuous
 62
     7
370
    25
100
AcDbLine
 10
3824.3225156724
 20
1603.9543978663
 30
0.0
 11
3836.8225156724
 21
1603.9543978663
 31
0.0
  0
LINE
  5
14C
330
1F
100
AcDbEntity
  8
0
  6
Continuous
 62
     7
370
    25
100
AcDbLine
 10
3838.4225156724
 20
1604.7543978663
 30
0.0
 11
3838.4225156724
 21
1583.9543978663
 31
0.0
  0
LINE
  5
14D
330
1F
100
AcDbEntity
  8
0
  6
Continuous
 62
     7
370
    25
100
AcDbLine
 10
3838.4225156724
 20
1604.7543978663
 30
0.0
 11
3838.2225156724
 21
1604.7543978663
 31
0.0
  0
LINE
  5
14E
330
1F
100
AcDbEntity
  8
0
  6
Continuous
 62
     7
370
    25
100
AcDbLine
 10
3827.0393294423
 20
1605.7543978663
 30
0.0
 11
3837.4225156724
 21
1605.7543978663
 31
0.0
  0
LINE
  5
14F
330
1F
100
AcDbEntity
  8
0
  6
Continuous
 62
     7
370
    25
100
AcDbLine
 10
3837.4225156724
 20
1605.7543978663
 30
0.0
 11
3837.4225156724
 21
1605.5543978663
 31
0.0
  0
LINE
  5
150
330
1F
100
AcDbEntity
  8
0
  6
Continuous
 62
     7
370
    25
100
AcDbLine
 10
3827.0393294423
 20
1605.7543978663
 30
0.0
 11
3827.0393294423
 21
1605.5543978663
 31
0.0
  0
ARC
  5
151
330
1F
100
AcDbEntity
  8
0
  6
Continuous
 62
     7
370
    25
100
AcDbCircle
 10
3837.4225156724
 20
1604.7543978663
 30
0.0
 40
1.0
100
AcDbArc
 50
0.0
 51
90.0
  0
LINE
  5
152
330
1F
100
AcDbEntity
  8
0
  6
Continuous
 62
     7
370
    25
100
AcDbLine
 10
3824.3225156724
 20
1603.9543978663
 30
0.0
 11
3824.1225156724
 21
1603.7543978663
 31
0.0
  0
ARC
  5
153
330
1F
100
AcDbEntity
  8
0
  6
Continuous
 62
     7
370
    25
100
AcDbCircle
 10
3827.0393294423
 20
1606.7543978663
 30
0.0
 40
1.000000000000404
100
AcDbArc
 50
184.9699465947
 51
270.0
  0
LINE
  5
154
330
1F
100
AcDbEntity
  8
0
  6
Continuous
 62
     7
370
    25
100
AcDbLine
 10
3826.0430891654
 20
1606.6677646704
 30
0.0
 11
3825.84384111
 21
1606.6504380312
 31
0.0
  0
LINE
  5
155
330
1F
100
AcDbEntity
  8
0
  6
Continuous
 62
     7
370
    25
100
AcDbLine
 10
3825.2019005468
 20
1616.3410310622
 30
0.0
 11
3826.0430891654
 21
1606.6677646704
 31
0.0
  0
LINE
  5
156
330
1F
100
AcDbEntity
  8
0
  6
Continuous
 62
     7
370
    25
100
AcDbLine
 10
3825.0026524914
 20
1616.323704423
 30
0.0
 11
3825.2019005468
 21
1616.3410310622
 31
0.0
  0
LINE
  5
157
330
1F
100
AcDbEntity
  8
0
  6
Continuous
 62
     7
370
    25
100
AcDbLine
 10
3824.3225156724
 20
1616.9543978663
 30
0.0
 11
3824.1225156724
 21
1616.7543978663
 31
0.0
  0
SPLINE
  5
158
330
1F
100
AcDbEntity
  8
0
  6
Continuous
 62
     7
370
    25
100
AcDbSpline
210
0.0
220
0.0
230
1.0
 70
     8
 71
     3
 72
    13
 73
     9
 74
     0
 42
0.00000001
 43
0.00000001
 40
0.0
 40
0.0
 40
0.0
 40
0.0
 40
0.0075029974114413
 40
0.3818974549664034
 40
0.6070018873272421
 40
0.7653769096343175
 40
0.882460504981042
 40
1.0
 40
1.0
 40
1.0
 40
1.0
 10
3823.905303988905
 20
1616.954397866314
 30
0.0
 10
3823.904286212289
 20
1616.953959868419
 30
0.0
 10
3823.852482076149
 20
1616.93166607405
 30
0.0
 10
3823.773896710783
 20
1616.884781685834
 30
0.0
 10
3823.691257246751
 20
1616.818497248798
 30
0.0
 10
3823.649161128652
 20
1616.780235689626
 30
0.0
 10
3823.626637701817
 20
1616.75847991389
 30
0.0
 10
3823.623898275702
 20
1616.755760310341
 30
0.0
 10
3823.622525901135
 20
1616.754397866314
 30
0.0
  0
LINE
  5
159
330
1F
100
AcDbEntity
  8
0
  6
Continuous
 62
     7
370
    25
100
AcDbLine
 10
3824.0725675924
 20
1617.0432491446
 30
0.0
 11
3824.039294423
 21
1617.2404619641
 31
0.0
  0
ARC
  5
15A
330
1F
100
AcDbEntity
  8
0
  6
Continuous
 62
     7
370
    25
100
AcDbCircle
 10
3824.2056602699
 20
1616.2543978663
 30
0.0
 40
1.000000000000163
100
AcDbArc
 50
4.9699465947
 51
99.5765884811
  0
ARC
  5
15B
330
1F
100
AcDbEntity
  8
0
  6
Continuous
 62
     7
370
    25
100
AcDbCircle
 10
3824.1224773464
 20
1616.7474299152
 30
0.0
 40
0.5000000000006438
100
AcDbArc
 50
99.5765884811
 51
179.2015057739
  0
SPLINE
  5
15C
330
1F
100
AcDbEntity
  8
0
  6
Continuous
 62
     7
370
    25
100
AcDbSpline
210
0.0
220
0.0
230
1.0
 70
    24
 71
     3
 72
    12
 73
     8
 74
     0
 42
0.00000001
 43
0.00000001
 40
0.0
 40
0.0
 40
0.0
 40
0.0
 40
0.2460973337403009
 40
0.4921955654203339
 40
0.738302577044388
 40
0.9844160040480389
 40
1.0
 40
1.0
 40
1.0
 40
1.0
 10
4220.828146424102
 20
1532.283667516007
 30
0.0
 10
4220.836375901104
 20
1531.969396468506
 30
0.0
 10
4220.852834885133
 20
1531.340853226819
 30
0.0
 10
4220.874150888242
 20
1530.526827909656
 30
0.0
 10
4220.887691150987
 20
1530.009746136908
 30
0.0
 10
4220.893610628071
 20
1529.783690427254
 30
0.0
 10
4220.892090397733
 20
1529.841745681667
 30
0.0
 10
4220.891999868513
 20
1529.845202853081
 30
0.0
  0
SPLINE
  5
15D
330
1F
100
AcDbEntity
  8
0
  6
Continuous
 62
     7
370
    25
100
AcDbSpline
210
0.0
220
0.0
230
1.0
 70
     8
 71
     3
 72
    11
 73
     7
 74
     0
 42
0.00000001
 43
0.00000001
 40
0.0
 40
0.0
 40
0.0
 40
0.0
 40
0.2382247349858799
 40
0.4921376904607174
 40
0.7460575595493192
 40
1.0
 40
1.0
 40
1.0
 40
1.0
 10
4220.764286695024
 20
1534.722372180743
 30
0.0
 10
4220.764959079327
 20
1534.696694861229
 30
0.0
 10
4220.766348127606
 20
1534.643649249808
 30
0.0
 10
4220.779885724842
 20
1534.126669251062
 30
0.0
 10
4220.799986316176
 20
1533.359058705199
 30
0.0
 10
4220.816369957568
 20
1532.733392512945
 30
0.0
 10
4220.824562142341
 20
1532.420545513308
 30
0.0
  0
LINE
  5
15E
330
1F
100
AcDbEntity
  8
0
  6
Continuous
 62
     7
370
    25
100
AcDbLine
 10
4220.8245621423
 20
1532.4205455133
 30
0.0
 11
4220.8281464241
 21
1532.283667516
 31
0.0
  0
SPLINE
  5
15F
330
1F
100
AcDbEntity
  8
0
  6
Continuous
 62
     7
370
    25
100
AcDbSpline
210
0.0
220
0.0
230
1.0
 70
    24
 71
     3
 72
    13
 73
     9
 74
     0
 42
0.00000001
 43
0.00000001
 40
0.0
 40
0.0
 40
0.0
 40
0.0
 40
0.1813201537909076
 40
0.4101468448381402
 40
0.5438150184965735
 40
0.6886421238876247
 40
0.8419966874127133
 40
1.0
 40
1.0
 40
1.0
 40
1.0
 10
4221.382795627862
 20
1549.304018988893
 30
0.0
 10
4221.358568754218
 20
1550.229205966934
 30
0.0
 10
4221.303767478258
 20
1552.321982263422
 30
0.0
 10
4221.237407247237
 20
1554.856177244859
 30
0.0
 10
4221.187436230684
 20
1556.764493376601
 30
0.0
 10
4221.154514141968
 20
1558.021737221533
 30
0.0
 10
4221.131231983242
 20
1558.910846992439
 30
0.0
 10
4221.127939789833
 20
1559.036570786437
 30
0.0
 10
4221.126269115974
 20
1559.100371247087
 30
0.0
  0
SPLINE
  5
160
330
1F
100
AcDbEntity
  8
0
  6
Continuous
 62
     7
370
    25
100
AcDbSpline
210
0.0
220
0.0
230
1.0
 70
    24
 71
     3
 72
    13
 73
     9
 74
     0
 42
0.00000001
 43
0.00000001
 40
0.0
 40
0.0
 40
0.0
 40
0.0
 40
0.1538581583653302
 40
0.3079676862454152
 40
0.4535077802386471
 40
0.5878340078347103
 40
0.8177872163815026
 40
1.0
 40
1.0
 40
1.0
 40
1.0
 10
4221.639096032823
 20
1539.516301405857
 30
0.0
 10
4221.637776556179
 20
1539.566690185949
 30
0.0
 10
4221.635135447165
 20
1539.667550070031
 30
0.0
 10
4221.612908661752
 20
1540.516356760086
 30
0.0
 10
4221.580740651456
 20
1541.744803512002
 30
0.0
 10
4221.531477719868
 20
1543.626078969874
 30
0.0
 10
4221.465658391129
 20
1546.139617726504
 30
0.0
 10
4221.410933327982
 20
1548.229483573093
 30
0.0
 10
4221.386740147857
 20
1549.153383847582
 30
0.0
  0
LINE
  5
161
330
1F
100
AcDbEntity
  8
0
  6
Continuous
 62
     7
370
    25
100
AcDbLine
 10
4223.7844466987
 20
1549.2723848582
 30
0.0
 11
4223.9047475903
 21
1544.6782791568
 31
0.0
  0
LINE
  5
162
330
1F
100
AcDbEntity
  8
0
  6
Continuous
 62
     7
370
    25
100
AcDbLine
 10
4223.6591988253
 20
1554.0554081729
 30
0.0
 11
4223.7819732078
 21
1549.3668436648
 31
0.0
  0
SPLINE
  5
163
330
1F
100
AcDbEntity
  8
0
  6
Continuous
 62
     7
370
    25
100
AcDbSpline
210
0.0
220
0.0
230
1.0
 70
     8
 71
     3
 72
    11
 73
     7
 74
     0
 42
0.00000001
 43
0.00000001
 40
0.0
 40
0.0
 40
0.0
 40
0.0
 40
0.2702602051680713
 40
0.5624283659898522
 40
0.7897359586729977
 40
1.0
 40
1.0
 40
1.0
 40
1.0
 10
4221.378496043736
 20
1549.468213482249
 30
0.0
 10
4221.369746636025
 20
1549.465656025566
 30
0.0
 10
4221.351538572132
 20
1549.460333798483
 30
0.0
 10
4221.216480299727
 20
1549.451285824101
 30
0.0
 10
4221.048418110194
 20
1549.443677152433
 30
0.0
 10
4220.934052746302
 20
1549.440318953103
 30
0.0
 10
4220.879097347619
 20
1549.438705254893
 30
0.0
  0
LINE
  5
164
330
1F
100
AcDbEntity
  8
0
  6
Continuous
 62
     7
370
    25
100
AcDbLine
 10
3839.3225156724
 20
1584.0543978663
 30
0.0
 11
3839.3225156724
 21
1585.2543978663
 31
0.0
  0
LINE
  5
165
330
1F
100
AcDbEntity
  8
0
  6
Continuous
 62
     7
370
    25
100
AcDbLine
 10
3839.3225156724
 20
1584.0543978663
 30
0.0
 11
3840.1225156724
 21
1584.0543978663
 31
0.0
  0
LINE
  5
166
330
1F
100
AcDbEntity
  8
0
  6
Continuous
 62
     7
370
    25
100
AcDbLine
 10
3839.3225156724
 20
1585.2543978663
 30
0.0
 11
3840.1225156724
 21
1585.2543978663
 31
0.0
  0
LINE
  5
167
330
1F
100
AcDbEntity
  8
0
  6
Continuous
 62
     7
370
    25
100
AcDbLine
 10
3838.4225156724
 20
1584.0543978663
 30
0.0
 11
3839.3225156724
 21
1584.0543978663
 31
0.0
  0
LINE
  5
168
330
1F
100
AcDbEntity
  8
0
  6
Continuous
 62
     7
370
    25
100
AcDbLine
 10
3838.4225156724
 20
1585.2543978663
 30
0.0
 11
3839.3225156724
 21
1585.2543978663
 31
0.0
  0
LINE
  5
169
330
1F
100
AcDbEntity
  8
0
  6
Continuous
 62
     7
370
    25
100
AcDbLine
 10
3838.1225156724
 20
1566.2543978663
 30
0.0
 11
3839.3225156724
 21
1566.2543978663
 31
0.0
  0
LINE
  5
16A
330
1F
100
AcDbEntity
  8
0
  6
Continuous
 62
     7
370
    25
100
AcDbLine
 10
3838.1225156724
 20
1583.2543978663
 30
0.0
 11
3838.1225156724
 21
1583.7543978663
 31
0.0
  0
LINE
  5
16B
330
1F
100
AcDbEntity
  8
0
  6
Continuous
 62
     7
370
    25
100
AcDbLine
 10
3839.3225156724
 20
1566.2543978663
 30
0.0
 11
3839.3225156724
 21
1584.0543978663
 31
0.0
  0
LINE
  5
16C
330
1F
100
AcDbEntity
  8
0
  6
Continuous
 62
     7
370
    25
100
AcDbLine
 10
3839.3225156724
 20
1566.2543978663
 30
0.0
 11
3839.3225156724
 21
1565.2470896858
 31
0.0
  0
LINE
  5
16D
330
1F
100
AcDbEntity
  8
0
  6
Continuous
 62
     7
370
    25
100
AcDbLine
 10
3838.6225156724
 20
1527.7984397273
 30
0.0
 11
3838.1225156724
 21
1527.7984397273
 31
0.0
  0
LINE
  5
16E
330
1F
100
AcDbEntity
  8
0
  6
Continuous
 62
     7
370
    25
100
AcDbLine
 10
3838.6225156724
 20
1529.3543978665
 30
0.0
 11
3838.1225156724
 21
1529.3543978665
 31
0.0
  0
LINE
  5
16F
330
1F
100
AcDbEntity
  8
0
  6
Continuous
 62
     7
370
    25
100
AcDbLine
 10
3838.6225156724
 20
1529.3543978665
 30
0.0
 11
3838.6225156724
 21
1527.7984397273
 31
0.0
  0
LINE
  5
170
330
1F
100
AcDbEntity
  8
0
  6
Continuous
 62
     7
370
    25
100
AcDbLine
 10
3838.1225156724
 20
1545.7103560054
 30
0.0
 11
3838.6225156724
 21
1545.7103560054
 31
0.0
  0
LINE
  5
171
330
1F
100
AcDbEntity
  8
0
  6
Continuous
 62
     7
370
    25
100
AcDbLine
 10
3838.6225156724
 20
1545.7103560054
 30
0.0
 11
3838.6225156724
 21
1544.1543978661
 31
0.0
  0
LINE
  5
172
330
1F
100
AcDbEntity
  8
0
  6
Continuous
 62
     7
370
    25
100
AcDbLine
 10
3838.1225156724
 20
1544.1543978661
 30
0.0
 11
3838.6225156724
 21
1544.1543978661
 31
0.0
  0
LINE
  5
173
330
1F
100
AcDbEntity
  8
0
  6
Continuous
 62
     7
370
    25
100
AcDbLine
 10
3838.3225156724
 20
1518.3628237086
 30
0.0
 11
3838.6225156724
 21
1518.3628237086
 31
0.0
  0
LINE
  5
174
330
1F
100
AcDbEntity
  8
0
  6
Continuous
 62
     7
370
    25
100
AcDbLine
 10
3838.1225156724
 20
1518.3628237086
 30
0.0
 11
3838.3225156724
 21
1518.3628237086
 31
0.0
  0
LINE
  5
175
330
1F
100
AcDbEntity
  8
0
  6
Continuous
 62
     7
370
    25
100
AcDbLine
 10
3838.6225156724
 20
1518.3628237086
 30
0.0
 11
3838.6225156724
 21
1527.7984397273
 31
0.0
  0
LINE
  5
176
330
1F
100
AcDbEntity
  8
0
  6
Continuous
 62
     7
370
    25
100
AcDbLine
 10
3838.3225156724
 20
1555.1459720241
 30
0.0
 11
3838.1225156724
 21
1555.1459720241
 31
0.0
  0
LINE
  5
177
330
1F
100
AcDbEntity
  8
0
  6
Continuous
 62
     7
370
    25
100
AcDbLine
 10
3838.6225156724
 20
1555.1459720241
 30
0.0
 11
3838.3225156724
 21
1555.1459720241
 31
0.0
  0
LINE
  5
178
330
1F
100
AcDbEntity
  8
0
  6
Continuous
 62
     7
370
    25
100
AcDbLine
 10
3838.6225156724
 20
1545.7103560054
 30
0.0
 11
3838.6225156724
 21
1555.1459720241
 31
0.0
  0
SPLINE
  5
179
330
1F
100
AcDbEntity
  8
0
  6
Continuous
 62
     7
370
    25
100
AcDbSpline
210
0.0
220
0.0
230
1.0
 70
    24
 71
     3
 72
    12
 73
     8
 74
     0
 42
0.00000001
 43
0.00000001
 40
0.0
 40
0.0
 40
0.0
 40
0.0
 40
0.1234882189617879
 40
0.3047574776076122
 40
0.4857888495164818
 40
0.6670582153999374
 40
1.0
 40
1.0
 40
1.0
 40
1.0
 10
3840.122515672364
 20
1508.254397866318
 30
0.0
 10
3840.082769103327
 20
1508.254397866318
 30
0.0
 10
3839.984678255269
 20
1508.254397866317
 30
0.0
 10
3839.744704966908
 20
1508.254397866318
 30
0.0
 10
3839.429090778414
 20
1508.254397866317
 30
0.0
 10
3838.962180689314
 20
1508.254397866318
 30
0.0
 10
3838.573912089077
 20
1508.254397866316
 30
0.0
 10
3838.322515672361
 20
1508.254397866315
 30
0.0
  0
LINE
  5
17A
330
1F
100
AcDbEntity
  8
0
  6
Continuous
 62
     7
370
    25
100
AcDbLine
 10
3838.3225156724
 20
1509.2543978663
 30
0.0
 11
3838.3225156724
 21
1508.2543978663
 31
0.0
  0
SPLINE
  5
17B
330
1F
100
AcDbEntity
  8
0
  6
Continuous
 62
     7
370
    25
100
AcDbSpline
210
0.0
220
0.0
230
1.0
 70
    24
 71
     3
 72
    12
 73
     8
 74
     0
 42
0.00000001
 43
0.00000001
 40
0.0
 40
0.0
 40
0.0
 40
0.0
 40
0.3329369653739366
 40
0.5139656098123789
 40
0.695232244643843
 40
0.8762609961842637
 40
1.0
 40
1.0
 40
1.0
 40
1.0
 10
3838.322515672355
 20
1565.254397866314
 30
0.0
 10
3838.573913085497
 20
1565.254397866315
 30
0.0
 10
3838.962003439495
 20
1565.254397866317
 30
0.0
 10
3839.42893270917
 20
1565.254397866317
 30
0.0
 10
3839.744451598192
 20
1565.254397866317
 30
0.0
 10
3839.984575816709
 20
1565.254397866317
 30
0.0
 10
3840.08268306772
 20
1565.254397866317
 30
0.0
 10
3840.122515672364
 20
1565.254397866317
 30
0.0
  0
LINE
  5
17C
330
1F
100
AcDbEntity
  8
0
  6
Continuous
 62
     7
370
    25
100
AcDbLine
 10
3838.3225156724
 20
1564.2543978663
 30
0.0
 11
3838.3225156724
 21
1565.2543978663
 31
0.0
  0
LINE
  5
17D
330
1F
100
AcDbEntity
  8
0
  6
Continuous
 62
     7
370
    25
100
AcDbLine
 10
3838.1225156724
 20
1509.2543978663
 30
0.0
 11
3838.3225156724
 21
1509.2543978663
 31
0.0
  0
LINE
  5
17E
330
1F
100
AcDbEntity
  8
0
  6
Continuous
 62
     7
370
    25
100
AcDbLine
 10
3838.3225156724
 20
1509.2543978663
 30
0.0
 11
3838.3225156724
 21
1518.3628237086
 31
0.0
  0
SPLINE
  5
17F
330
1F
100
AcDbEntity
  8
0
  6
Continuous
 62
     7
370
    25
100
AcDbSpline
210
0.0
220
0.0
230
1.0
 70
     8
 71
     3
 72
    10
 73
     6
 74
     0
 42
0.00000001
 43
0.00000001
 40
0.0
 40
0.0
 40
0.0
 40
0.0
 40
0.0371311943401455
 40
0.5486628195577367
 40
1.0
 40
1.0
 40
1.0
 40
1.0
 10
3840.122515672364
 20
1526.508633526144
 30
0.0
 10
3840.11689282015
 20
1526.51535187357
 30
0.0
 10
3840.033807694444
 20
1526.614624399191
 30
0.0
 10
3839.812251721859
 20
1526.715053312386
 30
0.0
 10
3839.580940832613
 20
1526.741841237216
 30
0.0
 10
3839.472515672358
 20
1526.754397866314
 30
0.0
  0
LINE
  5
180
330
1F
100
AcDbEntity
  8
0
  6
Continuous
 62
     7
370
    25
100
AcDbLine
 10
3838.6225156724
 20
1526.7543978663
 30
0.0
 11
3839.4725156724
 21
1526.7543978663
 31
0.0
  0
LINE
  5
181
330
1F
100
AcDbEntity
  8
0
  6
Continuous
 62
     7
370
    25
100
AcDbLine
 10
3838.1225156724
 20
1564.2543978663
 30
0.0
 11
3838.3225156724
 21
1564.2543978663
 31
0.0
  0
LINE
  5
182
330
1F
100
AcDbEntity
  8
0
  6
Continuous
 62
     7
370
    25
100
AcDbLine
 10
3838.3225156724
 20
1555.1459720241
 30
0.0
 11
3838.3225156724
 21
1564.2543978663
 31
0.0
  0
SPLINE
  5
183
330
1F
100
AcDbEntity
  8
0
  6
Continuous
 62
     7
370
    25
100
AcDbSpline
210
0.0
220
0.0
230
1.0
 70
     8
 71
     3
 72
     9
 73
     5
 74
     0
 42
0.00000001
 43
0.00000001
 40
0.0
 40
0.0
 40
0.0
 40
0.0
 40
0.5050081268931785
 40
1.0
 40
1.0
 40
1.0
 40
1.0
 10
3839.472515672357
 20
1546.754397866315
 30
0.0
 10
3839.595811944224
 20
1546.766617725699
 30
0.0
 10
3839.8399590486
 20
1546.790815077648
 30
0.0
 10
3840.028961162154
 20
1546.927891150911
 30
0.0
 10
3840.122515672364
 20
1546.995742693173
 30
0.0
  0
LINE
  5
184
330
1F
100
AcDbEntity
  8
0
  6
Continuous
 62
     7
370
    25
100
AcDbLine
 10
3839.4725156724
 20
1546.7543978663
 30
0.0
 11
3838.6225156724
 21
1546.7543978663
 31
0.0
  0
LINE
  5
185
330
1F
100
AcDbEntity
  8
0
  6
Continuous
 62
     7
370
    25
100
AcDbLine
 10
3838.1225156724
 20
1508.2543978663
 30
0.0
 11
3838.3225156724
 21
1508.2543978663
 31
0.0
  0
LINE
  5
186
330
1F
100
AcDbEntity
  8
0
  6
Continuous
 62
     7
370
    25
100
AcDbLine
 10
3838.1225156724
 20
1565.2543978663
 30
0.0
 11
3838.3225156724
 21
1565.2543978663
 31
0.0
  0
LINE
  5
187
330
1F
100
AcDbEntity
  8
0
  6
Continuous
 62
     7
370
    25
100
AcDbLine
 10
3838.6225156724
 20
1057.7984397273
 30
0.0
 11
3838.1225156724
 21
1057.7984397273
 31
0.0
  0
LINE
  5
188
330
1F
100
AcDbEntity
  8
0
  6
Continuous
 62
     7
370
    25
100
AcDbLine
 10
3838.6225156724
 20
1059.3543978665
 30
0.0
 11
3838.1225156724
 21
1059.3543978665
 31
0.0
  0
LINE
  5
189
330
1F
100
AcDbEntity
  8
0
  6
Continuous
 62
     7
370
    25
100
AcDbLine
 10
3838.6225156724
 20
1059.3543978665
 30
0.0
 11
3838.6225156724
 21
1057.7984397273
 31
0.0
  0
LINE
  5
18A
330
1F
100
AcDbEntity
  8
0
  6
Continuous
 62
     7
370
    25
100
AcDbLine
 10
3838.1225156724
 20
1075.7103560054
 30
0.0
 11
3838.6225156724
 21
1075.7103560054
 31
0.0
  0
LINE
  5
18B
330
1F
100
AcDbEntity
  8
0
  6
Continuous
 62
     7
370
    25
100
AcDbLine
 10
3838.6225156724
 20
1075.7103560054
 30
0.0
 11
3838.6225156724
 21
1074.1543978661
 31
0.0
  0
LINE
  5
18C
330
1F
100
AcDbEntity
  8
0
  6
Continuous
 62
     7
370
    25
100
AcDbLine
 10
3838.1225156724
 20
1074.1543978661
 30
0.0
 11
3838.6225156724
 21
1074.1543978661
 31
0.0
  0
LINE
  5
18D
330
1F
100
AcDbEntity
  8
0
  6
Continuous
 62
     7
370
    25
100
AcDbLine
 10
3838.3225156724
 20
1048.3628237086
 30
0.0
 11
3838.6225156724
 21
1048.3628237086
 31
0.0
  0
LINE
  5
18E
330
1F
100
AcDbEntity
  8
0
  6
Continuous
 62
     7
370
    25
100
AcDbLine
 10
3838.1225156724
 20
1048.3628237086
 30
0.0
 11
3838.3225156724
 21
1048.3628237086
 31
0.0
  0
LINE
  5
18F
330
1F
100
AcDbEntity
  8
0
  6
Continuous
 62
     7
370
    25
100
AcDbLine
 10
3838.6225156724
 20
1048.3628237086
 30
0.0
 11
3838.6225156724
 21
1057.7984397273
 31
0.0
  0
LINE
  5
190
330
1F
100
AcDbEntity
  8
0
  6
Continuous
 62
     7
370
    25
100
AcDbLine
 10
3838.3225156724
 20
1085.1459720241
 30
0.0
 11
3838.1225156724
 21
1085.1459720241
 31
0.0
  0
LINE
  5
191
330
1F
100
AcDbEntity
  8
0
  6
Continuous
 62
     7
370
    25
100
AcDbLine
 10
3838.6225156724
 20
1085.1459720241
 30
0.0
 11
3838.3225156724
 21
1085.1459720241
 31
0.0
  0
LINE
  5
192
330
1F
100
AcDbEntity
  8
0
  6
Continuous
 62
     7
370
    25
100
AcDbLine
 10
3838.6225156724
 20
1075.7103560054
 30
0.0
 11
3838.6225156724
 21
1085.1459720241
 31
0.0
  0
SPLINE
  5
193
330
1F
100
AcDbEntity
  8
0
  6
Continuous
 62
     7
370
    25
100
AcDbSpline
210
0.0
220
0.0
230
1.0
 70
    24
 71
     3
 72
    12
 73
     8
 74
     0
 42
0.00000001
 43
0.00000001
 40
0.0
 40
0.0
 40
0.0
 40
0.0
 40
0.1234882189617879
 40
0.3047574776076122
 40
0.4857888495164818
 40
0.6670582153999374
 40
1.0
 40
1.0
 40
1.0
 40
1.0
 10
3840.122515672364
 20
1038.254397866318
 30
0.0
 10
3840.082769103327
 20
1038.254397866318
 30
0.0
 10
3839.984678255269
 20
1038.254397866318
 30
0.0
 10
3839.744704966908
 20
1038.254397866318
 30
0.0
 10
3839.429090778414
 20
1038.254397866318
 30
0.0
 10
3838.962180689314
 20
1038.254397866318
 30
0.0
 10
3838.573912089077
 20
1038.254397866316
 30
0.0
 10
3838.322515672361
 20
1038.254397866315
 30
0.0
  0
LINE
  5
194
330
1F
100
AcDbEntity
  8
0
  6
Continuous
 62
     7
370
    25
100
AcDbLine
 10
3838.3225156724
 20
1039.2543978663
 30
0.0
 11
3838.3225156724
 21
1038.2543978663
 31
0.0
  0
SPLINE
  5
195
330
1F
100
AcDbEntity
  8
0
  6
Continuous
 62
     7
370
    25
100
AcDbSpline
210
0.0
220
0.0
230
1.0
 70
    24
 71
     3
 72
    12
 73
     8
 74
     0
 42
0.00000001
 43
0.00000001
 40
0.0
 40
0.0
 40
0.0
 40
0.0
 40
0.3329369653739366
 40
0.5139656098123789
 40
0.695232244643843
 40
0.8762609961842637
 40
1.0
 40
1.0
 40
1.0
 40
1.0
 10
3838.322515672355
 20
1095.254397866314
 30
0.0
 10
3838.573913085497
 20
1095.254397866315
 30
0.0
 10
3838.962003439495
 20
1095.254397866317
 30
0.0
 10
3839.42893270917
 20
1095.254397866317
 30
0.0
 10
3839.744451598192
 20
1095.254397866317
 30
0.0
 10
3839.984575816709
 20
1095.254397866317
 30
0.0
 10
3840.08268306772
 20
1095.254397866317
 30
0.0
 10
3840.122515672364
 20
1095.254397866317
 30
0.0
  0
LINE
  5
196
330
1F
100
AcDbEntity
  8
0
  6
Continuous
 62
     7
370
    25
100
AcDbLine
 10
3838.3225156724
 20
1094.2543978663
 30
0.0
 11
3838.3225156724
 21
1095.2543978663
 31
0.0
  0
SPLINE
  5
197
330
1F
100
AcDbEntity
  8
0
  6
Continuous
 62
     7
370
    25
100
AcDbSpline
210
0.0
220
0.0
230
1.0
 70
     8
 71
     3
 72
    10
 73
     6
 74
     0
 42
0.00000001
 43
0.00000001
 40
0.0
 40
0.0
 40
0.0
 40
0.0
 40
0.0371311943401231
 40
0.5486628195577261
 40
1.0
 40
1.0
 40
1.0
 40
1.0
 10
3840.122515672363
 20
1056.508633526144
 30
0.0
 10
3840.11689282015
 20
1056.51535187357
 30
0.0
 10
3840.033807694444
 20
1056.614624399192
 30
0.0
 10
3839.812251721859
 20
1056.715053312386
 30
0.0
 10
3839.580940832613
 20
1056.741841237216
 30
0.0
 10
3839.472515672359
 20
1056.754397866314
 30
0.0
  0
LINE
  5
198
330
1F
100
AcDbEntity
  8
0
  6
Continuous
 62
     7
370
    25
100
AcDbLine
 10
3838.3225156724
 20
1039.2543978663
 30
0.0
 11
3838.3225156724
 21
1048.3628237086
 31
0.0
  0
LINE
  5
199
330
1F
100
AcDbEntity
  8
0
  6
Continuous
 62
     7
370
    25
100
AcDbLine
 10
3838.6225156724
 20
1056.7543978663
 30
0.0
 11
3839.4725156724
 21
1056.7543978663
 31
0.0
  0
LINE
  5
19A
330
1F
100
AcDbEntity
  8
0
  6
Continuous
 62
     7
370
    25
100
AcDbLine
 10
3838.1225156724
 20
1039.2543978663
 30
0.0
 11
3838.3225156724
 21
1039.2543978663
 31
0.0
  0
SPLINE
  5
19B
330
1F
100
AcDbEntity
  8
0
  6
Continuous
 62
     7
370
    25
100
AcDbSpline
210
0.0
220
0.0
230
1.0
 70
     8
 71
     3
 72
     9
 73
     5
 74
     0
 42
0.00000001
 43
0.00000001
 40
0.0
 40
0.0
 40
0.0
 40
0.0
 40
0.5050081268931748
 40
1.0
 40
1.0
 40
1.0
 40
1.0
 10
3839.472515672357
 20
1076.754397866315
 30
0.0
 10
3839.595811944224
 20
1076.766617725698
 30
0.0
 10
3839.8399590486
 20
1076.790815077648
 30
0.0
 10
3840.028961162154
 20
1076.927891150911
 30
0.0
 10
3840.122515672364
 20
1076.995742693173
 30
0.0
  0
LINE
  5
19C
330
1F
100
AcDbEntity
  8
0
  6
Continuous
 62
     7
370
    25
100
AcDbLine
 10
3838.3225156724
 20
1085.1459720241
 30
0.0
 11
3838.3225156724
 21
1094.2543978663
 31
0.0
  0
LINE
  5
19D
330
1F
100
AcDbEntity
  8
0
  6
Continuous
 62
     7
370
    25
100
AcDbLine
 10
3839.4725156724
 20
1076.7543978663
 30
0.0
 11
3838.6225156724
 21
1076.7543978663
 31
0.0
  0
LINE
  5
19E
330
1F
100
AcDbEntity
  8
0
  6
Continuous
 62
     7
370
    25
100
AcDbLine
 10
3838.1225156724
 20
1094.2543978663
 30
0.0
 11
3838.3225156724
 21
1094.2543978663
 31
0.0
  0
LINE
  5
19F
330
1F
100
AcDbEntity
  8
0
  6
Continuous
 62
     7
370
    25
100
AcDbLine
 10
3838.1225156724
 20
1038.2543978663
 30
0.0
 11
3838.3225156724
 21
1038.2543978663
 31
0.0
  0
LINE
  5
1A0
330
1F
100
AcDbEntity
  8
0
  6
Continuous
 62
     7
370
    25
100
AcDbLine
 10
3838.1225156724
 20
1095.2543978663
 30
0.0
 11
3838.3225156724
 21
1095.2543978663
 31
0.0
  0
LINE
  5
1A1
330
1F
100
AcDbEntity
  8
0
  6
Continuous
 62
     7
370
    25
100
AcDbLine
 10
3839.9877005974
 20
1528.3793978663
 30
0.0
 11
3839.9877005974
 21
1529.3043978663
 31
0.0
  0
LINE
  5
1A2
330
1F
100
AcDbEntity
  8
0
  6
Continuous
 62
     7
370
    25
100
AcDbLine
 10
3839.9877005974
 20
1544.2043978663
 30
0.0
 11
3839.9877005974
 21
1545.1293978663
 31
0.0
  0
LINE
  5
1A3
330
1F
100
AcDbEntity
  8
0
  6
Continuous
 62
     7
370
    25
100
AcDbLine
 10
3839.9877005974
 20
1545.1293978663
 30
0.0
 11
3840.1225156724
 21
1545.1293978663
 31
0.0
  0
LINE
  5
1A4
330
1F
100
AcDbEntity
  8
0
  6
Continuous
 62
     7
370
    25
100
AcDbLine
 10
3840.1225156724
 20
1528.3793978663
 30
0.0
 11
3839.9877005974
 21
1528.3793978663
 31
0.0
  0
LINE
  5
1A5
330
1F
100
AcDbEntity
  8
0
  6
Continuous
 62
     7
370
    25
100
AcDbLine
 10
3838.6225156724
 20
1545.1293978663
 30
0.0
 11
3839.9877005974
 21
1545.1293978663
 31
0.0
  0
LINE
  5
1A6
330
1F
100
AcDbEntity
  8
0
  6
Continuous
 62
     7
370
    25
100
AcDbLine
 10
3839.9877005974
 20
1528.3793978663
 30
0.0
 11
3838.6225156724
 21
1528.3793978663
 31
0.0
  0
LINE
  5
1A7
330
1F
100
AcDbEntity
  8
0
  6
Continuous
 62
     7
370
    25
100
AcDbLine
 10
3839.9877005974
 20
1058.3793978663
 30
0.0
 11
3839.9877005974
 21
1059.3043978663
 31
0.0
  0
LINE
  5
1A8
330
1F
100
AcDbEntity
  8
0
  6
Continuous
 62
     7
370
    25
100
AcDbLine
 10
3839.9877005974
 20
1074.2043978663
 30
0.0
 11
3839.9877005974
 21
1075.1293978663
 31
0.0
  0
LINE
  5
1A9
330
1F
100
AcDbEntity
  8
0
  6
Continuous
 62
     7
370
    25
100
AcDbLine
 10
3839.9877005974
 20
1075.1293978663
 30
0.0
 11
3840.1225156724
 21
1075.1293978663
 31
0.0
  0
LINE
  5
1AA
330
1F
100
AcDbEntity
  8
0
  6
Continuous
 62
     7
370
    25
100
AcDbLine
 10
3840.1225156724
 20
1058.3793978663
 30
0.0
 11
3839.9877005974
 21
1058.3793978663
 31
0.0
  0
LINE
  5
1AB
330
1F
100
AcDbEntity
  8
0
  6
Continuous
 62
     7
370
    25
100
AcDbLine
 10
3838.6225156724
 20
1075.1293978663
 30
0.0
 11
3839.9877005974
 21
1075.1293978663
 31
0.0
  0
LINE
  5
1AC
330
1F
100
AcDbEntity
  8
0
  6
Continuous
 62
     7
370
    25
100
AcDbLine
 10
3839.9877005974
 20
1058.3793978663
 30
0.0
 11
3838.6225156724
 21
1058.3793978663
 31
0.0
  0
LINE
  5
1AD
330
1F
100
AcDbEntity
  8
0
  6
Continuous
 62
     7
370
    25
100
AcDbLine
 10
3840.1225156724
 20
1060.2543978663
 30
0.0
 11
3838.1225156724
 21
1060.2543978663
 31
0.0
  0
LINE
  5
1AE
330
1F
100
AcDbEntity
  8
0
  6
Continuous
 62
     7
370
    25
100
AcDbLine
 10
3838.1225156724
 20
1073.2543978663
 30
0.0
 11
3840.1225156724
 21
1073.2543978663
 31
0.0
  0
LINE
  5
1AF
330
1F
100
AcDbEntity
  8
0
  6
Continuous
 62
     7
370
    25
100
AcDbLine
 10
3839.3937982176
 20
1074.2043978663
 30
0.0
 11
3839.3937982176
 21
1073.2543978663
 31
0.0
  0
LINE
  5
1B0
330
1F
100
AcDbEntity
  8
0
  6
Continuous
 62
     7
370
    25
100
AcDbLine
 10
3839.3937982176
 20
1060.2543978663
 30
0.0
 11
3839.3937982176
 21
1059.3043978663
 31
0.0
  0
LINE
  5
1B1
330
1F
100
AcDbEntity
  8
0
  6
Continuous
 62
     7
370
    25
100
AcDbLine
 10
3839.3937982176
 20
1074.2043978663
 30
0.0
 11
3840.1225156724
 21
1074.2043978663
 31
0.0
  0
LINE
  5
1B2
330
1F
100
AcDbEntity
  8
0
  6
Continuous
 62
     7
370
    25
100
AcDbLine
 10
3839.3937982176
 20
1059.3043978663
 30
0.0
 11
3840.1225156724
 21
1059.3043978663
 31
0.0
  0
LINE
  5
1B3
330
1F
100
AcDbEntity
  8
0
  6
Continuous
 62
     7
370
    25
100
AcDbLine
 10
3839.332428722
 20
1074.2043978663
 30
0.0
 11
3839.332428722
 21
1073.2543978663
 31
0.0
  0
LINE
  5
1B4
330
1F
100
AcDbEntity
  8
0
  6
Continuous
 62
     7
370
    25
100
AcDbLine
 10
3839.332428722
 20
1060.2543978663
 30
0.0
 11
3839.332428722
 21
1059.3043978663
 31
0.0
  0
LINE
  5
1B5
330
1F
100
AcDbEntity
  8
0
  6
Continuous
 62
     7
370
    25
100
AcDbLine
 10
3839.332428722
 20
1074.2043978663
 30
0.0
 11
3839.3937982176
 21
1074.2043978663
 31
0.0
  0
LINE
  5
1B6
330
1F
100
AcDbEntity
  8
0
  6
Continuous
 62
     7
370
    25
100
AcDbLine
 10
3839.332428722
 20
1059.3043978663
 30
0.0
 11
3839.3937982176
 21
1059.3043978663
 31
0.0
  0
LINE
  5
1B7
330
1F
100
AcDbEntity
  8
0
  6
Continuous
 62
     7
370
    25
100
AcDbLine
 10
3840.1225156724
 20
1530.2543978663
 30
0.0
 11
3838.1225156724
 21
1530.2543978663
 31
0.0
  0
LINE
  5
1B8
330
1F
100
AcDbEntity
  8
0
  6
Continuous
 62
     7
370
    25
100
AcDbLine
 10
3838.1225156724
 20
1543.2543978663
 30
0.0
 11
3840.1225156724
 21
1543.2543978663
 31
0.0
  0
LINE
  5
1B9
330
1F
100
AcDbEntity
  8
0
  6
Continuous
 62
     7
370
    25
100
AcDbLine
 10
3839.3937982176
 20
1544.2043978663
 30
0.0
 11
3839.3937982176
 21
1543.2543978663
 31
0.0
  0
LINE
  5
1BA
330
1F
100
AcDbEntity
  8
0
  6
Continuous
 62
     7
370
    25
100
AcDbLine
 10
3839.3937982176
 20
1530.2543978663
 30
0.0
 11
3839.3937982176
 21
1529.3043978663
 31
0.0
  0
LINE
  5
1BB
330
1F
100
AcDbEntity
  8
0
  6
Continuous
 62
     7
370
    25
100
AcDbLine
 10
3839.3937982176
 20
1544.2043978663
 30
0.0
 11
3840.1225156724
 21
1544.2043978663
 31
0.0
  0
LINE
  5
1BC
330
1F
100
AcDbEntity
  8
0
  6
Continuous
 62
     7
370
    25
100
AcDbLine
 10
3839.3937982176
 20
1529.3043978663
 30
0.0
 11
3840.1225156724
 21
1529.3043978663
 31
0.0
  0
LINE
  5
1BD
330
1F
100
AcDbEntity
  8
0
  6
Continuous
 62
     7
370
    25
100
AcDbLine
 10
3839.332428722
 20
1544.2043978663
 30
0.0
 11
3839.332428722
 21
1543.2543978663
 31
0.0
  0
LINE
  5
1BE
330
1F
100
AcDbEntity
  8
0
  6
Continuous
 62
     7
370
    25
100
AcDbLine
 10
3839.332428722
 20
1530.2543978663
 30
0.0
 11
3839.332428722
 21
1529.3043978663
 31
0.0
  0
LINE
  5
1BF
330
1F
100
AcDbEntity
  8
0
  6
Continuous
 62
     7
370
    25
100
AcDbLine
 10
3839.332428722
 20
1544.2043978663
 30
0.0
 11
3839.3937982176
 21
1544.2043978663
 31
0.0
  0
LINE
  5
1C0
330
1F
100
AcDbEntity
  8
0
  6
Continuous
 62
     7
370
    25
100
AcDbLine
 10
3839.332428722
 20
1529.3043978663
 30
0.0
 11
3839.3937982176
 21
1529.3043978663
 31
0.0
  0
LINE
  5
1C1
330
1F
100
AcDbEntity
  8
0
  6
Continuous
 62
     7
370
    25
100
AcDbLine
 10
3838.6225156724
 20
1074.2293978663
 30
0.0
 11
3838.9340814752
 21
1074.2293978663
 31
0.0
  0
LINE
  5
1C2
330
1F
100
AcDbEntity
  8
0
  6
Continuous
 62
     7
370
    25
100
AcDbLine
 10
3838.9340814752
 20
1059.2793978663
 30
0.0
 11
3838.9340814752
 21
1060.2543978663
 31
0.0
  0
LINE
  5
1C3
330
1F
100
AcDbEntity
  8
0
  6
Continuous
 62
     7
370
    25
100
AcDbLine
 10
3838.9340814752
 20
1073.2543978663
 30
0.0
 11
3838.9340814752
 21
1074.2293978663
 31
0.0
  0
LINE
  5
1C4
330
1F
100
AcDbEntity
  8
0
  6
Continuous
 62
     7
370
    25
100
AcDbLine
 10
3838.6225156724
 20
1059.2793978663
 30
0.0
 11
3838.9340814752
 21
1059.2793978663
 31
0.0
  0
LINE
  5
1C5
330
1F
100
AcDbEntity
  8
0
  6
Continuous
 62
     7
370
    25
100
AcDbLine
 10
3838.9340814752
 20
1074.2293978663
 30
0.0
 11
3838.9732240696
 21
1074.2293978663
 31
0.0
  0
LINE
  5
1C6
330
1F
100
AcDbEntity
  8
0
  6
Continuous
 62
     7
370
    25
100
AcDbLine
 10
3838.9340814752
 20
1059.2793978663
 30
0.0
 11
3838.9732240696
 21
1059.2793978663
 31
0.0
  0
LINE
  5
1C7
330
1F
100
AcDbEntity
  8
0
  6
Continuous
 62
     7
370
    25
100
AcDbLine
 10
3838.6225156724
 20
1544.2293978663
 30
0.0
 11
3838.9340814752
 21
1544.2293978663
 31
0.0
  0
LINE
  5
1C8
330
1F
100
AcDbEntity
  8
0
  6
Continuous
 62
     7
370
    25
100
AcDbLine
 10
3838.9340814752
 20
1529.2793978663
 30
0.0
 11
3838.9340814752
 21
1530.2543978663
 31
0.0
  0
LINE
  5
1C9
330
1F
100
AcDbEntity
  8
0
  6
Continuous
 62
     7
370
    25
100
AcDbLine
 10
3838.9340814752
 20
1543.2543978663
 30
0.0
 11
3838.9340814752
 21
1544.2293978663
 31
0.0
  0
LINE
  5
1CA
330
1F
100
AcDbEntity
  8
0
  6
Continuous
 62
     7
370
    25
100
AcDbLine
 10
3838.6225156724
 20
1529.2793978663
 30
0.0
 11
3838.9340814752
 21
1529.2793978663
 31
0.0
  0
LINE
  5
1CB
330
1F
100
AcDbEntity
  8
0
  6
Continuous
 62
     7
370
    25
100
AcDbLine
 10
3838.9340814752
 20
1544.2293978663
 30
0.0
 11
3838.9732240696
 21
1544.2293978663
 31
0.0
  0
LINE
  5
1CC
330
1F
100
AcDbEntity
  8
0
  6
Continuous
 62
     7
370
    25
100
AcDbLine
 10
3838.9340814752
 20
1529.2793978663
 30
0.0
 11
3838.9732240696
 21
1529.2793978663
 31
0.0
  0
LINE
  5
1CD
330
1F
100
AcDbEntity
  8
0
  6
Continuous
 62
     7
370
    25
100
AcDbLine
 10
4220.6002358345
 20
1529.5267567878
 30
0.0
 11
4220.4562626188
 21
1535.0248720752
 31
0.0
  0
LINE
  5
1CE
330
1F
100
AcDbEntity
  8
0
  6
Continuous
 62
     7
370
    25
100
AcDbLine
 10
4221.5905608759
 20
1549.0100942736
 30
0.0
 11
4221.8444965759
 21
1539.3126811288
 31
0.0
  0
LINE
  5
1CF
330
1F
100
AcDbEntity
  8
0
  6
Continuous
 62
     7
370
    25
100
AcDbLine
 10
4222.5946873532
 20
1539.3323255657
 30
0.0
 11
4222.0711483871
 21
1559.3254720652
 31
0.0
  0
LINE
  5
1D0
330
1F
100
AcDbEntity
  8
0
  6
Continuous
 62
     7
370
    25
100
AcDbLine
 10
4223.2948469519
 20
1558.2617271317
 30
0.0
 11
4223.7610367734
 21
1540.4586561083
 31
0.0
  0
LINE
  5
1D1
330
1F
100
AcDbEntity
  8
0
  6
Continuous
 62
     7
370
    25
100
AcDbLine
 10
4223.8590717937
 20
1542.0615145215
 30
0.0
 11
4223.4766347464
 21
1556.6661961367
 31
0.0
  0
LINE
  5
1D2
330
1F
100
AcDbEntity
  8
0
  6
Continuous
 62
     7
370
    25
100
AcDbLine
 10
4221.0007621351
 20
1544.7925144716
 30
0.0
 11
4220.8790973475
 21
1549.4387052587
 31
0.0
  0
LINE
  5
1D3
330
1F
100
AcDbEntity
  8
0
  6
Continuous
 62
     7
370
    25
100
AcDbLine
 10
4220.8790973475
 20
1549.4387052587
 30
0.0
 11
4220.7651717957
 21
1553.7893465579
 31
0.0
  0
LINE
  5
1D4
330
1F
100
AcDbEntity
  8
0
  6
Continuous
 62
     7
370
    25
100
AcDbLine
 10
3838.3225156724
 20
1509.2543978663
 30
0.0
 11
3840.1225156724
 21
1509.2543978663
 31
0.0
  0
LINE
  5
1D5
330
1F
100
AcDbEntity
  8
0
  6
Continuous
 62
     7
370
    25
100
AcDbLine
 10
3838.3225156724
 20
1564.2543978663
 30
0.0
 11
3840.1225156724
 21
1564.2543978663
 31
0.0
  0
LINE
  5
1D6
330
1F
100
AcDbEntity
  8
0
  6
Continuous
 62
     7
370
    25
100
AcDbLine
 10
3839.4725156724
 20
1528.3793978663
 30
0.0
 11
3839.4725156724
 21
1526.7543978663
 31
0.0
  0
LINE
  5
1D7
330
1F
100
AcDbEntity
  8
0
  6
Continuous
 62
     7
370
    25
100
AcDbLine
 10
3839.4725156724
 20
1546.7543978663
 30
0.0
 11
3839.4725156724
 21
1545.1293978663
 31
0.0
  0
LINE
  5
1D8
330
1F
100
AcDbEntity
  8
0
  6
Continuous
 62
     7
370
    25
100
AcDbLine
 10
3838.3225156724
 20
1039.2543978663
 30
0.0
 11
3840.1225156724
 21
1039.2543978663
 31
0.0
  0
LINE
  5
1D9
330
1F
100
AcDbEntity
  8
0
  6
Continuous
 62
     7
370
    25
100
AcDbLine
 10
3838.3225156724
 20
1094.2543978663
 30
0.0
 11
3840.1225156724
 21
1094.2543978663
 31
0.0
  0
LINE
  5
1DA
330
1F
100
AcDbEntity
  8
0
  6
Continuous
 62
     7
370
    25
100
AcDbLine
 10
3839.4725156724
 20
1058.3793978663
 30
0.0
 11
3839.4725156724
 21
1056.7543978663
 31
0.0
  0
LINE
  5
1DB
330
1F
100
AcDbEntity
  8
0
  6
Continuous
 62
     7
370
    25
100
AcDbLine
 10
3839.4725156724
 20
1076.7543978663
 30
0.0
 11
3839.4725156724
 21
1075.1293978663
 31
0.0
  0
SPLINE
  5
1DC
330
1F
100
AcDbEntity
  8
0
  6
Continuous
 62
     7
370
    25
100
AcDbSpline
210
0.0
220
0.0
230
1.0
 70
     8
 71
     3
 72
    16
 73
    12
 74
     0
 42
0.00000001
 43
0.00000001
 40
0.0
 40
0.0
 40
0.0
 40
0.0
 40
0.0490847390192173
 40
0.151847304564861
 40
0.2358684990991919
 40
0.3090519161652647
 40
0.3734786142106804
 40
0.4370328180323326
 40
0.5258016248247168
 40
0.7068629655465627
 40
1.0
 40
1.0
 40
1.0
 40
1.0
 10
2361.425074168671
 20
2737.982522916332
 30
0.0
 10
2361.429765765405
 20
2738.048713308554
 30
0.0
 10
2361.444279570153
 20
2738.253478228319
 30
0.0
 10
2361.317101818782
 20
2738.557694887965
 30
0.0
 10
2361.112885409256
 20
2738.833758526986
 30
0.0
 10
2360.891873803391
 20
2739.007097001625
 30
0.0
 10
2360.700107235648
 20
2739.104101014127
 30
0.0
 10
2360.542893347464
 20
2739.158174379484
 30
0.0
 10
2360.377542172411
 20
2739.196807200856
 30
0.0
 10
2360.181828237485
 20
2739.226544086376
 30
0.0
 10
2359.954213845377
 20
2739.243759755647
 30
0.0
 10
2359.813508580673
 20
2739.254402032173
 30
0.0
  0
SPLINE
  5
1DD
330
1F
100
AcDbEntity
  8
0
  6
Continuous
 62
     7
370
    25
100
AcDbSpline
210
0.0
220
0.0
230
1.0
 70
     8
 71
     3
 72
    14
 73
    10
 74
     0
 42
0.00000001
 43
0.00000001
 40
0.0
 40
0.0
 40
0.0
 40
0.0
 40
0.4380448777708199
 40
0.5889072021156706
 40
0.664852454279532
 40
0.7505291071918236
 40
0.8517030556682053
 40
0.9620267314757259
 40
1.0
 40
1.0
 40
1.0
 40
1.0
 10
2343.029691039081
 20
2739.253278350245
 30
0.0
 10
2342.857587419202
 20
2739.238587326927
 30
0.0
 10
2342.626211442903
 20
2739.218836726298
 30
0.0
 10
2342.32690139545
 20
2739.158689060107
 30
0.0
 10
2342.053382146906
 20
2739.042171355416
 30
0.0
 10
2341.789180317121
 20
2738.85224502724
 30
0.0
 10
2341.560956382528
 20
2738.539748892962
 30
0.0
 10
2341.436910392498
 20
2738.217783907782
 30
0.0
 10
2341.458389890537
 20
2738.022470086409
 30
0.0
 10
2341.463889981928
 20
2737.972457564446
 30
0.0
  0
LINE
  5
1DE
330
1F
100
AcDbEntity
  8
0
  6
Continuous
 62
     7
370
    25
100
AcDbLine
 10
2361.4454585654
 20
2737.2318663251
 30
0.0
 11
2361.4454585654
 21
2737.9820571024
 31
0.0
  0
LINE
  5
1DF
330
1F
100
AcDbEntity
  8
0
  6
Continuous
 62
     7
370
    25
100
AcDbLine
 10
2341.4454585654
 20
2737.9820571024
 30
0.0
 11
2341.4454585654
 21
2737.2318663251
 31
0.0
  0
LINE
  5
1E0
330
1F
100
AcDbEntity
  8
0
  6
Continuous
 62
     7
370
    25
100
AcDbLine
 10
2359.9418327899
 20
2739.2468479058
 30
0.0
 11
2358.4154268517
 21
2739.3742254403
 31
0.0
  0
LINE
  5
1E1
330
1F
100
AcDbEntity
  8
0
  6
Continuous
 62
     7
370
    25
100
AcDbLine
 10
2344.475490279
 20
2739.3742254403
 30
0.0
 11
2342.9490843408
 21
2739.2468479058
 31
0.0
  0
SPLINE
  5
1E2
330
1F
100
AcDbEntity
  8
0
  6
Continuous
 62
     7
370
    25
100
AcDbSpline
210
0.0
220
0.0
230
1.0
 70
     8
 71
     3
 72
    14
 73
    10
 74
     0
 42
0.00000001
 43
0.00000001
 40
0.0
 40
0.0
 40
0.0
 40
0.0
 40
0.0907475556429656
 40
0.2288563839003789
 40
0.4128530542466716
 40
0.6071420004333375
 40
0.7878282318392925
 40
0.9626611221743117
 40
1.0
 40
1.0
 40
1.0
 40
1.0
 10
2358.325460923728
 20
2739.379327213121
 30
0.0
 10
2358.113909756879
 20
2739.39615974667
 30
0.0
 10
2357.580398581709
 20
2739.4386097359
 30
0.0
 10
2356.719912941159
 20
2739.480570026112
 30
0.0
 10
2355.670112580978
 20
2739.51750217133
 30
0.0
 10
2354.435496063455
 20
2739.543227737952
 30
0.0
 10
2353.098989846252
 20
2739.559073656586
 30
0.0
 10
2352.088959722664
 20
2739.563885326825
 30
0.0
 10
2351.541757506829
 20
2739.564124910322
 30
0.0
 10
2351.445458565362
 20
2739.56416707323
 30
0.0
  0
SPLINE
  5
1E3
330
1F
100
AcDbEntity
  8
0
  6
Continuous
 62
     7
370
    25
100
AcDbSpline
210
0.0
220
0.0
230
1.0
 70
     8
 71
     3
 72
    13
 73
     9
 74
     0
 42
0.00000001
 43
0.00000001
 40
0.0
 40
0.0
 40
0.0
 40
0.0
 40
0.0971790056423777
 40
0.2845710337029182
 40
0.4775192778487208
 40
0.6890792027695958
 40
0.8771625243237101
 40
0.9999999999999999
 40
0.9999999999999999
 40
0.9999999999999999
 40
0.9999999999999999
 10
2351.445458565362
 20
2739.56416707323
 30
0.0
 10
2351.198437493653
 20
2739.563905304354
 30
0.0
 10
2350.475081237247
 20
2739.563138761835
 30
0.0
 10
2349.282482825119
 20
2739.554264289771
 30
0.0
 10
2347.912409207464
 20
2739.534024945501
 30
0.0
 10
2346.678104082205
 20
2739.500007999578
 30
0.0
 10
2345.648335398511
 20
2739.460504786333
 30
0.0
 10
2344.941932094416
 20
2739.406884625928
 30
0.0
 10
2344.662848805496
 20
2739.38570056488
 30
0.0
  0
LINE
  5
1E4
330
1F
100
AcDbEntity
  8
0
  6
Continuous
 62
     7
370
    25
100
AcDbLine
 10
2355.9454585654
 20
2734.2716549046
 30
0.0
 11
2355.9454585654
 21
2736.5321061976
 31
0.0
  0
LINE
  5
1E5
330
1F
100
AcDbEntity
  8
0
  6
Continuous
 62
     7
370
    25
100
AcDbLine
 10
2346.9454585654
 20
2736.5321061976
 30
0.0
 11
2346.9454585654
 21
2734.2716549046
 31
0.0
  0
SPLINE
  5
1E6
330
1F
100
AcDbEntity
  8
0
  6
Continuous
 62
     7
370
    25
100
AcDbSpline
210
0.0
220
0.0
230
1.0
 70
     8
 71
     3
 72
    16
 73
    12
 74
     0
 42
0.00000001
 43
0.00000001
 40
0.0
 40
0.0
 40
0.0
 40
0.0
 40
0.0490847390191977
 40
0.1518473045648579
 40
0.2358684990992027
 40
0.3090519161652792
 40
0.3734786142107051
 40
0.4370328180323642
 40
0.5258016248247332
 40
0.7068629655465666
 40
1.0
 40
1.0
 40
1.0
 40
1.0
 10
2625.925074168669
 20
2737.98252291633
 30
0.0
 10
2625.929765765404
 20
2738.048713308551
 30
0.0
 10
2625.944279570152
 20
2738.253478228316
 30
0.0
 10
2625.817101818781
 20
2738.557694887963
 30
0.0
 10
2625.612885409255
 20
2738.833758526984
 30
0.0
 10
2625.39187380339
 20
2739.007097001622
 30
0.0
 10
2625.200107235647
 20
2739.104101014125
 30
0.0
 10
2625.042893347463
 20
2739.158174379482
 30
0.0
 10
2624.87754217241
 20
2739.196807200854
 30
0.0
 10
2624.681828237484
 20
2739.226544086374
 30
0.0
 10
2624.454213845376
 20
2739.243759755645
 30
0.0
 10
2624.313508580671
 20
2739.25440203217
 30
0.0
  0
SPLINE
  5
1E7
330
1F
100
AcDbEntity
  8
0
  6
Continuous
 62
     7
370
    25
100
AcDbSpline
210
0.0
220
0.0
230
1.0
 70
     8
 71
     3
 72
    15
 73
    11
 74
     0
 42
0.00000001
 43
0.00000001
 40
0.0
 40
0.0
 40
0.0
 40
0.0
 40
0.0366146332909238
 40
0.4586206584971951
 40
0.603959214158767
 40
0.6771237587644454
 40
0.7596633924487739
 40
0.8571328939030878
 40
0.9634171087776006
 40
1.0
 40
1.0
 40
1.0
 40
1.0
 10
2607.595706343175
 20
2739.257096001318
 30
0.0
 10
2607.573357319797
 20
2739.255823552648
 30
0.0
 10
2607.293422143686
 20
2739.239885355413
 30
0.0
 10
2607.137947923126
 20
2739.218833256152
 30
0.0
 10
2606.826115586822
 20
2739.158689292446
 30
0.0
 10
2606.553551866984
 20
2739.042171305233
 30
0.0
 10
2606.289122930545
 20
2738.852245044205
 30
0.0
 10
2606.060974971919
 20
2738.539748887463
 30
0.0
 10
2605.936909000215
 20
2738.217783908192
 30
0.0
 10
2605.958389606703
 20
2738.022470086491
 30
0.0
 10
2605.963889981926
 20
2737.972457564444
 30
0.0
  0
LINE
  5
1E8
330
1F
100
AcDbEntity
  8
0
  6
Continuous
 62
     7
370
    25
100
AcDbLine
 10
2625.9454585654
 20
2737.2318663251
 30
0.0
 11
2625.9454585654
 21
2737.9820571024
 31
0.0
  0
LINE
  5
1E9
330
1F
100
AcDbEntity
  8
0
  6
Continuous
 62
     7
370
    25
100
AcDbLine
 10
2605.9454585654
 20
2737.9820571024
 30
0.0
 11
2605.9454585654
 21
2737.2318663251
 31
0.0
  0
LINE
  5
1EA
330
1F
100
AcDbEntity
  8
0
  6
Continuous
 62
     7
370
    25
100
AcDbLine
 10
2624.4418327899
 20
2739.2468479058
 30
0.0
 11
2622.9154268517
 21
2739.3742254403
 31
0.0
  0
LINE
  5
1EB
330
1F
100
AcDbEntity
  8
0
  6
Continuous
 62
     7
370
    25
100
AcDbLine
 10
2608.975490279
 20
2739.3742254403
 30
0.0
 11
2607.4490843408
 21
2739.2468479058
 31
0.0
  0
SPLINE
  5
1EC
330
1F
100
AcDbEntity
  8
0
  6
Continuous
 62
     7
370
    25
100
AcDbSpline
210
0.0
220
0.0
230
1.0
 70
     8
 71
     3
 72
    14
 73
    10
 74
     0
 42
0.00000001
 43
0.00000001
 40
0.0
 40
0.0
 40
0.0
 40
0.0
 40
0.0907475556429579
 40
0.2288563839003579
 40
0.4128530542466446
 40
0.6071420004333162
 40
0.7878282318392746
 40
0.962661122174292
 40
1.0
 40
1.0
 40
1.0
 40
1.0
 10
2622.825460923727
 20
2739.379327213119
 30
0.0
 10
2622.613909756878
 20
2739.396159746668
 30
0.0
 10
2622.080398581708
 20
2739.438609735899
 30
0.0
 10
2621.219912941159
 20
2739.48057002611
 30
0.0
 10
2620.170112580976
 20
2739.517502171328
 30
0.0
 10
2618.935496063453
 20
2739.54322773795
 30
0.0
 10
2617.598989846251
 20
2739.559073656584
 30
0.0
 10
2616.588959722664
 20
2739.563885326823
 30
0.0
 10
2616.041757506828
 20
2739.564124910319
 30
0.0
 10
2615.945458565361
 20
2739.564167073228
 30
0.0
  0
SPLINE
  5
1ED
330
1F
100
AcDbEntity
  8
0
  6
Continuous
 62
     7
370
    25
100
AcDbSpline
210
0.0
220
0.0
230
1.0
 70
     8
 71
     3
 72
    13
 73
     9
 74
     0
 42
0.00000001
 43
0.00000001
 40
0.0
 40
0.0
 40
0.0
 40
0.0
 40
0.097179005642379
 40
0.2845710337029214
 40
0.4775192778487234
 40
0.6890792027696044
 40
0.8771625243237096
 40
1.0
 40
1.0
 40
1.0
 40
1.0
 10
2615.945458565361
 20
2739.564167073228
 30
0.0
 10
2615.698437493651
 20
2739.563905304352
 30
0.0
 10
2614.975081237245
 20
2739.563138761833
 30
0.0
 10
2613.782482825118
 20
2739.554264289769
 30
0.0
 10
2612.412409207463
 20
2739.534024945499
 30
0.0
 10
2611.178104082203
 20
2739.500007999576
 30
0.0
 10
2610.14833539851
 20
2739.460504786331
 30
0.0
 10
2609.441932094415
 20
2739.406884625926
 30
0.0
 10
2609.162848805495
 20
2739.385700564878
 30
0.0
  0
LINE
  5
1EE
330
1F
100
AcDbEntity
  8
0
  6
Continuous
 62
     7
370
    25
100
AcDbLine
 10
2620.4454585654
 20
2734.2716549046
 30
0.0
 11
2620.4454585654
 21
2736.5321061976
 31
0.0
  0
LINE
  5
1EF
330
1F
100
AcDbEntity
  8
0
  6
Continuous
 62
     7
370
    25
100
AcDbLine
 10
2611.4454585654
 20
2736.5321061976
 30
0.0
 11
2611.4454585654
 21
2734.2716549046
 31
0.0
  0
LINE
  5
1F0
330
1F
100
AcDbEntity
  8
0
  6
Continuous
 62
     7
370
    25
100
AcDbLine
 10
2650.4454585654
 20
2335.7716549046
 30
0.0
 11
2204.4454585654
 21
2335.7716549046
 31
0.0
  0
LINE
  5
1F1
330
1F
100
AcDbEntity
  8
0
  6
Continuous
 62
     7
370
    25
100
AcDbLine
 10
2204.4454585654
 20
2335.7716549046
 30
0.0
 11
2204.4454585654
 21
2339.5544432211
 31
0.0
  0
LINE
  5
1F2
330
1F
100
AcDbEntity
  8
0
  6
Continuous
 62
     7
370
    25
100
AcDbLine
 10
2650.4454585654
 20
2335.7716549046
 30
0.0
 11
2650.4454585654
 21
2339.5544432176
 31
0.0
  0
LINE
  5
1F3
330
1F
100
AcDbEntity
  8
0
  6
Continuous
 62
     7
370
    25
100
AcDbLine
 10
2652.9454585654
 20
2734.2716549046
 30
0.0
 11
2652.9454585654
 21
2355.2716549046
 31
0.0
  0
LINE
  5
1F4
330
1F
100
AcDbEntity
  8
0
  6
Continuous
 62
     7
370
    25
100
AcDbLine
 10
2652.9454585654
 20
2355.2716549046
 30
0.0
 11
2202.4454585654
 21
2355.2716549046
 31
0.0
  0
LINE
  5
1F5
330
1F
100
AcDbEntity
  8
0
  6
Continuous
 62
     7
370
    25
100
AcDbLine
 10
2652.9454585654
 20
2734.2716549046
 30
0.0
 11
2202.4454585654
 21
2734.2716549046
 31
0.0
  0
LINE
  5
1F6
330
1F
100
AcDbEntity
  8
0
  6
Continuous
 62
     7
370
    25
100
AcDbLine
 10
2202.4454585654
 20
2734.2716549046
 30
0.0
 11
2202.4454585654
 21
2355.2716549046
 31
0.0
  0
LINE
  5
1F7
330
1F
100
AcDbEntity
  8
0
  6
Continuous
 62
     7
370
    25
100
AcDbLine
 10
2650.4454585654
 20
2340.6517917236
 30
0.0
 11
2650.4454585654
 21
2339.7217068246
 31
0.0
  0
ARC
  5
1F8
330
1F
100
AcDbEntity
  8
0
  6
Continuous
 62
     7
370
    25
100
AcDbCircle
 10
2650.2940746856
 20
2340.013930987
 30
0.0
 40
0.3291079460453671
100
AcDbArc
 50
261.5051279083
 51
297.3859751201
  0
LINE
  5
1F9
330
1F
100
AcDbEntity
  8
0
  6
Continuous
 62
     7
370
    25
100
AcDbLine
 10
2650.2454585654
 20
2339.6884336552
 30
0.0
 11
2650.2454585654
 21
2340.851039779
 31
0.0
  0
ARC
  5
1FA
330
1F
100
AcDbEntity
  8
0
  6
Continuous
 62
     7
370
    25
100
AcDbCircle
 10
2650.2458338309
 20
2340.6514150419
 30
0.0
 40
0.1996250898578184
100
AcDbArc
 50
0.1081141021
 51
90.1077076225
  0
LINE
  5
1FB
330
1F
100
AcDbEntity
  8
0
  6
Continuous
 62
     7
370
    25
100
AcDbLine
 10
2650.2454585654
 20
2340.851039779
 30
0.0
 11
2648.4454585654
 21
2340.851039779
 31
0.0
  0
LINE
  5
1FC
330
1F
100
AcDbEntity
  8
0
  6
Continuous
 62
     7
370
    25
100
AcDbLine
 10
2650.2454585654
 20
2339.6884336552
 30
0.0
 11
2648.4454585654
 21
2339.6884336552
 31
0.0
  0
LINE
  5
1FD
330
1F
100
AcDbEntity
  8
0
  6
Continuous
 62
     7
370
    25
100
AcDbLine
 10
2648.4454585654
 20
2340.851039779
 30
0.0
 11
2648.4454585654
 21
2339.6884336552
 31
0.0
  0
LINE
  5
1FE
330
1F
100
AcDbEntity
  8
0
  6
Continuous
 62
     7
370
    25
100
AcDbLine
 10
2650.2454585654
 20
2339.2716651334
 30
0.0
 11
2650.2454585654
 21
2339.6884336552
 31
0.0
  0
LINE
  5
1FF
330
1F
100
AcDbEntity
  8
0
  6
Continuous
 62
     7
370
    25
100
AcDbLine
 10
2650.2454585654
 20
2339.2716651334
 30
0.0
 11
2648.4454585654
 21
2339.2716651334
 31
0.0
  0
LINE
  5
200
330
1F
100
AcDbEntity
  8
0
  6
Continuous
 62
     7
370
    25
100
AcDbLine
 10
2648.4454585654
 20
2339.6884336552
 30
0.0
 11
2648.4454585654
 21
2339.2716651334
 31
0.0
  0
LINE
  5
201
330
1F
100
AcDbEntity
  8
0
  6
Continuous
 62
     7
370
    25
100
AcDbLine
 10
2650.4454585654
 20
2339.7217068246
 30
0.0
 11
2650.4454585654
 21
2339.5544432211
 31
0.0
  0
SPLINE
  5
202
330
1F
100
AcDbEntity
  8
0
  6
Continuous
 62
     7
370
    25
100
AcDbSpline
210
0.0
220
0.0
230
1.0
 70
     8
 71
     3
 72
    13
 73
     9
 74
     0
 42
0.00000001
 43
0.00000001
 40
0.0
 40
0.0
 40
0.0
 40
0.0
 40
0.0075029974114413
 40
0.3818974549664034
 40
0.6070018873272421
 40
0.7653769096343175
 40
0.882460504981042
 40
1.0
 40
1.0
 40
1.0
 40
1.0
 10
2650.445458565365
 20
2339.554443221124
 30
0.0
 10
2650.44545760976
 20
2339.553425444508
 30
0.0
 10
2650.445408970148
 20
2339.501621308367
 30
0.0
 10
2650.439286865407
 20
2339.423035943002
 30
0.0
 10
2650.397270759933
 20
2339.340396478969
 30
0.0
 10
2650.348459957967
 20
2339.29830036087
 30
0.0
 10
2650.297729310651
 20
2339.275776934036
 30
0.0
 10
2650.262904703201
 20
2339.273037507922
 30
0.0
 10
2650.245458565365
 20
2339.271665133354
 30
0.0
  0
LINE
  5
203
330
1F
100
AcDbEntity
  8
0
  6
Continuous
 62
     7
370
    25
100
AcDbLine
 10
2650.2454585654
 20
2340.851039779
 30
0.0
 11
2650.2454585654
 21
2341.6922283976
 31
0.0
  0
ARC
  5
204
330
1F
100
AcDbEntity
  8
0
  6
Continuous
 62
     7
370
    25
100
AcDbCircle
 10
2650.2458338309
 20
2341.4926036605
 30
0.0
 40
0.1996250898578184
100
AcDbArc
 50
0.1081141021
 51
90.1077076225
  0
LINE
  5
205
330
1F
100
AcDbEntity
  8
0
  6
Continuous
 62
     7
370
    25
100
AcDbLine
 10
2650.4454585654
 20
2341.4929803423
 30
0.0
 11
2650.4454585654
 21
2340.6517917236
 31
0.0
  0
LINE
  5
206
330
1F
100
AcDbEntity
  8
0
  6
Continuous
 62
     7
370
    25
100
AcDbLine
 10
2650.2454585654
 20
2341.6922283976
 30
0.0
 11
2648.4454585654
 21
2341.6922283976
 31
0.0
  0
LINE
  5
207
330
1F
100
AcDbEntity
  8
0
  6
Continuous
 62
     7
370
    25
100
AcDbLine
 10
2648.4454585654
 20
2341.6922283976
 30
0.0
 11
2648.4454585654
 21
2340.851039779
 31
0.0
  0
LINE
  5
208
330
1F
100
AcDbEntity
  8
0
  6
Continuous
 62
     7
370
    25
100
AcDbLine
 10
2650.2454585654
 20
2341.6922283976
 30
0.0
 11
2650.2454585654
 21
2342.6884686746
 31
0.0
  0
LINE
  5
209
330
1F
100
AcDbEntity
  8
0
  6
Continuous
 62
     7
370
    25
100
AcDbLine
 10
2650.2454585654
 20
2342.6884686746
 30
0.0
 11
2650.4454585654
 21
2342.6884686746
 31
0.0
  0
LINE
  5
20A
330
1F
100
AcDbEntity
  8
0
  6
Continuous
 62
     7
370
    25
100
AcDbLine
 10
2650.4454585654
 20
2342.6884686746
 30
0.0
 11
2650.4454585654
 21
2341.4929803423
 31
0.0
  0
LINE
  5
20B
330
1F
100
AcDbEntity
  8
0
  6
Continuous
 62
     7
370
    25
100
AcDbLine
 10
2648.4454585654
 20
2342.6884686746
 30
0.0
 11
2650.2454585654
 21
2342.6884686746
 31
0.0
  0
LINE
  5
20C
330
1F
100
AcDbEntity
  8
0
  6
Continuous
 62
     7
370
    25
100
AcDbLine
 10
2648.4454585654
 20
2342.6884686746
 30
0.0
 11
2648.4454585654
 21
2341.6922283976
 31
0.0
  0
LINE
  5
20D
330
1F
100
AcDbEntity
  8
0
  6
Continuous
 62
     7
370
    25
100
AcDbLine
 10
2650.2454585654
 20
2353.0716549046
 30
0.0
 11
2650.2454585654
 21
2354.0716549046
 31
0.0
  0
ARC
  5
20E
330
1F
100
AcDbEntity
  8
0
  6
Continuous
 62
     7
370
    25
100
AcDbCircle
 10
2650.2454585654
 20
2353.8716549046
 30
0.0
 40
0.1999999999998181
100
AcDbArc
 50
0.0
 51
90.0
  0
LINE
  5
20F
330
1F
100
AcDbEntity
  8
0
  6
Continuous
 62
     7
370
    25
100
AcDbLine
 10
2650.2454585654
 20
2353.0716549046
 30
0.0
 11
2650.4454585654
 21
2353.0716549046
 31
0.0
  0
LINE
  5
210
330
1F
100
AcDbEntity
  8
0
  6
Continuous
 62
     7
370
    25
100
AcDbLine
 10
2650.4454585654
 20
2353.8716549046
 30
0.0
 11
2650.4454585654
 21
2353.0716549046
 31
0.0
  0
LINE
  5
211
330
1F
100
AcDbEntity
  8
0
  6
Continuous
 62
     7
370
    25
100
AcDbLine
 10
2648.4454585654
 20
2354.0716549046
 30
0.0
 11
2650.2454585654
 21
2354.0716549046
 31
0.0
  0
LINE
  5
212
330
1F
100
AcDbEntity
  8
0
  6
Continuous
 62
     7
370
    25
100
AcDbLine
 10
2650.2454585654
 20
2353.0716549046
 30
0.0
 11
2648.4454585654
 21
2353.0716549046
 31
0.0
  0
LINE
  5
213
330
1F
100
AcDbEntity
  8
0
  6
Continuous
 62
     7
370
    25
100
AcDbLine
 10
2648.4454585654
 20
2353.0716549046
 30
0.0
 11
2648.4454585654
 21
2354.0716549046
 31
0.0
  0
LINE
  5
214
330
1F
100
AcDbEntity
  8
0
  6
Continuous
 62
     7
370
    25
100
AcDbLine
 10
2650.2454585654
 20
2342.6884686746
 30
0.0
 11
2650.2454585654
 21
2353.0716549046
 31
0.0
  0
LINE
  5
215
330
1F
100
AcDbEntity
  8
0
  6
Continuous
 62
     7
370
    25
100
AcDbLine
 10
2648.4454585654
 20
2353.0716549046
 30
0.0
 11
2648.4454585654
 21
2342.6884686746
 31
0.0
  0
LINE
  5
216
330
1F
100
AcDbEntity
  8
0
  6
Continuous
 62
     7
370
    25
100
AcDbLine
 10
2650.4454585654
 20
2353.0716549046
 30
0.0
 11
2650.4454585654
 21
2342.6884686746
 31
0.0
  0
LINE
  5
217
330
1F
100
AcDbEntity
  8
0
  6
Continuous
 62
     7
370
    25
100
AcDbLine
 10
2648.4454585654
 20
2340.851039779
 30
0.0
 11
2206.4454585654
 21
2340.851039779
 31
0.0
  0
LINE
  5
218
330
1F
100
AcDbEntity
  8
0
  6
Continuous
 62
     7
370
    25
100
AcDbLine
 10
2648.4454585654
 20
2339.6884336552
 30
0.0
 11
2206.4454585654
 21
2339.6884336552
 31
0.0
  0
LINE
  5
219
330
1F
100
AcDbEntity
  8
0
  6
Continuous
 62
     7
370
    25
100
AcDbLine
 10
2206.4454585654
 20
2339.6884336552
 30
0.0
 11
2206.4454585654
 21
2340.851039779
 31
0.0
  0
LINE
  5
21A
330
1F
100
AcDbEntity
  8
0
  6
Continuous
 62
     7
370
    25
100
AcDbLine
 10
2648.4454585654
 20
2339.2716651334
 30
0.0
 11
2206.4454585654
 21
2339.2716651334
 31
0.0
  0
LINE
  5
21B
330
1F
100
AcDbEntity
  8
0
  6
Continuous
 62
     7
370
    25
100
AcDbLine
 10
2206.4454585654
 20
2339.2716651334
 30
0.0
 11
2206.4454585654
 21
2339.6884336552
 31
0.0
  0
LINE
  5
21C
330
1F
100
AcDbEntity
  8
0
  6
Continuous
 62
     7
370
    25
100
AcDbLine
 10
2648.4454585654
 20
2341.6922283976
 30
0.0
 11
2206.4454585654
 21
2341.6922283976
 31
0.0
  0
LINE
  5
21D
330
1F
100
AcDbEntity
  8
0
  6
Continuous
 62
     7
370
    25
100
AcDbLine
 10
2206.4454585654
 20
2340.851039779
 30
0.0
 11
2206.4454585654
 21
2341.6922283976
 31
0.0
  0
LINE
  5
21E
330
1F
100
AcDbEntity
  8
0
  6
Continuous
 62
     7
370
    25
100
AcDbLine
 10
2206.4454585654
 20
2342.6884686746
 30
0.0
 11
2648.4454585654
 21
2342.6884686746
 31
0.0
  0
LINE
  5
21F
330
1F
100
AcDbEntity
  8
0
  6
Continuous
 62
     7
370
    25
100
AcDbLine
 10
2206.4454585654
 20
2341.6922283976
 30
0.0
 11
2206.4454585654
 21
2342.6884686746
 31
0.0
  0
LINE
  5
220
330
1F
100
AcDbEntity
  8
0
  6
Continuous
 62
     7
370
    25
100
AcDbLine
 10
2648.4454585654
 20
2353.0716549046
 30
0.0
 11
2206.4454585654
 21
2353.0716549046
 31
0.0
  0
LINE
  5
221
330
1F
100
AcDbEntity
  8
0
  6
Continuous
 62
     7
370
    25
100
AcDbLine
 10
2206.4454585654
 20
2342.6884686746
 30
0.0
 11
2206.4454585654
 21
2353.0716549046
 31
0.0
  0
LINE
  5
222
330
1F
100
AcDbEntity
  8
0
  6
Continuous
 62
     7
370
    25
100
AcDbLine
 10
2206.4454585654
 20
2354.0716549046
 30
0.0
 11
2648.4454585654
 21
2354.0716549046
 31
0.0
  0
LINE
  5
223
330
1F
100
AcDbEntity
  8
0
  6
Continuous
 62
     7
370
    25
100
AcDbLine
 10
2206.4454585654
 20
2354.0716549046
 30
0.0
 11
2206.4454585654
 21
2353.0716549046
 31
0.0
  0
LINE
  5
224
330
1F
100
AcDbEntity
  8
0
  6
Continuous
 62
     7
370
    25
100
AcDbLine
 10
2206.4454585654
 20
2339.6884336552
 30
0.0
 11
2204.6454585654
 21
2339.6884336552
 31
0.0
  0
LINE
  5
225
330
1F
100
AcDbEntity
  8
0
  6
Continuous
 62
     7
370
    25
100
AcDbLine
 10
2204.6454585654
 20
2340.851039779
 30
0.0
 11
2204.6454585654
 21
2339.6884336552
 31
0.0
  0
LINE
  5
226
330
1F
100
AcDbEntity
  8
0
  6
Continuous
 62
     7
370
    25
100
AcDbLine
 10
2206.4454585654
 20
2340.851039779
 30
0.0
 11
2204.6454585654
 21
2340.851039779
 31
0.0
  0
LINE
  5
227
330
1F
100
AcDbEntity
  8
0
  6
Continuous
 62
     7
370
    25
100
AcDbLine
 10
2204.4454585654
 20
2339.7217068246
 30
0.0
 11
2204.4454585654
 21
2340.6517917236
 31
0.0
  0
ARC
  5
228
330
1F
100
AcDbEntity
  8
0
  6
Continuous
 62
     7
370
    25
100
AcDbCircle
 10
2204.6450832998
 20
2340.6514150419
 30
0.0
 40
0.1996250898564567
100
AcDbArc
 50
89.8922923771
 51
179.8918858983
  0
ARC
  5
229
330
1F
100
AcDbEntity
  8
0
  6
Continuous
 62
     7
370
    25
100
AcDbCircle
 10
2204.5968424451
 20
2340.013930987
 30
0.0
 40
0.3291079460453222
100
AcDbArc
 50
242.6140248797
 51
278.4948720915
  0
LINE
  5
22A
330
1F
100
AcDbEntity
  8
0
  6
Continuous
 62
     7
370
    25
100
AcDbLine
 10
2206.4454585654
 20
2339.2716651334
 30
0.0
 11
2204.6454585654
 21
2339.2716651334
 31
0.0
  0
LINE
  5
22B
330
1F
100
AcDbEntity
  8
0
  6
Continuous
 62
     7
370
    25
100
AcDbLine
 10
2204.6454585654
 20
2339.6884336552
 30
0.0
 11
2204.6454585654
 21
2339.2716651334
 31
0.0
  0
LINE
  5
22C
330
1F
100
AcDbEntity
  8
0
  6
Continuous
 62
     7
370
    25
100
AcDbLine
 10
2204.4454585654
 20
2339.5544432211
 30
0.0
 11
2204.4454585654
 21
2339.7217068246
 31
0.0
  0
SPLINE
  5
22D
330
1F
100
AcDbEntity
  8
0
  6
Continuous
 62
     7
370
    25
100
AcDbSpline
210
0.0
220
0.0
230
1.0
 70
     8
 71
     3
 72
    13
 73
     9
 74
     0
 42
0.00000001
 43
0.00000001
 40
0.0
 40
0.0
 40
0.0
 40
0.0
 40
0.0075029974113241
 40
0.3818974549655675
 40
0.6070018873266094
 40
0.7653769096339128
 40
0.8824605049806455
 40
0.9999999999999999
 40
0.9999999999999999
 40
0.9999999999999999
 40
0.9999999999999999
 10
2204.445458565361
 20
2339.554443221123
 30
0.0
 10
2204.445459520966
 20
2339.553425444507
 30
0.0
 10
2204.445508160581
 20
2339.501621308369
 30
0.0
 10
2204.45163026532
 20
2339.423035943001
 30
0.0
 10
2204.493646370794
 20
2339.340396478968
 30
0.0
 10
2204.54245717276
 20
2339.29830036087
 30
0.0
 10
2204.593187820075
 20
2339.275776934034
 30
0.0
 10
2204.628012427526
 20
2339.273037507921
 30
0.0
 10
2204.645458565362
 20
2339.271665133353
 30
0.0
  0
LINE
  5
22E
330
1F
100
AcDbEntity
  8
0
  6
Continuous
 62
     7
370
    25
100
AcDbLine
 10
2204.6454585654
 20
2341.6922283976
 30
0.0
 11
2204.6454585654
 21
2340.851039779
 31
0.0
  0
LINE
  5
22F
330
1F
100
AcDbEntity
  8
0
  6
Continuous
 62
     7
370
    25
100
AcDbLine
 10
2206.4454585654
 20
2341.6922283976
 30
0.0
 11
2204.6454585654
 21
2341.6922283976
 31
0.0
  0
ARC
  5
230
330
1F
100
AcDbEntity
  8
0
  6
Continuous
 62
     7
370
    25
100
AcDbCircle
 10
2204.6450832998
 20
2341.4926036605
 30
0.0
 40
0.1996250898575798
100
AcDbArc
 50
89.8922923775
 51
179.891885898
  0
LINE
  5
231
330
1F
100
AcDbEntity
  8
0
  6
Continuous
 62
     7
370
    25
100
AcDbLine
 10
2204.4454585654
 20
2340.6517917236
 30
0.0
 11
2204.4454585654
 21
2341.4929803423
 31
0.0
  0
LINE
  5
232
330
1F
100
AcDbEntity
  8
0
  6
Continuous
 62
     7
370
    25
100
AcDbLine
 10
2204.4454585654
 20
2342.6884686746
 30
0.0
 11
2204.6454585654
 21
2342.6884686746
 31
0.0
  0
LINE
  5
233
330
1F
100
AcDbEntity
  8
0
  6
Continuous
 62
     7
370
    25
100
AcDbLine
 10
2204.6454585654
 20
2342.6884686746
 30
0.0
 11
2204.6454585654
 21
2341.6922283976
 31
0.0
  0
LINE
  5
234
330
1F
100
AcDbEntity
  8
0
  6
Continuous
 62
     7
370
    25
100
AcDbLine
 10
2204.4454585654
 20
2341.4929803423
 30
0.0
 11
2204.4454585654
 21
2342.6884686746
 31
0.0
  0
LINE
  5
235
330
1F
100
AcDbEntity
  8
0
  6
Continuous
 62
     7
370
    25
100
AcDbLine
 10
2204.6454585654
 20
2342.6884686746
 30
0.0
 11
2206.4454585654
 21
2342.6884686746
 31
0.0
  0
LINE
  5
236
330
1F
100
AcDbEntity
  8
0
  6
Continuous
 62
     7
370
    25
100
AcDbLine
 10
2204.4454585654
 20
2353.0716549046
 30
0.0
 11
2204.6454585654
 21
2353.0716549046
 31
0.0
  0
LINE
  5
237
330
1F
100
AcDbEntity
  8
0
  6
Continuous
 62
     7
370
    25
100
AcDbLine
 10
2204.6454585654
 20
2353.0716549046
 30
0.0
 11
2204.6454585654
 21
2342.6884686746
 31
0.0
  0
LINE
  5
238
330
1F
100
AcDbEntity
  8
0
  6
Continuous
 62
     7
370
    25
100
AcDbLine
 10
2204.4454585654
 20
2342.6884686746
 30
0.0
 11
2204.4454585654
 21
2353.0716549046
 31
0.0
  0
ARC
  5
239
330
1F
100
AcDbEntity
  8
0
  6
Continuous
 62
     7
370
    25
100
AcDbCircle
 10
2204.6454585654
 20
2353.8716549046
 30
0.0
 40
0.1999999999998181
100
AcDbArc
 50
90.0
 51
180.0
  0
LINE
  5
23A
330
1F
100
AcDbEntity
  8
0
  6
Continuous
 62
     7
370
    25
100
AcDbLine
 10
2204.6454585654
 20
2354.0716549046
 30
0.0
 11
2204.6454585654
 21
2353.0716549046
 31
0.0
  0
LINE
  5
23B
330
1F
100
AcDbEntity
  8
0
  6
Continuous
 62
     7
370
    25
100
AcDbLine
 10
2204.4454585654
 20
2353.0716549046
 30
0.0
 11
2204.4454585654
 21
2353.8716549046
 31
0.0
  0
LINE
  5
23C
330
1F
100
AcDbEntity
  8
0
  6
Continuous
 62
     7
370
    25
100
AcDbLine
 10
2206.4454585654
 20
2353.0716549046
 30
0.0
 11
2204.6454585654
 21
2353.0716549046
 31
0.0
  0
LINE
  5
23D
330
1F
100
AcDbEntity
  8
0
  6
Continuous
 62
     7
370
    25
100
AcDbLine
 10
2204.6454585654
 20
2354.0716549046
 30
0.0
 11
2206.4454585654
 21
2354.0716549046
 31
0.0
  0
ARC
  5
23E
330
1F
100
AcDbEntity
  8
0
  6
Continuous
 62
     7
370
    25
100
AcDbCircle
 10
2352.4487994326
 20
2929.2477776085
 30
0.0
 40
190.3064363688283
100
AcDbArc
 50
269.697921602
 51
271.9898299981
  0
ARC
  5
23F
330
1F
100
AcDbEntity
  8
0
  6
Continuous
 62
     7
370
    25
100
AcDbCircle
 10
2350.8807674913
 20
2973.5241370732
 30
0.0
 40
234.5808305619563
100
AcDbArc
 50
268.5008299501
 51
270.1379245117
  0
ARC
  5
240
330
1F
100
AcDbEntity
  8
0
  6
Continuous
 62
     7
370
    25
100
AcDbCircle
 10
2354.2883976532
 20
2819.5040519049
 30
0.0
 40
82.58290404783168
100
AcDbArc
 50
268.0271873052
 51
274.971785139
  0
ARC
  5
241
330
1F
100
AcDbEntity
  8
0
  6
Continuous
 62
     7
370
    25
100
AcDbCircle
 10
2348.8258447337
 20
2828.0354228505
 30
0.0
 40
91.10299653501026
100
AcDbArc
 50
265.3532935281
 51
271.6477340277
  0
SPLINE
  5
242
330
1F
100
AcDbEntity
  8
0
  6
Continuous
 62
     7
370
    25
100
AcDbSpline
210
0.0
220
0.0
230
1.0
 70
     8
 71
     3
 72
    19
 73
    15
 74
     0
 42
0.00000001
 43
0.00000001
 40
0.0
 40
0.0
 40
0.0
 40
0.0
 40
0.0906600731281354
 40
0.2050734138973778
 40
0.2719074979493469
 40
0.3443210476357728
 40
0.420998326212042
 40
0.4999999792228207
 40
0.5790016347260314
 40
0.6556789199260065
 40
0.7280924783130883
 40
0.7949265709542315
 40
0.9093399235673912
 40
0.9999999999999999
 40
0.9999999999999999
 40
0.9999999999999999
 40
0.9999999999999999
 10
2361.245458565362
 20
2737.031934860083
 30
0.0
 10
2361.168604520695
 20
2737.007709314846
 30
0.0
 10
2360.994760393199
 20
2736.952911043747
 30
0.0
 10
2359.674903170725
 20
2736.886527760367
 30
0.0
 10
2357.918984010528
 20
2736.836615149719
 30
0.0
 10
2356.095890405645
 20
2736.803484284441
 30
0.0
 10
2353.914524317422
 20
2736.781051426676
 30
0.0
 10
2351.521572113835
 20
2736.772789316645
 30
0.0
 10
2349.124049624952
 20
2736.780087282529
 30
0.0
 10
2346.929764294537
 20
2736.80163948427
 30
0.0
 10
2345.087425031513
 20
2736.834032633702
 30
0.0
 10
2343.302394606038
 20
2736.883232581902
 30
0.0
 10
2341.943699588437
 20
2736.949076769695
 30
0.0
 10
2341.737687244346
 20
2737.00379859248
 30
0.0
 10
2341.646612086787
 20
2737.027990340087
 30
0.0
  0
LINE
  5
243
330
1F
100
AcDbEntity
  8
0
  6
Continuous
 62
     7
370
    25
100
AcDbLine
 10
2344.475490279
 20
2739.3742254403
 30
0.0
 11
2344.5274519143
 21
2739.3783936567
 31
0.0
  0
LINE
  5
244
330
1F
100
AcDbEntity
  8
0
  6
Continuous
 62
     7
370
    25
100
AcDbLine
 10
2356.1356302781
 20
2739.43111244
 30
0.0
 11
2356.1346783417
 21
2739.4335859309
 31
0.0
  0
LWPOLYLINE
  5
245
330
1F
100
AcDbEntity
  8
0
  6
Continuous
 62
     7
370
    25
100
AcDbPolyline
 90
       23
 70
   128
 43
0.0
 10
2356.1346783417
 20
2739.4335859309
 10
2355.9194017973
 20
2739.4679610176
 10
2355.3439780751
 20
2739.499369837
 10
2354.4547281093
 20
2739.5252840161
 10
2353.3232354781
 20
2739.5436174939
 10
2352.04058401
 20
2739.5528944469
 10
2350.7100256422
 20
2739.5523680914
 10
2349.4386687613
 20
2739.5420807983
 10
2348.3288561037
 20
2739.5228606826
 10
2347.4699262854
 20
2739.4962549411
 10
2346.9310221483
 20
2739.4644053047
 10
2346.7555248428
 20
2739.4298756318
 10
2346.9575616959
 20
2739.3954455205
 10
2347.5208689783
 20
2739.3638865544
 10
2348.4001011149
 20
2739.3377391931
 10
2349.5244809511
 20
2739.3191082686
 10
2350.8034972299
 20
2739.3094935484
 10
2352.1341906426
 20
2739.3096690062
 10
2353.4094419316
 20
2739.3196205179
 10
2354.5265948654
 20
2739.3385469983
 10
2355.3957199443
 20
2739.3649248882
 10
2355.9468536198
 20
2739.3966307983
 10
2356.1356302781
 20
2739.43111244
  0
SPLINE
  5
246
330
1F
100
AcDbEntity
  8
0
  6
Continuous
 62
     7
370
    25
100
AcDbSpline
210
0.0
220
0.0
230
1.0
 70
     8
 71
     3
 72
     9
 73
     5
 74
     0
 42
0.00000001
 43
0.00000001
 40
0.0
 40
0.0
 40
0.0
 40
0.0
 40
0.6491278371832058
 40
1.0
 40
1.0
 40
1.0
 40
1.0
 10
2346.947887259401
 20
2736.53597581535
 30
0.0
 10
2346.94215550179
 20
2736.608858706494
 30
0.0
 10
2346.933325565247
 20
2736.721136884951
 30
0.0
 10
2346.859869555148
 20
2736.803542869046
 30
0.0
 10
2346.834095886012
 20
2736.832456834915
 30
0.0
  0
LINE
  5
247
330
1F
100
AcDbEntity
  8
0
  6
Continuous
 62
     7
370
    25
100
AcDbLine
 10
2348.9996091614
 20
2739.4176313116
 30
0.0
 11
2350.9304585654
 21
2739.4176313116
 31
0.0
  0
LINE
  5
248
330
1F
100
AcDbEntity
  8
0
  6
Continuous
 62
     7
370
    25
100
AcDbLine
 10
2350.9304585654
 20
2739.4176313116
 30
0.0
 11
2350.9304585654
 21
2739.3670875666
 31
0.0
  0
ARC
  5
249
330
1F
100
AcDbEntity
  8
0
  6
Continuous
 62
     7
370
    25
100
AcDbCircle
 10
2351.4454585654
 20
2833.6549486596
 30
0.0
 40
94.28926754671217
100
AcDbArc
 50
269.687053745
 51
270.312946255
  0
LINE
  5
24A
330
1F
100
AcDbEntity
  8
0
  6
Continuous
 62
     7
370
    25
100
AcDbLine
 10
2351.9604585654
 20
2739.3670875666
 30
0.0
 11
2351.9604585654
 21
2739.4176313116
 31
0.0
  0
LINE
  5
24B
330
1F
100
AcDbEntity
  8
0
  6
Continuous
 62
     7
370
    25
100
AcDbLine
 10
2351.9604585654
 20
2739.4176313116
 30
0.0
 11
2353.8913079693
 21
2739.4176313116
 31
0.0
  0
LWPOLYLINE
  5
24C
330
1F
100
AcDbEntity
  8
0
  6
Continuous
 62
     7
370
    25
100
AcDbPolyline
 90
        9
 70
   128
 43
0.0
 10
2353.8913079693
 20
2739.4445935684
 10
2353.9147242752
 20
2739.44125516
 10
2353.9314953661
 20
2739.4378894559
 10
2353.9415761084
 20
2739.4345055136
 10
2353.9449393728
 20
2739.43111244
 10
2353.9415761084
 20
2739.4277193664
 10
2353.9314953661
 20
2739.4243354242
 10
2353.9147242752
 20
2739.42096972
 10
2353.8913079693
 20
2739.4176313116
  0
LINE
  5
24D
330
1F
100
AcDbEntity
  8
0
  6
Continuous
 62
     7
370
    25
100
AcDbLine
 10
2353.8913079693
 20
2739.4445935684
 30
0.0
 11
2351.9604585654
 21
2739.4445935684
 31
0.0
  0
LINE
  5
24E
330
1F
100
AcDbEntity
  8
0
  6
Continuous
 62
     7
370
    25
100
AcDbLine
 10
2351.9604585654
 20
2739.4445935684
 30
0.0
 11
2351.9604585654
 21
2739.4951373134
 31
0.0
  0
ARC
  5
24F
330
1F
100
AcDbEntity
  8
0
  6
Continuous
 62
     7
370
    25
100
AcDbCircle
 10
2351.4454585654
 20
2645.2072761831
 30
0.0
 40
94.28926758397998
100
AcDbArc
 50
89.6870537451
 51
90.3129462549
  0
LINE
  5
250
330
1F
100
AcDbEntity
  8
0
  6
Continuous
 62
     7
370
    25
100
AcDbLine
 10
2350.9304585654
 20
2739.4951373134
 30
0.0
 11
2350.9304585654
 21
2739.4445935684
 31
0.0
  0
LINE
  5
251
330
1F
100
AcDbEntity
  8
0
  6
Continuous
 62
     7
370
    25
100
AcDbLine
 10
2350.9304585654
 20
2739.4445935684
 30
0.0
 11
2348.9996091614
 21
2739.4445935684
 31
0.0
  0
LWPOLYLINE
  5
252
330
1F
100
AcDbEntity
  8
0
  6
Continuous
 62
     7
370
    25
100
AcDbPolyline
 90
        9
 70
   128
 43
0.0
 10
2348.9996091614
 20
2739.4176313116
 10
2348.9761928556
 20
2739.42096972
 10
2348.9594217646
 20
2739.4243354242
 10
2348.9493410224
 20
2739.4277193664
 10
2348.9459777579
 20
2739.43111244
 10
2348.9493410224
 20
2739.4345055136
 10
2348.9594217646
 20
2739.4378894559
 10
2348.9761928556
 20
2739.44125516
 10
2348.9996091614
 20
2739.4445935684
  0
LINE
  5
253
330
1F
100
AcDbEntity
  8
0
  6
Continuous
 62
     7
370
    25
100
AcDbLine
 10
2349.0133329309
 20
2739.4176313116
 30
0.0
 11
2348.9996091614
 21
2739.4445935684
 31
0.0
  0
LINE
  5
254
330
1F
100
AcDbEntity
  8
0
  6
Continuous
 62
     7
370
    25
100
AcDbLine
 10
2351.9604585654
 20
2739.4445935684
 30
0.0
 11
2351.9604585654
 21
2739.4176313116
 31
0.0
  0
LINE
  5
255
330
1F
100
AcDbEntity
  8
0
  6
Continuous
 62
     7
370
    25
100
AcDbLine
 10
2350.9304585654
 20
2739.4445935684
 30
0.0
 11
2350.9304585654
 21
2739.4176313116
 31
0.0
  0
ARC
  5
256
330
1F
100
AcDbEntity
  8
0
  6
Continuous
 62
     7
370
    25
100
AcDbCircle
 10
2616.9487994325
 20
2929.2477776091
 30
0.0
 40
190.3064363694425
100
AcDbArc
 50
269.697921602
 51
271.989829998
  0
ARC
  5
257
330
1F
100
AcDbEntity
  8
0
  6
Continuous
 62
     7
370
    25
100
AcDbCircle
 10
2615.3807674913
 20
2973.5241370729
 30
0.0
 40
234.5808305616999
100
AcDbArc
 50
268.5008299501
 51
270.1379245117
  0
ARC
  5
258
330
1F
100
AcDbEntity
  8
0
  6
Continuous
 62
     7
370
    25
100
AcDbCircle
 10
2618.7883976532
 20
2819.5040519046
 30
0.0
 40
82.5829040475814
100
AcDbArc
 50
268.0271873052
 51
274.9717851391
  0
ARC
  5
259
330
1F
100
AcDbEntity
  8
0
  6
Continuous
 62
     7
370
    25
100
AcDbCircle
 10
2613.3258447337
 20
2828.0354228505
 30
0.0
 40
91.10299653497754
100
AcDbArc
 50
265.3532935281
 51
271.6477340277
  0
SPLINE
  5
25A
330
1F
100
AcDbEntity
  8
0
  6
Continuous
 62
     7
370
    25
100
AcDbSpline
210
0.0
220
0.0
230
1.0
 70
     8
 71
     3
 72
    19
 73
    15
 74
     0
 42
0.00000001
 43
0.00000001
 40
0.0
 40
0.0
 40
0.0
 40
0.0
 40
0.0906600731281356
 40
0.205073413897378
 40
0.2719074979493467
 40
0.3443210476357731
 40
0.4209983262120417
 40
0.4999999792228215
 40
0.5790016347260316
 40
0.6556789199260065
 40
0.7280924783130887
 40
0.7949265709542314
 40
0.9093399235673914
 40
1.0
 40
1.0
 40
1.0
 40
1.0
 10
2625.745458565361
 20
2737.03193486008
 30
0.0
 10
2625.668604520694
 20
2737.007709314844
 30
0.0
 10
2625.494760393198
 20
2736.952911043745
 30
0.0
 10
2624.174903170723
 20
2736.886527760364
 30
0.0
 10
2622.418984010527
 20
2736.836615149717
 30
0.0
 10
2620.595890405644
 20
2736.803484284439
 30
0.0
 10
2618.414524317421
 20
2736.781051426675
 30
0.0
 10
2616.021572113834
 20
2736.772789316642
 30
0.0
 10
2613.624049624951
 20
2736.780087282526
 30
0.0
 10
2611.429764294536
 20
2736.801639484267
 30
0.0
 10
2609.587425031512
 20
2736.8340326337
 30
0.0
 10
2607.802394606037
 20
2736.8832325819
 30
0.0
 10
2606.443699588436
 20
2736.949076769693
 30
0.0
 10
2606.237687244344
 20
2737.003798592478
 30
0.0
 10
2606.146612086786
 20
2737.027990340085
 30
0.0
  0
LINE
  5
25B
330
1F
100
AcDbEntity
  8
0
  6
Continuous
 62
     7
370
    25
100
AcDbLine
 10
2608.975490279
 20
2739.3742254403
 30
0.0
 11
2609.0274519143
 21
2739.3783936567
 31
0.0
  0
LINE
  5
25C
330
1F
100
AcDbEntity
  8
0
  6
Continuous
 62
     7
370
    25
100
AcDbLine
 10
2620.6356302781
 20
2739.43111244
 30
0.0
 11
2620.6346783417
 21
2739.4335859309
 31
0.0
  0
LWPOLYLINE
  5
25D
330
1F
100
AcDbEntity
  8
0
  6
Continuous
 62
     7
370
    25
100
AcDbPolyline
 90
       23
 70
   128
 43
0.0
 10
2620.6346783417
 20
2739.4335859309
 10
2620.4194017973
 20
2739.4679610176
 10
2619.8439780751
 20
2739.499369837
 10
2618.9547281093
 20
2739.5252840161
 10
2617.8232354781
 20
2739.5436174939
 10
2616.54058401
 20
2739.5528944469
 10
2615.2100256422
 20
2739.5523680914
 10
2613.9386687613
 20
2739.5420807983
 10
2612.8288561037
 20
2739.5228606826
 10
2611.9699262854
 20
2739.4962549411
 10
2611.4310221483
 20
2739.4644053047
 10
2611.2555248428
 20
2739.4298756318
 10
2611.4575616959
 20
2739.3954455205
 10
2612.0208689783
 20
2739.3638865544
 10
2612.9001011149
 20
2739.3377391931
 10
2614.0244809511
 20
2739.3191082686
 10
2615.3034972299
 20
2739.3094935484
 10
2616.6341906426
 20
2739.3096690062
 10
2617.9094419316
 20
2739.3196205179
 10
2619.0265948654
 20
2739.3385469983
 10
2619.8957199443
 20
2739.3649248882
 10
2620.4468536198
 20
2739.3966307983
 10
2620.6356302781
 20
2739.43111244
  0
SPLINE
  5
25E
330
1F
100
AcDbEntity
  8
0
  6
Continuous
 62
     7
370
    25
100
AcDbSpline
210
0.0
220
0.0
230
1.0
 70
     8
 71
     3
 72
     9
 73
     5
 74
     0
 42
0.00000001
 43
0.00000001
 40
0.0
 40
0.0
 40
0.0
 40
0.0
 40
0.7246937986492505
 40
1.0
 40
1.0
 40
1.0
 40
1.0
 10
2611.4478872594
 20
2736.535975815348
 30
0.0
 10
2611.443212180511
 20
2736.609347136477
 30
0.0
 10
2611.436761071231
 20
2736.71059171904
 30
0.0
 10
2611.372422639843
 20
2736.78507896912
 30
0.0
 10
2611.354709870697
 20
2736.805585770989
 30
0.0
  0
LINE
  5
25F
330
1F
100
AcDbEntity
  8
0
  6
Continuous
 62
     7
370
    25
100
AcDbLine
 10
2613.4996091614
 20
2739.4176313116
 30
0.0
 11
2615.4304585654
 21
2739.4176313116
 31
0.0
  0
LINE
  5
260
330
1F
100
AcDbEntity
  8
0
  6
Continuous
 62
     7
370
    25
100
AcDbLine
 10
2615.4304585654
 20
2739.4176313116
 30
0.0
 11
2615.4304585654
 21
2739.3670875666
 31
0.0
  0
ARC
  5
261
330
1F
100
AcDbEntity
  8
0
  6
Continuous
 62
     7
370
    25
100
AcDbCircle
 10
2615.9454585654
 20
2833.6549486222
 30
0.0
 40
94.28926750932794
100
AcDbArc
 50
269.6870537449
 51
270.3129462551
  0
LINE
  5
262
330
1F
100
AcDbEntity
  8
0
  6
Continuous
 62
     7
370
    25
100
AcDbLine
 10
2616.4604585654
 20
2739.3670875666
 30
0.0
 11
2616.4604585654
 21
2739.4176313116
 31
0.0
  0
LINE
  5
263
330
1F
100
AcDbEntity
  8
0
  6
Continuous
 62
     7
370
    25
100
AcDbLine
 10
2616.4604585654
 20
2739.4176313116
 30
0.0
 11
2618.3913079693
 21
2739.4176313116
 31
0.0
  0
LWPOLYLINE
  5
264
330
1F
100
AcDbEntity
  8
0
  6
Continuous
 62
     7
370
    25
100
AcDbPolyline
 90
        9
 70
   128
 43
0.0
 10
2618.3913079693
 20
2739.4445935684
 10
2618.4147242752
 20
2739.44125516
 10
2618.4314953661
 20
2739.4378894559
 10
2618.4415761084
 20
2739.4345055136
 10
2618.4449393728
 20
2739.43111244
 10
2618.4415761084
 20
2739.4277193664
 10
2618.4314953661
 20
2739.4243354242
 10
2618.4147242752
 20
2739.42096972
 10
2618.3913079693
 20
2739.4176313116
  0
LINE
  5
265
330
1F
100
AcDbEntity
  8
0
  6
Continuous
 62
     7
370
    25
100
AcDbLine
 10
2618.3913079693
 20
2739.4445935684
 30
0.0
 11
2616.4604585654
 21
2739.4445935684
 31
0.0
  0
LINE
  5
266
330
1F
100
AcDbEntity
  8
0
  6
Continuous
 62
     7
370
    25
100
AcDbLine
 10
2616.4604585654
 20
2739.4445935684
 30
0.0
 11
2616.4604585654
 21
2739.4951373134
 31
0.0
  0
ARC
  5
267
330
1F
100
AcDbEntity
  8
0
  6
Continuous
 62
     7
370
    25
100
AcDbCircle
 10
2615.9454585654
 20
2645.2072761968
 30
0.0
 40
94.28926757029001
100
AcDbArc
 50
89.6870537451
 51
90.3129462549
  0
LINE
  5
268
330
1F
100
AcDbEntity
  8
0
  6
Continuous
 62
     7
370
    25
100
AcDbLine
 10
2615.4304585654
 20
2739.4951373134
 30
0.0
 11
2615.4304585654
 21
2739.4445935684
 31
0.0
  0
LINE
  5
269
330
1F
100
AcDbEntity
  8
0
  6
Continuous
 62
     7
370
    25
100
AcDbLine
 10
2615.4304585654
 20
2739.4445935684
 30
0.0
 11
2613.4996091614
 21
2739.4445935684
 31
0.0
  0
LWPOLYLINE
  5
26A
330
1F
100
AcDbEntity
  8
0
  6
Continuous
 62
     7
370
    25
100
AcDbPolyline
 90
        9
 70
   128
 43
0.0
 10
2613.4996091614
 20
2739.4176313116
 10
2613.4761928556
 20
2739.42096972
 10
2613.4594217646
 20
2739.4243354242
 10
2613.4493410224
 20
2739.4277193664
 10
2613.4459777579
 20
2739.43111244
 10
2613.4493410224
 20
2739.4345055136
 10
2613.4594217646
 20
2739.4378894559
 10
2613.4761928556
 20
2739.44125516
 10
2613.4996091614
 20
2739.4445935684
  0
LINE
  5
26B
330
1F
100
AcDbEntity
  8
0
  6
Continuous
 62
     7
370
    25
100
AcDbLine
 10
2613.5133329309
 20
2739.4176313116
 30
0.0
 11
2613.4996091614
 21
2739.4445935684
 31
0.0
  0
LINE
  5
26C
330
1F
100
AcDbEntity
  8
0
  6
Continuous
 62
     7
370
    25
100
AcDbLine
 10
2616.4604585654
 20
2739.4445935684
 30
0.0
 11
2616.4604585654
 21
2739.4176313116
 31
0.0
  0
LINE
  5
26D
330
1F
100
AcDbEntity
  8
0
  6
Continuous
 62
     7
370
    25
100
AcDbLine
 10
2615.4304585654
 20
2739.4445935684
 30
0.0
 11
2615.4304585654
 21
2739.4176313116
 31
0.0
  0
LINE
  5
26E
330
1F
100
AcDbEntity
  8
0
  6
Continuous
 62
     7
370
    25
100
AcDbLine
 10
2442.4454585654
 20
2354.9716549046
 30
0.0
 11
2442.4245088447
 21
2355.2716549046
 31
0.0
  0
LINE
  5
26F
330
1F
100
AcDbEntity
  8
0
  6
Continuous
 62
     7
370
    25
100
AcDbLine
 10
2442.4454585654
 20
2354.0716549046
 30
0.0
 11
2442.4454585654
 21
2354.9716549046
 31
0.0
  0
LINE
  5
270
330
1F
100
AcDbEntity
  8
0
  6
Continuous
 62
     7
370
    25
100
AcDbLine
 10
2412.4454585654
 20
2354.9716549046
 30
0.0
 11
2412.4454585654
 21
2354.0716549046
 31
0.0
  0
LINE
  5
271
330
1F
100
AcDbEntity
  8
0
  6
Continuous
 62
     7
370
    25
100
AcDbLine
 10
2412.466408286
 20
2355.2716549046
 30
0.0
 11
2412.4454585654
 21
2354.9716549046
 31
0.0
  0
LINE
  5
272
330
1F
100
AcDbEntity
  8
0
  6
Continuous
 62
     7
370
    25
100
AcDbLine
 10
2417.0468228464
 20
2354.9716549046
 30
0.0
 11
2437.8440942843
 21
2354.9716549046
 31
0.0
  0
LINE
  5
273
330
1F
100
AcDbEntity
  8
0
  6
Continuous
 62
     7
370
    25
100
AcDbLine
 10
2437.8440942843
 20
2354.9716549046
 30
0.0
 11
2437.823824014
 21
2355.2716549046
 31
0.0
  0
LINE
  5
274
330
1F
100
AcDbEntity
  8
0
  6
Continuous
 62
     7
370
    25
100
AcDbLine
 10
2417.0670931167
 20
2355.2716549046
 30
0.0
 11
2417.0468228464
 21
2354.9716549046
 31
0.0
  0
ARC
  5
275
330
1F
100
AcDbEntity
  8
0
  6
Continuous
 62
     7
370
    25
100
AcDbCircle
 10
2612.945458561
 20
2353.9716549046
 30
0.0
 40
2.999999999999798
100
AcDbArc
 50
154.3207113803
 51
178.0897868281
  0
ARC
  5
276
330
1F
100
AcDbEntity
  8
0
  6
Continuous
 62
     7
370
    25
100
AcDbCircle
 10
2628.945458561
 20
2353.9716549046
 30
0.0
 40
3.000000000000208
100
AcDbArc
 50
1.9102131719
 51
25.6792886197
  0
LINE
  5
277
330
1F
100
AcDbEntity
  8
0
  6
Continuous
 62
     7
370
    25
100
AcDbLine
 10
2631.945458561
 20
2354.2716549046
 30
0.0
 11
2631.945458561
 21
2354.0716549046
 31
0.0
  0
LINE
  5
278
330
1F
100
AcDbEntity
  8
0
  6
Continuous
 62
     7
370
    25
100
AcDbLine
 10
2646.1331333148
 20
2354.2716549046
 30
0.0
 11
2631.945458561
 21
2354.2716549046
 31
0.0
  0
LINE
  5
279
330
1F
100
AcDbEntity
  8
0
  6
Continuous
 62
     7
370
    25
100
AcDbLine
 10
2646.1331333148
 20
2354.0716549046
 30
0.0
 11
2646.1331333148
 21
2354.2716549046
 31
0.0
  0
LINE
  5
27A
330
1F
100
AcDbEntity
  8
0
  6
Continuous
 62
     7
370
    25
100
AcDbLine
 10
2632.7046611463
 20
2355.2716549046
 30
0.0
 11
2632.7277135022
 21
2354.2716549046
 31
0.0
  0
LINE
  5
27B
330
1F
100
AcDbEntity
  8
0
  6
Continuous
 62
     7
370
    25
100
AcDbLine
 10
2634.0280588736
 20
2354.2716549046
 30
0.0
 11
2634.0050065176
 21
2355.2716549046
 31
0.0
  0
ARC
  5
27C
330
1F
100
AcDbEntity
  8
0
  6
Continuous
 62
     7
370
    25
100
AcDbCircle
 10
2351.4448257767
 20
2884.649799617
 30
0.0
 40
147.0082502473973
100
AcDbArc
 50
266.0997819289
 51
273.9007124515
  0
LWPOLYLINE
  5
27D
330
1F
100
AcDbEntity
  8
0
  6
Continuous
 62
     7
370
    25
100
AcDbPolyline
 90
        6
 70
   128
 43
0.0
 10
2359.0566393581
 20
2739.056094891
 10
2359.7957539085
 20
2739.0961260079
 10
2360.2473606486
 20
2739.1417840506
 10
2360.3386164832
 20
2739.1888871583
 10
2360.0657853877
 20
2739.2355069245
 10
2359.9418327899
 20
2739.2468479058
  0
LWPOLYLINE
  5
27E
330
1F
100
AcDbEntity
  8
0
  6
Continuous
 62
     7
370
    25
100
AcDbPolyline
 90
        7
 70
   128
 43
0.0
 10
2342.9490843408
 20
2739.2468479058
 10
2342.825131743
 20
2739.2355069245
 10
2342.5523006476
 20
2739.1888871583
 10
2342.6435564822
 20
2739.1417840506
 10
2343.0951632222
 20
2739.0961260079
 10
2343.8886320348
 20
2739.0537822761
 10
2344.7435540402
 20
2739.0236025787
  0
LWPOLYLINE
  5
27F
330
1F
100
AcDbEntity
  8
0
  6
Continuous
 62
     7
370
    25
100
AcDbPolyline
 90
       19
 70
   128
 43
0.0
 10
2358.4154268517
 20
2739.3742254403
 10
2358.5671548704
 20
2739.3595426267
 10
2358.7503025605
 20
2739.3169925022
 10
2358.5671548704
 20
2739.2744423778
 10
2358.0268955899
 20
2739.2340258942
 10
2357.1566155753
 20
2739.1977697028
 10
2355.9999543005
 20
2739.1674918404
 10
2354.6149115917
 20
2739.1447105655
 10
2353.0709392736
 20
2739.1305682262
 10
2351.4454585654
 20
2739.1257739786
 10
2349.8199778572
 20
2739.1305682262
 10
2348.2760055391
 20
2739.1447105655
 10
2346.8909628302
 20
2739.1674918404
 10
2345.7343015554
 20
2739.1977697028
 10
2344.8640215408
 20
2739.2340258942
 10
2344.3237622603
 20
2739.2744423778
 10
2344.1406145702
 20
2739.3169925022
 10
2344.3237622603
 20
2739.3595426267
 10
2344.475490279
 20
2739.3742254403
  0
SPLINE
  5
280
330
1F
100
AcDbEntity
  8
0
  6
Continuous
 62
     7
370
    25
100
AcDbSpline
210
0.0
220
0.0
230
1.0
 70
     8
 71
     3
 72
    10
 73
     6
 74
     0
 42
0.00000001
 43
0.00000001
 40
0.0
 40
0.0
 40
0.0
 40
0.0
 40
0.2348528608061161
 40
0.6323277900299951
 40
0.9999999999999999
 40
0.9999999999999999
 40
0.9999999999999999
 40
0.9999999999999999
 10
2356.13916134048
 20
2736.908496935374
 30
0.0
 10
2356.109898948582
 20
2736.88892405568
 30
0.0
 10
2356.031111645178
 20
2736.836225205351
 30
0.0
 10
2355.960702072932
 20
2736.695638695839
 30
0.0
 10
2355.948765629128
 20
2736.582569255203
 30
0.0
 10
2355.943029871327
 20
2736.52823657984
 30
0.0
  0
ARC
  5
281
330
1F
100
AcDbEntity
  8
0
  6
Continuous
 62
     7
370
    25
100
AcDbCircle
 10
2351.4727661044
 20
2802.8487882408
 30
0.0
 40
66.47103753348821
100
AcDbArc
 50
266.0945910318
 51
273.8561261673
  0
LINE
  5
282
330
1F
100
AcDbEntity
  8
0
  6
Continuous
 62
     7
370
    25
100
AcDbLine
 10
2355.9454585654
 20
2736.5321061976
 30
0.0
 11
2355.9430298712
 21
2736.5282365797
 31
0.0
  0
ARC
  5
283
330
1F
100
AcDbEntity
  8
0
  6
Continuous
 62
     7
370
    25
100
AcDbCircle
 10
2615.9448257767
 20
2884.6497996171
 30
0.0
 40
147.008250247498
100
AcDbArc
 50
266.0997819289
 51
273.9007124515
  0
LWPOLYLINE
  5
284
330
1F
100
AcDbEntity
  8
0
  6
Continuous
 62
     7
370
    25
100
AcDbPolyline
 90
        6
 70
   128
 43
0.0
 10
2623.5566393581
 20
2739.056094891
 10
2624.2957539085
 20
2739.0961260079
 10
2624.7473606486
 20
2739.1417840506
 10
2624.8386164832
 20
2739.1888871583
 10
2624.5657853877
 20
2739.2355069245
 10
2624.4418327899
 20
2739.2468479058
  0
LWPOLYLINE
  5
285
330
1F
100
AcDbEntity
  8
0
  6
Continuous
 62
     7
370
    25
100
AcDbPolyline
 90
        7
 70
   128
 43
0.0
 10
2607.4490843408
 20
2739.2468479058
 10
2607.325131743
 20
2739.2355069245
 10
2607.0523006475
 20
2739.1888871583
 10
2607.1435564822
 20
2739.1417840506
 10
2607.5951632222
 20
2739.0961260079
 10
2608.3886320348
 20
2739.0537822761
 10
2609.2435540402
 20
2739.0236025787
  0
LWPOLYLINE
  5
286
330
1F
100
AcDbEntity
  8
0
  6
Continuous
 62
     7
370
    25
100
AcDbPolyline
 90
       19
 70
   128
 43
0.0
 10
2622.9154268517
 20
2739.3742254403
 10
2623.0671548704
 20
2739.3595426267
 10
2623.2503025605
 20
2739.3169925022
 10
2623.0671548704
 20
2739.2744423778
 10
2622.5268955899
 20
2739.2340258942
 10
2621.6566155753
 20
2739.1977697028
 10
2620.4999543005
 20
2739.1674918404
 10
2619.1149115917
 20
2739.1447105655
 10
2617.5709392736
 20
2739.1305682262
 10
2615.9454585654
 20
2739.1257739786
 10
2614.3199778571
 20
2739.1305682262
 10
2612.7760055391
 20
2739.1447105655
 10
2611.3909628302
 20
2739.1674918404
 10
2610.2343015554
 20
2739.1977697028
 10
2609.3640215408
 20
2739.2340258942
 10
2608.8237622603
 20
2739.2744423778
 10
2608.6406145702
 20
2739.3169925022
 10
2608.8237622603
 20
2739.3595426267
 10
2608.975490279
 20
2739.3742254403
  0
SPLINE
  5
287
330
1F
100
AcDbEntity
  8
0
  6
Continuous
 62
     7
370
    25
100
AcDbSpline
210
0.0
220
0.0
230
1.0
 70
     8
 71
     3
 72
    10
 73
     6
 74
     0
 42
0.00000001
 43
0.00000001
 40
0.0
 40
0.0
 40
0.0
 40
0.0
 40
0.2348528608061041
 40
0.6323277900299803
 40
1.0
 40
1.0
 40
1.0
 40
1.0
 10
2620.639161340478
 20
2736.908496935371
 30
0.0
 10
2620.609898948581
 20
2736.888924055678
 30
0.0
 10
2620.531111645177
 20
2736.836225205349
 30
0.0
 10
2620.46070207293
 20
2736.695638695837
 30
0.0
 10
2620.448765629126
 20
2736.582569255201
 30
0.0
 10
2620.443029871325
 20
2736.528236579838
 30
0.0
  0
ARC
  5
288
330
1F
100
AcDbEntity
  8
0
  6
Continuous
 62
     7
370
    25
100
AcDbCircle
 10
2615.9727661044
 20
2802.8487882406
 30
0.0
 40
66.47103753328972
100
AcDbArc
 50
266.0945910318
 51
273.8561261673
  0
LINE
  5
289
330
1F
100
AcDbEntity
  8
0
  6
Continuous
 62
     7
370
    25
100
AcDbLine
 10
2620.4454585654
 20
2736.5321061976
 30
0.0
 11
2620.4430298712
 21
2736.5282365797
 31
0.0
  0
SPLINE
  5
28A
330
1F
100
AcDbEntity
  8
0
  6
Continuous
 62
     7
370
    25
100
AcDbSpline
210
0.0
220
0.0
230
1.0
 70
     8
 71
     3
 72
    10
 73
     6
 74
     0
 42
0.00000001
 43
0.00000001
 40
0.0
 40
0.0
 40
0.0
 40
0.0
 40
0.528678608159533
 40
0.8161383429812011
 40
1.0
 40
1.0
 40
1.0
 40
1.0
 10
2630.945458561016
 20
2353.971654904574
 30
0.0
 10
2630.917467925171
 20
2354.222169411549
 30
0.0
 10
2630.874257871265
 20
2354.608896794615
 30
0.0
 10
2630.656475964282
 20
2355.037913361006
 30
0.0
 10
2630.509989972174
 20
2355.206060857863
 30
0.0
 10
2630.452846040867
 20
2355.271654904581
 30
0.0
  0
SPLINE
  5
28B
330
1F
100
AcDbEntity
  8
0
  6
Continuous
 62
     7
370
    25
100
AcDbSpline
210
0.0
220
0.0
230
1.0
 70
     8
 71
     3
 72
    10
 73
     6
 74
     0
 42
0.00000001
 43
0.00000001
 40
0.0
 40
0.0
 40
0.0
 40
0.0
 40
0.1834740337180163
 40
0.4713152133482708
 40
0.9999999999999999
 40
0.9999999999999999
 40
0.9999999999999999
 40
0.9999999999999999
 10
2611.438044111855
 20
2355.271654904581
 30
0.0
 10
2611.381017368601
 20
2355.206204370568
 30
0.0
 10
2611.234524858906
 20
2355.038072500476
 30
0.0
 10
2611.01668522479
 20
2354.609072556932
 30
0.0
 10
2610.973451537923
 20
2354.222168078668
 30
0.0
 10
2610.945458561016
 20
2353.97165490457
 30
0.0
  0
ENDSEC
  0
SECTION
  2
OBJECTS
  0
DICTIONARY
  5
C
330
0
100
AcDbDictionary
281
     1
  3
ACAD_GROUP
350
D
  3
ACAD_LAYOUT
350
1A
  3
ACAD_MLINESTYLE
350
17
  3
ACAD_PLOTSETTINGS
350
19
  3
ACAD_PLOTSTYLENAME
350
E
  3
ACAD_SCALELIST
350
47
  3
DWGPROPS
350
28C
  0
DICTIONARY
  5
D
102
{ACAD_REACTORS
330
C
102
}
330
C
100
AcDbDictionary
281
     1
  0
DICTIONARY
  5
1A
102
{ACAD_REACTORS
330
C
102
}
330
C
100
AcDbDictionary
281
     1
  3
Layout1
350
1E
  3
Layout2
350
26
  3
Model
350
22
  0
DICTIONARY
  5
17
102
{ACAD_REACTORS
330
C
102
}
330
C
100
AcDbDictionary
281
     1
  3
Standard
350
18
  0
DICTIONARY
  5
19
102
{ACAD_REACTORS
330
C
102
}
330
C
100
AcDbDictionary
281
     1
  0
ACDBDICTIONARYWDFLT
  5
E
102
{ACAD_REACTORS
330
C
102
}
330
C
100
AcDbDictionary
281
     1
  3
Normal
350
F
100
AcDbDictionaryWithDefault
340
F
  0
DICTIONARY
  5
47
102
{ACAD_REACTORS
330
C
102
}
330
C
100
AcDbDictionary
281
     1
  3
A0
350
48
  3
A1
350
49
  3
A2
350
4A
  3
A3
350
4B
  3
A4
350
4C
  3
A5
350
4D
  3
A6
350
4E
  3
A7
350
4F
  3
A8
350
50
  3
A9
350
51
  3
B0
350
52
  3
B1
350
53
  3
B2
350
54
  3
B3
350
55
  3
B4
350
56
  3
B5
350
57
  3
B6
350
58
  0
XRECORD
  5
28C
102
{ACAD_REACTORS
330
C
102
}
330
C
100
AcDbXrecord
280
     1
  1
DWGPROPS COOKIE
  2

  3

  4

  6

  7

  8
b
  9

300
=
301
=
302
=
303
=
304
=
305
=
306
=
307
=
308
=
309
=
 40
0.0
 41
2460384.261449109
 42
2460384.261449398
  1

 90
        0
  0
LAYOUT
  5
1E
102
{ACAD_REACTORS
330
1A
102
}
330
1A
100
AcDbPlotSettings
  1

  2
none_device
  4

  6

 40
0.0
 41
0.0
 42
0.0
 43
0.0
 44
0.0
 45
0.0
 46
0.0
 47
0.0
 48
0.0
 49
0.0
140
0.0
141
0.0
142
1.0
143
1.0
 70
   688
 72
     1
 73
     0
 74
     5
  7

 75
    16
147
1.0
148
0.0
149
0.0
100
AcDbLayout
  1
Layout1
 70
     1
 71
     1
 10
0.0
 20
0.0
 11
420.0
 21
297.0
 12
0.0
 22
0.0
 32
0.0
 14
1.0000000000E+20
 24
1.0000000000E+20
 34
1.0000000000E+20
 15
-1.0000000000E+20
 25
-1.0000000000E+20
 35
-1.0000000000E+20
146
0.0
 13
0.0
 23
0.0
 33
0.0
 16
1.0
 26
0.0
 36
0.0
 17
0.0
 27
1.0
 37
0.0
 76
     0
330
1B
  0
LAYOUT
  5
26
102
{ACAD_REACTORS
330
1A
102
}
330
1A
100
AcDbPlotSettings
  1

  2
none_device
  4

  6

 40
0.0
 41
0.0
 42
0.0
 43
0.0
 44
0.0
 45
0.0
 46
0.0
 47
0.0
 48
0.0
 49
0.0
140
0.0
141
0.0
142
1.0
143
1.0
 70
   688
 72
     1
 73
     0
 74
     5
  7

 75
    16
147
1.0
148
0.0
149
0.0
100
AcDbLayout
  1
Layout2
 70
     1
 71
     2
 10
0.0
 20
0.0
 11
0.0
 21
0.0
 12
0.0
 22
0.0
 32
0.0
 14
0.0
 24
0.0
 34
0.0
 15
0.0
 25
0.0
 35
0.0
146
0.0
 13
0.0
 23
0.0
 33
0.0
 16
1.0
 26
0.0
 36
0.0
 17
0.0
 27
1.0
 37
0.0
 76
     0
330
23
  0
LAYOUT
  5
22
102
{ACAD_REACTORS
330
1A
102
}
330
1A
100
AcDbPlotSettings
  1

  2
none_device
  4
Letter_(8.50_x_11.00_Inches)
  6

 40
6.35
 41
6.35
 42
6.35000508
 43
6.35000508
 44
215.9
 45
279.4
 46
0.0
 47
0.0
 48
0.0
 49
0.0
140
0.0
141
0.0
142
1.0
143
1.0
 70
  1712
 72
     1
 73
     0
 74
     0
  7

 75
     0
147
1.0
148
0.0
149
0.0
100
AcDbLayout
  1
Model
 70
     1
 71
     0
 10
0.0
 20
0.0
 11
5000.0
 21
3500.0
 12
0.0
 22
0.0
 32
0.0
 14
0.0
 24
0.0
 34
0.0
 15
5000.0
 25
3500.0
 35
0.0
146
0.0
 13
0.0
 23
0.0
 33
0.0
 16
1.0
 26
0.0
 36
0.0
 17
0.0
 27
1.0
 37
0.0
 76
     0
330
1F
331
29
  0
MLINESTYLE
  5
18
102
{ACAD_REACTORS
330
17
102
}
330
17
100
AcDbMlineStyle
  2
Standard
 70
     0
  3

 62
   256
 51
90.0
 52
90.0
 71
     2
 49
0.5
 62
   256
  6
BYLAYER
 49
-0.5
 62
   256
  6
BYLAYER
  0
ACDBPLACEHOLDER
  5
F
102
{ACAD_REACTORS
330
E
102
}
330
E
  0
SCALE
  5
48
102
{ACAD_REACTORS
330
47
102
}
330
47
100
AcDbScale
 70
     0
300
1:1
140
1.0
141
1.0
290
     1
  0
SCALE
  5
49
102
{ACAD_REACTORS
330
47
102
}
330
47
100
AcDbScale
 70
     0
300
1:2
140
1.0
141
2.0
290
     0
  0
SCALE
  5
4A
102
{ACAD_REACTORS
330
47
102
}
330
47
100
AcDbScale
 70
     0
300
1:4
140
1.0
141
4.0
290
     0
  0
SCALE
  5
4B
102
{ACAD_REACTORS
330
47
102
}
330
47
100
AcDbScale
 70
     0
300
1:5
140
1.0
141
5.0
290
     0
  0
SCALE
  5
4C
102
{ACAD_REACTORS
330
47
102
}
330
47
100
AcDbScale
 70
     0
300
1:8
140
1.0
141
8.0
290
     0
  0
SCALE
  5
4D
102
{ACAD_REACTORS
330
47
102
}
330
47
100
AcDbScale
 70
     0
300
1:10
140
1.0
141
10.0
290
     0
  0
SCALE
  5
4E
102
{ACAD_REACTORS
330
47
102
}
330
47
100
AcDbScale
 70
     0
300
1:16
140
1.0
141
16.0
290
     0
  0
SCALE
  5
4F
102
{ACAD_REACTORS
330
47
102
}
330
47
100
AcDbScale
 70
     0
300
1:20
140
1.0
141
20.0
290
     0
  0
SCALE
  5
50
102
{ACAD_REACTORS
330
47
102
}
330
47
100
AcDbScale
 70
     0
300
1:30
140
1.0
141
30.0
290
     0
  0
SCALE
  5
51
102
{ACAD_REACTORS
330
47
102
}
330
47
100
AcDbScale
 70
     0
300
1:40
140
1.0
141
40.0
290
     0
  0
SCALE
  5
52
102
{ACAD_REACTORS
330
47
102
}
330
47
100
AcDbScale
 70
     0
300
1:50
140
1.0
141
50.0
290
     0
  0
SCALE
  5
53
102
{ACAD_REACTORS
330
47
102
}
330
47
100
AcDbScale
 70
     0
300
1:100
140
1.0
141
100.0
290
     0
  0
SCALE
  5
54
102
{ACAD_REACTORS
330
47
102
}
330
47
100
AcDbScale
 70
     0
300
2:1
140
2.0
141
1.0
290
     0
  0
SCALE
  5
55
102
{ACAD_REACTORS
330
47
102
}
330
47
100
AcDbScale
 70
     0
300
4:1
140
4.0
141
1.0
290
     0
  0
SCALE
  5
56
102
{ACAD_REACTORS
330
47
102
}
330
47
100
AcDbScale
 70
     0
300
8:1
140
8.0
141
1.0
290
     0
  0
SCALE
  5
57
102
{ACAD_REACTORS
330
47
102
}
330
47
100
AcDbScale
 70
     0
300
10:1
140
10.0
141
1.0
290
     0
  0
SCALE
  5
58
102
{ACAD_REACTORS
330
47
102
}
330
47
100
AcDbScale
 70
     0
300
100:1
140
100.0
141
1.0
290
     0
  0
ENDSEC
  0
EOF
