  0
SECTION
  2
HEADER
  9
$ACADVER
  1
AC1015
  9
$ACADMAINTVER
 70
     6
  9
$DWGCODEPAGE
  3
DOS932
  9
$INSBASE
 10
0.0
 20
0.0
 30
0.0
  9
$EXTMIN
 10
0.0
 20
0.0
 30
0.0
  9
$EXTMAX
 10
5000.0
 20
3500.0
 30
0.0
  9
$LIMMIN
 10
0.0
 20
0.0
  9
$LIMMAX
 10
5000.0
 20
3500.0
  9
$ORTHOMODE
 70
     0
  9
$REGENMODE
 70
     1
  9
$FILLMODE
 70
     1
  9
$QTEXTMODE
 70
     0
  9
$MIRRTEXT
 70
     1
  9
$LTSCALE
 40
1.0
  9
$ATTMODE
 70
     1
  9
$TEXTSIZE
 40
3.5
  9
$TRACEWID
 40
1.0
  9
$TEXTSTYLE
  7
Standard
  9
$CLAYER
  8
0
  9
$CELTYPE
  6
ByLayer
  9
$CECOLOR
 62
   256
  9
$CELTSCALE
 40
1.0
  9
$DISPSILH
 70
     0
  9
$DIMSCALE
 40
1.0
  9
$DIMASZ
 40
3.302
  9
$DIMEXO
 40
1.0
  9
$DIMDLI
 40
3.75
  9
$DIMRND
 40
0.0
  9
$DIMDLE
 40
0.0
  9
$DIMEXE
 40
1.0
  9
$DIMTP
 40
0.0
  9
$DIMTM
 40
0.0
  9
$DIMTXT
 40
3.5
  9
$DIMCEN
 40
2.5
  9
$DIMTSZ
 40
0.0
  9
$DIMTOL
 70
     0
  9
$DIMLIM
 70
     0
  9
$DIMTIH
 70
     1
  9
$DIMTOH
 70
     1
  9
$DIMSE1
 70
     0
  9
$DIMSE2
 70
     0
  9
$DIMTAD
 70
     1
  9
$DIMZIN
 70
     0
  9
$DIMBLK
  1

  9
$DIMASO
 70
     1
  9
$DIMSHO
 70
     1
  9
$DIMPOST
  1

  9
$DIMAPOST
  1

  9
$DIMALT
 70
     0
  9
$DIMALTD
 70
     3
  9
$DIMALTF
 40
0.0393700787
  9
$DIMLFAC
 40
1.0
  9
$DIMTOFL
 70
     1
  9
$DIMTVP
 40
0.0
  9
$DIMTIX
 70
     0
  9
$DIMSOXD
 70
     0
  9
$DIMSAH
 70
     0
  9
$DIMBLK1
  1

  9
$DIMBLK2
  1

  9
$DIMSTYLE
  2
ISO-25
  9
$DIMCLRD
 70
     0
  9
$DIMCLRE
 70
     0
  9
$DIMCLRT
 70
     0
  9
$DIMTFAC
 40
1.0
  9
$DIMGAP
 40
1.524
  9
$DIMJUST
 70
     0
  9
$DIMSD1
 70
     0
  9
$DIMSD2
 70
     0
  9
$DIMTOLJ
 70
     0
  9
$DIMTZIN
 70
     0
  9
$DIMALTZ
 70
     0
  9
$DIMALTTZ
 70
     0
  9
$DIMUPT
 70
     0
  9
$DIMDEC
 70
     2
  9
$DIMTDEC
 70
     2
  9
$DIMALTU
 70
     2
  9
$DIMALTTD
 70
     3
  9
$DIMTXSTY
  7
Standard
  9
$DIMAUNIT
 70
     0
  9
$DIMADEC
 70
     2
  9
$DIMALTRND
 40
0.0
  9
$DIMAZIN
 70
     0
  9
$DIMDSEP
 70
    44
  9
$DIMATFIT
 70
     3
  9
$DIMFRAC
 70
     0
  9
$DIMLDRBLK
  1

  9
$DIMLUNIT
 70
     2
  9
$DIMLWD
 70
    -2
  9
$DIMLWE
 70
    -2
  9
$DIMTMOVE
 70
     0
  9
$LUNITS
 70
     2
  9
$LUPREC
 70
     3
  9
$SKETCHINC
 40
1.0
  9
$FILLETRAD
 40
0.0
  9
$AUNITS
 70
     0
  9
$AUPREC
 70
     2
  9
$MENU
  1
.
  9
$ELEVATION
 40
0.0
  9
$PELEVATION
 40
0.0
  9
$THICKNESS
 40
0.0
  9
$LIMCHECK
 70
     0
  9
$CHAMFERA
 40
0.0
  9
$CHAMFERB
 40
0.0
  9
$CHAMFERC
 40
0.0
  9
$CHAMFERD
 40
0.0
  9
$SKPOLY
 70
     0
  9
$TDCREATE
 40
2460384.656250348
  9
$TDUCREATE
 40
2460384.281250348
  9
$TDUPDATE
 40
2460384.656250695
  9
$TDUUPDATE
 40
2460384.281250695
  9
$TDINDWG
 40
0.0000000116
  9
$TDUSRTIMER
 40
0.0000000116
  9
$USRTIMER
 70
     1
  9
$ANGBASE
 50
0.0
  9
$ANGDIR
 70
     0
  9
$PDMODE
 70
     0
  9
$PDSIZE
 40
-1.0
  9
$PLINEWID
 40
0.0
  9
$SPLFRAME
 70
     0
  9
$SPLINETYPE
 70
     6
  9
$SPLINESEGS
 70
     8
  9
$HANDSEED
  5
302
  9
$SURFTAB1
 70
     6
  9
$SURFTAB2
 70
     6
  9
$SURFTYPE
 70
     6
  9
$SURFU
 70
     6
  9
$SURFV
 70
     6
  9
$UCSBASE
  2

  9
$UCSNAME
  2

  9
$UCSORG
 10
0.0
 20
0.0
 30
0.0
  9
$UCSXDIR
 10
1.0
 20
0.0
 30
0.0
  9
$UCSYDIR
 10
0.0
 20
1.0
 30
0.0
  9
$UCSORTHOREF
  2

  9
$UCSORTHOVIEW
 70
     0
  9
$UCSORGTOP
 10
0.0
 20
0.0
 30
0.0
  9
$UCSORGBOTTOM
 10
0.0
 20
0.0
 30
0.0
  9
$UCSORGLEFT
 10
0.0
 20
0.0
 30
0.0
  9
$UCSORGRIGHT
 10
0.0
 20
0.0
 30
0.0
  9
$UCSORGFRONT
 10
0.0
 20
0.0
 30
0.0
  9
$UCSORGBACK
 10
0.0
 20
0.0
 30
0.0
  9
$PUCSBASE
  2

  9
$PUCSNAME
  2

  9
$PUCSORG
 10
0.0
 20
0.0
 30
0.0
  9
$PUCSXDIR
 10
1.0
 20
0.0
 30
0.0
  9
$PUCSYDIR
 10
0.0
 20
1.0
 30
0.0
  9
$PUCSORTHOREF
  2

  9
$PUCSORTHOVIEW
 70
     0
  9
$PUCSORGTOP
 10
0.0
 20
0.0
 30
0.0
  9
$PUCSORGBOTTOM
 10
0.0
 20
0.0
 30
0.0
  9
$PUCSORGLEFT
 10
0.0
 20
0.0
 30
0.0
  9
$PUCSORGRIGHT
 10
0.0
 20
0.0
 30
0.0
  9
$PUCSORGFRONT
 10
0.0
 20
0.0
 30
0.0
  9
$PUCSORGBACK
 10
0.0
 20
0.0
 30
0.0
  9
$USERI1
 70
     0
  9
$USERI2
 70
     0
  9
$USERI3
 70
     0
  9
$USERI4
 70
     0
  9
$USERI5
 70
     0
  9
$USERR1
 40
0.0
  9
$USERR2
 40
0.0
  9
$USERR3
 40
0.0
  9
$USERR4
 40
0.0
  9
$USERR5
 40
0.0
  9
$WORLDVIEW
 70
     1
  9
$SHADEDGE
 70
     3
  9
$SHADEDIF
 70
    70
  9
$TILEMODE
 70
     1
  9
$MAXACTVP
 70
    64
  9
$PINSBASE
 10
0.0
 20
0.0
 30
0.0
  9
$PLIMCHECK
 70
     0
  9
$PEXTMIN
 10
1.0000000000E+20
 20
1.0000000000E+20
 30
1.0000000000E+20
  9
$PEXTMAX
 10
-1.0000000000E+20
 20
-1.0000000000E+20
 30
-1.0000000000E+20
  9
$PLIMMIN
 10
0.0
 20
0.0
  9
$PLIMMAX
 10
420.0
 20
297.0
  9
$UNITMODE
 70
     0
  9
$VISRETAIN
 70
     1
  9
$PLINEGEN
 70
     0
  9
$PSLTSCALE
 70
     1
  9
$TREEDEPTH
 70
  3020
  9
$CMLSTYLE
  2
Standard
  9
$CMLJUST
 70
     0
  9
$CMLSCALE
 40
20.0
  9
$PROXYGRAPHICS
 70
     1
  9
$MEASUREMENT
 70
     1
  9
$CELWEIGHT
370
    -1
  9
$ENDCAPS
280
     0
  9
$JOINSTYLE
280
     0
  9
$LWDISPLAY
290
     1
  9
$INSUNITS
 70
     4
  9
$HYPERLINKBASE
  1

  9
$STYLESHEET
  1

  9
$XEDIT
290
     1
  9
$CEPSNTYPE
380
     0
  9
$PSTYLEMODE
290
     1
  9
$FINGERPRINTGUID
  2
{dc0afb80-850f-4c94-bc58-94e09296b2d6}
  9
$VERSIONGUID
  2
{FAEB1C32-E019-11D5-929B-00C0DF256EC4}
  9
$EXTNAMES
290
     1
  9
$PSVPSCALE
 40
0.0
  9
$OLESTARTUP
290
     0
  0
ENDSEC
  0
SECTION
  2
CLASSES
  0
CLASS
  1
ACDBDICTIONARYWDFLT
  2
AcDbDictionaryWithDefault
  3
ObjectDBX Classes
 90
        0
280
     0
281
     0
  0
CLASS
  1
VISUALSTYLE
  2
AcDbVisualStyle
  3
ObjectDBX Classes
 90
     4095
280
     0
281
     0
  0
CLASS
  1
MATERIAL
  2
AcDbMaterial
  3
ObjectDBX Classes
 90
     1153
280
     0
281
     0
  0
CLASS
  1
SCALE
  2
AcDbScale
  3
ObjectDBX Classes
 90
     1153
280
     0
281
     0
  0
CLASS
  1
TABLESTYLE
  2
AcDbTableStyle
  3
ObjectDBX Classes
 90
     4095
280
     0
281
     0
  0
CLASS
  1
MLEADERSTYLE
  2
AcDbMLeaderStyle
  3
ACDB_MLEADERSTYLE_CLASS
 90
     4095
280
     0
281
     0
  0
CLASS
  1
SUN
  2
AcDbSun
  3
SCENEOE
 90
     1153
280
     0
281
     0
  0
CLASS
  1
ACDBPLACEHOLDER
  2
AcDbPlaceHolder
  3
ObjectDBX Classes
 90
        0
280
     0
281
     0
  0
CLASS
  1
LAYOUT
  2
AcDbLayout
  3
ObjectDBX Classes
 90
        0
280
     0
281
     0
  0
ENDSEC
  0
SECTION
  2
TABLES
  0
TABLE
  2
VPORT
  5
8
330
0
100
AcDbSymbolTable
 70
     1
  0
VPORT
  5
29
330
8
100
AcDbSymbolTableRecord
100
AcDbViewportTableRecord
  2
*Active
 70
     0
 10
0.0
 20
0.0
 11
1.0
 21
1.0
 12
2500.0
 22
1750.0
 13
0.0
 23
0.0
 14
10.0
 24
10.0
 15
10.0
 25
10.0
 16
0.0
 26
0.0
 36
1.0
 17
0.0
 27
0.0
 37
0.0
 40
3500.0
 41
1.4285714286
 42
50.0
 43
0.0
 44
0.0
 50
0.0
 51
0.0
 71
     0
 72
  2000
 73
     1
 74
     3
 75
     0
 76
     0
 77
     0
 78
     0
281
     0
 65
     1
110
0.0
120
0.0
130
0.0
111
1.0
121
0.0
131
0.0
112
0.0
122
1.0
132
0.0
 79
     0
146
0.0
  0
ENDTAB
  0
TABLE
  2
LTYPE
  5
5
330
0
100
AcDbSymbolTable
 70
     6
  0
LTYPE
  5
14
330
5
100
AcDbSymbolTableRecord
100
AcDbLinetypeTableRecord
  2
ByBlock
 70
     0
  3

 72
    65
 73
     0
 40
0.0
  0
LTYPE
  5
15
330
5
100
AcDbSymbolTableRecord
100
AcDbLinetypeTableRecord
  2
ByLayer
 70
     0
  3

 72
    65
 73
     0
 40
0.0
  0
LTYPE
  5
16
330
5
100
AcDbSymbolTableRecord
100
AcDbLinetypeTableRecord
  2
Continuous
 70
     0
  3
Solid line
 72
    65
 73
     0
 40
0.0
  0
LTYPE
  5
5E
330
5
100
AcDbSymbolTableRecord
100
AcDbLinetypeTableRecord
  2
HIDDEN
 70
     0
  3
Hidden __ __ __ __ __ __ __ __ __ __ __ __ __ __
 72
    65
 73
     2
 40
1.905
 49
1.27
 74
     0
 49
-0.635
 74
     0
  0
LTYPE
  5
5F
330
5
100
AcDbSymbolTableRecord
100
AcDbLinetypeTableRecord
  2
PHANTOM
 70
     0
  3
Phantom ______  __  __  ______  __  __  ______
 72
    65
 73
     6
 40
12.7
 49
6.35
 74
     0
 49
-1.27
 74
     0
 49
1.27
 74
     0
 49
-1.27
 74
     0
 49
1.27
 74
     0
 49
-1.27
 74
     0
  0
LTYPE
  5
60
330
5
100
AcDbSymbolTableRecord
100
AcDbLinetypeTableRecord
  2
CENTER
 70
     0
  3
Center ____ _ ____ _ ____ _ ____ _ ____ _ ____
 72
    65
 73
     4
 40
10.16
 49
6.35
 74
     0
 49
-1.27
 74
     0
 49
1.27
 74
     0
 49
-1.27
 74
     0
  0
LTYPE
  5
61
330
5
100
AcDbSymbolTableRecord
100
AcDbLinetypeTableRecord
  2
CENTERX2
 70
     0
  3
Center (2x) ________  __  ________  __  _____
 72
    65
 73
     4
 40
20.32
 49
12.7
 74
     0
 49
-2.54
 74
     0
 49
2.54
 74
     0
 49
-2.54
 74
     0
  0
LTYPE
  5
62
330
5
100
AcDbSymbolTableRecord
100
AcDbLinetypeTableRecord
  2
DOT2
 70
     0
  3
Dot (.5x) ........................................
 72
    65
 73
     2
 40
0.635
 49
0.0
 74
     0
 49
-0.635
 74
     0
  0
ENDTAB
  0
TABLE
  2
LAYER
  5
2
330
0
100
AcDbSymbolTable
 70
     3
  0
LAYER
  5
10
330
2
100
AcDbSymbolTableRecord
100
AcDbLayerTableRecord
  2
0
 70
     0
 62
     7
  6
Continuous
370
    -3
390
F
  0
LAYER
  5
63
330
2
100
AcDbSymbolTableRecord
100
AcDbLayerTableRecord
  2
SLD-0
 70
     0
 62
   179
  6
Continuous
370
    -3
390
F
  0
LAYER
  5
64
330
2
100
AcDbSymbolTableRecord
100
AcDbLayerTableRecord
  2
寸法
 70
     0
 62
   179
  6
Continuous
370
    -3
390
F
  0
ENDTAB
  0
TABLE
  2
STYLE
  5
3
330
0
100
AcDbSymbolTable
 70
     2
  0
STYLE
  5
11
330
3
100
AcDbSymbolTableRecord
100
AcDbTextStyleTableRecord
  2
Standard
 70
     0
 40
0.0
 41
1.0
 50
0.0
 71
     0
 42
3.5
  3
txt
  4
bigfont
  0
STYLE
  5
66
330
3
100
AcDbSymbolTableRecord
100
AcDbTextStyleTableRecord
  2
SLDTEXTSTYLE0
 70
     0
 40
0.0
 41
0.75
 50
0.0
 71
     0
 42
3.5
  3
TXT
  4
bigfont
  0
ENDTAB
  0
TABLE
  2
VIEW
  5
6
330
0
100
AcDbSymbolTable
 70
     0
  0
ENDTAB
  0
TABLE
  2
UCS
  5
7
330
0
100
AcDbSymbolTable
 70
     0
  0
ENDTAB
  0
TABLE
  2
APPID
  5
9
330
0
100
AcDbSymbolTable
 70
     1
  0
APPID
  5
12
330
9
100
AcDbSymbolTableRecord
100
AcDbRegAppTableRecord
  2
ACAD
 70
     0
  0
ENDTAB
  0
TABLE
  2
DIMSTYLE
  5
A
330
0
100
AcDbSymbolTable
 70
     1
100
AcDbDimStyleTable
  0
DIMSTYLE
105
27
330
A
100
AcDbSymbolTableRecord
100
AcDbDimStyleTableRecord
  2
ISO-25
 70
     0
 41
2.5
 42
0.625
 43
3.75
 44
1.25
 73
     0
 74
     0
 77
     1
 78
     8
140
2.5
141
2.5
143
0.0393700787
147
0.625
171
     3
172
     1
178
     0
271
     2
272
     2
274
     3
278
    44
283
     0
284
     8
340
11
  0
ENDTAB
  0
TABLE
  2
BLOCK_RECORD
  5
1
330
0
100
AcDbSymbolTable
 70
     1
  0
BLOCK_RECORD
  5
1F
330
1
100
AcDbSymbolTableRecord
100
AcDbBlockTableRecord
  2
*Model_Space
340
22
  0
BLOCK_RECORD
  5
1B
330
1
100
AcDbSymbolTableRecord
100
AcDbBlockTableRecord
  2
*Paper_Space
340
1E
  0
BLOCK_RECORD
  5
23
330
1
100
AcDbSymbolTableRecord
100
AcDbBlockTableRecord
  2
*Paper_Space0
340
26
  0
ENDTAB
  0
ENDSEC
  0
SECTION
  2
BLOCKS
  0
BLOCK
  5
20
330
1F
100
AcDbEntity
  8
0
100
AcDbBlockBegin
  2
*Model_Space
 70
     0
 10
0.0
 20
0.0
 30
0.0
  3
*Model_Space
  1

  0
ENDBLK
  5
21
330
1F
100
AcDbEntity
  8
0
100
AcDbBlockEnd
  0
BLOCK
  5
1C
330
1B
100
AcDbEntity
 67
     1
  8
0
100
AcDbBlockBegin
  2
*Paper_Space
 70
     0
 10
0.0
 20
0.0
 30
0.0
  3
*Paper_Space
  1

  0
ENDBLK
  5
1D
330
1B
100
AcDbEntity
 67
     1
  8
0
100
AcDbBlockEnd
  0
BLOCK
  5
24
330
23
100
AcDbEntity
  8
0
100
AcDbBlockBegin
  2
*Paper_Space0
 70
     0
 10
0.0
 20
0.0
 30
0.0
  3
*Paper_Space0
  1

  0
ENDBLK
  5
25
330
23
100
AcDbEntity
  8
0
100
AcDbBlockEnd
  0
ENDSEC
  0
SECTION
  2
ENTITIES
  0
LINE
  5
65
330
1F
100
AcDbEntity
  8
0
  6
Continuous
 62
     7
370
    18
100
AcDbLine
 10
4801.663086451
 20
279.1403827252
 30
0.0
 11
3345.9062220501
 21
279.1403827252
 31
0.0
  0
MTEXT
  5
67
330
1F
100
AcDbEntity
  8
0
  6
Continuous
 62
     7
370
     0
100
AcDbMText
 10
1882.8324799637
 20
2519.2846179971
 30
0.0
 40
52.9166666667
 41
0.0
 71
     1
 72
     1
  1
＜正面＞
  7
SLDTEXTSTYLE0
 73
     1
 44
1.0
  0
MTEXT
  5
68
330
1F
100
AcDbEntity
  8
0
  6
Continuous
 62
     7
370
     0
100
AcDbMText
 10
3377.8142431891
 20
379.4057208634
 30
0.0
 40
52.9166666667
 41
0.0
 71
     1
 72
     1
  1
品名：
  7
SLDTEXTSTYLE0
 73
     1
 44
1.0
  0
MTEXT
  5
69
330
1F
100
AcDbEntity
  8
0
  6
Continuous
 62
     7
370
     0
100
AcDbMText
 10
4446.6634374817
 20
385.2343854145
 30
0.0
 40
52.9166666667
 41
0.0
 71
     1
 72
     1
  1
Pamouna
  7
SLDTEXTSTYLE0
 73
     1
 44
1.0
  0
MTEXT
  5
6A
330
1F
100
AcDbEntity
  8
寸法
 62
     7
100
AcDbMText
 10
4688.0073048854
 20
218.6255182943
 30
0.0
 40
52.9166666667
 41
0.0
 71
     1
 72
     1
  1
1/1
  7
SLDTEXTSTYLE0
 73
     1
 44
1.0
  0
MTEXT
  5
6B
330
1F
100
AcDbEntity
  8
寸法
 62
     7
100
AcDbMText
 10
3611.2831293492
 20
398.3924235142
 30
0.0
 40
66.1458333333
 41
0.0
 71
     1
 72
     1
  1
MAGS450R
  7
SLDTEXTSTYLE0
 73
     1
 44
1.0
  0
MTEXT
  5
6C
330
1F
100
AcDbEntity
  8
寸法
 62
     7
100
AcDbMText
 10
4198.7969392118
 20
218.6255210883
 30
0.0
 40
52.9166666667
 41
0.0
 71
     1
 72
     1
  1
2024/03/14
  7
SLDTEXTSTYLE0
 73
     1
 44
1.0
  0
MTEXT
  5
6D
330
1F
100
AcDbEntity
  8
寸法
 62
     7
100
AcDbMText
 10
3662.4665930518
 20
2520.6575766403
 30
0.0
 40
52.9166666667
 41
0.0
 71
     1
 72
     1
  1
＜右側面＞
  7
SLDTEXTSTYLE0
 73
     1
 44
1.0
  0
MTEXT
  5
6E
330
1F
100
AcDbEntity
  8
0
  6
Continuous
 62
     7
370
     0
100
AcDbMText
 10
1882.8017261557
 20
3205.5678091759
 30
0.0
 40
52.9166666667
 41
0.0
 71
     1
 72
     1
  1
＜上面＞
  7
SLDTEXTSTYLE0
 73
     1
 44
1.0
  0
MTEXT
  5
6F
330
1F
100
AcDbEntity
  8
0
  6
Continuous
 62
     7
370
     0
100
AcDbMText
 10
599.5723251208
 20
2520.5928474105
 30
0.0
 40
52.9166666667
 41
0.0
 71
     1
 72
     1
  1
＜左側面＞
  7
SLDTEXTSTYLE0
 73
     1
 44
1.0
  0
ARC
  5
70
330
1F
100
AcDbEntity
  8
0
  6
Continuous
 62
     7
370
    25
100
AcDbCircle
 10
2277.1454585654
 20
616.4543978663
 30
0.0
 40
0.1999999999999318
100
AcDbArc
 50
179.9999999999
 51
270.0
  0
LINE
  5
71
330
1F
100
AcDbEntity
  8
0
  6
Continuous
 62
     7
370
    25
100
AcDbLine
 10
2277.1454585654
 20
616.2543978663
 30
0.0
 11
2278.9454585654
 21
616.2543978663
 31
0.0
  0
LINE
  5
72
330
1F
100
AcDbEntity
  8
0
  6
Continuous
 62
     7
370
    25
100
AcDbLine
 10
2278.9454585654
 20
616.2543978663
 30
0.0
 11
2720.9454585654
 21
616.2543978663
 31
0.0
  0
LINE
  5
73
330
1F
100
AcDbEntity
  8
0
  6
Continuous
 62
     7
370
    25
100
AcDbLine
 10
2720.9454585654
 20
616.2543978663
 30
0.0
 11
2722.7454585654
 21
616.2543978663
 31
0.0
  0
ARC
  5
74
330
1F
100
AcDbEntity
  8
0
  6
Continuous
 62
     7
370
    25
100
AcDbCircle
 10
2722.7454585654
 20
616.4543978663
 30
0.0
 40
0.2000000000002728
100
AcDbArc
 50
270.0
 51
0.0
  0
LINE
  5
75
330
1F
100
AcDbEntity
  8
0
  6
Continuous
 62
     7
370
    25
100
AcDbLine
 10
2274.4454585654
 20
2406.7543978663
 30
0.0
 11
2274.4454585654
 21
2378.2543978663
 31
0.0
  0
LINE
  5
76
330
1F
100
AcDbEntity
  8
0
  6
Continuous
 62
     7
370
    25
100
AcDbLine
 10
2724.9454585654
 20
2406.7543978663
 30
0.0
 11
2724.9454585654
 21
2378.2543978663
 31
0.0
  0
LINE
  5
77
330
1F
100
AcDbEntity
  8
0
  6
Continuous
 62
     7
370
    25
100
AcDbLine
 10
2724.9454585654
 20
2378.2543978663
 30
0.0
 11
2722.9454585654
 21
2378.2543978663
 31
0.0
  0
LINE
  5
78
330
1F
100
AcDbEntity
  8
0
  6
Continuous
 62
     7
370
    25
100
AcDbLine
 10
2276.9454585654
 20
2378.2543978663
 30
0.0
 11
2274.4454585654
 21
2378.2543978663
 31
0.0
  0
LINE
  5
79
330
1F
100
AcDbEntity
  8
0
  6
Continuous
 62
     7
370
    25
100
AcDbLine
 10
2724.9454585654
 20
2406.7543978663
 30
0.0
 11
2274.4454585654
 21
2406.7543978663
 31
0.0
  0
LINE
  5
7A
330
1F
100
AcDbEntity
  8
0
  6
Continuous
 62
     7
370
    25
100
AcDbLine
 10
2611.9454585654
 20
607.2543978663
 30
0.0
 11
2723.9454585654
 21
607.2543978663
 31
0.0
  0
LINE
  5
7B
330
1F
100
AcDbEntity
  8
0
  6
Continuous
 62
     7
370
    25
100
AcDbLine
 10
2723.9454585654
 20
2378.2543978663
 30
0.0
 11
2723.9454585654
 21
607.2543978663
 31
0.0
  0
LINE
  5
7C
330
1F
100
AcDbEntity
  8
0
  6
Continuous
 62
     7
370
    25
100
AcDbLine
 10
2722.9454585654
 20
2396.7543978663
 30
0.0
 11
2276.9454585654
 21
2396.7543978663
 31
0.0
  0
LINE
  5
7D
330
1F
100
AcDbEntity
  8
0
  6
Continuous
 62
     7
370
    25
100
AcDbLine
 10
2722.9454585654
 20
616.7543978663
 30
0.0
 11
2722.9454585654
 21
2396.7543978663
 31
0.0
  0
LINE
  5
7E
330
1F
100
AcDbEntity
  8
0
  6
Continuous
 62
     7
370
    25
100
AcDbLine
 10
2276.9454585654
 20
616.7543978663
 30
0.0
 11
2722.9454585654
 21
616.7543978663
 31
0.0
  0
LINE
  5
7F
330
1F
100
AcDbEntity
  8
0
  6
Continuous
 62
     7
370
    25
100
AcDbLine
 10
2276.9454585654
 20
2396.7543978663
 30
0.0
 11
2276.9454585654
 21
616.7543978663
 31
0.0
  0
LINE
  5
80
330
1F
100
AcDbEntity
  8
0
  6
Continuous
 62
     7
370
    25
100
AcDbLine
 10
2594.4454585654
 20
606.7543978663
 30
0.0
 11
2611.9454585654
 21
606.7543978663
 31
0.0
  0
LINE
  5
81
330
1F
100
AcDbEntity
  8
0
  6
Continuous
 62
     7
370
    25
100
AcDbLine
 10
2594.4454585654
 20
616.2543978663
 30
0.0
 11
2594.4454585654
 21
606.7543978663
 31
0.0
  0
LINE
  5
82
330
1F
100
AcDbEntity
  8
0
  6
Continuous
 62
     7
370
    25
100
AcDbLine
 10
2611.9454585654
 20
606.7543978663
 30
0.0
 11
2611.9454585654
 21
616.2543978663
 31
0.0
  0
LINE
  5
83
330
1F
100
AcDbEntity
  8
0
  6
Continuous
 62
     7
370
    25
100
AcDbLine
 10
2292.9454585654
 20
606.7543978663
 30
0.0
 11
2292.9454585654
 21
616.2543978663
 31
0.0
  0
LINE
  5
84
330
1F
100
AcDbEntity
  8
0
  6
Continuous
 62
     7
370
    25
100
AcDbLine
 10
2275.4454585654
 20
606.7543978663
 30
0.0
 11
2292.9454585654
 21
606.7543978663
 31
0.0
  0
LINE
  5
85
330
1F
100
AcDbEntity
  8
0
  6
Continuous
 62
     7
370
    25
100
AcDbLine
 10
2275.4454585654
 20
2378.2543978663
 30
0.0
 11
2275.4454585654
 21
606.7543978663
 31
0.0
  0
LINE
  5
86
330
1F
100
AcDbEntity
  8
0
  6
Continuous
 62
     7
370
    25
100
AcDbLine
 10
2594.4454585654
 20
607.7543978663
 30
0.0
 11
2292.9454585654
 21
607.7543978663
 31
0.0
  0
LINE
  5
87
330
1F
100
AcDbEntity
  8
0
  6
Continuous
 62
     7
370
    25
100
AcDbLine
 10
2276.9454585654
 20
616.4655465881
 30
0.0
 11
2276.9454585654
 21
616.5543978663
 31
0.0
  0
LINE
  5
88
330
1F
100
AcDbEntity
  8
0
  6
Continuous
 62
     7
370
    25
100
AcDbLine
 10
2277.1454585654
 20
616.7543978663
 30
0.0
 11
2277.1454585654
 21
616.2683337685
 31
0.0
  0
ARC
  5
89
330
1F
100
AcDbEntity
  8
0
  6
Continuous
 62
     7
370
    25
100
AcDbCircle
 10
2277.1440746856
 20
616.466950026
 30
0.0
 40
0.1986210785927027
100
AcDbArc
 50
180.4048499762
 51
270.3992079347
  0
SPLINE
  5
8A
330
1F
100
AcDbEntity
  8
0
  6
Continuous
 62
     7
370
    25
100
AcDbSpline
210
0.0
220
0.0
230
1.0
 70
     8
 71
     3
 72
    13
 73
     9
 74
     0
 42
0.00000001
 43
0.00000001
 40
0.0
 40
0.0
 40
0.0
 40
0.0
 40
0.0075029974114416
 40
0.3818974549664161
 40
0.607001887327267
 40
0.7653769096343476
 40
0.882460504981076
 40
1.0
 40
1.0
 40
1.0
 40
1.0
 10
2276.945458565351
 20
616.5543978663151
 30
0.0
 10
2276.945459520956
 20
616.5548358642101
 30
0.0
 10
2276.94550816057
 20
616.5771296585791
 30
0.0
 10
2276.95163026531
 20
616.6240140467951
 30
0.0
 10
2276.993646370784
 20
616.6902984838314
 30
0.0
 10
2277.04245717275
 20
616.728560043004
 30
0.0
 10
2277.093187820065
 20
616.7503158187391
 30
0.0
 10
2277.128012427516
 20
616.7530354222886
 30
0.0
 10
2277.145458565351
 20
616.7543978663145
 30
0.0
  0
LINE
  5
8B
330
1F
100
AcDbEntity
  8
0
  6
Continuous
 62
     7
370
    25
100
AcDbLine
 10
2278.9454585654
 20
616.2683337685
 30
0.0
 11
2278.9454585654
 21
616.7543978663
 31
0.0
  0
LINE
  5
8C
330
1F
100
AcDbEntity
  8
0
  6
Continuous
 62
     7
370
    25
100
AcDbLine
 10
2277.1454585654
 20
616.2683337685
 30
0.0
 11
2278.9454585654
 21
616.2683337685
 31
0.0
  0
LINE
  5
8D
330
1F
100
AcDbEntity
  8
0
  6
Continuous
 62
     7
370
    25
100
AcDbLine
 10
2276.9454585654
 20
616.4543978663
 30
0.0
 11
2276.9454585654
 21
616.4655465881
 31
0.0
  0
LINE
  5
8E
330
1F
100
AcDbEntity
  8
0
  6
Continuous
 62
     7
370
    25
100
AcDbLine
 10
2278.9454585654
 20
616.2543978663
 30
0.0
 11
2278.9454585654
 21
616.2683337685
 31
0.0
  0
LINE
  5
8F
330
1F
100
AcDbEntity
  8
0
  6
Continuous
 62
     7
370
    25
100
AcDbLine
 10
2276.9454585654
 20
616.5543978663
 30
0.0
 11
2276.9454585654
 21
616.7543978663
 31
0.0
  0
LINE
  5
90
330
1F
100
AcDbEntity
  8
0
  6
Continuous
 62
     7
370
    25
100
AcDbLine
 10
2278.9454585654
 20
616.2683337685
 30
0.0
 11
2720.9454585654
 21
616.2683337685
 31
0.0
  0
LINE
  5
91
330
1F
100
AcDbEntity
  8
0
  6
Continuous
 62
     7
370
    25
100
AcDbLine
 10
2720.9454585654
 20
616.7543978663
 30
0.0
 11
2720.9454585654
 21
616.2683337685
 31
0.0
  0
LINE
  5
92
330
1F
100
AcDbEntity
  8
0
  6
Continuous
 62
     7
370
    25
100
AcDbLine
 10
2720.9454585654
 20
616.2683337685
 30
0.0
 11
2720.9454585654
 21
616.2543978663
 31
0.0
  0
LINE
  5
93
330
1F
100
AcDbEntity
  8
0
  6
Continuous
 62
     7
370
    25
100
AcDbLine
 10
2722.9454585654
 20
616.5543978663
 30
0.0
 11
2722.9454585654
 21
616.4655465881
 31
0.0
  0
ARC
  5
94
330
1F
100
AcDbEntity
  8
0
  6
Continuous
 62
     7
370
    25
100
AcDbCircle
 10
2722.7468424451
 20
616.466950026
 30
0.0
 40
0.1986210785926336
100
AcDbArc
 50
269.6007920653
 51
359.5951500237
  0
LINE
  5
95
330
1F
100
AcDbEntity
  8
0
  6
Continuous
 62
     7
370
    25
100
AcDbLine
 10
2722.7454585654
 20
616.2683337685
 30
0.0
 11
2722.7454585654
 21
616.7543978663
 31
0.0
  0
SPLINE
  5
96
330
1F
100
AcDbEntity
  8
0
  6
Continuous
 62
     7
370
    25
100
AcDbSpline
210
0.0
220
0.0
230
1.0
 70
     8
 71
     3
 72
    13
 73
     9
 74
     0
 42
0.00000001
 43
0.00000001
 40
0.0
 40
0.0
 40
0.0
 40
0.0
 40
0.0075029974113241
 40
0.3818974549655675
 40
0.6070018873266094
 40
0.7653769096339128
 40
0.8824605049806455
 40
0.9999999999999999
 40
0.9999999999999999
 40
0.9999999999999999
 40
0.9999999999999999
 10
2722.945458565359
 20
616.5543978663155
 30
0.0
 10
2722.945457609755
 20
616.5548358642108
 30
0.0
 10
2722.945408970139
 20
616.57712965858
 30
0.0
 10
2722.939286865401
 20
616.6240140467954
 30
0.0
 10
2722.897270759926
 20
616.6902984838318
 30
0.0
 10
2722.84845995796
 20
616.7285600430046
 30
0.0
 10
2722.797729310645
 20
616.7503158187396
 30
0.0
 10
2722.762904703195
 20
616.7530354222894
 30
0.0
 10
2722.745458565359
 20
616.7543978663155
 30
0.0
  0
LINE
  5
97
330
1F
100
AcDbEntity
  8
0
  6
Continuous
 62
     7
370
    25
100
AcDbLine
 10
2720.9454585654
 20
616.2683337685
 30
0.0
 11
2722.7454585654
 21
616.2683337685
 31
0.0
  0
LINE
  5
98
330
1F
100
AcDbEntity
  8
0
  6
Continuous
 62
     7
370
    25
100
AcDbLine
 10
2722.9454585654
 20
616.4655465881
 30
0.0
 11
2722.9454585654
 21
616.4543978663
 31
0.0
  0
LINE
  5
99
330
1F
100
AcDbEntity
  8
0
  6
Continuous
 62
     7
370
    25
100
AcDbLine
 10
2722.9454585654
 20
616.7543978663
 30
0.0
 11
2722.9454585654
 21
616.5543978663
 31
0.0
  0
LINE
  5
9A
330
1F
100
AcDbEntity
  8
0
  6
Continuous
 62
     7
370
    25
100
AcDbLine
 10
2277.1454585654
 20
616.2683337685
 30
0.0
 11
2277.1454585654
 21
616.2543978663
 31
0.0
  0
LINE
  5
9B
330
1F
100
AcDbEntity
  8
0
  6
Continuous
 62
     7
370
    25
100
AcDbLine
 10
2722.7454585654
 20
616.2543978663
 30
0.0
 11
2722.7454585654
 21
616.2683337685
 31
0.0
  0
LINE
  5
9C
330
1F
100
AcDbEntity
  8
0
  6
Continuous
 62
     7
370
    25
100
AcDbLine
 10
1138.2608646997
 20
1796.2543978663
 30
0.0
 11
1136.2608646997
 21
1796.2543978663
 31
0.0
  0
LINE
  5
9D
330
1F
100
AcDbEntity
  8
0
  6
Continuous
 62
     7
370
    25
100
AcDbLine
 10
1136.2608646997
 20
1761.2543978663
 30
0.0
 11
1138.2608646997
 21
1761.2543978663
 31
0.0
  0
LINE
  5
9E
330
1F
100
AcDbEntity
  8
0
  6
Continuous
 62
     7
370
    25
100
AcDbLine
 10
1136.2608646997
 20
2250.7543978663
 30
0.0
 11
1138.2608646997
 21
2250.7543978663
 31
0.0
  0
LINE
  5
9F
330
1F
100
AcDbEntity
  8
0
  6
Continuous
 62
     7
370
    25
100
AcDbLine
 10
1138.2608646997
 20
822.7543978663
 30
0.0
 11
1136.2608646997
 21
822.7543978663
 31
0.0
  0
LINE
  5
A0
330
1F
100
AcDbEntity
  8
0
  6
Continuous
 62
     7
370
    25
100
AcDbLine
 10
1138.2608646997
 20
1313.2543978663
 30
0.0
 11
1136.2608646997
 21
1313.2543978663
 31
0.0
  0
LINE
  5
A1
330
1F
100
AcDbEntity
  8
0
  6
Continuous
 62
     7
370
    25
100
AcDbLine
 10
1136.2608646997
 20
1278.2543978663
 30
0.0
 11
1138.2608646997
 21
1278.2543978663
 31
0.0
  0
LINE
  5
A2
330
1F
100
AcDbEntity
  8
0
  6
Continuous
 62
     7
370
    25
100
AcDbLine
 10
755.7831445376
 20
2309.2767567878
 30
0.0
 11
757.7608646997
 21
2309.2249683628
 31
0.0
  0
LINE
  5
A3
330
1F
100
AcDbEntity
  8
0
  6
Continuous
 62
     7
370
    25
100
AcDbLine
 10
757.7608646997
 20
2314.7268537215
 30
0.0
 11
755.9271177533
 21
2314.7748720752
 31
0.0
  0
ARC
  5
A4
330
1F
100
AcDbEntity
  8
0
  6
Continuous
 62
     7
370
    25
100
AcDbCircle
 10
755.7909976221
 20
2309.5766539853
 30
0.0
 40
0.3000000000003336
100
AcDbArc
 50
178.5
 51
268.5000000001
  0
ARC
  5
A5
330
1F
100
AcDbEntity
  8
0
  6
Continuous
 62
     7
370
    25
100
AcDbCircle
 10
755.9192646688
 20
2314.4749748777
 30
0.0
 40
0.2999999999999956
100
AcDbArc
 50
88.5
 51
178.5
  0
ARC
  5
A6
330
1F
100
AcDbEntity
  8
0
  6
Continuous
 62
     7
370
    25
100
AcDbCircle
 10
754.280819647
 20
2337.8758832752
 30
0.0
 40
1.200000000000419
100
AcDbArc
 50
88.5000000001
 51
173.500000003
  0
ARC
  5
A7
330
1F
100
AcDbEntity
  8
0
  6
Continuous
 62
     7
370
    25
100
AcDbCircle
 10
753.8201053568
 20
2320.2819143556
 30
0.0
 40
1.200000000000431
100
AcDbArc
 50
183.4999999971
 51
268.5000000001
  0
LINE
  5
A8
330
1F
100
AcDbEntity
  8
0
  6
Continuous
 62
     7
370
    25
100
AcDbLine
 10
755.0624227623
 20
2339.0558276283
 30
0.0
 11
754.3122319849
 21
2339.0754720652
 31
0.0
  0
LINE
  5
A9
330
1F
100
AcDbEntity
  8
0
  6
Continuous
 62
     7
370
    25
100
AcDbLine
 10
753.7886930188
 20
2319.0823255657
 30
0.0
 11
754.5388837961
 21
2319.0626811288
 31
0.0
  0
ARC
  5
AA
330
1F
100
AcDbEntity
  8
0
  6
Continuous
 62
     7
370
    25
100
AcDbCircle
 10
755.0571873726
 20
2338.8558961633
 30
0.0
 40
0.2000000000000689
100
AcDbArc
 50
358.5000000001
 51
88.5000000001
  0
ARC
  5
AB
330
1F
100
AcDbEntity
  8
0
  6
Continuous
 62
     7
370
    25
100
AcDbCircle
 10
754.5441191858
 20
2319.2626125938
 30
0.0
 40
0.2000000000000689
100
AcDbArc
 50
268.5000000002
 51
358.5000000001
  0
LINE
  5
AC
330
1F
100
AcDbEntity
  8
0
  6
Continuous
 62
     7
370
    25
100
AcDbLine
 10
753.0885334202
 20
2338.0117271317
 30
0.0
 11
752.9067456257
 21
2336.4161961367
 31
0.0
  0
LINE
  5
AD
330
1F
100
AcDbEntity
  8
0
  6
Continuous
 62
     7
370
    25
100
AcDbLine
 10
752.5243085784
 20
2321.8115145215
 30
0.0
 11
752.6223435987
 21
2320.2086561083
 31
0.0
  0
ARC
  5
AE
330
1F
100
AcDbEntity
  8
0
  6
Continuous
 62
     7
370
    25
100
AcDbCircle
 10
782.713901296
 20
2333.0200997237
 30
0.0
 40
30.00000000000204
100
AcDbArc
 50
173.5
 51
178.5000000001
  0
ARC
  5
AF
330
1F
100
AcDbEntity
  8
0
  6
Continuous
 62
     7
370
    25
100
AcDbCircle
 10
782.468352531
 20
2323.6429707076
 30
0.0
 40
30.00000000000215
100
AcDbArc
 50
178.5000000001
 51
183.5000000001
  0
SPLINE
  5
B0
330
1F
100
AcDbEntity
  8
0
  6
Continuous
 62
     7
370
    25
100
AcDbSpline
210
0.0
220
0.0
230
1.0
 70
     8
 71
     3
 72
    13
 73
     9
 74
     0
 42
0.00000001
 43
0.00000001
 40
0.0
 40
0.0
 40
0.0
 40
0.0
 40
0.2397374167688306
 40
0.3685398007314657
 40
0.5000035787040282
 40
0.6314571620063314
 40
0.7602371999081101
 40
1.0
 40
1.0
 40
1.0
 40
1.0
 10
755.6182095108035
 20
2333.53938224284
 30
0.0
 10
755.5551483398609
 20
2333.547732001868
 30
0.0
 10
755.4582066455426
 20
2333.56056778933
 30
0.0
 10
755.3427620111606
 20
2333.626504447248
 30
0.0
 10
755.2641552458501
 20
2333.693613842776
 30
0.0
 10
755.2018152157362
 20
2333.775852176286
 30
0.0
 10
755.1429820569382
 20
2333.894464357312
 30
0.0
 10
755.1360317651645
 20
2333.991032751231
 30
0.0
 10
755.1315101159956
 20
2334.053857221387
 30
0.0
  0
SPLINE
  5
B1
330
1F
100
AcDbEntity
  8
0
  6
Continuous
 62
     7
370
    25
100
AcDbSpline
210
0.0
220
0.0
230
1.0
 70
     8
 71
     3
 72
    13
 73
     9
 74
     0
 42
0.00000001
 43
0.00000001
 40
0.0
 40
0.0
 40
0.0
 40
0.0
 40
0.2397628000982605
 40
0.368542838002835
 40
0.4999964213062924
 40
0.6314601992780048
 40
0.7602625832377824
 40
1.0
 40
1.0
 40
1.0
 40
1.0
 10
754.8696593723765
 20
2324.054180756408
 30
0.0
 10
754.8774628035035
 20
2324.11668248298
 30
0.0
 10
754.8894575693823
 20
2324.21275478311
 30
0.0
 10
754.9544177812965
 20
2324.328125320644
 30
0.0
 10
755.0209763983895
 20
2324.406988324293
 30
0.0
 10
755.1029876702476
 20
2324.469891788499
 30
0.0
 10
755.2217249498143
 20
2324.529696177186
 30
0.0
 10
755.3192055621209
 20
2324.537440837371
 30
0.0
 10
755.3826173025435
 20
2324.542478786658
 30
0.0
  0
LINE
  5
B2
330
1F
100
AcDbEntity
  8
0
  6
Continuous
 62
     7
370
    25
100
AcDbLine
 10
757.7608646997
 20
2333.4832810807
 30
0.0
 11
755.6182096741
 21
2333.5393884771
 31
0.0
  0
LINE
  5
B3
330
1F
100
AcDbEntity
  8
0
  6
Continuous
 62
     7
370
    25
100
AcDbLine
 10
755.3826171393
 20
2324.5424725524
 30
0.0
 11
757.7608646997
 21
2324.4801959483
 31
0.0
  0
LINE
  5
B4
330
1F
100
AcDbEntity
  8
0
  6
Continuous
 62
     7
370
    25
100
AcDbLine
 10
1136.7608646997
 20
2406.7543978663
 30
0.0
 11
1136.7608646997
 21
2378.2543978663
 31
0.0
  0
LINE
  5
B5
330
1F
100
AcDbEntity
  8
0
  6
Continuous
 62
     7
370
    25
100
AcDbLine
 10
1136.7608646997
 20
2378.2543978663
 30
0.0
 11
757.7608646997
 21
2378.2543978663
 31
0.0
  0
LINE
  5
B6
330
1F
100
AcDbEntity
  8
0
  6
Continuous
 62
     7
370
    25
100
AcDbLine
 10
757.7608646997
 20
2406.7543978663
 30
0.0
 11
1136.7608646997
 21
2406.7543978663
 31
0.0
  0
LINE
  5
B7
330
1F
100
AcDbEntity
  8
0
  6
Continuous
 62
     7
370
    25
100
AcDbLine
 10
757.7608646997
 20
2378.2543978663
 30
0.0
 11
757.7608646997
 21
2406.7543978663
 31
0.0
  0
LINE
  5
B8
330
1F
100
AcDbEntity
  8
0
  6
Continuous
 62
     7
370
    25
100
AcDbLine
 10
1138.2608646997
 20
2396.7543978663
 30
0.0
 11
1138.2608646997
 21
650.2543978663
 31
0.0
  0
LINE
  5
B9
330
1F
100
AcDbEntity
  8
0
  6
Continuous
 62
     7
370
    25
100
AcDbLine
 10
1156.2608646997
 20
2396.7543978663
 30
0.0
 11
1156.2608646997
 21
616.7543978663
 31
0.0
  0
LINE
  5
BA
330
1F
100
AcDbEntity
  8
0
  6
Continuous
 62
     7
370
    25
100
AcDbLine
 10
1156.2608646997
 20
616.7543978663
 30
0.0
 11
1152.2608646997
 21
616.7543978663
 31
0.0
  0
LINE
  5
BB
330
1F
100
AcDbEntity
  8
0
  6
Continuous
 62
     7
370
    25
100
AcDbLine
 10
1152.2608646997
 20
629.7543978663
 30
0.0
 11
1152.2608646997
 21
616.7543978663
 31
0.0
  0
LINE
  5
BC
330
1F
100
AcDbEntity
  8
0
  6
Continuous
 62
     7
370
    25
100
AcDbLine
 10
1139.7608646997
 20
629.7543978663
 30
0.0
 11
1152.2608646997
 21
629.7543978663
 31
0.0
  0
LINE
  5
BD
330
1F
100
AcDbEntity
  8
0
  6
Continuous
 62
     7
370
    25
100
AcDbLine
 10
1139.7608646997
 20
650.2543978663
 30
0.0
 11
1139.7608646997
 21
629.7543978663
 31
0.0
  0
LINE
  5
BE
330
1F
100
AcDbEntity
  8
0
  6
Continuous
 62
     7
370
    25
100
AcDbLine
 10
1156.2608646997
 20
2396.7543978663
 30
0.0
 11
1138.2608646997
 21
2396.7543978663
 31
0.0
  0
LINE
  5
BF
330
1F
100
AcDbEntity
  8
0
  6
Continuous
 62
     7
370
    25
100
AcDbLine
 10
1138.2608646997
 20
650.2543978663
 30
0.0
 11
1139.7608646997
 21
650.2543978663
 31
0.0
  0
LINE
  5
C0
330
1F
100
AcDbEntity
  8
0
  6
Continuous
 62
     7
370
    25
100
AcDbLine
 10
1136.2608646997
 20
2378.2543978663
 30
0.0
 11
1136.2608646997
 21
606.7543978663
 31
0.0
  0
LINE
  5
C1
330
1F
100
AcDbEntity
  8
0
  6
Continuous
 62
     7
370
    25
100
AcDbLine
 10
757.7608646997
 20
2378.2543978663
 30
0.0
 11
757.7608646997
 21
606.7543978663
 31
0.0
  0
LINE
  5
C2
330
1F
100
AcDbEntity
  8
0
  6
Continuous
 62
     7
370
    25
100
AcDbLine
 10
1136.2608646997
 20
606.7543978663
 30
0.0
 11
757.7608646997
 21
606.7543978663
 31
0.0
  0
LINE
  5
C3
330
1F
100
AcDbEntity
  8
0
  6
Continuous
 62
     7
370
    25
100
AcDbLine
 10
1136.2608646997
 20
2270.7543978663
 30
0.0
 11
1138.2608646997
 21
2270.7543978663
 31
0.0
  0
LINE
  5
C4
330
1F
100
AcDbEntity
  8
0
  6
Continuous
 62
     7
370
    25
100
AcDbLine
 10
1136.2608646997
 20
802.7543978663
 30
0.0
 11
1138.2608646997
 21
802.7543978663
 31
0.0
  0
LINE
  5
C5
330
1F
100
AcDbEntity
  8
0
  6
Continuous
 62
     7
370
    25
100
AcDbLine
 10
1136.2608646997
 20
742.7543978663
 30
0.0
 11
1138.2608646997
 21
742.7543978663
 31
0.0
  0
LINE
  5
C6
330
1F
100
AcDbEntity
  8
0
  6
Continuous
 62
     7
370
    25
100
AcDbLine
 10
1137.9608646997
 20
628.7543978663
 30
0.0
 11
1137.9608646997
 21
649.5543978663
 31
0.0
  0
LINE
  5
C7
330
1F
100
AcDbEntity
  8
0
  6
Continuous
 62
     7
370
    25
100
AcDbLine
 10
1137.9608646997
 20
649.5543978663
 30
0.0
 11
1138.1608646997
 21
649.5543978663
 31
0.0
  0
LINE
  5
C8
330
1F
100
AcDbEntity
  8
0
  6
Continuous
 62
     7
370
    25
100
AcDbLine
 10
1138.1608646997
 20
649.5543978663
 30
0.0
 11
1138.1608646997
 21
628.7543978663
 31
0.0
  0
LINE
  5
C9
330
1F
100
AcDbEntity
  8
0
  6
Continuous
 62
     7
370
    25
100
AcDbLine
 10
1137.9608646997
 20
628.7543978663
 30
0.0
 11
1138.1608646997
 21
628.7543978663
 31
0.0
  0
LINE
  5
CA
330
1F
100
AcDbEntity
  8
0
  6
Continuous
 62
     7
370
    25
100
AcDbLine
 10
1138.1608646997
 20
649.7543978663
 30
0.0
 11
1138.1608646997
 21
649.5543978663
 31
0.0
  0
ARC
  5
CB
330
1F
100
AcDbEntity
  8
0
  6
Continuous
 62
     7
370
    25
100
AcDbCircle
 10
1138.1608646997
 20
649.5543978663
 30
0.0
 40
0.2000000000000455
100
AcDbArc
 50
90.0
 51
180.0
  0
LINE
  5
CC
330
1F
100
AcDbEntity
  8
0
  6
Continuous
 62
     7
370
    25
100
AcDbLine
 10
1138.1608646997
 20
649.7543978663
 30
0.0
 11
1139.7608646997
 21
649.7543978663
 31
0.0
  0
LINE
  5
CD
330
1F
100
AcDbEntity
  8
0
  6
Continuous
 62
     7
370
    25
100
AcDbLine
 10
1139.7608646997
 20
649.7543978663
 30
0.0
 11
1139.5608646997
 21
649.5543978663
 31
0.0
  0
LINE
  5
CE
330
1F
100
AcDbEntity
  8
0
  6
Continuous
 62
     7
370
    25
100
AcDbLine
 10
1139.5608646997
 20
649.5543978663
 30
0.0
 11
1138.1608646997
 21
649.5543978663
 31
0.0
  0
LINE
  5
CF
330
1F
100
AcDbEntity
  8
0
  6
Continuous
 62
     7
370
    25
100
AcDbLine
 10
1152.0608646997
 20
616.5543978663
 30
0.0
 11
1152.0608646997
 21
629.5543978663
 31
0.0
  0
LINE
  5
D0
330
1F
100
AcDbEntity
  8
0
  6
Continuous
 62
     7
370
    25
100
AcDbLine
 10
1152.4780763832
 20
616.5543978663
 30
0.0
 11
1152.0608646997
 21
616.5543978663
 31
0.0
  0
ARC
  5
D1
330
1F
100
AcDbEntity
  8
0
  6
Continuous
 62
     7
370
    25
100
AcDbCircle
 10
1152.2609030256
 20
616.7613658174
 30
0.0
 40
0.300000000000115
100
AcDbArc
 50
279.5765884811
 51
316.3783470328
  0
ARC
  5
D2
330
1F
100
AcDbEntity
  8
0
  6
Continuous
 62
     7
370
    25
100
AcDbCircle
 10
1152.1777201022
 20
617.2543978663
 30
0.0
 40
0.8000000000001971
100
AcDbArc
 50
184.9699465947
 51
279.576588481
  0
LINE
  5
D3
330
1F
100
AcDbEntity
  8
0
  6
Continuous
 62
     7
370
    25
100
AcDbLine
 10
1150.539539262
 20
626.8583577014
 30
0.0
 11
1151.3807278807
 21
617.1850913096
 31
0.0
  0
ARC
  5
D4
330
1F
100
AcDbEntity
  8
0
  6
Continuous
 62
     7
370
    25
100
AcDbCircle
 10
1149.3440509297
 20
626.7543978663
 30
0.0
 40
1.200000000000159
100
AcDbArc
 50
4.9699465947
 51
90.0
  0
LINE
  5
D5
330
1F
100
AcDbEntity
  8
0
  6
Continuous
 62
     7
370
    25
100
AcDbLine
 10
1138.9608646997
 20
627.9543978663
 30
0.0
 11
1149.3440509297
 21
627.9543978663
 31
0.0
  0
ARC
  5
D6
330
1F
100
AcDbEntity
  8
0
  6
Continuous
 62
     7
370
    25
100
AcDbCircle
 10
1138.9608646997
 20
628.7543978663
 30
0.0
 40
0.7999999999999545
100
AcDbArc
 50
180.0
 51
270.0
  0
LINE
  5
D7
330
1F
100
AcDbEntity
  8
0
  6
Continuous
 62
     7
370
    25
100
AcDbLine
 10
1139.5608646997
 20
629.5543978663
 30
0.0
 11
1139.5608646997
 21
649.5543978663
 31
0.0
  0
LINE
  5
D8
330
1F
100
AcDbEntity
  8
0
  6
Continuous
 62
     7
370
    25
100
AcDbLine
 10
1152.0608646997
 20
629.5543978663
 30
0.0
 11
1139.5608646997
 21
629.5543978663
 31
0.0
  0
LINE
  5
D9
330
1F
100
AcDbEntity
  8
0
  6
Continuous
 62
     7
370
    25
100
AcDbLine
 10
1139.5608646997
 20
629.5543978663
 30
0.0
 11
1139.7608646997
 21
629.7543978663
 31
0.0
  0
ARC
  5
DA
330
1F
100
AcDbEntity
  8
0
  6
Continuous
 62
     7
370
    25
100
AcDbCircle
 10
1138.9608646997
 20
628.7543978663
 30
0.0
 40
1.0
100
AcDbArc
 50
180.0
 51
270.0
  0
LINE
  5
DB
330
1F
100
AcDbEntity
  8
0
  6
Continuous
 62
     7
370
    25
100
AcDbLine
 10
1138.9608646997
 20
627.7543978663
 30
0.0
 11
1138.9608646997
 21
627.9543978663
 31
0.0
  0
LINE
  5
DC
330
1F
100
AcDbEntity
  8
0
  6
Continuous
 62
     7
370
    25
100
AcDbLine
 10
1152.0608646997
 20
629.5543978663
 30
0.0
 11
1152.2608646997
 21
629.7543978663
 31
0.0
  0
LINE
  5
DD
330
1F
100
AcDbEntity
  8
0
  6
Continuous
 62
     7
370
    25
100
AcDbLine
 10
1149.3440509297
 20
627.7543978663
 30
0.0
 11
1138.9608646997
 21
627.7543978663
 31
0.0
  0
LINE
  5
DE
330
1F
100
AcDbEntity
  8
0
  6
Continuous
 62
     7
370
    25
100
AcDbLine
 10
1149.3440509297
 20
627.7543978663
 30
0.0
 11
1149.3440509297
 21
627.9543978663
 31
0.0
  0
ARC
  5
DF
330
1F
100
AcDbEntity
  8
0
  6
Continuous
 62
     7
370
    25
100
AcDbCircle
 10
1149.3440509297
 20
626.7543978663
 30
0.0
 40
1.000000000000114
100
AcDbArc
 50
4.9699465947
 51
90.0
  0
LINE
  5
E0
330
1F
100
AcDbEntity
  8
0
  6
Continuous
 62
     7
370
    25
100
AcDbLine
 10
1150.3402912066
 20
626.8410310622
 30
0.0
 11
1150.539539262
 21
626.8583577014
 31
0.0
  0
LINE
  5
E1
330
1F
100
AcDbEntity
  8
0
  6
Continuous
 62
     7
370
    25
100
AcDbLine
 10
1151.1814798253
 20
617.1677646704
 30
0.0
 11
1150.3402912066
 21
626.8410310622
 31
0.0
  0
LINE
  5
E2
330
1F
100
AcDbEntity
  8
0
  6
Continuous
 62
     7
370
    25
100
AcDbLine
 10
1151.3807278807
 20
617.1850913096
 30
0.0
 11
1151.1814798253
 21
617.1677646704
 31
0.0
  0
LINE
  5
E3
330
1F
100
AcDbEntity
  8
0
  6
Continuous
 62
     7
370
    25
100
AcDbLine
 10
1152.0608646997
 20
616.5543978663
 30
0.0
 11
1152.2608646997
 21
616.7543978663
 31
0.0
  0
LINE
  5
E4
330
1F
100
AcDbEntity
  8
0
  6
Continuous
 62
     7
370
    25
100
AcDbLine
 10
1152.3108127797
 20
616.4655465881
 30
0.0
 11
1152.3440859491
 21
616.2683337685
 31
0.0
  0
ARC
  5
E5
330
1F
100
AcDbEntity
  8
0
  6
Continuous
 62
     7
370
    25
100
AcDbCircle
 10
1152.1777201022
 20
617.2543978663
 30
0.0
 40
1.000000000000197
100
AcDbArc
 50
184.9699465947
 51
279.5765884811
  0
SPLINE
  5
E6
330
1F
100
AcDbEntity
  8
0
  6
Continuous
 62
     7
370
    25
100
AcDbSpline
210
0.0
220
0.0
230
1.0
 70
     8
 71
     3
 72
    13
 73
     9
 74
     0
 42
0.00000001
 43
0.00000001
 40
0.0
 40
0.0
 40
0.0
 40
0.0
 40
0.0075029974114416
 40
0.3818974549664161
 40
0.607001887327267
 40
0.7653769096343476
 40
0.882460504981076
 40
1.0
 40
1.0
 40
1.0
 40
1.0
 10
1152.47807638316
 20
616.5543978663151
 30
0.0
 10
1152.479094159775
 20
616.5548358642101
 30
0.0
 10
1152.530898295916
 20
616.5771296585791
 30
0.0
 10
1152.609483661282
 20
616.6240140467951
 30
0.0
 10
1152.692123125314
 20
616.6902984838314
 30
0.0
 10
1152.734219243413
 20
616.728560043004
 30
0.0
 10
1152.756742670248
 20
616.7503158187391
 30
0.0
 10
1152.759482096362
 20
616.7530354222886
 30
0.0
 10
1152.76085447093
 20
616.7543978663145
 30
0.0
  0
ARC
  5
E7
330
1F
100
AcDbEntity
  8
0
  6
Continuous
 62
     7
370
    25
100
AcDbCircle
 10
1152.2609030256
 20
616.7613658174
 30
0.0
 40
0.5000000000001907
100
AcDbArc
 50
279.5765884811
 51
359.2015057739
  0
SPLINE
  5
E8
330
1F
100
AcDbEntity
  8
0
  6
Continuous
 62
     7
370
    25
100
AcDbSpline
210
0.0
220
0.0
230
1.0
 70
     8
 71
     3
 72
    11
 73
     7
 74
     0
 42
0.00000001
 43
0.00000001
 40
0.0
 40
0.0
 40
0.0
 40
0.0
 40
0.2382247349847825
 40
0.492137690458765
 40
0.7460575595466308
 40
1.0
 40
1.0
 40
1.0
 40
1.0
 10
755.4913742188656
 20
2309.594962851273
 30
0.0
 10
755.492046603112
 20
2309.620640170789
 30
0.0
 10
755.4934356512736
 20
2309.673685782213
 30
0.0
 10
755.5069732494363
 20
2310.190665780934
 30
0.0
 10
755.527073837202
 20
2310.958276326894
 30
0.0
 10
755.5434574874807
 20
2311.583942518921
 30
0.0
 10
755.5516496766966
 20
2311.896789518447
 30
0.0
  0
LINE
  5
E9
330
1F
100
AcDbEntity
  8
0
  6
Continuous
 62
     7
370
    25
100
AcDbLine
 10
755.5516496767
 20
2311.8967895184
 30
0.0
 11
755.5552339479
 21
2312.033667516
 31
0.0
  0
SPLINE
  5
EA
330
1F
100
AcDbEntity
  8
0
  6
Continuous
 62
     7
370
    25
100
AcDbSpline
210
0.0
220
0.0
230
1.0
 70
    24
 71
     3
 72
    12
 73
     8
 74
     0
 42
0.00000001
 43
0.00000001
 40
0.0
 40
0.0
 40
0.0
 40
0.0
 40
0.2460973337377294
 40
0.4921955654186699
 40
0.7383025770435995
 40
0.9844160040481821
 40
0.9999999999999999
 40
0.9999999999999999
 40
0.9999999999999999
 40
0.9999999999999999
 10
755.5552339479451
 20
2312.033667516023
 30
0.0
 10
755.5634634249459
 20
2312.347938563519
 30
0.0
 10
755.5799224089744
 20
2312.976481805201
 30
0.0
 10
755.6012384120842
 20
2313.79050712236
 30
0.0
 10
755.6147786748296
 20
2314.307588895108
 30
0.0
 10
755.6206981519127
 20
2314.533644604761
 30
0.0
 10
755.619177921574
 20
2314.47558935035
 30
0.0
 10
755.6190873923545
 20
2314.472132178936
 30
0.0
  0
SPLINE
  5
EB
330
1F
100
AcDbEntity
  8
0
  6
Continuous
 62
     7
370
    25
100
AcDbSpline
210
0.0
220
0.0
230
1.0
 70
    24
 71
     3
 72
    13
 73
     9
 74
     0
 42
0.00000001
 43
0.00000001
 40
0.0
 40
0.0
 40
0.0
 40
0.0
 40
0.153858158365178
 40
0.3079676862452413
 40
0.4535077802384458
 40
0.5878340078344887
 40
0.8177872163812496
 40
1.0
 40
1.0
 40
1.0
 40
1.0
 10
755.2568851491467
 20
2338.84173657194
 30
0.0
 10
755.2555656725033
 20
2338.791347791848
 30
0.0
 10
755.2529245634894
 20
2338.690487907768
 30
0.0
 10
755.2306977780771
 20
2337.841681217711
 30
0.0
 10
755.1985297677808
 20
2336.613234465797
 30
0.0
 10
755.1492668361929
 20
2334.731959007924
 30
0.0
 10
755.0834475074535
 20
2332.218420251293
 30
0.0
 10
755.0287224443059
 20
2330.128554404702
 30
0.0
 10
755.0045292641811
 20
2329.204654130213
 30
0.0
  0
SPLINE
  5
EC
330
1F
100
AcDbEntity
  8
0
  6
Continuous
 62
     7
370
    25
100
AcDbSpline
210
0.0
220
0.0
230
1.0
 70
    24
 71
     3
 72
    13
 73
     9
 74
     0
 42
0.00000001
 43
0.00000001
 40
0.0
 40
0.0
 40
0.0
 40
0.0
 40
0.181320153790565
 40
0.4101468448378936
 40
0.5438150184963866
 40
0.688642123887495
 40
0.841996687412648
 40
1.0
 40
1.0
 40
1.0
 40
1.0
 10
755.0005847441852
 20
2329.054018988899
 30
0.0
 10
754.9763578705428
 20
2328.128832010859
 30
0.0
 10
754.9215565945839
 20
2326.036055714374
 30
0.0
 10
754.8551963635614
 20
2323.50186073294
 30
0.0
 10
754.8052253470083
 20
2321.593544601197
 30
0.0
 10
754.7723032582928
 20
2320.336300756265
 30
0.0
 10
754.7490210995664
 20
2319.447190985359
 30
0.0
 10
754.7457289061574
 20
2319.321467191361
 30
0.0
 10
754.7440582322988
 20
2319.257666730712
 30
0.0
  0
LINE
  5
ED
330
1F
100
AcDbEntity
  8
0
  6
Continuous
 62
     7
370
    25
100
AcDbLine
 10
752.4786327818
 20
2324.4282791568
 30
0.0
 11
752.7241815467
 21
2333.8054081729
 31
0.0
  0
SPLINE
  5
EE
330
1F
100
AcDbEntity
  8
0
  6
Continuous
 62
     7
370
    25
100
AcDbSpline
210
0.0
220
0.0
230
1.0
 70
     8
 71
     3
 72
    11
 73
     7
 74
     0
 42
0.00000001
 43
0.00000001
 40
0.0
 40
0.0
 40
0.0
 40
0.0
 40
0.2702619356887902
 40
0.56243054861889
 40
0.7897374073728177
 40
1.0
 40
1.0
 40
1.0
 40
1.0
 10
755.4965437889186
 20
2328.893155774597
 30
0.0
 10
755.4257065946308
 20
2328.894721041443
 30
0.0
 10
755.2782903410459
 20
2328.897978451292
 30
0.0
 10
755.1105191258894
 20
2328.897927095701
 30
0.0
 10
755.0127956957903
 20
2328.894958610189
 30
0.0
 10
755.0016438762285
 20
2328.891490841422
 30
0.0
 10
754.9962851600609
 20
2328.889824495546
 30
0.0
  0
LINE
  5
EF
330
1F
100
AcDbEntity
  8
0
  6
Continuous
 62
     7
370
    25
100
AcDbLine
 10
1137.0608646997
 20
2364.0543978663
 30
0.0
 11
1137.0608646997
 21
2365.2543978663
 31
0.0
  0
LINE
  5
F0
330
1F
100
AcDbEntity
  8
0
  6
Continuous
 62
     7
370
    25
100
AcDbLine
 10
1136.2608646997
 20
2365.2543978663
 30
0.0
 11
1137.0608646997
 21
2365.2543978663
 31
0.0
  0
LINE
  5
F1
330
1F
100
AcDbEntity
  8
0
  6
Continuous
 62
     7
370
    25
100
AcDbLine
 10
1136.2608646997
 20
2364.0543978663
 30
0.0
 11
1137.0608646997
 21
2364.0543978663
 31
0.0
  0
LINE
  5
F2
330
1F
100
AcDbEntity
  8
0
  6
Continuous
 62
     7
370
    25
100
AcDbLine
 10
1137.0608646997
 20
2365.2543978663
 30
0.0
 11
1138.2608646997
 21
2365.2543978663
 31
0.0
  0
LINE
  5
F3
330
1F
100
AcDbEntity
  8
0
  6
Continuous
 62
     7
370
    25
100
AcDbLine
 10
1137.0608646997
 20
2364.0543978663
 30
0.0
 11
1138.2608646997
 21
2364.0543978663
 31
0.0
  0
LINE
  5
F4
330
1F
100
AcDbEntity
  8
0
  6
Continuous
 62
     7
370
    25
100
AcDbLine
 10
1137.0608646997
 20
2345.2510784443
 30
0.0
 11
1137.0608646997
 21
2346.2543978663
 31
0.0
  0
LINE
  5
F5
330
1F
100
AcDbEntity
  8
0
  6
Continuous
 62
     7
370
    25
100
AcDbLine
 10
1137.0608646997
 20
2346.2543978663
 30
0.0
 11
1138.2608646997
 21
2346.2543978663
 31
0.0
  0
LINE
  5
F6
330
1F
100
AcDbEntity
  8
0
  6
Continuous
 62
     7
370
    25
100
AcDbLine
 10
1137.0608646997
 20
2346.2543978663
 30
0.0
 11
1137.0608646997
 21
2364.0543978663
 31
0.0
  0
LINE
  5
F7
330
1F
100
AcDbEntity
  8
0
  6
Continuous
 62
     7
370
    25
100
AcDbLine
 10
1137.7608646997
 20
2325.7103560054
 30
0.0
 11
1138.2608646997
 21
2325.7103560054
 31
0.0
  0
LINE
  5
F8
330
1F
100
AcDbEntity
  8
0
  6
Continuous
 62
     7
370
    25
100
AcDbLine
 10
1137.7608646997
 20
2324.1543978661
 30
0.0
 11
1138.2608646997
 21
2324.1543978661
 31
0.0
  0
LINE
  5
F9
330
1F
100
AcDbEntity
  8
0
  6
Continuous
 62
     7
370
    25
100
AcDbLine
 10
1137.7608646997
 20
2324.1543978661
 30
0.0
 11
1137.7608646997
 21
2325.7103560054
 31
0.0
  0
LINE
  5
FA
330
1F
100
AcDbEntity
  8
0
  6
Continuous
 62
     7
370
    25
100
AcDbLine
 10
1138.2608646997
 20
2307.7984397272
 30
0.0
 11
1137.7608646997
 21
2307.7984397272
 31
0.0
  0
LINE
  5
FB
330
1F
100
AcDbEntity
  8
0
  6
Continuous
 62
     7
370
    25
100
AcDbLine
 10
1137.7608646997
 20
2307.7984397272
 30
0.0
 11
1137.7608646997
 21
2309.3543978665
 31
0.0
  0
LINE
  5
FC
330
1F
100
AcDbEntity
  8
0
  6
Continuous
 62
     7
370
    25
100
AcDbLine
 10
1138.2608646997
 20
2309.3543978665
 30
0.0
 11
1137.7608646997
 21
2309.3543978665
 31
0.0
  0
LINE
  5
FD
330
1F
100
AcDbEntity
  8
0
  6
Continuous
 62
     7
370
    25
100
AcDbLine
 10
1138.0608646997
 20
2335.1459720241
 30
0.0
 11
1137.7608646997
 21
2335.1459720241
 31
0.0
  0
LINE
  5
FE
330
1F
100
AcDbEntity
  8
0
  6
Continuous
 62
     7
370
    25
100
AcDbLine
 10
1138.2608646997
 20
2335.1459720241
 30
0.0
 11
1138.0608646997
 21
2335.1459720241
 31
0.0
  0
LINE
  5
FF
330
1F
100
AcDbEntity
  8
0
  6
Continuous
 62
     7
370
    25
100
AcDbLine
 10
1137.7608646997
 20
2335.1459720241
 30
0.0
 11
1137.7608646997
 21
2325.7103560054
 31
0.0
  0
LINE
  5
100
330
1F
100
AcDbEntity
  8
0
  6
Continuous
 62
     7
370
    25
100
AcDbLine
 10
1138.0608646997
 20
2298.3628237086
 30
0.0
 11
1138.2608646997
 21
2298.3628237086
 31
0.0
  0
LINE
  5
101
330
1F
100
AcDbEntity
  8
0
  6
Continuous
 62
     7
370
    25
100
AcDbLine
 10
1137.7608646997
 20
2298.3628237086
 30
0.0
 11
1138.0608646997
 21
2298.3628237086
 31
0.0
  0
LINE
  5
102
330
1F
100
AcDbEntity
  8
0
  6
Continuous
 62
     7
370
    25
100
AcDbLine
 10
1137.7608646997
 20
2307.7984397272
 30
0.0
 11
1137.7608646997
 21
2298.3628237086
 31
0.0
  0
SPLINE
  5
103
330
1F
100
AcDbEntity
  8
0
  6
Continuous
 62
     7
370
    25
100
AcDbSpline
210
0.0
220
0.0
230
1.0
 70
    24
 71
     3
 72
    12
 73
     8
 74
     0
 42
0.00000001
 43
0.00000001
 40
0.0
 40
0.0
 40
0.0
 40
0.0
 40
0.1234882189596548
 40
0.3047574776059236
 40
0.48578884951524
 40
0.6670582153991336
 40
1.0
 40
1.0
 40
1.0
 40
1.0
 10
1136.2608646997
 20
2345.254397866311
 30
0.0
 10
1136.300611268736
 20
2345.254397866311
 30
0.0
 10
1136.398702116794
 20
2345.254397866312
 30
0.0
 10
1136.638675405153
 20
2345.254397866311
 30
0.0
 10
1136.954289593647
 20
2345.254397866311
 30
0.0
 10
1137.421199682747
 20
2345.254397866311
 30
0.0
 10
1137.809468282984
 20
2345.254397866314
 30
0.0
 10
1138.0608646997
 20
2345.254397866315
 30
0.0
  0
LINE
  5
104
330
1F
100
AcDbEntity
  8
0
  6
Continuous
 62
     7
370
    25
100
AcDbLine
 10
1138.0608646997
 20
2344.2543978663
 30
0.0
 11
1138.0608646997
 21
2345.2543978663
 31
0.0
  0
SPLINE
  5
105
330
1F
100
AcDbEntity
  8
0
  6
Continuous
 62
     7
370
    25
100
AcDbSpline
210
0.0
220
0.0
230
1.0
 70
    24
 71
     3
 72
    12
 73
     8
 74
     0
 42
0.00000001
 43
0.00000001
 40
0.0
 40
0.0
 40
0.0
 40
0.0
 40
0.3329369653746717
 40
0.5139656098135091
 40
0.6952322446453764
 40
0.8762609961861861
 40
1.0
 40
1.0
 40
1.0
 40
1.0
 10
1138.060864699707
 20
2288.254397866315
 30
0.0
 10
1137.809467286564
 20
2288.254397866314
 30
0.0
 10
1137.421376932566
 20
2288.254397866312
 30
0.0
 10
1136.954447662891
 20
2288.254397866312
 30
0.0
 10
1136.63892877387
 20
2288.254397866312
 30
0.0
 10
1136.398804555353
 20
2288.254397866312
 30
0.0
 10
1136.300697304343
 20
2288.254397866313
 30
0.0
 10
1136.2608646997
 20
2288.254397866312
 30
0.0
  0
LINE
  5
106
330
1F
100
AcDbEntity
  8
0
  6
Continuous
 62
     7
370
    25
100
AcDbLine
 10
1138.0608646997
 20
2289.2543978663
 30
0.0
 11
1138.0608646997
 21
2288.2543978663
 31
0.0
  0
SPLINE
  5
107
330
1F
100
AcDbEntity
  8
0
  6
Continuous
 62
     7
370
    25
100
AcDbSpline
210
0.0
220
0.0
230
1.0
 70
     8
 71
     3
 72
    10
 73
     6
 74
     0
 42
0.00000001
 43
0.00000001
 40
0.0
 40
0.0
 40
0.0
 40
0.0
 40
0.0371311943349353
 40
0.5486628195552944
 40
1.0
 40
1.0
 40
1.0
 40
1.0
 10
1136.2608646997
 20
2327.000162206482
 30
0.0
 10
1136.266487551913
 20
2326.993443859057
 30
0.0
 10
1136.349572677618
 20
2326.894171333435
 30
0.0
 10
1136.571128650203
 20
2326.793742420244
 30
0.0
 10
1136.802439539448
 20
2326.766954495414
 30
0.0
 10
1136.910864699703
 20
2326.754397866315
 30
0.0
  0
LINE
  5
108
330
1F
100
AcDbEntity
  8
0
  6
Continuous
 62
     7
370
    25
100
AcDbLine
 10
1138.0608646997
 20
2344.2543978663
 30
0.0
 11
1138.0608646997
 21
2335.1459720241
 31
0.0
  0
LINE
  5
109
330
1F
100
AcDbEntity
  8
0
  6
Continuous
 62
     7
370
    25
100
AcDbLine
 10
1137.7608646997
 20
2326.7543978663
 30
0.0
 11
1136.9108646997
 21
2326.7543978663
 31
0.0
  0
LINE
  5
10A
330
1F
100
AcDbEntity
  8
0
  6
Continuous
 62
     7
370
    25
100
AcDbLine
 10
1138.2608646997
 20
2344.2543978663
 30
0.0
 11
1138.0608646997
 21
2344.2543978663
 31
0.0
  0
SPLINE
  5
10B
330
1F
100
AcDbEntity
  8
0
  6
Continuous
 62
     7
370
    25
100
AcDbSpline
210
0.0
220
0.0
230
1.0
 70
     8
 71
     3
 72
     9
 73
     5
 74
     0
 42
0.00000001
 43
0.00000001
 40
0.0
 40
0.0
 40
0.0
 40
0.0
 40
0.5050081268950978
 40
1.0
 40
1.0
 40
1.0
 40
1.0
 10
1136.910864699705
 20
2306.754397866315
 30
0.0
 10
1136.787568427837
 20
2306.742178006931
 30
0.0
 10
1136.543421323462
 20
2306.717980654981
 30
0.0
 10
1136.354419209909
 20
2306.580904581719
 30
0.0
 10
1136.2608646997
 20
2306.513053039457
 30
0.0
  0
LINE
  5
10C
330
1F
100
AcDbEntity
  8
0
  6
Continuous
 62
     7
370
    25
100
AcDbLine
 10
1138.0608646997
 20
2298.3628237086
 30
0.0
 11
1138.0608646997
 21
2289.2543978663
 31
0.0
  0
LINE
  5
10D
330
1F
100
AcDbEntity
  8
0
  6
Continuous
 62
     7
370
    25
100
AcDbLine
 10
1136.9108646997
 20
2306.7543978663
 30
0.0
 11
1137.7608646997
 21
2306.7543978663
 31
0.0
  0
LINE
  5
10E
330
1F
100
AcDbEntity
  8
0
  6
Continuous
 62
     7
370
    25
100
AcDbLine
 10
1138.2608646997
 20
2289.2543978663
 30
0.0
 11
1138.0608646997
 21
2289.2543978663
 31
0.0
  0
LINE
  5
10F
330
1F
100
AcDbEntity
  8
0
  6
Continuous
 62
     7
370
    25
100
AcDbLine
 10
1138.2608646997
 20
2345.2543978663
 30
0.0
 11
1138.0608646997
 21
2345.2543978663
 31
0.0
  0
LINE
  5
110
330
1F
100
AcDbEntity
  8
0
  6
Continuous
 62
     7
370
    25
100
AcDbLine
 10
1138.2608646997
 20
2288.2543978663
 30
0.0
 11
1138.0608646997
 21
2288.2543978663
 31
0.0
  0
LINE
  5
111
330
1F
100
AcDbEntity
  8
0
  6
Continuous
 62
     7
370
    25
100
AcDbLine
 10
1137.7608646997
 20
705.7103560054
 30
0.0
 11
1138.2608646997
 21
705.7103560054
 31
0.0
  0
LINE
  5
112
330
1F
100
AcDbEntity
  8
0
  6
Continuous
 62
     7
370
    25
100
AcDbLine
 10
1137.7608646997
 20
704.1543978661
 30
0.0
 11
1138.2608646997
 21
704.1543978661
 31
0.0
  0
LINE
  5
113
330
1F
100
AcDbEntity
  8
0
  6
Continuous
 62
     7
370
    25
100
AcDbLine
 10
1137.7608646997
 20
704.1543978661
 30
0.0
 11
1137.7608646997
 21
705.7103560054
 31
0.0
  0
LINE
  5
114
330
1F
100
AcDbEntity
  8
0
  6
Continuous
 62
     7
370
    25
100
AcDbLine
 10
1138.2608646997
 20
687.7984397272
 30
0.0
 11
1137.7608646997
 21
687.7984397272
 31
0.0
  0
LINE
  5
115
330
1F
100
AcDbEntity
  8
0
  6
Continuous
 62
     7
370
    25
100
AcDbLine
 10
1137.7608646997
 20
687.7984397272
 30
0.0
 11
1137.7608646997
 21
689.3543978665
 31
0.0
  0
LINE
  5
116
330
1F
100
AcDbEntity
  8
0
  6
Continuous
 62
     7
370
    25
100
AcDbLine
 10
1138.2608646997
 20
689.3543978665
 30
0.0
 11
1137.7608646997
 21
689.3543978665
 31
0.0
  0
LINE
  5
117
330
1F
100
AcDbEntity
  8
0
  6
Continuous
 62
     7
370
    25
100
AcDbLine
 10
1138.0608646997
 20
715.1459720241
 30
0.0
 11
1137.7608646997
 21
715.1459720241
 31
0.0
  0
LINE
  5
118
330
1F
100
AcDbEntity
  8
0
  6
Continuous
 62
     7
370
    25
100
AcDbLine
 10
1138.2608646997
 20
715.1459720241
 30
0.0
 11
1138.0608646997
 21
715.1459720241
 31
0.0
  0
LINE
  5
119
330
1F
100
AcDbEntity
  8
0
  6
Continuous
 62
     7
370
    25
100
AcDbLine
 10
1137.7608646997
 20
715.1459720241
 30
0.0
 11
1137.7608646997
 21
705.7103560054
 31
0.0
  0
LINE
  5
11A
330
1F
100
AcDbEntity
  8
0
  6
Continuous
 62
     7
370
    25
100
AcDbLine
 10
1138.0608646997
 20
678.3628237086
 30
0.0
 11
1138.2608646997
 21
678.3628237086
 31
0.0
  0
LINE
  5
11B
330
1F
100
AcDbEntity
  8
0
  6
Continuous
 62
     7
370
    25
100
AcDbLine
 10
1137.7608646997
 20
678.3628237086
 30
0.0
 11
1138.0608646997
 21
678.3628237086
 31
0.0
  0
LINE
  5
11C
330
1F
100
AcDbEntity
  8
0
  6
Continuous
 62
     7
370
    25
100
AcDbLine
 10
1137.7608646997
 20
687.7984397272
 30
0.0
 11
1137.7608646997
 21
678.3628237086
 31
0.0
  0
SPLINE
  5
11D
330
1F
100
AcDbEntity
  8
0
  6
Continuous
 62
     7
370
    25
100
AcDbSpline
210
0.0
220
0.0
230
1.0
 70
    24
 71
     3
 72
    12
 73
     8
 74
     0
 42
0.00000001
 43
0.00000001
 40
0.0
 40
0.0
 40
0.0
 40
0.0
 40
0.123488218959823
 40
0.3047574776060734
 40
0.4857888495153375
 40
0.6670582153992196
 40
1.0
 40
1.0
 40
1.0
 40
1.0
 10
1136.2608646997
 20
725.2543978663111
 30
0.0
 10
1136.300611268736
 20
725.2543978663111
 30
0.0
 10
1136.398702116794
 20
725.254397866311
 30
0.0
 10
1136.638675405153
 20
725.254397866311
 30
0.0
 10
1136.954289593648
 20
725.2543978663113
 30
0.0
 10
1137.421199682748
 20
725.2543978663108
 30
0.0
 10
1137.809468282984
 20
725.2543978663128
 30
0.0
 10
1138.060864699701
 20
725.2543978663142
 30
0.0
  0
LINE
  5
11E
330
1F
100
AcDbEntity
  8
0
  6
Continuous
 62
     7
370
    25
100
AcDbLine
 10
1138.0608646997
 20
724.2543978663
 30
0.0
 11
1138.0608646997
 21
725.2543978663
 31
0.0
  0
SPLINE
  5
11F
330
1F
100
AcDbEntity
  8
0
  6
Continuous
 62
     7
370
    25
100
AcDbSpline
210
0.0
220
0.0
230
1.0
 70
    24
 71
     3
 72
    12
 73
     8
 74
     0
 42
0.00000001
 43
0.00000001
 40
0.0
 40
0.0
 40
0.0
 40
0.0
 40
0.33293696537468
 40
0.5139656098135221
 40
0.6952322446453933
 40
0.8762609961862083
 40
0.9999999999999999
 40
0.9999999999999999
 40
0.9999999999999999
 40
0.9999999999999999
 10
1138.060864699707
 20
668.2543978663151
 30
0.0
 10
1137.809467286564
 20
668.2543978663136
 30
0.0
 10
1137.421376932567
 20
668.2543978663115
 30
0.0
 10
1136.954447662891
 20
668.254397866312
 30
0.0
 10
1136.63892877387
 20
668.2543978663119
 30
0.0
 10
1136.398804555353
 20
668.2543978663119
 30
0.0
 10
1136.300697304343
 20
668.2543978663119
 30
0.0
 10
1136.2608646997
 20
668.2543978663119
 30
0.0
  0
LINE
  5
120
330
1F
100
AcDbEntity
  8
0
  6
Continuous
 62
     7
370
    25
100
AcDbLine
 10
1138.0608646997
 20
669.2543978663
 30
0.0
 11
1138.0608646997
 21
668.2543978663
 31
0.0
  0
SPLINE
  5
121
330
1F
100
AcDbEntity
  8
0
  6
Continuous
 62
     7
370
    25
100
AcDbSpline
210
0.0
220
0.0
230
1.0
 70
     8
 71
     3
 72
    10
 73
     6
 74
     0
 42
0.00000001
 43
0.00000001
 40
0.0
 40
0.0
 40
0.0
 40
0.0
 40
0.0371311943352312
 40
0.5486628195554331
 40
0.9999999999999999
 40
0.9999999999999999
 40
0.9999999999999999
 40
0.9999999999999999
 10
1136.2608646997
 20
707.000162206482
 30
0.0
 10
1136.266487551913
 20
706.9934438590569
 30
0.0
 10
1136.349572677619
 20
706.8941713334362
 30
0.0
 10
1136.571128650202
 20
706.7937424202428
 30
0.0
 10
1136.802439539448
 20
706.7669544954127
 30
0.0
 10
1136.910864699703
 20
706.7543978663147
 30
0.0
  0
LINE
  5
122
330
1F
100
AcDbEntity
  8
0
  6
Continuous
 62
     7
370
    25
100
AcDbLine
 10
1138.0608646997
 20
724.2543978663
 30
0.0
 11
1138.0608646997
 21
715.1459720241
 31
0.0
  0
LINE
  5
123
330
1F
100
AcDbEntity
  8
0
  6
Continuous
 62
     7
370
    25
100
AcDbLine
 10
1137.7608646997
 20
706.7543978663
 30
0.0
 11
1136.9108646997
 21
706.7543978663
 31
0.0
  0
LINE
  5
124
330
1F
100
AcDbEntity
  8
0
  6
Continuous
 62
     7
370
    25
100
AcDbLine
 10
1138.2608646997
 20
724.2543978663
 30
0.0
 11
1138.0608646997
 21
724.2543978663
 31
0.0
  0
LINE
  5
125
330
1F
100
AcDbEntity
  8
0
  6
Continuous
 62
     7
370
    25
100
AcDbLine
 10
1138.2608646997
 20
669.2543978663
 30
0.0
 11
1138.0608646997
 21
669.2543978663
 31
0.0
  0
LINE
  5
126
330
1F
100
AcDbEntity
  8
0
  6
Continuous
 62
     7
370
    25
100
AcDbLine
 10
1138.0608646997
 20
678.3628237086
 30
0.0
 11
1138.0608646997
 21
669.2543978663
 31
0.0
  0
SPLINE
  5
127
330
1F
100
AcDbEntity
  8
0
  6
Continuous
 62
     7
370
    25
100
AcDbSpline
210
0.0
220
0.0
230
1.0
 70
     8
 71
     3
 72
     9
 73
     5
 74
     0
 42
0.00000001
 43
0.00000001
 40
0.0
 40
0.0
 40
0.0
 40
0.0
 40
0.505008126895158
 40
1.0
 40
1.0
 40
1.0
 40
1.0
 10
1136.910864699705
 20
686.7543978663142
 30
0.0
 10
1136.787568427837
 20
686.7421780069304
 30
0.0
 10
1136.543421323462
 20
686.7179806549809
 30
0.0
 10
1136.354419209909
 20
686.5809045817188
 30
0.0
 10
1136.2608646997
 20
686.5130530394567
 30
0.0
  0
LINE
  5
128
330
1F
100
AcDbEntity
  8
0
  6
Continuous
 62
     7
370
    25
100
AcDbLine
 10
1136.9108646997
 20
686.7543978663
 30
0.0
 11
1137.7608646997
 21
686.7543978663
 31
0.0
  0
LINE
  5
129
330
1F
100
AcDbEntity
  8
0
  6
Continuous
 62
     7
370
    25
100
AcDbLine
 10
1138.2608646997
 20
725.2543978663
 30
0.0
 11
1138.0608646997
 21
725.2543978663
 31
0.0
  0
LINE
  5
12A
330
1F
100
AcDbEntity
  8
0
  6
Continuous
 62
     7
370
    25
100
AcDbLine
 10
1138.2608646997
 20
668.2543978663
 30
0.0
 11
1138.0608646997
 21
668.2543978663
 31
0.0
  0
LINE
  5
12B
330
1F
100
AcDbEntity
  8
0
  6
Continuous
 62
     7
370
    25
100
AcDbLine
 10
1137.7608646997
 20
1425.7103560054
 30
0.0
 11
1138.2608646997
 21
1425.7103560054
 31
0.0
  0
LINE
  5
12C
330
1F
100
AcDbEntity
  8
0
  6
Continuous
 62
     7
370
    25
100
AcDbLine
 10
1137.7608646997
 20
1424.1543978661
 30
0.0
 11
1138.2608646997
 21
1424.1543978661
 31
0.0
  0
LINE
  5
12D
330
1F
100
AcDbEntity
  8
0
  6
Continuous
 62
     7
370
    25
100
AcDbLine
 10
1137.7608646997
 20
1424.1543978661
 30
0.0
 11
1137.7608646997
 21
1425.7103560054
 31
0.0
  0
LINE
  5
12E
330
1F
100
AcDbEntity
  8
0
  6
Continuous
 62
     7
370
    25
100
AcDbLine
 10
1138.2608646997
 20
1407.7984397272
 30
0.0
 11
1137.7608646997
 21
1407.7984397272
 31
0.0
  0
LINE
  5
12F
330
1F
100
AcDbEntity
  8
0
  6
Continuous
 62
     7
370
    25
100
AcDbLine
 10
1137.7608646997
 20
1407.7984397272
 30
0.0
 11
1137.7608646997
 21
1409.3543978665
 31
0.0
  0
LINE
  5
130
330
1F
100
AcDbEntity
  8
0
  6
Continuous
 62
     7
370
    25
100
AcDbLine
 10
1138.2608646997
 20
1409.3543978665
 30
0.0
 11
1137.7608646997
 21
1409.3543978665
 31
0.0
  0
LINE
  5
131
330
1F
100
AcDbEntity
  8
0
  6
Continuous
 62
     7
370
    25
100
AcDbLine
 10
1138.0608646997
 20
1435.1459720241
 30
0.0
 11
1137.7608646997
 21
1435.1459720241
 31
0.0
  0
LINE
  5
132
330
1F
100
AcDbEntity
  8
0
  6
Continuous
 62
     7
370
    25
100
AcDbLine
 10
1138.2608646997
 20
1435.1459720241
 30
0.0
 11
1138.0608646997
 21
1435.1459720241
 31
0.0
  0
LINE
  5
133
330
1F
100
AcDbEntity
  8
0
  6
Continuous
 62
     7
370
    25
100
AcDbLine
 10
1137.7608646997
 20
1435.1459720241
 30
0.0
 11
1137.7608646997
 21
1425.7103560054
 31
0.0
  0
LINE
  5
134
330
1F
100
AcDbEntity
  8
0
  6
Continuous
 62
     7
370
    25
100
AcDbLine
 10
1138.0608646997
 20
1398.3628237086
 30
0.0
 11
1138.2608646997
 21
1398.3628237086
 31
0.0
  0
LINE
  5
135
330
1F
100
AcDbEntity
  8
0
  6
Continuous
 62
     7
370
    25
100
AcDbLine
 10
1137.7608646997
 20
1398.3628237086
 30
0.0
 11
1138.0608646997
 21
1398.3628237086
 31
0.0
  0
LINE
  5
136
330
1F
100
AcDbEntity
  8
0
  6
Continuous
 62
     7
370
    25
100
AcDbLine
 10
1137.7608646997
 20
1407.7984397272
 30
0.0
 11
1137.7608646997
 21
1398.3628237086
 31
0.0
  0
SPLINE
  5
137
330
1F
100
AcDbEntity
  8
0
  6
Continuous
 62
     7
370
    25
100
AcDbSpline
210
0.0
220
0.0
230
1.0
 70
    24
 71
     3
 72
    12
 73
     8
 74
     0
 42
0.00000001
 43
0.00000001
 40
0.0
 40
0.0
 40
0.0
 40
0.0
 40
0.1234882189598702
 40
0.3047574776061107
 40
0.4857888495153652
 40
0.6670582153992375
 40
1.0
 40
1.0
 40
1.0
 40
1.0
 10
1136.2608646997
 20
1445.254397866311
 30
0.0
 10
1136.300611268736
 20
1445.254397866312
 30
0.0
 10
1136.398702116794
 20
1445.254397866312
 30
0.0
 10
1136.638675405154
 20
1445.254397866311
 30
0.0
 10
1136.954289593648
 20
1445.254397866311
 30
0.0
 10
1137.421199682748
 20
1445.254397866311
 30
0.0
 10
1137.809468282984
 20
1445.254397866313
 30
0.0
 10
1138.060864699701
 20
1445.254397866314
 30
0.0
  0
LINE
  5
138
330
1F
100
AcDbEntity
  8
0
  6
Continuous
 62
     7
370
    25
100
AcDbLine
 10
1138.0608646997
 20
1444.2543978663
 30
0.0
 11
1138.0608646997
 21
1445.2543978663
 31
0.0
  0
SPLINE
  5
139
330
1F
100
AcDbEntity
  8
0
  6
Continuous
 62
     7
370
    25
100
AcDbSpline
210
0.0
220
0.0
230
1.0
 70
    24
 71
     3
 72
    12
 73
     8
 74
     0
 42
0.00000001
 43
0.00000001
 40
0.0
 40
0.0
 40
0.0
 40
0.0
 40
0.3329369653746617
 40
0.513965609813494
 40
0.6952322446453574
 40
0.8762609961861614
 40
1.0
 40
1.0
 40
1.0
 40
1.0
 10
1138.060864699707
 20
1388.254397866315
 30
0.0
 10
1137.809467286564
 20
1388.254397866314
 30
0.0
 10
1137.421376932566
 20
1388.254397866311
 30
0.0
 10
1136.954447662892
 20
1388.254397866312
 30
0.0
 10
1136.63892877387
 20
1388.254397866312
 30
0.0
 10
1136.398804555353
 20
1388.254397866312
 30
0.0
 10
1136.300697304343
 20
1388.254397866312
 30
0.0
 10
1136.2608646997
 20
1388.254397866312
 30
0.0
  0
LINE
  5
13A
330
1F
100
AcDbEntity
  8
0
  6
Continuous
 62
     7
370
    25
100
AcDbLine
 10
1138.0608646997
 20
1389.2543978663
 30
0.0
 11
1138.0608646997
 21
1388.2543978663
 31
0.0
  0
LINE
  5
13B
330
1F
100
AcDbEntity
  8
0
  6
Continuous
 62
     7
370
    25
100
AcDbLine
 10
1138.2608646997
 20
1444.2543978663
 30
0.0
 11
1138.0608646997
 21
1444.2543978663
 31
0.0
  0
LINE
  5
13C
330
1F
100
AcDbEntity
  8
0
  6
Continuous
 62
     7
370
    25
100
AcDbLine
 10
1138.0608646997
 20
1444.2543978663
 30
0.0
 11
1138.0608646997
 21
1435.1459720241
 31
0.0
  0
SPLINE
  5
13D
330
1F
100
AcDbEntity
  8
0
  6
Continuous
 62
     7
370
    25
100
AcDbSpline
210
0.0
220
0.0
230
1.0
 70
     8
 71
     3
 72
    10
 73
     6
 74
     0
 42
0.00000001
 43
0.00000001
 40
0.0
 40
0.0
 40
0.0
 40
0.0
 40
0.0371311943353714
 40
0.5486628195554998
 40
0.9999999999999999
 40
0.9999999999999999
 40
0.9999999999999999
 40
0.9999999999999999
 10
1136.2608646997
 20
1427.000162206482
 30
0.0
 10
1136.266487551913
 20
1426.993443859057
 30
0.0
 10
1136.349572677619
 20
1426.894171333436
 30
0.0
 10
1136.571128650203
 20
1426.793742420243
 30
0.0
 10
1136.802439539449
 20
1426.766954495413
 30
0.0
 10
1136.910864699703
 20
1426.754397866315
 30
0.0
  0
LINE
  5
13E
330
1F
100
AcDbEntity
  8
0
  6
Continuous
 62
     7
370
    25
100
AcDbLine
 10
1137.7608646997
 20
1426.7543978663
 30
0.0
 11
1136.9108646997
 21
1426.7543978663
 31
0.0
  0
LINE
  5
13F
330
1F
100
AcDbEntity
  8
0
  6
Continuous
 62
     7
370
    25
100
AcDbLine
 10
1138.2608646997
 20
1389.2543978663
 30
0.0
 11
1138.0608646997
 21
1389.2543978663
 31
0.0
  0
LINE
  5
140
330
1F
100
AcDbEntity
  8
0
  6
Continuous
 62
     7
370
    25
100
AcDbLine
 10
1138.0608646997
 20
1398.3628237086
 30
0.0
 11
1138.0608646997
 21
1389.2543978663
 31
0.0
  0
SPLINE
  5
141
330
1F
100
AcDbEntity
  8
0
  6
Continuous
 62
     7
370
    25
100
AcDbSpline
210
0.0
220
0.0
230
1.0
 70
     8
 71
     3
 72
     9
 73
     5
 74
     0
 42
0.00000001
 43
0.00000001
 40
0.0
 40
0.0
 40
0.0
 40
0.0
 40
0.5050081268951031
 40
1.0
 40
1.0
 40
1.0
 40
1.0
 10
1136.910864699705
 20
1406.754397866314
 30
0.0
 10
1136.787568427837
 20
1406.742178006931
 30
0.0
 10
1136.543421323462
 20
1406.717980654981
 30
0.0
 10
1136.354419209909
 20
1406.580904581719
 30
0.0
 10
1136.2608646997
 20
1406.513053039457
 30
0.0
  0
LINE
  5
142
330
1F
100
AcDbEntity
  8
0
  6
Continuous
 62
     7
370
    25
100
AcDbLine
 10
1136.9108646997
 20
1406.7543978663
 30
0.0
 11
1137.7608646997
 21
1406.7543978663
 31
0.0
  0
LINE
  5
143
330
1F
100
AcDbEntity
  8
0
  6
Continuous
 62
     7
370
    25
100
AcDbLine
 10
1138.2608646997
 20
1445.2543978663
 30
0.0
 11
1138.0608646997
 21
1445.2543978663
 31
0.0
  0
LINE
  5
144
330
1F
100
AcDbEntity
  8
0
  6
Continuous
 62
     7
370
    25
100
AcDbLine
 10
1138.2608646997
 20
1388.2543978663
 30
0.0
 11
1138.0608646997
 21
1388.2543978663
 31
0.0
  0
LINE
  5
145
330
1F
100
AcDbEntity
  8
0
  6
Continuous
 62
     7
370
    25
100
AcDbLine
 10
1137.7608646997
 20
1955.7103560054
 30
0.0
 11
1138.2608646997
 21
1955.7103560054
 31
0.0
  0
LINE
  5
146
330
1F
100
AcDbEntity
  8
0
  6
Continuous
 62
     7
370
    25
100
AcDbLine
 10
1137.7608646997
 20
1954.1543978661
 30
0.0
 11
1138.2608646997
 21
1954.1543978661
 31
0.0
  0
LINE
  5
147
330
1F
100
AcDbEntity
  8
0
  6
Continuous
 62
     7
370
    25
100
AcDbLine
 10
1137.7608646997
 20
1954.1543978661
 30
0.0
 11
1137.7608646997
 21
1955.7103560054
 31
0.0
  0
LINE
  5
148
330
1F
100
AcDbEntity
  8
0
  6
Continuous
 62
     7
370
    25
100
AcDbLine
 10
1138.2608646997
 20
1937.7984397272
 30
0.0
 11
1137.7608646997
 21
1937.7984397272
 31
0.0
  0
LINE
  5
149
330
1F
100
AcDbEntity
  8
0
  6
Continuous
 62
     7
370
    25
100
AcDbLine
 10
1137.7608646997
 20
1937.7984397272
 30
0.0
 11
1137.7608646997
 21
1939.3543978665
 31
0.0
  0
LINE
  5
14A
330
1F
100
AcDbEntity
  8
0
  6
Continuous
 62
     7
370
    25
100
AcDbLine
 10
1138.2608646997
 20
1939.3543978665
 30
0.0
 11
1137.7608646997
 21
1939.3543978665
 31
0.0
  0
LINE
  5
14B
330
1F
100
AcDbEntity
  8
0
  6
Continuous
 62
     7
370
    25
100
AcDbLine
 10
1138.0608646997
 20
1965.1459720241
 30
0.0
 11
1137.7608646997
 21
1965.1459720241
 31
0.0
  0
LINE
  5
14C
330
1F
100
AcDbEntity
  8
0
  6
Continuous
 62
     7
370
    25
100
AcDbLine
 10
1138.2608646997
 20
1965.1459720241
 30
0.0
 11
1138.0608646997
 21
1965.1459720241
 31
0.0
  0
LINE
  5
14D
330
1F
100
AcDbEntity
  8
0
  6
Continuous
 62
     7
370
    25
100
AcDbLine
 10
1137.7608646997
 20
1965.1459720241
 30
0.0
 11
1137.7608646997
 21
1955.7103560054
 31
0.0
  0
LINE
  5
14E
330
1F
100
AcDbEntity
  8
0
  6
Continuous
 62
     7
370
    25
100
AcDbLine
 10
1138.0608646997
 20
1928.3628237086
 30
0.0
 11
1138.2608646997
 21
1928.3628237086
 31
0.0
  0
LINE
  5
14F
330
1F
100
AcDbEntity
  8
0
  6
Continuous
 62
     7
370
    25
100
AcDbLine
 10
1137.7608646997
 20
1928.3628237086
 30
0.0
 11
1138.0608646997
 21
1928.3628237086
 31
0.0
  0
LINE
  5
150
330
1F
100
AcDbEntity
  8
0
  6
Continuous
 62
     7
370
    25
100
AcDbLine
 10
1137.7608646997
 20
1937.7984397272
 30
0.0
 11
1137.7608646997
 21
1928.3628237086
 31
0.0
  0
SPLINE
  5
151
330
1F
100
AcDbEntity
  8
0
  6
Continuous
 62
     7
370
    25
100
AcDbSpline
210
0.0
220
0.0
230
1.0
 70
    24
 71
     3
 72
    12
 73
     8
 74
     0
 42
0.00000001
 43
0.00000001
 40
0.0
 40
0.0
 40
0.0
 40
0.0
 40
0.1234882189597863
 40
0.3047574776060447
 40
0.4857888495153156
 40
0.6670582153991826
 40
1.0
 40
1.0
 40
1.0
 40
1.0
 10
1136.2608646997
 20
1975.254397866311
 30
0.0
 10
1136.300611268736
 20
1975.254397866311
 30
0.0
 10
1136.398702116794
 20
1975.254397866311
 30
0.0
 10
1136.638675405154
 20
1975.254397866311
 30
0.0
 10
1136.954289593648
 20
1975.254397866311
 30
0.0
 10
1137.421199682748
 20
1975.254397866311
 30
0.0
 10
1137.809468282984
 20
1975.254397866313
 30
0.0
 10
1138.060864699701
 20
1975.254397866314
 30
0.0
  0
LINE
  5
152
330
1F
100
AcDbEntity
  8
0
  6
Continuous
 62
     7
370
    25
100
AcDbLine
 10
1138.0608646997
 20
1974.2543978663
 30
0.0
 11
1138.0608646997
 21
1975.2543978663
 31
0.0
  0
SPLINE
  5
153
330
1F
100
AcDbEntity
  8
0
  6
Continuous
 62
     7
370
    25
100
AcDbSpline
210
0.0
220
0.0
230
1.0
 70
    24
 71
     3
 72
    12
 73
     8
 74
     0
 42
0.00000001
 43
0.00000001
 40
0.0
 40
0.0
 40
0.0
 40
0.0
 40
0.33293696537468
 40
0.5139656098135224
 40
0.6952322446453947
 40
0.8762609961862098
 40
1.0
 40
1.0
 40
1.0
 40
1.0
 10
1138.060864699707
 20
1918.254397866316
 30
0.0
 10
1137.809467286564
 20
1918.254397866314
 30
0.0
 10
1137.421376932567
 20
1918.254397866312
 30
0.0
 10
1136.954447662891
 20
1918.254397866312
 30
0.0
 10
1136.63892877387
 20
1918.254397866312
 30
0.0
 10
1136.398804555354
 20
1918.254397866312
 30
0.0
 10
1136.300697304343
 20
1918.254397866312
 30
0.0
 10
1136.2608646997
 20
1918.254397866312
 30
0.0
  0
LINE
  5
154
330
1F
100
AcDbEntity
  8
0
  6
Continuous
 62
     7
370
    25
100
AcDbLine
 10
1138.0608646997
 20
1919.2543978663
 30
0.0
 11
1138.0608646997
 21
1918.2543978663
 31
0.0
  0
SPLINE
  5
155
330
1F
100
AcDbEntity
  8
0
  6
Continuous
 62
     7
370
    25
100
AcDbSpline
210
0.0
220
0.0
230
1.0
 70
     8
 71
     3
 72
    10
 73
     6
 74
     0
 42
0.00000001
 43
0.00000001
 40
0.0
 40
0.0
 40
0.0
 40
0.0
 40
0.0371311943353077
 40
0.5486628195554689
 40
1.0
 40
1.0
 40
1.0
 40
1.0
 10
1136.2608646997
 20
1957.000162206482
 30
0.0
 10
1136.266487551913
 20
1956.993443859057
 30
0.0
 10
1136.349572677619
 20
1956.894171333436
 30
0.0
 10
1136.571128650203
 20
1956.793742420243
 30
0.0
 10
1136.802439539448
 20
1956.766954495413
 30
0.0
 10
1136.910864699703
 20
1956.754397866315
 30
0.0
  0
LINE
  5
156
330
1F
100
AcDbEntity
  8
0
  6
Continuous
 62
     7
370
    25
100
AcDbLine
 10
1138.0608646997
 20
1974.2543978663
 30
0.0
 11
1138.0608646997
 21
1965.1459720241
 31
0.0
  0
LINE
  5
157
330
1F
100
AcDbEntity
  8
0
  6
Continuous
 62
     7
370
    25
100
AcDbLine
 10
1137.7608646997
 20
1956.7543978663
 30
0.0
 11
1136.9108646997
 21
1956.7543978663
 31
0.0
  0
LINE
  5
158
330
1F
100
AcDbEntity
  8
0
  6
Continuous
 62
     7
370
    25
100
AcDbLine
 10
1138.2608646997
 20
1974.2543978663
 30
0.0
 11
1138.0608646997
 21
1974.2543978663
 31
0.0
  0
LINE
  5
159
330
1F
100
AcDbEntity
  8
0
  6
Continuous
 62
     7
370
    25
100
AcDbLine
 10
1138.2608646997
 20
1919.2543978663
 30
0.0
 11
1138.0608646997
 21
1919.2543978663
 31
0.0
  0
LINE
  5
15A
330
1F
100
AcDbEntity
  8
0
  6
Continuous
 62
     7
370
    25
100
AcDbLine
 10
1138.0608646997
 20
1928.3628237086
 30
0.0
 11
1138.0608646997
 21
1919.2543978663
 31
0.0
  0
SPLINE
  5
15B
330
1F
100
AcDbEntity
  8
0
  6
Continuous
 62
     7
370
    25
100
AcDbSpline
210
0.0
220
0.0
230
1.0
 70
     8
 71
     3
 72
     9
 73
     5
 74
     0
 42
0.00000001
 43
0.00000001
 40
0.0
 40
0.0
 40
0.0
 40
0.0
 40
0.5050081268951413
 40
0.9999999999999999
 40
0.9999999999999999
 40
0.9999999999999999
 40
0.9999999999999999
 10
1136.910864699705
 20
1936.754397866314
 30
0.0
 10
1136.787568427837
 20
1936.742178006931
 30
0.0
 10
1136.543421323462
 20
1936.717980654981
 30
0.0
 10
1136.354419209909
 20
1936.580904581719
 30
0.0
 10
1136.2608646997
 20
1936.513053039457
 30
0.0
  0
LINE
  5
15C
330
1F
100
AcDbEntity
  8
0
  6
Continuous
 62
     7
370
    25
100
AcDbLine
 10
1136.9108646997
 20
1936.7543978663
 30
0.0
 11
1137.7608646997
 21
1936.7543978663
 31
0.0
  0
LINE
  5
15D
330
1F
100
AcDbEntity
  8
0
  6
Continuous
 62
     7
370
    25
100
AcDbLine
 10
1138.2608646997
 20
1975.2543978663
 30
0.0
 11
1138.0608646997
 21
1975.2543978663
 31
0.0
  0
LINE
  5
15E
330
1F
100
AcDbEntity
  8
0
  6
Continuous
 62
     7
370
    25
100
AcDbLine
 10
1138.2608646997
 20
1918.2543978663
 30
0.0
 11
1138.0608646997
 21
1918.2543978663
 31
0.0
  0
LINE
  5
15F
330
1F
100
AcDbEntity
  8
0
  6
Continuous
 62
     7
370
    25
100
AcDbLine
 10
1136.3956797746
 20
705.1293978663
 30
0.0
 11
1136.3956797746
 21
704.2043978663
 31
0.0
  0
LINE
  5
160
330
1F
100
AcDbEntity
  8
0
  6
Continuous
 62
     7
370
    25
100
AcDbLine
 10
1136.3956797746
 20
689.3043978663
 30
0.0
 11
1136.3956797746
 21
688.3793978663
 31
0.0
  0
LINE
  5
161
330
1F
100
AcDbEntity
  8
0
  6
Continuous
 62
     7
370
    25
100
AcDbLine
 10
1136.3956797746
 20
688.3793978663
 30
0.0
 11
1136.2608646997
 21
688.3793978663
 31
0.0
  0
LINE
  5
162
330
1F
100
AcDbEntity
  8
0
  6
Continuous
 62
     7
370
    25
100
AcDbLine
 10
1136.2608646997
 20
705.1293978663
 30
0.0
 11
1136.3956797746
 21
705.1293978663
 31
0.0
  0
LINE
  5
163
330
1F
100
AcDbEntity
  8
0
  6
Continuous
 62
     7
370
    25
100
AcDbLine
 10
1137.7608646997
 20
688.3793978663
 30
0.0
 11
1136.3956797746
 21
688.3793978663
 31
0.0
  0
LINE
  5
164
330
1F
100
AcDbEntity
  8
0
  6
Continuous
 62
     7
370
    25
100
AcDbLine
 10
1136.3956797746
 20
705.1293978663
 30
0.0
 11
1137.7608646997
 21
705.1293978663
 31
0.0
  0
LINE
  5
165
330
1F
100
AcDbEntity
  8
0
  6
Continuous
 62
     7
370
    25
100
AcDbLine
 10
1136.3956797746
 20
1425.1293978663
 30
0.0
 11
1136.3956797746
 21
1424.2043978663
 31
0.0
  0
LINE
  5
166
330
1F
100
AcDbEntity
  8
0
  6
Continuous
 62
     7
370
    25
100
AcDbLine
 10
1136.3956797746
 20
1409.3043978663
 30
0.0
 11
1136.3956797746
 21
1408.3793978663
 31
0.0
  0
LINE
  5
167
330
1F
100
AcDbEntity
  8
0
  6
Continuous
 62
     7
370
    25
100
AcDbLine
 10
1136.3956797746
 20
1408.3793978663
 30
0.0
 11
1136.2608646997
 21
1408.3793978663
 31
0.0
  0
LINE
  5
168
330
1F
100
AcDbEntity
  8
0
  6
Continuous
 62
     7
370
    25
100
AcDbLine
 10
1136.2608646997
 20
1425.1293978663
 30
0.0
 11
1136.3956797746
 21
1425.1293978663
 31
0.0
  0
LINE
  5
169
330
1F
100
AcDbEntity
  8
0
  6
Continuous
 62
     7
370
    25
100
AcDbLine
 10
1137.7608646997
 20
1408.3793978663
 30
0.0
 11
1136.3956797746
 21
1408.3793978663
 31
0.0
  0
LINE
  5
16A
330
1F
100
AcDbEntity
  8
0
  6
Continuous
 62
     7
370
    25
100
AcDbLine
 10
1136.3956797746
 20
1425.1293978663
 30
0.0
 11
1137.7608646997
 21
1425.1293978663
 31
0.0
  0
LINE
  5
16B
330
1F
100
AcDbEntity
  8
0
  6
Continuous
 62
     7
370
    25
100
AcDbLine
 10
1136.3956797746
 20
2325.1293978663
 30
0.0
 11
1136.3956797746
 21
2324.2043978663
 31
0.0
  0
LINE
  5
16C
330
1F
100
AcDbEntity
  8
0
  6
Continuous
 62
     7
370
    25
100
AcDbLine
 10
1136.3956797746
 20
2309.3043978663
 30
0.0
 11
1136.3956797746
 21
2308.3793978663
 31
0.0
  0
LINE
  5
16D
330
1F
100
AcDbEntity
  8
0
  6
Continuous
 62
     7
370
    25
100
AcDbLine
 10
1136.3956797746
 20
2308.3793978663
 30
0.0
 11
1136.2608646997
 21
2308.3793978663
 31
0.0
  0
LINE
  5
16E
330
1F
100
AcDbEntity
  8
0
  6
Continuous
 62
     7
370
    25
100
AcDbLine
 10
1136.2608646997
 20
2325.1293978663
 30
0.0
 11
1136.3956797746
 21
2325.1293978663
 31
0.0
  0
LINE
  5
16F
330
1F
100
AcDbEntity
  8
0
  6
Continuous
 62
     7
370
    25
100
AcDbLine
 10
1137.7608646997
 20
2308.3793978663
 30
0.0
 11
1136.3956797746
 21
2308.3793978663
 31
0.0
  0
LINE
  5
170
330
1F
100
AcDbEntity
  8
0
  6
Continuous
 62
     7
370
    25
100
AcDbLine
 10
1136.3956797746
 20
2325.1293978663
 30
0.0
 11
1137.7608646997
 21
2325.1293978663
 31
0.0
  0
LINE
  5
171
330
1F
100
AcDbEntity
  8
0
  6
Continuous
 62
     7
370
    25
100
AcDbLine
 10
1136.3956797746
 20
1955.1293978663
 30
0.0
 11
1136.3956797746
 21
1954.2043978663
 31
0.0
  0
LINE
  5
172
330
1F
100
AcDbEntity
  8
0
  6
Continuous
 62
     7
370
    25
100
AcDbLine
 10
1136.3956797746
 20
1939.3043978663
 30
0.0
 11
1136.3956797746
 21
1938.3793978663
 31
0.0
  0
LINE
  5
173
330
1F
100
AcDbEntity
  8
0
  6
Continuous
 62
     7
370
    25
100
AcDbLine
 10
1136.3956797746
 20
1938.3793978663
 30
0.0
 11
1136.2608646997
 21
1938.3793978663
 31
0.0
  0
LINE
  5
174
330
1F
100
AcDbEntity
  8
0
  6
Continuous
 62
     7
370
    25
100
AcDbLine
 10
1136.2608646997
 20
1955.1293978663
 30
0.0
 11
1136.3956797746
 21
1955.1293978663
 31
0.0
  0
LINE
  5
175
330
1F
100
AcDbEntity
  8
0
  6
Continuous
 62
     7
370
    25
100
AcDbLine
 10
1137.7608646997
 20
1938.3793978663
 30
0.0
 11
1136.3956797746
 21
1938.3793978663
 31
0.0
  0
LINE
  5
176
330
1F
100
AcDbEntity
  8
0
  6
Continuous
 62
     7
370
    25
100
AcDbLine
 10
1136.3956797746
 20
1955.1293978663
 30
0.0
 11
1137.7608646997
 21
1955.1293978663
 31
0.0
  0
LINE
  5
177
330
1F
100
AcDbEntity
  8
0
  6
Continuous
 62
     7
370
    25
100
AcDbLine
 10
1136.2608646997
 20
1953.2543978663
 30
0.0
 11
1138.2608646997
 21
1953.2543978663
 31
0.0
  0
LINE
  5
178
330
1F
100
AcDbEntity
  8
0
  6
Continuous
 62
     7
370
    25
100
AcDbLine
 10
1138.2608646997
 20
1940.2543978663
 30
0.0
 11
1136.2608646997
 21
1940.2543978663
 31
0.0
  0
LINE
  5
179
330
1F
100
AcDbEntity
  8
0
  6
Continuous
 62
     7
370
    25
100
AcDbLine
 10
1136.9895821545
 20
1939.3043978663
 30
0.0
 11
1136.9895821545
 21
1940.2543978663
 31
0.0
  0
LINE
  5
17A
330
1F
100
AcDbEntity
  8
0
  6
Continuous
 62
     7
370
    25
100
AcDbLine
 10
1136.9895821545
 20
1953.2543978663
 30
0.0
 11
1136.9895821545
 21
1954.2043978663
 31
0.0
  0
LINE
  5
17B
330
1F
100
AcDbEntity
  8
0
  6
Continuous
 62
     7
370
    25
100
AcDbLine
 10
1136.9895821545
 20
1939.3043978663
 30
0.0
 11
1136.2608646997
 21
1939.3043978663
 31
0.0
  0
LINE
  5
17C
330
1F
100
AcDbEntity
  8
0
  6
Continuous
 62
     7
370
    25
100
AcDbLine
 10
1136.9895821545
 20
1954.2043978663
 30
0.0
 11
1136.2608646997
 21
1954.2043978663
 31
0.0
  0
LINE
  5
17D
330
1F
100
AcDbEntity
  8
0
  6
Continuous
 62
     7
370
    25
100
AcDbLine
 10
1137.0509516501
 20
1939.3043978663
 30
0.0
 11
1137.0509516501
 21
1940.2543978663
 31
0.0
  0
LINE
  5
17E
330
1F
100
AcDbEntity
  8
0
  6
Continuous
 62
     7
370
    25
100
AcDbLine
 10
1137.0509516501
 20
1953.2543978663
 30
0.0
 11
1137.0509516501
 21
1954.2043978663
 31
0.0
  0
LINE
  5
17F
330
1F
100
AcDbEntity
  8
0
  6
Continuous
 62
     7
370
    25
100
AcDbLine
 10
1137.0509516501
 20
1939.3043978663
 30
0.0
 11
1136.9895821545
 21
1939.3043978663
 31
0.0
  0
LINE
  5
180
330
1F
100
AcDbEntity
  8
0
  6
Continuous
 62
     7
370
    25
100
AcDbLine
 10
1137.0509516501
 20
1954.2043978663
 30
0.0
 11
1136.9895821545
 21
1954.2043978663
 31
0.0
  0
LINE
  5
181
330
1F
100
AcDbEntity
  8
0
  6
Continuous
 62
     7
370
    25
100
AcDbLine
 10
1136.2608646997
 20
703.2543978663
 30
0.0
 11
1138.2608646997
 21
703.2543978663
 31
0.0
  0
LINE
  5
182
330
1F
100
AcDbEntity
  8
0
  6
Continuous
 62
     7
370
    25
100
AcDbLine
 10
1138.2608646997
 20
690.2543978663
 30
0.0
 11
1136.2608646997
 21
690.2543978663
 31
0.0
  0
LINE
  5
183
330
1F
100
AcDbEntity
  8
0
  6
Continuous
 62
     7
370
    25
100
AcDbLine
 10
1136.9895821545
 20
689.3043978663
 30
0.0
 11
1136.9895821545
 21
690.2543978663
 31
0.0
  0
LINE
  5
184
330
1F
100
AcDbEntity
  8
0
  6
Continuous
 62
     7
370
    25
100
AcDbLine
 10
1136.9895821545
 20
703.2543978663
 30
0.0
 11
1136.9895821545
 21
704.2043978663
 31
0.0
  0
LINE
  5
185
330
1F
100
AcDbEntity
  8
0
  6
Continuous
 62
     7
370
    25
100
AcDbLine
 10
1136.9895821545
 20
689.3043978663
 30
0.0
 11
1136.2608646997
 21
689.3043978663
 31
0.0
  0
LINE
  5
186
330
1F
100
AcDbEntity
  8
0
  6
Continuous
 62
     7
370
    25
100
AcDbLine
 10
1136.9895821545
 20
704.2043978663
 30
0.0
 11
1136.2608646997
 21
704.2043978663
 31
0.0
  0
LINE
  5
187
330
1F
100
AcDbEntity
  8
0
  6
Continuous
 62
     7
370
    25
100
AcDbLine
 10
1137.0509516501
 20
689.3043978663
 30
0.0
 11
1137.0509516501
 21
690.2543978663
 31
0.0
  0
LINE
  5
188
330
1F
100
AcDbEntity
  8
0
  6
Continuous
 62
     7
370
    25
100
AcDbLine
 10
1137.0509516501
 20
703.2543978663
 30
0.0
 11
1137.0509516501
 21
704.2043978663
 31
0.0
  0
LINE
  5
189
330
1F
100
AcDbEntity
  8
0
  6
Continuous
 62
     7
370
    25
100
AcDbLine
 10
1137.0509516501
 20
689.3043978663
 30
0.0
 11
1136.9895821545
 21
689.3043978663
 31
0.0
  0
LINE
  5
18A
330
1F
100
AcDbEntity
  8
0
  6
Continuous
 62
     7
370
    25
100
AcDbLine
 10
1137.0509516501
 20
704.2043978663
 30
0.0
 11
1136.9895821545
 21
704.2043978663
 31
0.0
  0
LINE
  5
18B
330
1F
100
AcDbEntity
  8
0
  6
Continuous
 62
     7
370
    25
100
AcDbLine
 10
1136.2608646997
 20
2323.2543978663
 30
0.0
 11
1138.2608646997
 21
2323.2543978663
 31
0.0
  0
LINE
  5
18C
330
1F
100
AcDbEntity
  8
0
  6
Continuous
 62
     7
370
    25
100
AcDbLine
 10
1138.2608646997
 20
2310.2543978663
 30
0.0
 11
1136.2608646997
 21
2310.2543978663
 31
0.0
  0
LINE
  5
18D
330
1F
100
AcDbEntity
  8
0
  6
Continuous
 62
     7
370
    25
100
AcDbLine
 10
1136.9895821545
 20
2309.3043978663
 30
0.0
 11
1136.9895821545
 21
2310.2543978663
 31
0.0
  0
LINE
  5
18E
330
1F
100
AcDbEntity
  8
0
  6
Continuous
 62
     7
370
    25
100
AcDbLine
 10
1136.9895821545
 20
2323.2543978663
 30
0.0
 11
1136.9895821545
 21
2324.2043978663
 31
0.0
  0
LINE
  5
18F
330
1F
100
AcDbEntity
  8
0
  6
Continuous
 62
     7
370
    25
100
AcDbLine
 10
1136.9895821545
 20
2309.3043978663
 30
0.0
 11
1136.2608646997
 21
2309.3043978663
 31
0.0
  0
LINE
  5
190
330
1F
100
AcDbEntity
  8
0
  6
Continuous
 62
     7
370
    25
100
AcDbLine
 10
1136.9895821545
 20
2324.2043978663
 30
0.0
 11
1136.2608646997
 21
2324.2043978663
 31
0.0
  0
LINE
  5
191
330
1F
100
AcDbEntity
  8
0
  6
Continuous
 62
     7
370
    25
100
AcDbLine
 10
1137.0509516501
 20
2309.3043978663
 30
0.0
 11
1137.0509516501
 21
2310.2543978663
 31
0.0
  0
LINE
  5
192
330
1F
100
AcDbEntity
  8
0
  6
Continuous
 62
     7
370
    25
100
AcDbLine
 10
1137.0509516501
 20
2323.2543978663
 30
0.0
 11
1137.0509516501
 21
2324.2043978663
 31
0.0
  0
LINE
  5
193
330
1F
100
AcDbEntity
  8
0
  6
Continuous
 62
     7
370
    25
100
AcDbLine
 10
1137.0509516501
 20
2309.3043978663
 30
0.0
 11
1136.9895821545
 21
2309.3043978663
 31
0.0
  0
LINE
  5
194
330
1F
100
AcDbEntity
  8
0
  6
Continuous
 62
     7
370
    25
100
AcDbLine
 10
1137.0509516501
 20
2324.2043978663
 30
0.0
 11
1136.9895821545
 21
2324.2043978663
 31
0.0
  0
LINE
  5
195
330
1F
100
AcDbEntity
  8
0
  6
Continuous
 62
     7
370
    25
100
AcDbLine
 10
1136.2608646997
 20
1423.2543978663
 30
0.0
 11
1138.2608646997
 21
1423.2543978663
 31
0.0
  0
LINE
  5
196
330
1F
100
AcDbEntity
  8
0
  6
Continuous
 62
     7
370
    25
100
AcDbLine
 10
1138.2608646997
 20
1410.2543978663
 30
0.0
 11
1136.2608646997
 21
1410.2543978663
 31
0.0
  0
LINE
  5
197
330
1F
100
AcDbEntity
  8
0
  6
Continuous
 62
     7
370
    25
100
AcDbLine
 10
1136.9895821545
 20
1409.3043978663
 30
0.0
 11
1136.9895821545
 21
1410.2543978663
 31
0.0
  0
LINE
  5
198
330
1F
100
AcDbEntity
  8
0
  6
Continuous
 62
     7
370
    25
100
AcDbLine
 10
1136.9895821545
 20
1423.2543978663
 30
0.0
 11
1136.9895821545
 21
1424.2043978663
 31
0.0
  0
LINE
  5
199
330
1F
100
AcDbEntity
  8
0
  6
Continuous
 62
     7
370
    25
100
AcDbLine
 10
1136.9895821545
 20
1409.3043978663
 30
0.0
 11
1136.2608646997
 21
1409.3043978663
 31
0.0
  0
LINE
  5
19A
330
1F
100
AcDbEntity
  8
0
  6
Continuous
 62
     7
370
    25
100
AcDbLine
 10
1136.9895821545
 20
1424.2043978663
 30
0.0
 11
1136.2608646997
 21
1424.2043978663
 31
0.0
  0
LINE
  5
19B
330
1F
100
AcDbEntity
  8
0
  6
Continuous
 62
     7
370
    25
100
AcDbLine
 10
1137.0509516501
 20
1409.3043978663
 30
0.0
 11
1137.0509516501
 21
1410.2543978663
 31
0.0
  0
LINE
  5
19C
330
1F
100
AcDbEntity
  8
0
  6
Continuous
 62
     7
370
    25
100
AcDbLine
 10
1137.0509516501
 20
1423.2543978663
 30
0.0
 11
1137.0509516501
 21
1424.2043978663
 31
0.0
  0
LINE
  5
19D
330
1F
100
AcDbEntity
  8
0
  6
Continuous
 62
     7
370
    25
100
AcDbLine
 10
1137.0509516501
 20
1409.3043978663
 30
0.0
 11
1136.9895821545
 21
1409.3043978663
 31
0.0
  0
LINE
  5
19E
330
1F
100
AcDbEntity
  8
0
  6
Continuous
 62
     7
370
    25
100
AcDbLine
 10
1137.0509516501
 20
1424.2043978663
 30
0.0
 11
1136.9895821545
 21
1424.2043978663
 31
0.0
  0
LINE
  5
19F
330
1F
100
AcDbEntity
  8
0
  6
Continuous
 62
     7
370
    25
100
AcDbLine
 10
1137.7608646997
 20
2309.2793978663
 30
0.0
 11
1137.4492988969
 21
2309.2793978663
 31
0.0
  0
LINE
  5
1A0
330
1F
100
AcDbEntity
  8
0
  6
Continuous
 62
     7
370
    25
100
AcDbLine
 10
1137.4492988969
 20
2324.2293978663
 30
0.0
 11
1137.4492988969
 21
2323.2543978663
 31
0.0
  0
LINE
  5
1A1
330
1F
100
AcDbEntity
  8
0
  6
Continuous
 62
     7
370
    25
100
AcDbLine
 10
1137.4492988969
 20
2310.2543978663
 30
0.0
 11
1137.4492988969
 21
2309.2793978663
 31
0.0
  0
LINE
  5
1A2
330
1F
100
AcDbEntity
  8
0
  6
Continuous
 62
     7
370
    25
100
AcDbLine
 10
1137.7608646997
 20
2324.2293978663
 30
0.0
 11
1137.4492988969
 21
2324.2293978663
 31
0.0
  0
LINE
  5
1A3
330
1F
100
AcDbEntity
  8
0
  6
Continuous
 62
     7
370
    25
100
AcDbLine
 10
1137.4492988969
 20
2309.2793978663
 30
0.0
 11
1137.4101563024
 21
2309.2793978663
 31
0.0
  0
LINE
  5
1A4
330
1F
100
AcDbEntity
  8
0
  6
Continuous
 62
     7
370
    25
100
AcDbLine
 10
1137.4492988969
 20
2324.2293978663
 30
0.0
 11
1137.4101563024
 21
2324.2293978663
 31
0.0
  0
LINE
  5
1A5
330
1F
100
AcDbEntity
  8
0
  6
Continuous
 62
     7
370
    25
100
AcDbLine
 10
1137.7608646997
 20
1409.2793978663
 30
0.0
 11
1137.4492988969
 21
1409.2793978663
 31
0.0
  0
LINE
  5
1A6
330
1F
100
AcDbEntity
  8
0
  6
Continuous
 62
     7
370
    25
100
AcDbLine
 10
1137.4492988969
 20
1424.2293978663
 30
0.0
 11
1137.4492988969
 21
1423.2543978663
 31
0.0
  0
LINE
  5
1A7
330
1F
100
AcDbEntity
  8
0
  6
Continuous
 62
     7
370
    25
100
AcDbLine
 10
1137.4492988969
 20
1410.2543978663
 30
0.0
 11
1137.4492988969
 21
1409.2793978663
 31
0.0
  0
LINE
  5
1A8
330
1F
100
AcDbEntity
  8
0
  6
Continuous
 62
     7
370
    25
100
AcDbLine
 10
1137.7608646997
 20
1424.2293978663
 30
0.0
 11
1137.4492988969
 21
1424.2293978663
 31
0.0
  0
LINE
  5
1A9
330
1F
100
AcDbEntity
  8
0
  6
Continuous
 62
     7
370
    25
100
AcDbLine
 10
1137.4492988969
 20
1409.2793978663
 30
0.0
 11
1137.4101563024
 21
1409.2793978663
 31
0.0
  0
LINE
  5
1AA
330
1F
100
AcDbEntity
  8
0
  6
Continuous
 62
     7
370
    25
100
AcDbLine
 10
1137.4492988969
 20
1424.2293978663
 30
0.0
 11
1137.4101563024
 21
1424.2293978663
 31
0.0
  0
LINE
  5
1AB
330
1F
100
AcDbEntity
  8
0
  6
Continuous
 62
     7
370
    25
100
AcDbLine
 10
1137.7608646997
 20
1939.2793978663
 30
0.0
 11
1137.4492988969
 21
1939.2793978663
 31
0.0
  0
LINE
  5
1AC
330
1F
100
AcDbEntity
  8
0
  6
Continuous
 62
     7
370
    25
100
AcDbLine
 10
1137.4492988969
 20
1954.2293978663
 30
0.0
 11
1137.4492988969
 21
1953.2543978663
 31
0.0
  0
LINE
  5
1AD
330
1F
100
AcDbEntity
  8
0
  6
Continuous
 62
     7
370
    25
100
AcDbLine
 10
1137.4492988969
 20
1940.2543978663
 30
0.0
 11
1137.4492988969
 21
1939.2793978663
 31
0.0
  0
LINE
  5
1AE
330
1F
100
AcDbEntity
  8
0
  6
Continuous
 62
     7
370
    25
100
AcDbLine
 10
1137.7608646997
 20
1954.2293978663
 30
0.0
 11
1137.4492988969
 21
1954.2293978663
 31
0.0
  0
LINE
  5
1AF
330
1F
100
AcDbEntity
  8
0
  6
Continuous
 62
     7
370
    25
100
AcDbLine
 10
1137.4492988969
 20
1939.2793978663
 30
0.0
 11
1137.4101563024
 21
1939.2793978663
 31
0.0
  0
LINE
  5
1B0
330
1F
100
AcDbEntity
  8
0
  6
Continuous
 62
     7
370
    25
100
AcDbLine
 10
1137.4492988969
 20
1954.2293978663
 30
0.0
 11
1137.4101563024
 21
1954.2293978663
 31
0.0
  0
LINE
  5
1B1
330
1F
100
AcDbEntity
  8
0
  6
Continuous
 62
     7
370
    25
100
AcDbLine
 10
1137.7608646997
 20
689.2793978663
 30
0.0
 11
1137.4492988969
 21
689.2793978663
 31
0.0
  0
LINE
  5
1B2
330
1F
100
AcDbEntity
  8
0
  6
Continuous
 62
     7
370
    25
100
AcDbLine
 10
1137.4492988969
 20
704.2293978663
 30
0.0
 11
1137.4492988969
 21
703.2543978663
 31
0.0
  0
LINE
  5
1B3
330
1F
100
AcDbEntity
  8
0
  6
Continuous
 62
     7
370
    25
100
AcDbLine
 10
1137.4492988969
 20
690.2543978663
 30
0.0
 11
1137.4492988969
 21
689.2793978663
 31
0.0
  0
LINE
  5
1B4
330
1F
100
AcDbEntity
  8
0
  6
Continuous
 62
     7
370
    25
100
AcDbLine
 10
1137.7608646997
 20
704.2293978663
 30
0.0
 11
1137.4492988969
 21
704.2293978663
 31
0.0
  0
LINE
  5
1B5
330
1F
100
AcDbEntity
  8
0
  6
Continuous
 62
     7
370
    25
100
AcDbLine
 10
1137.4492988969
 20
689.2793978663
 30
0.0
 11
1137.4101563024
 21
689.2793978663
 31
0.0
  0
LINE
  5
1B6
330
1F
100
AcDbEntity
  8
0
  6
Continuous
 62
     7
370
    25
100
AcDbLine
 10
1137.4492988969
 20
704.2293978663
 30
0.0
 11
1137.4101563024
 21
704.2293978663
 31
0.0
  0
LINE
  5
1B7
330
1F
100
AcDbEntity
  8
0
  6
Continuous
 62
     7
370
    25
100
AcDbLine
 10
755.9271177533
 20
2314.7748720752
 30
0.0
 11
755.7831445376
 21
2309.2767567878
 31
0.0
  0
LINE
  5
1B8
330
1F
100
AcDbEntity
  8
0
  6
Continuous
 62
     7
370
    25
100
AcDbLine
 10
754.3122319849
 20
2339.0754720652
 30
0.0
 11
753.7886930188
 21
2319.0823255657
 31
0.0
  0
LINE
  5
1B9
330
1F
100
AcDbEntity
  8
0
  6
Continuous
 62
     7
370
    25
100
AcDbLine
 10
752.6223435987
 20
2320.2086561083
 30
0.0
 11
753.0885334202
 21
2338.0117271317
 31
0.0
  0
LINE
  5
1BA
330
1F
100
AcDbEntity
  8
0
  6
Continuous
 62
     7
370
    25
100
AcDbLine
 10
754.8081328374
 20
2329.3448871838
 30
0.0
 11
755.0624227623
 21
2339.0558276283
 31
0.0
  0
LINE
  5
1BB
330
1F
100
AcDbEntity
  8
0
  6
Continuous
 62
     7
370
    25
100
AcDbLine
 10
752.9067456257
 20
2336.4161961367
 30
0.0
 11
752.5243085784
 21
2321.8115145215
 31
0.0
  0
LINE
  5
1BC
330
1F
100
AcDbEntity
  8
0
  6
Continuous
 62
     7
370
    25
100
AcDbLine
 10
755.6182085764
 20
2333.5393465579
 30
0.0
 11
755.4965437888
 21
2328.8931557708
 31
0.0
  0
LINE
  5
1BD
330
1F
100
AcDbEntity
  8
0
  6
Continuous
 62
     7
370
    25
100
AcDbLine
 10
755.4965437888
 20
2328.8931557708
 30
0.0
 11
755.382618237
 21
2324.5425144716
 31
0.0
  0
LINE
  5
1BE
330
1F
100
AcDbEntity
  8
0
  6
Continuous
 62
     7
370
    25
100
AcDbLine
 10
1138.0608646997
 20
2344.2543978663
 30
0.0
 11
1136.2608646997
 21
2344.2543978663
 31
0.0
  0
LINE
  5
1BF
330
1F
100
AcDbEntity
  8
0
  6
Continuous
 62
     7
370
    25
100
AcDbLine
 10
1138.0608646997
 20
2289.2543978663
 30
0.0
 11
1136.2608646997
 21
2289.2543978663
 31
0.0
  0
LINE
  5
1C0
330
1F
100
AcDbEntity
  8
0
  6
Continuous
 62
     7
370
    25
100
AcDbLine
 10
1136.9108646997
 20
2325.1293978663
 30
0.0
 11
1136.9108646997
 21
2326.7543978663
 31
0.0
  0
LINE
  5
1C1
330
1F
100
AcDbEntity
  8
0
  6
Continuous
 62
     7
370
    25
100
AcDbLine
 10
1136.9108646997
 20
2306.7543978663
 30
0.0
 11
1136.9108646997
 21
2308.3793978663
 31
0.0
  0
LINE
  5
1C2
330
1F
100
AcDbEntity
  8
0
  6
Continuous
 62
     7
370
    25
100
AcDbLine
 10
1138.0608646997
 20
724.2543978663
 30
0.0
 11
1136.2608646997
 21
724.2543978663
 31
0.0
  0
LINE
  5
1C3
330
1F
100
AcDbEntity
  8
0
  6
Continuous
 62
     7
370
    25
100
AcDbLine
 10
1138.0608646997
 20
669.2543978663
 30
0.0
 11
1136.2608646997
 21
669.2543978663
 31
0.0
  0
LINE
  5
1C4
330
1F
100
AcDbEntity
  8
0
  6
Continuous
 62
     7
370
    25
100
AcDbLine
 10
1136.9108646997
 20
705.1293978663
 30
0.0
 11
1136.9108646997
 21
706.7543978663
 31
0.0
  0
LINE
  5
1C5
330
1F
100
AcDbEntity
  8
0
  6
Continuous
 62
     7
370
    25
100
AcDbLine
 10
1136.9108646997
 20
686.7543978663
 30
0.0
 11
1136.9108646997
 21
688.3793978663
 31
0.0
  0
LINE
  5
1C6
330
1F
100
AcDbEntity
  8
0
  6
Continuous
 62
     7
370
    25
100
AcDbLine
 10
1138.0608646997
 20
1444.2543978663
 30
0.0
 11
1136.2608646997
 21
1444.2543978663
 31
0.0
  0
LINE
  5
1C7
330
1F
100
AcDbEntity
  8
0
  6
Continuous
 62
     7
370
    25
100
AcDbLine
 10
1138.0608646997
 20
1389.2543978663
 30
0.0
 11
1136.2608646997
 21
1389.2543978663
 31
0.0
  0
LINE
  5
1C8
330
1F
100
AcDbEntity
  8
0
  6
Continuous
 62
     7
370
    25
100
AcDbLine
 10
1136.9108646997
 20
1425.1293978663
 30
0.0
 11
1136.9108646997
 21
1426.7543978663
 31
0.0
  0
LINE
  5
1C9
330
1F
100
AcDbEntity
  8
0
  6
Continuous
 62
     7
370
    25
100
AcDbLine
 10
1136.9108646997
 20
1406.7543978663
 30
0.0
 11
1136.9108646997
 21
1408.3793978663
 31
0.0
  0
LINE
  5
1CA
330
1F
100
AcDbEntity
  8
0
  6
Continuous
 62
     7
370
    25
100
AcDbLine
 10
1138.0608646997
 20
1974.2543978663
 30
0.0
 11
1136.2608646997
 21
1974.2543978663
 31
0.0
  0
LINE
  5
1CB
330
1F
100
AcDbEntity
  8
0
  6
Continuous
 62
     7
370
    25
100
AcDbLine
 10
1138.0608646997
 20
1919.2543978663
 30
0.0
 11
1136.2608646997
 21
1919.2543978663
 31
0.0
  0
LINE
  5
1CC
330
1F
100
AcDbEntity
  8
0
  6
Continuous
 62
     7
370
    25
100
AcDbLine
 10
1136.9108646997
 20
1955.1293978663
 30
0.0
 11
1136.9108646997
 21
1956.7543978663
 31
0.0
  0
LINE
  5
1CD
330
1F
100
AcDbEntity
  8
0
  6
Continuous
 62
     7
370
    25
100
AcDbLine
 10
1136.9108646997
 20
1936.7543978663
 30
0.0
 11
1136.9108646997
 21
1938.3793978663
 31
0.0
  0
LINE
  5
1CE
330
1F
100
AcDbEntity
  8
0
  6
Continuous
 62
     7
370
    25
100
AcDbLine
 10
3838.1225156724
 20
1761.2543978663
 30
0.0
 11
3840.1225156724
 21
1761.2543978663
 31
0.0
  0
LINE
  5
1CF
330
1F
100
AcDbEntity
  8
0
  6
Continuous
 62
     7
370
    25
100
AcDbLine
 10
3840.1225156724
 20
1796.2543978663
 30
0.0
 11
3838.1225156724
 21
1796.2543978663
 31
0.0
  0
LINE
  5
1D0
330
1F
100
AcDbEntity
  8
0
  6
Continuous
 62
     7
370
    25
100
AcDbLine
 10
3838.1225156724
 20
2250.7543978663
 30
0.0
 11
3840.1225156724
 21
2250.7543978663
 31
0.0
  0
LINE
  5
1D1
330
1F
100
AcDbEntity
  8
0
  6
Continuous
 62
     7
370
    25
100
AcDbLine
 10
3840.1225156724
 20
2312.7543978663
 30
0.0
 11
3838.1225156724
 21
2312.7543978663
 31
0.0
  0
LINE
  5
1D2
330
1F
100
AcDbEntity
  8
0
  6
Continuous
 62
     7
370
    25
100
AcDbLine
 10
3840.1225156724
 20
822.7543978663
 30
0.0
 11
3838.1225156724
 21
822.7543978663
 31
0.0
  0
LINE
  5
1D3
330
1F
100
AcDbEntity
  8
0
  6
Continuous
 62
     7
370
    25
100
AcDbLine
 10
3838.1225156724
 20
722.7543978663
 30
0.0
 11
3840.1225156724
 21
722.7543978663
 31
0.0
  0
LINE
  5
1D4
330
1F
100
AcDbEntity
  8
0
  6
Continuous
 62
     7
370
    25
100
AcDbLine
 10
3838.1225156724
 20
1278.2543978663
 30
0.0
 11
3840.1225156724
 21
1278.2543978663
 31
0.0
  0
LINE
  5
1D5
330
1F
100
AcDbEntity
  8
0
  6
Continuous
 62
     7
370
    25
100
AcDbLine
 10
3840.1225156724
 20
1313.2543978663
 30
0.0
 11
3838.1225156724
 21
1313.2543978663
 31
0.0
  0
LINE
  5
1D6
330
1F
100
AcDbEntity
  8
0
  6
Continuous
 62
     7
370
    25
100
AcDbLine
 10
4220.4562626188
 20
2314.7748720752
 30
0.0
 11
4218.6225156724
 21
2314.7268537215
 31
0.0
  0
LINE
  5
1D7
330
1F
100
AcDbEntity
  8
0
  6
Continuous
 62
     7
370
    25
100
AcDbLine
 10
4218.6225156724
 20
2309.2249683628
 30
0.0
 11
4220.6002358345
 21
2309.2767567878
 31
0.0
  0
ARC
  5
1D8
330
1F
100
AcDbEntity
  8
0
  6
Continuous
 62
     7
370
    25
100
AcDbCircle
 10
4220.4641157033
 20
2314.4749748777
 30
0.0
 40
0.2999999999998819
100
AcDbArc
 50
1.5
 51
91.5
  0
ARC
  5
1D9
330
1F
100
AcDbEntity
  8
0
  6
Continuous
 62
     7
370
    25
100
AcDbCircle
 10
4220.59238275
 20
2309.5766539853
 30
0.0
 40
0.3000000000003366
100
AcDbArc
 50
271.5
 51
1.5
  0
ARC
  5
1DA
330
1F
100
AcDbEntity
  8
0
  6
Continuous
 62
     7
370
    25
100
AcDbCircle
 10
4221.8392611863
 20
2319.2626125938
 30
0.0
 40
0.2000000000005235
100
AcDbArc
 50
181.4999999999
 51
271.4999999998
  0
ARC
  5
1DB
330
1F
100
AcDbEntity
  8
0
  6
Continuous
 62
     7
370
    25
100
AcDbCircle
 10
4221.3261929995
 20
2338.8558961633
 30
0.0
 40
0.2000000000005235
100
AcDbArc
 50
91.5
 51
181.4999999999
  0
LINE
  5
1DC
330
1F
100
AcDbEntity
  8
0
  6
Continuous
 62
     7
370
    25
100
AcDbLine
 10
4221.8444965759
 20
2319.0626811288
 30
0.0
 11
4222.5946873533
 21
2319.0823255657
 31
0.0
  0
LINE
  5
1DD
330
1F
100
AcDbEntity
  8
0
  6
Continuous
 62
     7
370
    25
100
AcDbLine
 10
4222.0711483871
 20
2339.0754720652
 30
0.0
 11
4221.3209576098
 21
2339.0558276283
 31
0.0
  0
ARC
  5
1DE
330
1F
100
AcDbEntity
  8
0
  6
Continuous
 62
     7
370
    25
100
AcDbCircle
 10
4222.5632750153
 20
2320.2819143556
 30
0.0
 40
1.199999999999959
100
AcDbArc
 50
271.4999999999
 51
356.5000000029
  0
ARC
  5
1DF
330
1F
100
AcDbEntity
  8
0
  6
Continuous
 62
     7
370
    25
100
AcDbCircle
 10
4222.1025607251
 20
2337.8758832752
 30
0.0
 40
1.199999999999982
100
AcDbArc
 50
6.499999997
 51
91.5
  0
LINE
  5
1E0
330
1F
100
AcDbEntity
  8
0
  6
Continuous
 62
     7
370
    25
100
AcDbLine
 10
4223.7610367734
 20
2320.2086561083
 30
0.0
 11
4223.8590717937
 21
2321.8115145215
 31
0.0
  0
LINE
  5
1E1
330
1F
100
AcDbEntity
  8
0
  6
Continuous
 62
     7
370
    25
100
AcDbLine
 10
4223.4766347464
 20
2336.4161961367
 30
0.0
 11
4223.2948469519
 21
2338.0117271317
 31
0.0
  0
ARC
  5
1E2
330
1F
100
AcDbEntity
  8
0
  6
Continuous
 62
     7
370
    25
100
AcDbCircle
 10
4193.915027841
 20
2323.6429707076
 30
0.0
 40
30.00000000000231
100
AcDbArc
 50
356.4999999999
 51
1.4999999999
  0
ARC
  5
1E3
330
1F
100
AcDbEntity
  8
0
  6
Continuous
 62
     7
370
    25
100
AcDbCircle
 10
4193.6694790761
 20
2333.0200997237
 30
0.0
 40
30.00000000000215
100
AcDbArc
 50
1.4999999999
 51
6.5
  0
LINE
  5
1E4
330
1F
100
AcDbEntity
  8
0
  6
Continuous
 62
     7
370
    25
100
AcDbLine
 10
4223.7844466987
 20
2329.0223848583
 30
0.0
 11
4223.7819732078
 21
2329.1168436648
 31
0.0
  0
SPLINE
  5
1E5
330
1F
100
AcDbEntity
  8
0
  6
Continuous
 62
     7
370
    25
100
AcDbSpline
210
0.0
220
0.0
230
1.0
 70
     8
 71
     3
 72
    13
 73
     9
 74
     0
 42
0.00000001
 43
0.00000001
 40
0.0
 40
0.0
 40
0.0
 40
0.0
 40
0.2397374167622175
 40
0.3685398007219877
 40
0.5000035786937027
 40
0.6314571619971574
 40
0.7602371999017316
 40
0.9999999999999999
 40
0.9999999999999999
 40
0.9999999999999999
 40
0.9999999999999999
 10
4221.000763069517
 20
2324.542478786654
 30
0.0
 10
4221.064174809939
 20
2324.537440837368
 30
0.0
 10
4221.161655422246
 20
2324.529696177184
 30
0.0
 10
4221.280392701812
 20
2324.469891788496
 30
0.0
 10
4221.362403973671
 20
2324.406988324289
 30
0.0
 10
4221.428962590764
 20
2324.328125320642
 30
0.0
 10
4221.493922802678
 20
2324.212754783106
 30
0.0
 10
4221.505917568557
 20
2324.116682482976
 30
0.0
 10
4221.513720999684
 20
2324.054180756404
 30
0.0
  0
SPLINE
  5
1E6
330
1F
100
AcDbEntity
  8
0
  6
Continuous
 62
     7
370
    25
100
AcDbSpline
210
0.0
220
0.0
230
1.0
 70
     8
 71
     3
 72
    13
 73
     9
 74
     0
 42
0.00000001
 43
0.00000001
 40
0.0
 40
0.0
 40
0.0
 40
0.0
 40
0.239762800092099
 40
0.3685428379938426
 40
0.4999964212961161
 40
0.6314601992686355
 40
0.7602625832312407
 40
0.9999999999999999
 40
0.9999999999999999
 40
0.9999999999999999
 40
0.9999999999999999
 10
4221.251870256064
 20
2334.053857221383
 30
0.0
 10
4221.247348606896
 20
2333.991032751228
 30
0.0
 10
4221.240398315123
 20
2333.894464357308
 30
0.0
 10
4221.181565156324
 20
2333.775852176283
 30
0.0
 10
4221.11922512621
 20
2333.693613842773
 30
0.0
 10
4221.0406183609
 20
2333.626504447246
 30
0.0
 10
4220.925173726518
 20
2333.560567789326
 30
0.0
 10
4220.828232032199
 20
2333.547732001865
 30
0.0
 10
4220.765170861257
 20
2333.539382242837
 30
0.0
  0
LINE
  5
1E7
330
1F
100
AcDbEntity
  8
0
  6
Continuous
 62
     7
370
    25
100
AcDbLine
 10
4218.6225156724
 20
2324.4801959483
 30
0.0
 11
4221.0007632328
 21
2324.5424725523
 31
0.0
  0
LINE
  5
1E8
330
1F
100
AcDbEntity
  8
0
  6
Continuous
 62
     7
370
    25
100
AcDbLine
 10
4220.765170698
 20
2333.5393884771
 30
0.0
 11
4218.6225156724
 21
2333.4832810807
 31
0.0
  0
LINE
  5
1E9
330
1F
100
AcDbEntity
  8
0
  6
Continuous
 62
     7
370
    25
100
AcDbLine
 10
3839.6225156724
 20
2378.2543978663
 30
0.0
 11
4218.6225156724
 21
2378.2543978663
 31
0.0
  0
LINE
  5
1EA
330
1F
100
AcDbEntity
  8
0
  6
Continuous
 62
     7
370
    25
100
AcDbLine
 10
3839.6225156724
 20
2406.7543978663
 30
0.0
 11
3839.6225156724
 21
2378.2543978663
 31
0.0
  0
LINE
  5
1EB
330
1F
100
AcDbEntity
  8
0
  6
Continuous
 62
     7
370
    25
100
AcDbLine
 10
4218.6225156724
 20
2406.7543978663
 30
0.0
 11
3839.6225156724
 21
2406.7543978663
 31
0.0
  0
LINE
  5
1EC
330
1F
100
AcDbEntity
  8
0
  6
Continuous
 62
     7
370
    25
100
AcDbLine
 10
4218.6225156724
 20
2378.2543978663
 30
0.0
 11
4218.6225156724
 21
2406.7543978663
 31
0.0
  0
LINE
  5
1ED
330
1F
100
AcDbEntity
  8
0
  6
Continuous
 62
     7
370
    25
100
AcDbLine
 10
3860.6225156724
 20
1489.7543978663
 30
0.0
 11
4200.6225156724
 21
1489.7543978663
 31
0.0
  0
LINE
  5
1EE
330
1F
100
AcDbEntity
  8
0
  6
Continuous
 62
     7
370
    25
100
AcDbLine
 10
3860.6225156724
 20
1506.7543978663
 30
0.0
 11
4200.6225156724
 21
1506.7543978663
 31
0.0
  0
LINE
  5
1EF
330
1F
100
AcDbEntity
  8
0
  6
Continuous
 62
     7
370
    25
100
AcDbLine
 10
3860.6225156724
 20
607.2543978663
 30
0.0
 11
3860.6225156724
 21
2378.2543978663
 31
0.0
  0
LINE
  5
1F0
330
1F
100
AcDbEntity
  8
0
  6
Continuous
 62
     7
370
    25
100
AcDbLine
 10
3843.1225156724
 20
607.2543978663
 30
0.0
 11
3860.6225156724
 21
607.2543978663
 31
0.0
  0
LINE
  5
1F1
330
1F
100
AcDbEntity
  8
0
  6
Continuous
 62
     7
370
    25
100
AcDbLine
 10
3843.1225156724
 20
2378.2543978663
 30
0.0
 11
3843.1225156724
 21
607.2543978663
 31
0.0
  0
LINE
  5
1F2
330
1F
100
AcDbEntity
  8
0
  6
Continuous
 62
     7
370
    25
100
AcDbLine
 10
4218.1225156724
 20
607.2543978663
 30
0.0
 11
4218.1225156724
 21
2378.2543978663
 31
0.0
  0
LINE
  5
1F3
330
1F
100
AcDbEntity
  8
0
  6
Continuous
 62
     7
370
    25
100
AcDbLine
 10
4200.6225156724
 20
607.2543978663
 30
0.0
 11
4218.1225156724
 21
607.2543978663
 31
0.0
  0
LINE
  5
1F4
330
1F
100
AcDbEntity
  8
0
  6
Continuous
 62
     7
370
    25
100
AcDbLine
 10
4200.6225156724
 20
2378.2543978663
 30
0.0
 11
4200.6225156724
 21
607.2543978663
 31
0.0
  0
LINE
  5
1F5
330
1F
100
AcDbEntity
  8
0
  6
Continuous
 62
     7
370
    25
100
AcDbLine
 10
3836.6225156724
 20
629.7543978663
 30
0.0
 11
3836.6225156724
 21
650.2543978663
 31
0.0
  0
LINE
  5
1F6
330
1F
100
AcDbEntity
  8
0
  6
Continuous
 62
     7
370
    25
100
AcDbLine
 10
3824.1225156724
 20
629.7543978663
 30
0.0
 11
3836.6225156724
 21
629.7543978663
 31
0.0
  0
LINE
  5
1F7
330
1F
100
AcDbEntity
  8
0
  6
Continuous
 62
     7
370
    25
100
AcDbLine
 10
3824.1225156724
 20
616.7543978663
 30
0.0
 11
3824.1225156724
 21
629.7543978663
 31
0.0
  0
LINE
  5
1F8
330
1F
100
AcDbEntity
  8
0
  6
Continuous
 62
     7
370
    25
100
AcDbLine
 10
3820.1225156724
 20
616.7543978663
 30
0.0
 11
3824.1225156724
 21
616.7543978663
 31
0.0
  0
LINE
  5
1F9
330
1F
100
AcDbEntity
  8
0
  6
Continuous
 62
     7
370
    25
100
AcDbLine
 10
3820.1225156724
 20
616.7543978663
 30
0.0
 11
3820.1225156724
 21
2396.7543978663
 31
0.0
  0
LINE
  5
1FA
330
1F
100
AcDbEntity
  8
0
  6
Continuous
 62
     7
370
    25
100
AcDbLine
 10
3836.6225156724
 20
650.2543978663
 30
0.0
 11
3838.1225156724
 21
650.2543978663
 31
0.0
  0
LINE
  5
1FB
330
1F
100
AcDbEntity
  8
0
  6
Continuous
 62
     7
370
    25
100
AcDbLine
 10
3838.1225156724
 20
650.2543978663
 30
0.0
 11
3838.1225156724
 21
2396.7543978663
 31
0.0
  0
LINE
  5
1FC
330
1F
100
AcDbEntity
  8
0
  6
Continuous
 62
     7
370
    25
100
AcDbLine
 10
3820.1225156724
 20
2396.7543978663
 30
0.0
 11
3838.1225156724
 21
2396.7543978663
 31
0.0
  0
LINE
  5
1FD
330
1F
100
AcDbEntity
  8
0
  6
Continuous
 62
     7
370
    25
100
AcDbLine
 10
3840.1225156724
 20
606.7543978663
 30
0.0
 11
3840.1225156724
 21
722.7543978663
 31
0.0
  0
LINE
  5
1FE
330
1F
100
AcDbEntity
  8
0
  6
Continuous
 62
     7
370
    25
100
AcDbLine
 10
3840.1225156724
 20
822.7543978663
 30
0.0
 11
3840.1225156724
 21
1278.2543978663
 31
0.0
  0
LINE
  5
1FF
330
1F
100
AcDbEntity
  8
0
  6
Continuous
 62
     7
370
    25
100
AcDbLine
 10
3840.1225156724
 20
1313.2543978663
 30
0.0
 11
3840.1225156724
 21
1761.2543978663
 31
0.0
  0
LINE
  5
200
330
1F
100
AcDbEntity
  8
0
  6
Continuous
 62
     7
370
    25
100
AcDbLine
 10
3840.1225156724
 20
1796.2543978663
 30
0.0
 11
3840.1225156724
 21
2250.7543978663
 31
0.0
  0
LINE
  5
201
330
1F
100
AcDbEntity
  8
0
  6
Continuous
 62
     7
370
    25
100
AcDbLine
 10
3840.1225156724
 20
2312.7543978663
 30
0.0
 11
3840.1225156724
 21
2378.2543978663
 31
0.0
  0
LINE
  5
202
330
1F
100
AcDbEntity
  8
0
  6
Continuous
 62
     7
370
    25
100
AcDbLine
 10
3840.1225156724
 20
606.7543978663
 30
0.0
 11
4218.6225156724
 21
606.7543978663
 31
0.0
  0
LINE
  5
203
330
1F
100
AcDbEntity
  8
0
  6
Continuous
 62
     7
370
    25
100
AcDbLine
 10
4218.6225156724
 20
606.7543978663
 30
0.0
 11
4218.6225156724
 21
2378.2543978663
 31
0.0
  0
LINE
  5
204
330
1F
100
AcDbEntity
  8
0
  6
Continuous
 62
     7
370
    25
100
AcDbLine
 10
3840.1225156724
 20
1796.2543978663
 30
0.0
 11
3840.1225156724
 21
1761.2543978663
 31
0.0
  0
LINE
  5
205
330
1F
100
AcDbEntity
  8
0
  6
Continuous
 62
     7
370
    25
100
AcDbLine
 10
3840.1225156724
 20
2292.7543978663
 30
0.0
 11
3838.1225156724
 21
2292.7543978663
 31
0.0
  0
LINE
  5
206
330
1F
100
AcDbEntity
  8
0
  6
Continuous
 62
     7
370
    25
100
AcDbLine
 10
3840.1225156724
 20
2292.7543978663
 30
0.0
 11
3840.1225156724
 21
2270.7543978663
 31
0.0
  0
LINE
  5
207
330
1F
100
AcDbEntity
  8
0
  6
Continuous
 62
     7
370
    25
100
AcDbLine
 10
3840.1225156724
 20
2270.7543978663
 30
0.0
 11
3838.1225156724
 21
2270.7543978663
 31
0.0
  0
LINE
  5
208
330
1F
100
AcDbEntity
  8
0
  6
Continuous
 62
     7
370
    25
100
AcDbLine
 10
3840.1225156724
 20
2270.7543978663
 30
0.0
 11
3840.1225156724
 21
2250.7543978663
 31
0.0
  0
LINE
  5
209
330
1F
100
AcDbEntity
  8
0
  6
Continuous
 62
     7
370
    25
100
AcDbLine
 10
3840.1225156724
 20
2312.7543978663
 30
0.0
 11
3840.1225156724
 21
2292.7543978663
 31
0.0
  0
LINE
  5
20A
330
1F
100
AcDbEntity
  8
0
  6
Continuous
 62
     7
370
    25
100
AcDbLine
 10
3840.1225156724
 20
802.7543978663
 30
0.0
 11
3838.1225156724
 21
802.7543978663
 31
0.0
  0
LINE
  5
20B
330
1F
100
AcDbEntity
  8
0
  6
Continuous
 62
     7
370
    25
100
AcDbLine
 10
3840.1225156724
 20
822.7543978663
 30
0.0
 11
3840.1225156724
 21
802.7543978663
 31
0.0
  0
LINE
  5
20C
330
1F
100
AcDbEntity
  8
0
  6
Continuous
 62
     7
370
    25
100
AcDbLine
 10
3840.1225156724
 20
742.7543978663
 30
0.0
 11
3838.1225156724
 21
742.7543978663
 31
0.0
  0
LINE
  5
20D
330
1F
100
AcDbEntity
  8
0
  6
Continuous
 62
     7
370
    25
100
AcDbLine
 10
3840.1225156724
 20
742.7543978663
 30
0.0
 11
3840.1225156724
 21
722.7543978663
 31
0.0
  0
LINE
  5
20E
330
1F
100
AcDbEntity
  8
0
  6
Continuous
 62
     7
370
    25
100
AcDbLine
 10
3840.1225156724
 20
802.7543978663
 30
0.0
 11
3840.1225156724
 21
742.7543978663
 31
0.0
  0
LINE
  5
20F
330
1F
100
AcDbEntity
  8
0
  6
Continuous
 62
     7
370
    25
100
AcDbLine
 10
3840.1225156724
 20
1313.2543978663
 30
0.0
 11
3840.1225156724
 21
1278.2543978663
 31
0.0
  0
ARC
  5
210
330
1F
100
AcDbEntity
  8
0
  6
Continuous
 62
     7
370
    25
100
AcDbCircle
 10
3827.0393294423
 20
626.7543978663
 30
0.0
 40
1.200000000000414
100
AcDbArc
 50
90.0
 51
175.0300534053
  0
LINE
  5
211
330
1F
100
AcDbEntity
  8
0
  6
Continuous
 62
     7
370
    25
100
AcDbLine
 10
3825.0026524914
 20
617.1850913096
 30
0.0
 11
3825.84384111
 21
626.8583577014
 31
0.0
  0
ARC
  5
212
330
1F
100
AcDbEntity
  8
0
  6
Continuous
 62
     7
370
    25
100
AcDbCircle
 10
3824.2056602699
 20
617.2543978663
 30
0.0
 40
0.7999999999999814
100
AcDbArc
 50
260.4234115189
 51
355.0300534053
  0
ARC
  5
213
330
1F
100
AcDbEntity
  8
0
  6
Continuous
 62
     7
370
    25
100
AcDbCircle
 10
3824.1224773464
 20
616.7613658174
 30
0.0
 40
0.300000000000115
100
AcDbArc
 50
223.6216529672
 51
260.4234115189
  0
LINE
  5
214
330
1F
100
AcDbEntity
  8
0
  6
Continuous
 62
     7
370
    25
100
AcDbLine
 10
3824.3225156724
 20
616.5543978663
 30
0.0
 11
3823.9053039889
 21
616.5543978663
 31
0.0
  0
LINE
  5
215
330
1F
100
AcDbEntity
  8
0
  6
Continuous
 62
     7
370
    25
100
AcDbLine
 10
3824.3225156724
 20
629.5543978663
 30
0.0
 11
3824.3225156724
 21
616.5543978663
 31
0.0
  0
LINE
  5
216
330
1F
100
AcDbEntity
  8
0
  6
Continuous
 62
     7
370
    25
100
AcDbLine
 10
3836.8225156724
 20
629.5543978663
 30
0.0
 11
3824.3225156724
 21
629.5543978663
 31
0.0
  0
LINE
  5
217
330
1F
100
AcDbEntity
  8
0
  6
Continuous
 62
     7
370
    25
100
AcDbLine
 10
3836.8225156724
 20
649.5543978663
 30
0.0
 11
3836.8225156724
 21
629.5543978663
 31
0.0
  0
LINE
  5
218
330
1F
100
AcDbEntity
  8
0
  6
Continuous
 62
     7
370
    25
100
AcDbLine
 10
3838.2225156724
 20
649.5543978663
 30
0.0
 11
3836.8225156724
 21
649.5543978663
 31
0.0
  0
LINE
  5
219
330
1F
100
AcDbEntity
  8
0
  6
Continuous
 62
     7
370
    25
100
AcDbLine
 10
3838.2225156724
 20
628.7543978663
 30
0.0
 11
3838.2225156724
 21
649.5543978663
 31
0.0
  0
ARC
  5
21A
330
1F
100
AcDbEntity
  8
0
  6
Continuous
 62
     7
370
    25
100
AcDbCircle
 10
3837.4225156724
 20
628.7543978663
 30
0.0
 40
0.7999999999998408
100
AcDbArc
 50
270.0
 51
0.0
  0
LINE
  5
21B
330
1F
100
AcDbEntity
  8
0
  6
Continuous
 62
     7
370
    25
100
AcDbLine
 10
3827.0393294423
 20
627.9543978663
 30
0.0
 11
3837.4225156724
 21
627.9543978663
 31
0.0
  0
LINE
  5
21C
330
1F
100
AcDbEntity
  8
0
  6
Continuous
 62
     7
370
    25
100
AcDbLine
 10
3836.6225156724
 20
649.7543978663
 30
0.0
 11
3836.8225156724
 21
649.5543978663
 31
0.0
  0
LINE
  5
21D
330
1F
100
AcDbEntity
  8
0
  6
Continuous
 62
     7
370
    25
100
AcDbLine
 10
3836.6225156724
 20
629.7543978663
 30
0.0
 11
3836.8225156724
 21
629.5543978663
 31
0.0
  0
LINE
  5
21E
330
1F
100
AcDbEntity
  8
0
  6
Continuous
 62
     7
370
    25
100
AcDbLine
 10
3836.6225156724
 20
649.7543978663
 30
0.0
 11
3838.2225156724
 21
649.7543978663
 31
0.0
  0
LINE
  5
21F
330
1F
100
AcDbEntity
  8
0
  6
Continuous
 62
     7
370
    25
100
AcDbLine
 10
3838.2225156724
 20
649.7543978663
 30
0.0
 11
3838.2225156724
 21
649.5543978663
 31
0.0
  0
LINE
  5
220
330
1F
100
AcDbEntity
  8
0
  6
Continuous
 62
     7
370
    25
100
AcDbLine
 10
3838.4225156724
 20
649.5543978663
 30
0.0
 11
3838.4225156724
 21
628.7543978663
 31
0.0
  0
LINE
  5
221
330
1F
100
AcDbEntity
  8
0
  6
Continuous
 62
     7
370
    25
100
AcDbLine
 10
3838.4225156724
 20
628.7543978663
 30
0.0
 11
3838.2225156724
 21
628.7543978663
 31
0.0
  0
LINE
  5
222
330
1F
100
AcDbEntity
  8
0
  6
Continuous
 62
     7
370
    25
100
AcDbLine
 10
3838.4225156724
 20
649.5543978663
 30
0.0
 11
3838.2225156724
 21
649.5543978663
 31
0.0
  0
ARC
  5
223
330
1F
100
AcDbEntity
  8
0
  6
Continuous
 62
     7
370
    25
100
AcDbCircle
 10
3838.2225156724
 20
649.5543978663
 30
0.0
 40
0.2000000000000455
100
AcDbArc
 50
0.0
 51
90.0
  0
ARC
  5
224
330
1F
100
AcDbEntity
  8
0
  6
Continuous
 62
     7
370
    25
100
AcDbCircle
 10
3837.4225156724
 20
628.7543978663
 30
0.0
 40
1.000000000000114
100
AcDbArc
 50
270.0
 51
0.0
  0
LINE
  5
225
330
1F
100
AcDbEntity
  8
0
  6
Continuous
 62
     7
370
    25
100
AcDbLine
 10
3837.4225156724
 20
627.9543978663
 30
0.0
 11
3837.4225156724
 21
627.7543978663
 31
0.0
  0
LINE
  5
226
330
1F
100
AcDbEntity
  8
0
  6
Continuous
 62
     7
370
    25
100
AcDbLine
 10
3824.1225156724
 20
629.7543978663
 30
0.0
 11
3824.3225156724
 21
629.5543978663
 31
0.0
  0
LINE
  5
227
330
1F
100
AcDbEntity
  8
0
  6
Continuous
 62
     7
370
    25
100
AcDbLine
 10
3824.1225156724
 20
616.7543978663
 30
0.0
 11
3824.3225156724
 21
616.5543978663
 31
0.0
  0
LINE
  5
228
330
1F
100
AcDbEntity
  8
0
  6
Continuous
 62
     7
370
    25
100
AcDbLine
 10
3837.4225156724
 20
627.7543978663
 30
0.0
 11
3827.0393294423
 21
627.7543978663
 31
0.0
  0
LINE
  5
229
330
1F
100
AcDbEntity
  8
0
  6
Continuous
 62
     7
370
    25
100
AcDbLine
 10
3827.0393294423
 20
627.9543978663
 30
0.0
 11
3827.0393294423
 21
627.7543978663
 31
0.0
  0
LINE
  5
22A
330
1F
100
AcDbEntity
  8
0
  6
Continuous
 62
     7
370
    25
100
AcDbLine
 10
3825.84384111
 20
626.8583577014
 30
0.0
 11
3826.0430891654
 21
626.8410310622
 31
0.0
  0
LINE
  5
22B
330
1F
100
AcDbEntity
  8
0
  6
Continuous
 62
     7
370
    25
100
AcDbLine
 10
3826.0430891654
 20
626.8410310622
 30
0.0
 11
3825.2019005468
 21
617.1677646704
 31
0.0
  0
LINE
  5
22C
330
1F
100
AcDbEntity
  8
0
  6
Continuous
 62
     7
370
    25
100
AcDbLine
 10
3825.0026524914
 20
617.1850913096
 30
0.0
 11
3825.2019005468
 21
617.1677646704
 31
0.0
  0
ARC
  5
22D
330
1F
100
AcDbEntity
  8
0
  6
Continuous
 62
     7
370
    25
100
AcDbCircle
 10
3827.0393294423
 20
626.7543978663
 30
0.0
 40
1.0
100
AcDbArc
 50
90.0
 51
175.0300534053
  0
LINE
  5
22E
330
1F
100
AcDbEntity
  8
0
  6
Continuous
 62
     7
370
    25
100
AcDbLine
 10
3824.0725675924
 20
616.4655465881
 30
0.0
 11
3824.039294423
 21
616.2683337685
 31
0.0
  0
ARC
  5
22F
330
1F
100
AcDbEntity
  8
0
  6
Continuous
 62
     7
370
    25
100
AcDbCircle
 10
3824.1224773464
 20
616.7613658174
 30
0.0
 40
0.5000000000001907
100
AcDbArc
 50
180.7984942261
 51
260.4234115189
  0
SPLINE
  5
230
330
1F
100
AcDbEntity
  8
0
  6
Continuous
 62
     7
370
    25
100
AcDbSpline
210
0.0
220
0.0
230
1.0
 70
     8
 71
     3
 72
    13
 73
     9
 74
     0
 42
0.00000001
 43
0.00000001
 40
0.0
 40
0.0
 40
0.0
 40
0.0
 40
0.0075029974113241
 40
0.3818974549655675
 40
0.6070018873266094
 40
0.7653769096339128
 40
0.8824605049806455
 40
0.9999999999999999
 40
0.9999999999999999
 40
0.9999999999999999
 40
0.9999999999999999
 10
3823.905303988905
 20
616.5543978663155
 30
0.0
 10
3823.904286212289
 20
616.5548358642108
 30
0.0
 10
3823.852482076151
 20
616.57712965858
 30
0.0
 10
3823.773896710783
 20
616.6240140467954
 30
0.0
 10
3823.691257246751
 20
616.6902984838318
 30
0.0
 10
3823.649161128652
 20
616.7285600430046
 30
0.0
 10
3823.626637701817
 20
616.7503158187396
 30
0.0
 10
3823.623898275702
 20
616.7530354222894
 30
0.0
 10
3823.622525901135
 20
616.7543978663155
 30
0.0
  0
ARC
  5
231
330
1F
100
AcDbEntity
  8
0
  6
Continuous
 62
     7
370
    25
100
AcDbCircle
 10
3824.2056602699
 20
617.2543978663
 30
0.0
 40
0.9999999999999509
100
AcDbArc
 50
260.4234115189
 51
355.0300534053
  0
LINE
  5
232
330
1F
100
AcDbEntity
  8
0
  6
Continuous
 62
     7
370
    25
100
AcDbLine
 10
4200.3725156724
 20
1988.7543978663
 30
0.0
 11
3860.8725156724
 21
1988.7543978663
 31
0.0
  0
LINE
  5
233
330
1F
100
AcDbEntity
  8
0
  6
Continuous
 62
     7
370
    25
100
AcDbLine
 10
3860.8725156724
 20
1988.7543978663
 30
0.0
 11
3860.8725156724
 21
2005.7543978663
 31
0.0
  0
LINE
  5
234
330
1F
100
AcDbEntity
  8
0
  6
Continuous
 62
     7
370
    25
100
AcDbLine
 10
4200.3725156724
 20
2005.7543978663
 30
0.0
 11
4200.3725156724
 21
1988.7543978663
 31
0.0
  0
LINE
  5
235
330
1F
100
AcDbEntity
  8
0
  6
Continuous
 62
     7
370
    25
100
AcDbLine
 10
3860.8725156724
 20
2005.7543978663
 30
0.0
 11
4200.3725156724
 21
2005.7543978663
 31
0.0
  0
LINE
  5
236
330
1F
100
AcDbEntity
  8
0
  6
Continuous
 62
     7
370
    25
100
AcDbLine
 10
4200.3725156724
 20
618.7543978663
 30
0.0
 11
3860.8725156724
 21
618.7543978663
 31
0.0
  0
LINE
  5
237
330
1F
100
AcDbEntity
  8
0
  6
Continuous
 62
     7
370
    25
100
AcDbLine
 10
3860.8725156724
 20
618.7543978663
 30
0.0
 11
3860.8725156724
 21
635.7543978663
 31
0.0
  0
LINE
  5
238
330
1F
100
AcDbEntity
  8
0
  6
Continuous
 62
     7
370
    25
100
AcDbLine
 10
4200.3725156724
 20
635.7543978663
 30
0.0
 11
4200.3725156724
 21
618.7543978663
 31
0.0
  0
LINE
  5
239
330
1F
100
AcDbEntity
  8
0
  6
Continuous
 62
     7
370
    25
100
AcDbLine
 10
3860.8725156724
 20
635.7543978663
 30
0.0
 11
4200.3725156724
 21
635.7543978663
 31
0.0
  0
LINE
  5
23A
330
1F
100
AcDbEntity
  8
0
  6
Continuous
 62
     7
370
    25
100
AcDbLine
 10
4200.3725156724
 20
1118.7543978663
 30
0.0
 11
3860.8725156724
 21
1118.7543978663
 31
0.0
  0
LINE
  5
23B
330
1F
100
AcDbEntity
  8
0
  6
Continuous
 62
     7
370
    25
100
AcDbLine
 10
3860.8725156724
 20
1118.7543978663
 30
0.0
 11
3860.8725156724
 21
1135.7543978663
 31
0.0
  0
LINE
  5
23C
330
1F
100
AcDbEntity
  8
0
  6
Continuous
 62
     7
370
    25
100
AcDbLine
 10
3860.8725156724
 20
1135.7543978663
 30
0.0
 11
4200.3725156724
 21
1135.7543978663
 31
0.0
  0
LINE
  5
23D
330
1F
100
AcDbEntity
  8
0
  6
Continuous
 62
     7
370
    25
100
AcDbLine
 10
4200.3725156724
 20
1135.7543978663
 30
0.0
 11
4200.3725156724
 21
1118.7543978663
 31
0.0
  0
SPLINE
  5
23E
330
1F
100
AcDbEntity
  8
0
  6
Continuous
 62
     7
370
    25
100
AcDbSpline
210
0.0
220
0.0
230
1.0
 70
    24
 71
     3
 72
    12
 73
     8
 74
     0
 42
0.00000001
 43
0.00000001
 40
0.0
 40
0.0
 40
0.0
 40
0.0
 40
0.2460973337403596
 40
0.492195565420453
 40
0.7383025770445389
 40
0.9844160040482502
 40
1.0
 40
1.0
 40
1.0
 40
1.0
 10
4220.828146424115
 20
2312.03366751602
 30
0.0
 10
4220.836375901116
 20
2311.71939646852
 30
0.0
 10
4220.852834885146
 20
2311.090853226832
 30
0.0
 10
4220.874150888255
 20
2310.27682790967
 30
0.0
 10
4220.887691151001
 20
2309.759746136921
 30
0.0
 10
4220.893610628084
 20
2309.533690427267
 30
0.0
 10
4220.892090397744
 20
2309.591745681679
 30
0.0
 10
4220.891999868526
 20
2309.595202853094
 30
0.0
  0
SPLINE
  5
23F
330
1F
100
AcDbEntity
  8
0
  6
Continuous
 62
     7
370
    25
100
AcDbSpline
210
0.0
220
0.0
230
1.0
 70
     8
 71
     3
 72
    11
 73
     7
 74
     0
 42
0.00000001
 43
0.00000001
 40
0.0
 40
0.0
 40
0.0
 40
0.0
 40
0.2382247349857165
 40
0.4921376904605879
 40
0.7460575595492281
 40
1.0
 40
1.0
 40
1.0
 40
1.0
 10
4220.764286695037
 20
2314.472372180756
 30
0.0
 10
4220.764959079341
 20
2314.446694861242
 30
0.0
 10
4220.76634812762
 20
2314.393649249821
 30
0.0
 10
4220.779885724855
 20
2313.876669251075
 30
0.0
 10
4220.79998631619
 20
2313.109058705213
 30
0.0
 10
4220.816369957581
 20
2312.483392512959
 30
0.0
 10
4220.824562142354
 20
2312.170545513321
 30
0.0
  0
LINE
  5
240
330
1F
100
AcDbEntity
  8
0
  6
Continuous
 62
     7
370
    25
100
AcDbLine
 10
4220.8245621424
 20
2312.1705455133
 30
0.0
 11
4220.8281464241
 21
2312.033667516
 31
0.0
  0
SPLINE
  5
241
330
1F
100
AcDbEntity
  8
0
  6
Continuous
 62
     7
370
    25
100
AcDbSpline
210
0.0
220
0.0
230
1.0
 70
    24
 71
     3
 72
    13
 73
     9
 74
     0
 42
0.00000001
 43
0.00000001
 40
0.0
 40
0.0
 40
0.0
 40
0.0
 40
0.1813201537912
 40
0.4101468448383498
 40
0.5438150184967394
 40
0.6886421238877362
 40
0.841996687412774
 40
0.9999999999999999
 40
0.9999999999999999
 40
0.9999999999999999
 40
0.9999999999999999
 10
4221.382795627874
 20
2329.054018988893
 30
0.0
 10
4221.358568754231
 20
2329.979205966937
 30
0.0
 10
4221.303767478272
 20
2332.071982263427
 30
0.0
 10
4221.23740724725
 20
2334.606177244865
 30
0.0
 10
4221.187436230696
 20
2336.514493376608
 30
0.0
 10
4221.154514141981
 20
2337.771737221539
 30
0.0
 10
4221.131231983255
 20
2338.660846992444
 30
0.0
 10
4221.127939789845
 20
2338.786570786442
 30
0.0
 10
4221.126269115988
 20
2338.850371247092
 30
0.0
  0
SPLINE
  5
242
330
1F
100
AcDbEntity
  8
0
  6
Continuous
 62
     7
370
    25
100
AcDbSpline
210
0.0
220
0.0
230
1.0
 70
    24
 71
     3
 72
    13
 73
     9
 74
     0
 42
0.00000001
 43
0.00000001
 40
0.0
 40
0.0
 40
0.0
 40
0.0
 40
0.1538581583653453
 40
0.3079676862454931
 40
0.4535077802387829
 40
0.5878340078349034
 40
0.8177872163817966
 40
1.0
 40
1.0
 40
1.0
 40
1.0
 10
4221.639096032835
 20
2319.266301405863
 30
0.0
 10
4221.637776556191
 20
2319.316690185956
 30
0.0
 10
4221.635135447177
 20
2319.417550070037
 30
0.0
 10
4221.612908661765
 20
2320.266356760092
 30
0.0
 10
4221.580740651469
 20
2321.494803512007
 30
0.0
 10
4221.531477719881
 20
2323.37607896988
 30
0.0
 10
4221.465658391142
 20
2325.889617726509
 30
0.0
 10
4221.410933327994
 20
2327.979483573096
 30
0.0
 10
4221.38674014787
 20
2328.903383847582
 30
0.0
  0
LINE
  5
243
330
1F
100
AcDbEntity
  8
0
  6
Continuous
 62
     7
370
    25
100
AcDbLine
 10
4223.7844466987
 20
2329.0223848582
 30
0.0
 11
4223.9047475903
 21
2324.4282791568
 31
0.0
  0
LINE
  5
244
330
1F
100
AcDbEntity
  8
0
  6
Continuous
 62
     7
370
    25
100
AcDbLine
 10
4223.6591988253
 20
2333.8054081729
 30
0.0
 11
4223.7819732078
 21
2329.1168436648
 31
0.0
  0
SPLINE
  5
245
330
1F
100
AcDbEntity
  8
0
  6
Continuous
 62
     7
370
    25
100
AcDbSpline
210
0.0
220
0.0
230
1.0
 70
     8
 71
     3
 72
    11
 73
     7
 74
     0
 42
0.00000001
 43
0.00000001
 40
0.0
 40
0.0
 40
0.0
 40
0.0
 40
0.2702602051674837
 40
0.5624283659894829
 40
0.7897359586731689
 40
1.0
 40
1.0
 40
1.0
 40
1.0
 10
4221.37849604375
 20
2329.218213482252
 30
0.0
 10
4221.369746636037
 20
2329.215656025571
 30
0.0
 10
4221.351538572146
 20
2329.210333798492
 30
0.0
 10
4221.21648029974
 20
2329.201285824108
 30
0.0
 10
4221.048418110207
 20
2329.193677152436
 30
0.0
 10
4220.934052746316
 20
2329.190318953106
 30
0.0
 10
4220.879097347632
 20
2329.188705254896
 30
0.0
  0
LINE
  5
246
330
1F
100
AcDbEntity
  8
0
  6
Continuous
 62
     7
370
    25
100
AcDbLine
 10
3839.3225156724
 20
2364.0543978663
 30
0.0
 11
3839.3225156724
 21
2365.2543978663
 31
0.0
  0
LINE
  5
247
330
1F
100
AcDbEntity
  8
0
  6
Continuous
 62
     7
370
    25
100
AcDbLine
 10
3839.3225156724
 20
2364.0543978663
 30
0.0
 11
3840.1225156724
 21
2364.0543978663
 31
0.0
  0
LINE
  5
248
330
1F
100
AcDbEntity
  8
0
  6
Continuous
 62
     7
370
    25
100
AcDbLine
 10
3839.3225156724
 20
2365.2543978663
 30
0.0
 11
3840.1225156724
 21
2365.2543978663
 31
0.0
  0
LINE
  5
249
330
1F
100
AcDbEntity
  8
0
  6
Continuous
 62
     7
370
    25
100
AcDbLine
 10
3838.1225156724
 20
2364.0543978663
 30
0.0
 11
3839.3225156724
 21
2364.0543978663
 31
0.0
  0
LINE
  5
24A
330
1F
100
AcDbEntity
  8
0
  6
Continuous
 62
     7
370
    25
100
AcDbLine
 10
3838.1225156724
 20
2365.2543978663
 30
0.0
 11
3839.3225156724
 21
2365.2543978663
 31
0.0
  0
LINE
  5
24B
330
1F
100
AcDbEntity
  8
0
  6
Continuous
 62
     7
370
    25
100
AcDbLine
 10
3839.3225156724
 20
2346.2543978663
 30
0.0
 11
3839.3225156724
 21
2364.0543978663
 31
0.0
  0
LINE
  5
24C
330
1F
100
AcDbEntity
  8
0
  6
Continuous
 62
     7
370
    25
100
AcDbLine
 10
3838.1225156724
 20
2346.2543978663
 30
0.0
 11
3839.3225156724
 21
2346.2543978663
 31
0.0
  0
LINE
  5
24D
330
1F
100
AcDbEntity
  8
0
  6
Continuous
 62
     7
370
    25
100
AcDbLine
 10
3839.3225156724
 20
2343.2543978663
 30
0.0
 11
3838.1225156724
 21
2343.2543978663
 31
0.0
  0
LINE
  5
24E
330
1F
100
AcDbEntity
  8
0
  6
Continuous
 62
     7
370
    25
100
AcDbLine
 10
3839.3225156724
 20
2346.2543978663
 30
0.0
 11
3839.3225156724
 21
2343.2543978663
 31
0.0
  0
SPLINE
  5
24F
330
1F
100
AcDbEntity
  8
0
  6
Continuous
 62
     7
370
    25
100
AcDbSpline
210
0.0
220
0.0
230
1.0
 70
    24
 71
     3
 72
    11
 73
     7
 74
     0
 42
0.00000001
 43
0.00000001
 40
0.0
 40
0.0
 40
0.0
 40
0.0
 40
0.0916613905636525
 40
0.430426478684218
 40
0.7687469921334986
 40
1.0
 40
1.0
 40
1.0
 40
1.0
 10
3839.322515672368
 20
2345.254397866311
 30
0.0
 10
3839.355581504846
 20
2345.254397866311
 30
0.0
 10
3839.510853094671
 20
2345.25439786631
 30
0.0
 10
3839.742393292372
 20
2345.254397866312
 30
0.0
 10
3839.984905319969
 20
2345.25439786631
 30
0.0
 10
3840.082778217689
 20
2345.25439786631
 30
0.0
 10
3840.122515672362
 20
2345.254397866311
 30
0.0
  0
SPLINE
  5
250
330
1F
100
AcDbEntity
  8
0
  6
Continuous
 62
     7
370
    25
100
AcDbSpline
210
0.0
220
0.0
230
1.0
 70
    24
 71
     3
 72
    12
 73
     8
 74
     0
 42
0.00000001
 43
0.00000001
 40
0.0
 40
0.0
 40
0.0
 40
0.0
 40
0.1234882189617472
 40
0.3047574776072687
 40
0.4857888495162534
 40
0.667058215398437
 40
1.0
 40
1.0
 40
1.0
 40
1.0
 10
3840.122515672362
 20
668.254397866312
 30
0.0
 10
3840.082769103326
 20
668.254397866312
 30
0.0
 10
3839.984678255267
 20
668.254397866312
 30
0.0
 10
3839.744704966906
 20
668.254397866312
 30
0.0
 10
3839.429090778412
 20
668.254397866312
 30
0.0
 10
3838.96218068931
 20
668.254397866312
 30
0.0
 10
3838.573912089072
 20
668.2543978663123
 30
0.0
 10
3838.322515672354
 20
668.2543978663125
 30
0.0
  0
LINE
  5
251
330
1F
100
AcDbEntity
  8
0
  6
Continuous
 62
     7
370
    25
100
AcDbLine
 10
3838.3225156724
 20
669.2543978663
 30
0.0
 11
3838.3225156724
 21
668.2543978663
 31
0.0
  0
LINE
  5
252
330
1F
100
AcDbEntity
  8
0
  6
Continuous
 62
     7
370
    25
100
AcDbLine
 10
3838.1225156724
 20
669.2543978663
 30
0.0
 11
3838.3225156724
 21
669.2543978663
 31
0.0
  0
LINE
  5
253
330
1F
100
AcDbEntity
  8
0
  6
Continuous
 62
     7
370
    25
100
AcDbLine
 10
3838.1225156724
 20
668.2543978663
 30
0.0
 11
3838.3225156724
 21
668.2543978663
 31
0.0
  0
SPLINE
  5
254
330
1F
100
AcDbEntity
  8
0
  6
Continuous
 62
     7
370
    25
100
AcDbSpline
210
0.0
220
0.0
230
1.0
 70
    24
 71
     3
 72
    12
 73
     8
 74
     0
 42
0.00000001
 43
0.00000001
 40
0.0
 40
0.0
 40
0.0
 40
0.0
 40
0.1234882189617956
 40
0.3047574776073074
 40
0.4857888495162822
 40
0.6670582153984544
 40
1.0
 40
1.0
 40
1.0
 40
1.0
 10
3840.122515672362
 20
1388.254397866312
 30
0.0
 10
3840.082769103326
 20
1388.254397866312
 30
0.0
 10
3839.984678255267
 20
1388.254397866312
 30
0.0
 10
3839.744704966906
 20
1388.254397866312
 30
0.0
 10
3839.429090778412
 20
1388.254397866312
 30
0.0
 10
3838.96218068931
 20
1388.254397866312
 30
0.0
 10
3838.573912089072
 20
1388.254397866312
 30
0.0
 10
3838.322515672354
 20
1388.254397866313
 30
0.0
  0
LINE
  5
255
330
1F
100
AcDbEntity
  8
0
  6
Continuous
 62
     7
370
    25
100
AcDbLine
 10
3838.3225156724
 20
1389.2543978663
 30
0.0
 11
3838.3225156724
 21
1388.2543978663
 31
0.0
  0
LINE
  5
256
330
1F
100
AcDbEntity
  8
0
  6
Continuous
 62
     7
370
    25
100
AcDbLine
 10
3838.3225156724
 20
1445.2543978663
 30
0.0
 11
3838.3225156724
 21
1444.2543978663
 31
0.0
  0
SPLINE
  5
257
330
1F
100
AcDbEntity
  8
0
  6
Continuous
 62
     7
370
    25
100
AcDbSpline
210
0.0
220
0.0
230
1.0
 70
    24
 71
     3
 72
    12
 73
     8
 74
     0
 42
0.00000001
 43
0.00000001
 40
0.0
 40
0.0
 40
0.0
 40
0.0
 40
0.3329369653766872
 40
0.5139656098173256
 40
0.6952322446484548
 40
0.8762609961869375
 40
1.0
 40
1.0
 40
1.0
 40
1.0
 10
3838.322515672358
 20
1445.254397866311
 30
0.0
 10
3838.573913085501
 20
1445.254397866311
 30
0.0
 10
3838.962003439501
 20
1445.254397866311
 30
0.0
 10
3839.428932709176
 20
1445.254397866311
 30
0.0
 10
3839.744451598197
 20
1445.254397866311
 30
0.0
 10
3839.984575816709
 20
1445.254397866311
 30
0.0
 10
3840.082683067719
 20
1445.254397866311
 30
0.0
 10
3840.122515672362
 20
1445.254397866311
 30
0.0
  0
LINE
  5
258
330
1F
100
AcDbEntity
  8
0
  6
Continuous
 62
     7
370
    25
100
AcDbLine
 10
3838.3225156724
 20
1389.2543978663
 30
0.0
 11
3838.3225156724
 21
1444.2543978663
 31
0.0
  0
LINE
  5
259
330
1F
100
AcDbEntity
  8
0
  6
Continuous
 62
     7
370
    25
100
AcDbLine
 10
3838.1225156724
 20
1388.2543978663
 30
0.0
 11
3838.3225156724
 21
1388.2543978663
 31
0.0
  0
LINE
  5
25A
330
1F
100
AcDbEntity
  8
0
  6
Continuous
 62
     7
370
    25
100
AcDbLine
 10
3838.1225156724
 20
1389.2543978663
 30
0.0
 11
3838.3225156724
 21
1389.2543978663
 31
0.0
  0
LINE
  5
25B
330
1F
100
AcDbEntity
  8
0
  6
Continuous
 62
     7
370
    25
100
AcDbLine
 10
3838.1225156724
 20
1444.2543978663
 30
0.0
 11
3838.3225156724
 21
1444.2543978663
 31
0.0
  0
LINE
  5
25C
330
1F
100
AcDbEntity
  8
0
  6
Continuous
 62
     7
370
    25
100
AcDbLine
 10
3838.3225156724
 20
1445.2543978663
 30
0.0
 11
3838.1225156724
 21
1445.2543978663
 31
0.0
  0
SPLINE
  5
25D
330
1F
100
AcDbEntity
  8
0
  6
Continuous
 62
     7
370
    25
100
AcDbSpline
210
0.0
220
0.0
230
1.0
 70
    24
 71
     3
 72
    12
 73
     8
 74
     0
 42
0.00000001
 43
0.00000001
 40
0.0
 40
0.0
 40
0.0
 40
0.0
 40
0.1234882189617471
 40
0.3047574776072708
 40
0.4857888495162553
 40
0.6670582153984372
 40
0.9999999999999999
 40
0.9999999999999999
 40
0.9999999999999999
 40
0.9999999999999999
 10
3840.122515672362
 20
1918.254397866312
 30
0.0
 10
3840.082769103326
 20
1918.254397866312
 30
0.0
 10
3839.984678255267
 20
1918.254397866312
 30
0.0
 10
3839.744704966906
 20
1918.254397866312
 30
0.0
 10
3839.429090778412
 20
1918.254397866312
 30
0.0
 10
3838.96218068931
 20
1918.254397866312
 30
0.0
 10
3838.573912089072
 20
1918.254397866313
 30
0.0
 10
3838.322515672354
 20
1918.254397866313
 30
0.0
  0
LINE
  5
25E
330
1F
100
AcDbEntity
  8
0
  6
Continuous
 62
     7
370
    25
100
AcDbLine
 10
3838.3225156724
 20
1919.2543978663
 30
0.0
 11
3838.3225156724
 21
1918.2543978663
 31
0.0
  0
LINE
  5
25F
330
1F
100
AcDbEntity
  8
0
  6
Continuous
 62
     7
370
    25
100
AcDbLine
 10
3838.3225156724
 20
1975.2543978663
 30
0.0
 11
3838.3225156724
 21
1974.2543978663
 31
0.0
  0
SPLINE
  5
260
330
1F
100
AcDbEntity
  8
0
  6
Continuous
 62
     7
370
    25
100
AcDbSpline
210
0.0
220
0.0
230
1.0
 70
    24
 71
     3
 72
    12
 73
     8
 74
     0
 42
0.00000001
 43
0.00000001
 40
0.0
 40
0.0
 40
0.0
 40
0.0
 40
0.3329369653767249
 40
0.5139656098173474
 40
0.6952322446484839
 40
0.8762609961869765
 40
0.9999999999999999
 40
0.9999999999999999
 40
0.9999999999999999
 40
0.9999999999999999
 10
3838.322515672358
 20
1975.254397866311
 30
0.0
 10
3838.573913085501
 20
1975.254397866311
 30
0.0
 10
3838.962003439501
 20
1975.254397866311
 30
0.0
 10
3839.428932709176
 20
1975.254397866311
 30
0.0
 10
3839.744451598197
 20
1975.254397866311
 30
0.0
 10
3839.984575816709
 20
1975.254397866312
 30
0.0
 10
3840.08268306772
 20
1975.254397866311
 30
0.0
 10
3840.122515672362
 20
1975.254397866311
 30
0.0
  0
LINE
  5
261
330
1F
100
AcDbEntity
  8
0
  6
Continuous
 62
     7
370
    25
100
AcDbLine
 10
3838.3225156724
 20
1919.2543978663
 30
0.0
 11
3838.3225156724
 21
1974.2543978663
 31
0.0
  0
LINE
  5
262
330
1F
100
AcDbEntity
  8
0
  6
Continuous
 62
     7
370
    25
100
AcDbLine
 10
3838.1225156724
 20
1974.2543978663
 30
0.0
 11
3838.3225156724
 21
1974.2543978663
 31
0.0
  0
LINE
  5
263
330
1F
100
AcDbEntity
  8
0
  6
Continuous
 62
     7
370
    25
100
AcDbLine
 10
3838.1225156724
 20
1919.2543978663
 30
0.0
 11
3838.3225156724
 21
1919.2543978663
 31
0.0
  0
LINE
  5
264
330
1F
100
AcDbEntity
  8
0
  6
Continuous
 62
     7
370
    25
100
AcDbLine
 10
3838.1225156724
 20
1918.2543978663
 30
0.0
 11
3838.3225156724
 21
1918.2543978663
 31
0.0
  0
LINE
  5
265
330
1F
100
AcDbEntity
  8
0
  6
Continuous
 62
     7
370
    25
100
AcDbLine
 10
3838.3225156724
 20
1975.2543978663
 30
0.0
 11
3838.1225156724
 21
1975.2543978663
 31
0.0
  0
LINE
  5
266
330
1F
100
AcDbEntity
  8
0
  6
Continuous
 62
     7
370
    25
100
AcDbLine
 10
4220.6002358345
 20
2309.2767567878
 30
0.0
 11
4220.4562626188
 21
2314.7748720752
 31
0.0
  0
LINE
  5
267
330
1F
100
AcDbEntity
  8
0
  6
Continuous
 62
     7
370
    25
100
AcDbLine
 10
4221.5905608759
 20
2328.7600942736
 30
0.0
 11
4221.8444965759
 21
2319.0626811288
 31
0.0
  0
LINE
  5
268
330
1F
100
AcDbEntity
  8
0
  6
Continuous
 62
     7
370
    25
100
AcDbLine
 10
4222.5946873533
 20
2319.0823255657
 30
0.0
 11
4222.0711483871
 21
2339.0754720652
 31
0.0
  0
LINE
  5
269
330
1F
100
AcDbEntity
  8
0
  6
Continuous
 62
     7
370
    25
100
AcDbLine
 10
4223.2948469519
 20
2338.0117271317
 30
0.0
 11
4223.7610367734
 21
2320.2086561083
 31
0.0
  0
LINE
  5
26A
330
1F
100
AcDbEntity
  8
0
  6
Continuous
 62
     7
370
    25
100
AcDbLine
 10
4223.8590717937
 20
2321.8115145215
 30
0.0
 11
4223.4766347464
 21
2336.4161961367
 31
0.0
  0
LINE
  5
26B
330
1F
100
AcDbEntity
  8
0
  6
Continuous
 62
     7
370
    25
100
AcDbLine
 10
4221.0007621351
 20
2324.5425144716
 30
0.0
 11
4220.8790973475
 21
2329.1887052587
 31
0.0
  0
LINE
  5
26C
330
1F
100
AcDbEntity
  8
0
  6
Continuous
 62
     7
370
    25
100
AcDbLine
 10
4220.8790973475
 20
2329.1887052587
 30
0.0
 11
4220.7651717957
 21
2333.5393465579
 31
0.0
  0
LINE
  5
26D
330
1F
100
AcDbEntity
  8
0
  6
Continuous
 62
     7
370
    25
100
AcDbLine
 10
3840.1225156724
 20
2344.2543978663
 30
0.0
 11
3839.3225156724
 21
2344.2543978663
 31
0.0
  0
LINE
  5
26E
330
1F
100
AcDbEntity
  8
0
  6
Continuous
 62
     7
370
    25
100
AcDbLine
 10
3838.3225156724
 20
2312.7543978663
 30
0.0
 11
3838.3225156724
 21
2343.2543978663
 31
0.0
  0
LINE
  5
26F
330
1F
100
AcDbEntity
  8
0
  6
Continuous
 62
     7
370
    25
100
AcDbLine
 10
3838.3225156724
 20
669.2543978663
 30
0.0
 11
3840.1225156724
 21
669.2543978663
 31
0.0
  0
LINE
  5
270
330
1F
100
AcDbEntity
  8
0
  6
Continuous
 62
     7
370
    25
100
AcDbLine
 10
3838.3225156724
 20
669.2543978663
 30
0.0
 11
3838.3225156724
 21
722.7543978663
 31
0.0
  0
LINE
  5
271
330
1F
100
AcDbEntity
  8
0
  6
Continuous
 62
     7
370
    25
100
AcDbLine
 10
3838.3225156724
 20
1389.2543978663
 30
0.0
 11
3840.1225156724
 21
1389.2543978663
 31
0.0
  0
LINE
  5
272
330
1F
100
AcDbEntity
  8
0
  6
Continuous
 62
     7
370
    25
100
AcDbLine
 10
3840.1225156724
 20
1444.2543978663
 30
0.0
 11
3838.3225156724
 21
1444.2543978663
 31
0.0
  0
LINE
  5
273
330
1F
100
AcDbEntity
  8
0
  6
Continuous
 62
     7
370
    25
100
AcDbLine
 10
3838.3225156724
 20
1919.2543978663
 30
0.0
 11
3840.1225156724
 21
1919.2543978663
 31
0.0
  0
LINE
  5
274
330
1F
100
AcDbEntity
  8
0
  6
Continuous
 62
     7
370
    25
100
AcDbLine
 10
3840.1225156724
 20
1974.2543978663
 30
0.0
 11
3838.3225156724
 21
1974.2543978663
 31
0.0
  0
SPLINE
  5
275
330
1F
100
AcDbEntity
  8
0
  6
Continuous
 62
     7
370
    25
100
AcDbSpline
210
0.0
220
0.0
230
1.0
 70
     8
 71
     3
 72
    16
 73
    12
 74
     0
 42
0.00000001
 43
0.00000001
 40
0.0
 40
0.0
 40
0.0
 40
0.0
 40
0.049084739019293
 40
0.1518473045648689
 40
0.2358684990991587
 40
0.3090519161652059
 40
0.3734786142105698
 40
0.4370328180322403
 40
0.5258016248245931
 40
0.7068629655464287
 40
1.0
 40
1.0
 40
1.0
 40
1.0
 10
2321.425074168691
 20
3107.982522916339
 30
0.0
 10
2321.429765765425
 20
3108.04871330856
 30
0.0
 10
2321.444279570174
 20
3108.253478228325
 30
0.0
 10
2321.317101818803
 20
3108.557694887972
 30
0.0
 10
2321.112885409276
 20
3108.833758526992
 30
0.0
 10
2320.89187380341
 20
3109.007097001631
 30
0.0
 10
2320.700107235668
 20
3109.104101014134
 30
0.0
 10
2320.542893347485
 20
3109.15817437949
 30
0.0
 10
2320.377542172432
 20
3109.196807200862
 30
0.0
 10
2320.181828237505
 20
3109.226544086381
 30
0.0
 10
2319.954213845397
 20
3109.243759755653
 30
0.0
 10
2319.813508580692
 20
3109.254402032179
 30
0.0
  0
SPLINE
  5
276
330
1F
100
AcDbEntity
  8
0
  6
Continuous
 62
     7
370
    25
100
AcDbSpline
210
0.0
220
0.0
230
1.0
 70
     8
 71
     3
 72
    15
 73
    11
 74
     0
 42
0.00000001
 43
0.00000001
 40
0.0
 40
0.0
 40
0.0
 40
0.0
 40
0.0366146332908943
 40
0.4586206584971904
 40
0.6039592141587511
 40
0.6771237587644336
 40
0.7596633924487632
 40
0.8571328939030818
 40
0.9634171087776173
 40
1.0
 40
1.0
 40
1.0
 40
1.0
 10
2303.095706343197
 20
3109.257096001326
 30
0.0
 10
2303.073357319819
 20
3109.255823552656
 30
0.0
 10
2302.793422143708
 20
3109.239885355422
 30
0.0
 10
2302.637947923148
 20
3109.21883325616
 30
0.0
 10
2302.326115586843
 20
3109.158689292455
 30
0.0
 10
2302.053551867006
 20
3109.042171305241
 30
0.0
 10
2301.789122930568
 20
3108.852245044214
 30
0.0
 10
2301.56097497194
 20
3108.539748887471
 30
0.0
 10
2301.436909000237
 20
3108.2177839082
 30
0.0
 10
2301.458389606725
 20
3108.0224700865
 30
0.0
 10
2301.463889981948
 20
3107.972457564453
 30
0.0
  0
LINE
  5
277
330
1F
100
AcDbEntity
  8
0
  6
Continuous
 62
     7
370
    25
100
AcDbLine
 10
2321.4454585654
 20
3107.2318663251
 30
0.0
 11
2321.4454585654
 21
3107.9820571024
 31
0.0
  0
LINE
  5
278
330
1F
100
AcDbEntity
  8
0
  6
Continuous
 62
     7
370
    25
100
AcDbLine
 10
2301.4454585654
 20
3107.9820571024
 30
0.0
 11
2301.4454585654
 21
3107.2318663251
 31
0.0
  0
LINE
  5
279
330
1F
100
AcDbEntity
  8
0
  6
Continuous
 62
     7
370
    25
100
AcDbLine
 10
2319.94183279
 20
3109.2468479058
 30
0.0
 11
2318.4154268518
 21
3109.3742254403
 31
0.0
  0
LINE
  5
27A
330
1F
100
AcDbEntity
  8
0
  6
Continuous
 62
     7
370
    25
100
AcDbLine
 10
2304.475490279
 20
3109.3742254403
 30
0.0
 11
2302.9490843408
 21
3109.2468479058
 31
0.0
  0
SPLINE
  5
27B
330
1F
100
AcDbEntity
  8
0
  6
Continuous
 62
     7
370
    25
100
AcDbSpline
210
0.0
220
0.0
230
1.0
 70
     8
 71
     3
 72
    14
 73
    10
 74
     0
 42
0.00000001
 43
0.00000001
 40
0.0
 40
0.0
 40
0.0
 40
0.0
 40
0.0907475556427131
 40
0.2288563839001559
 40
0.412853054246469
 40
0.607142000433181
 40
0.7878282318391898
 40
0.9626611221742524
 40
0.9999999999999999
 40
0.9999999999999999
 40
0.9999999999999999
 40
0.9999999999999999
 10
2318.325460923746
 20
3109.379327213128
 30
0.0
 10
2318.113909756898
 20
3109.396159746676
 30
0.0
 10
2317.580398581729
 20
3109.438609735907
 30
0.0
 10
2316.71991294118
 20
3109.480570026118
 30
0.0
 10
2315.670112580998
 20
3109.517502171336
 30
0.0
 10
2314.435496063475
 20
3109.543227737958
 30
0.0
 10
2313.098989846273
 20
3109.559073656593
 30
0.0
 10
2312.088959722685
 20
3109.563885326831
 30
0.0
 10
2311.54175750685
 20
3109.564124910328
 30
0.0
 10
2311.445458565383
 20
3109.564167073236
 30
0.0
  0
SPLINE
  5
27C
330
1F
100
AcDbEntity
  8
0
  6
Continuous
 62
     7
370
    25
100
AcDbSpline
210
0.0
220
0.0
230
1.0
 70
     8
 71
     3
 72
    13
 73
     9
 74
     0
 42
0.00000001
 43
0.00000001
 40
0.0
 40
0.0
 40
0.0
 40
0.0
 40
0.0971790056424311
 40
0.2845710337030761
 40
0.4775192778489954
 40
0.6890792027699887
 40
0.877162524324209
 40
1.0
 40
1.0
 40
1.0
 40
1.0
 10
2311.445458565383
 20
3109.564167073236
 30
0.0
 10
2311.198437493673
 20
3109.56390530436
 30
0.0
 10
2310.475081237267
 20
3109.563138761841
 30
0.0
 10
2309.28248282514
 20
3109.554264289777
 30
0.0
 10
2307.912409207485
 20
3109.534024945508
 30
0.0
 10
2306.678104082225
 20
3109.500007999585
 30
0.0
 10
2305.648335398533
 20
3109.460504786339
 30
0.0
 10
2304.941932094439
 20
3109.406884625935
 30
0.0
 10
2304.662848805521
 20
3109.385700564887
 30
0.0
  0
LINE
  5
27D
330
1F
100
AcDbEntity
  8
0
  6
Continuous
 62
     7
370
    25
100
AcDbLine
 10
2315.9454585654
 20
3104.2716549046
 30
0.0
 11
2315.9454585654
 21
3106.5321061976
 31
0.0
  0
LINE
  5
27E
330
1F
100
AcDbEntity
  8
0
  6
Continuous
 62
     7
370
    25
100
AcDbLine
 10
2306.9454585654
 20
3106.5321061976
 30
0.0
 11
2306.9454585654
 21
3104.2716549046
 31
0.0
  0
SPLINE
  5
27F
330
1F
100
AcDbEntity
  8
0
  6
Continuous
 62
     7
370
    25
100
AcDbSpline
210
0.0
220
0.0
230
1.0
 70
     8
 71
     3
 72
    16
 73
    12
 74
     0
 42
0.00000001
 43
0.00000001
 40
0.0
 40
0.0
 40
0.0
 40
0.0
 40
0.0490847390192387
 40
0.1518473045648581
 40
0.2358684990991697
 40
0.3090519161652419
 40
0.3734786142106215
 40
0.437032818032263
 40
0.5258016248246279
 40
0.706862965546443
 40
1.0
 40
1.0
 40
1.0
 40
1.0
 10
2585.925074168687
 20
3107.982522916335
 30
0.0
 10
2585.929765765422
 20
3108.048713308557
 30
0.0
 10
2585.94427957017
 20
3108.253478228322
 30
0.0
 10
2585.817101818799
 20
3108.557694887968
 30
0.0
 10
2585.612885409272
 20
3108.833758526989
 30
0.0
 10
2585.391873803407
 20
3109.007097001627
 30
0.0
 10
2585.200107235665
 20
3109.10410101413
 30
0.0
 10
2585.042893347481
 20
3109.158174379487
 30
0.0
 10
2584.877542172428
 20
3109.196807200858
 30
0.0
 10
2584.681828237501
 20
3109.226544086378
 30
0.0
 10
2584.454213845394
 20
3109.24375975565
 30
0.0
 10
2584.313508580689
 20
3109.254402032175
 30
0.0
  0
SPLINE
  5
280
330
1F
100
AcDbEntity
  8
0
  6
Continuous
 62
     7
370
    25
100
AcDbSpline
210
0.0
220
0.0
230
1.0
 70
     8
 71
     3
 72
    14
 73
    10
 74
     0
 42
0.00000001
 43
0.00000001
 40
0.0
 40
0.0
 40
0.0
 40
0.0
 40
0.4380448777708267
 40
0.5889072021156845
 40
0.6648524542795314
 40
0.7505291071918359
 40
0.8517030556682056
 40
0.9620267314757254
 40
1.0
 40
1.0
 40
1.0
 40
1.0
 10
2567.529691039099
 20
3109.253278350248
 30
0.0
 10
2567.357587419219
 20
3109.238587326929
 30
0.0
 10
2567.12621144292
 20
3109.2188367263
 30
0.0
 10
2566.826901395467
 20
3109.15868906011
 30
0.0
 10
2566.553382146923
 20
3109.042171355419
 30
0.0
 10
2566.289180317139
 20
3108.852245027242
 30
0.0
 10
2566.060956382545
 20
3108.539748892964
 30
0.0
 10
2565.936910392515
 20
3108.217783907785
 30
0.0
 10
2565.958389890554
 20
3108.022470086412
 30
0.0
 10
2565.963889981945
 20
3107.972457564449
 30
0.0
  0
LINE
  5
281
330
1F
100
AcDbEntity
  8
0
  6
Continuous
 62
     7
370
    25
100
AcDbLine
 10
2585.9454585654
 20
3107.2318663251
 30
0.0
 11
2585.9454585654
 21
3107.9820571024
 31
0.0
  0
LINE
  5
282
330
1F
100
AcDbEntity
  8
0
  6
Continuous
 62
     7
370
    25
100
AcDbLine
 10
2565.9454585654
 20
3107.9820571024
 30
0.0
 11
2565.9454585654
 21
3107.2318663251
 31
0.0
  0
LINE
  5
283
330
1F
100
AcDbEntity
  8
0
  6
Continuous
 62
     7
370
    25
100
AcDbLine
 10
2584.44183279
 20
3109.2468479058
 30
0.0
 11
2582.9154268517
 21
3109.3742254403
 31
0.0
  0
LINE
  5
284
330
1F
100
AcDbEntity
  8
0
  6
Continuous
 62
     7
370
    25
100
AcDbLine
 10
2568.975490279
 20
3109.3742254403
 30
0.0
 11
2567.4490843408
 21
3109.2468479058
 31
0.0
  0
SPLINE
  5
285
330
1F
100
AcDbEntity
  8
0
  6
Continuous
 62
     7
370
    25
100
AcDbSpline
210
0.0
220
0.0
230
1.0
 70
     8
 71
     3
 72
    14
 73
    10
 74
     0
 42
0.00000001
 43
0.00000001
 40
0.0
 40
0.0
 40
0.0
 40
0.0
 40
0.0907475556428161
 40
0.2288563839002629
 40
0.4128530542466557
 40
0.6071420004333611
 40
0.7878282318393554
 40
0.9626611221744104
 40
1.0
 40
1.0
 40
1.0
 40
1.0
 10
2582.825460923743
 20
3109.379327213124
 30
0.0
 10
2582.613909756895
 20
3109.396159746673
 30
0.0
 10
2582.080398581725
 20
3109.438609735904
 30
0.0
 10
2581.219912941175
 20
3109.480570026115
 30
0.0
 10
2580.170112580993
 20
3109.517502171333
 30
0.0
 10
2578.93549606347
 20
3109.543227737955
 30
0.0
 10
2577.598989846268
 20
3109.559073656589
 30
0.0
 10
2576.588959722681
 20
3109.563885326828
 30
0.0
 10
2576.041757506846
 20
3109.564124910324
 30
0.0
 10
2575.945458565379
 20
3109.564167073233
 30
0.0
  0
SPLINE
  5
286
330
1F
100
AcDbEntity
  8
0
  6
Continuous
 62
     7
370
    25
100
AcDbSpline
210
0.0
220
0.0
230
1.0
 70
     8
 71
     3
 72
    13
 73
     9
 74
     0
 42
0.00000001
 43
0.00000001
 40
0.0
 40
0.0
 40
0.0
 40
0.0
 40
0.0971790056424306
 40
0.284571033703078
 40
0.4775192778489946
 40
0.6890792027699846
 40
0.8771625243242046
 40
1.0
 40
1.0
 40
1.0
 40
1.0
 10
2575.945458565379
 20
3109.564167073233
 30
0.0
 10
2575.698437493669
 20
3109.563905304357
 30
0.0
 10
2574.975081237263
 20
3109.563138761838
 30
0.0
 10
2573.782482825136
 20
3109.554264289774
 30
0.0
 10
2572.412409207481
 20
3109.534024945504
 30
0.0
 10
2571.178104082221
 20
3109.500007999581
 30
0.0
 10
2570.14833539853
 20
3109.460504786336
 30
0.0
 10
2569.441932094436
 20
3109.406884625931
 30
0.0
 10
2569.162848805517
 20
3109.385700564883
 30
0.0
  0
LINE
  5
287
330
1F
100
AcDbEntity
  8
0
  6
Continuous
 62
     7
370
    25
100
AcDbLine
 10
2580.4454585654
 20
3104.2716549046
 30
0.0
 11
2580.4454585654
 21
3106.5321061976
 31
0.0
  0
LINE
  5
288
330
1F
100
AcDbEntity
  8
0
  6
Continuous
 62
     7
370
    25
100
AcDbLine
 10
2571.4454585654
 20
3106.5321061976
 30
0.0
 11
2571.4454585654
 21
3104.2716549046
 31
0.0
  0
LINE
  5
289
330
1F
100
AcDbEntity
  8
0
  6
Continuous
 62
     7
370
    25
100
AcDbLine
 10
2724.9454585654
 20
3104.2716549046
 30
0.0
 11
2724.9454585654
 21
2725.2716549046
 31
0.0
  0
LINE
  5
28A
330
1F
100
AcDbEntity
  8
0
  6
Continuous
 62
     7
370
    25
100
AcDbLine
 10
2724.9454585654
 20
2725.2716549046
 30
0.0
 11
2274.4454585654
 21
2725.2716549046
 31
0.0
  0
LINE
  5
28B
330
1F
100
AcDbEntity
  8
0
  6
Continuous
 62
     7
370
    25
100
AcDbLine
 10
2274.4454585654
 20
3104.2716549046
 30
0.0
 11
2274.4454585654
 21
2725.2716549046
 31
0.0
  0
LINE
  5
28C
330
1F
100
AcDbEntity
  8
0
  6
Continuous
 62
     7
370
    25
100
AcDbLine
 10
2724.9454585654
 20
3104.2716549046
 30
0.0
 11
2274.4454585654
 21
3104.2716549046
 31
0.0
  0
LINE
  5
28D
330
1F
100
AcDbEntity
  8
0
  6
Continuous
 62
     7
370
    25
100
AcDbLine
 10
2722.9454585654
 20
2705.7716549046
 30
0.0
 11
2722.9454585654
 21
2723.7716549046
 31
0.0
  0
LINE
  5
28E
330
1F
100
AcDbEntity
  8
0
  6
Continuous
 62
     7
370
    25
100
AcDbLine
 10
2722.9454585654
 20
2705.7716549046
 30
0.0
 11
2276.9454585654
 21
2705.7716549046
 31
0.0
  0
LINE
  5
28F
330
1F
100
AcDbEntity
  8
0
  6
Continuous
 62
     7
370
    25
100
AcDbLine
 10
2276.9454585654
 20
2705.7716549046
 30
0.0
 11
2276.9454585654
 21
2723.7716549046
 31
0.0
  0
LINE
  5
290
330
1F
100
AcDbEntity
  8
0
  6
Continuous
 62
     7
370
    25
100
AcDbLine
 10
2722.9454585654
 20
2723.7716549046
 30
0.0
 11
2276.9454585654
 21
2723.7716549046
 31
0.0
  0
LINE
  5
291
330
1F
100
AcDbEntity
  8
0
  6
Continuous
 62
     7
370
    25
100
AcDbLine
 10
2658.9454585654
 20
2725.2716549046
 30
0.0
 11
2658.9454585654
 21
2723.7716549046
 31
0.0
  0
LINE
  5
292
330
1F
100
AcDbEntity
  8
0
  6
Continuous
 62
     7
370
    25
100
AcDbLine
 10
2698.9454585654
 20
2725.2716549046
 30
0.0
 11
2698.9454585654
 21
2723.7716549046
 31
0.0
  0
LINE
  5
293
330
1F
100
AcDbEntity
  8
0
  6
Continuous
 62
     7
370
    25
100
AcDbLine
 10
2278.9454585653
 20
2724.0716549046
 30
0.0
 11
2278.9454585653
 21
2723.8716549046
 31
0.0
  0
LINE
  5
294
330
1F
100
AcDbEntity
  8
0
  6
Continuous
 62
     7
370
    25
100
AcDbLine
 10
2278.9454585653
 20
2723.8716549046
 30
0.0
 11
2277.1454585653
 21
2723.8716549046
 31
0.0
  0
LINE
  5
295
330
1F
100
AcDbEntity
  8
0
  6
Continuous
 62
     7
370
    25
100
AcDbLine
 10
2277.1454585653
 20
2724.0716549046
 30
0.0
 11
2277.1454585653
 21
2723.8716549046
 31
0.0
  0
LINE
  5
296
330
1F
100
AcDbEntity
  8
0
  6
Continuous
 62
     7
370
    25
100
AcDbLine
 10
2277.1454585653
 20
2724.0716549046
 30
0.0
 11
2278.9454585653
 21
2724.0716549046
 31
0.0
  0
LINE
  5
297
330
1F
100
AcDbEntity
  8
0
  6
Continuous
 62
     7
370
    25
100
AcDbLine
 10
2276.9454585653
 20
2723.7716549046
 30
0.0
 11
2276.9454585653
 21
2723.8716549046
 31
0.0
  0
LINE
  5
298
330
1F
100
AcDbEntity
  8
0
  6
Continuous
 62
     7
370
    25
100
AcDbLine
 10
2277.1454585653
 20
2723.8716549046
 30
0.0
 11
2276.9454585653
 21
2723.8716549046
 31
0.0
  0
ARC
  5
299
330
1F
100
AcDbEntity
  8
0
  6
Continuous
 62
     7
370
    25
100
AcDbCircle
 10
2277.1454585653
 20
2723.8716549046
 30
0.0
 40
0.2000000000002728
100
AcDbArc
 50
90.0
 51
180.0
  0
LINE
  5
29A
330
1F
100
AcDbEntity
  8
0
  6
Continuous
 62
     7
370
    25
100
AcDbLine
 10
2278.9454585653
 20
2723.7716549046
 30
0.0
 11
2278.9454585653
 21
2723.8716549046
 31
0.0
  0
LINE
  5
29B
330
1F
100
AcDbEntity
  8
0
  6
Continuous
 62
     7
370
    25
100
AcDbLine
 10
2720.9454585654
 20
2723.8716549046
 30
0.0
 11
2720.9454585654
 21
2723.7716549046
 31
0.0
  0
LINE
  5
29C
330
1F
100
AcDbEntity
  8
0
  6
Continuous
 62
     7
370
    25
100
AcDbLine
 10
2278.9454585653
 20
2724.0716549046
 30
0.0
 11
2281.2577838159
 21
2724.0716549046
 31
0.0
  0
LINE
  5
29D
330
1F
100
AcDbEntity
  8
0
  6
Continuous
 62
     7
370
    25
100
AcDbLine
 10
2317.4437914398
 20
2724.0716549046
 30
0.0
 11
2484.9454585654
 21
2724.0716549046
 31
0.0
  0
LINE
  5
29E
330
1F
100
AcDbEntity
  8
0
  6
Continuous
 62
     7
370
    25
100
AcDbLine
 10
2514.9454585654
 20
2724.0716549046
 30
0.0
 11
2658.9454585654
 21
2724.0716549046
 31
0.0
  0
LINE
  5
29F
330
1F
100
AcDbEntity
  8
0
  6
Continuous
 62
     7
370
    25
100
AcDbLine
 10
2698.9454585654
 20
2724.0716549046
 30
0.0
 11
2720.9454585654
 21
2724.0716549046
 31
0.0
  0
LINE
  5
2A0
330
1F
100
AcDbEntity
  8
0
  6
Continuous
 62
     7
370
    25
100
AcDbLine
 10
2720.9454585654
 20
2723.8716549046
 30
0.0
 11
2720.9454585654
 21
2724.0716549046
 31
0.0
  0
LINE
  5
2A1
330
1F
100
AcDbEntity
  8
0
  6
Continuous
 62
     7
370
    25
100
AcDbLine
 10
2722.7454585654
 20
2723.8716549046
 30
0.0
 11
2720.9454585654
 21
2723.8716549046
 31
0.0
  0
LINE
  5
2A2
330
1F
100
AcDbEntity
  8
0
  6
Continuous
 62
     7
370
    25
100
AcDbLine
 10
2722.7454585654
 20
2723.8716549046
 30
0.0
 11
2722.9454585654
 21
2723.8716549046
 31
0.0
  0
LINE
  5
2A3
330
1F
100
AcDbEntity
  8
0
  6
Continuous
 62
     7
370
    25
100
AcDbLine
 10
2722.9454585654
 20
2723.8716549046
 30
0.0
 11
2722.9454585654
 21
2723.7716549046
 31
0.0
  0
LINE
  5
2A4
330
1F
100
AcDbEntity
  8
0
  6
Continuous
 62
     7
370
    25
100
AcDbLine
 10
2720.9454585654
 20
2724.0716549046
 30
0.0
 11
2722.7454585654
 21
2724.0716549046
 31
0.0
  0
LINE
  5
2A5
330
1F
100
AcDbEntity
  8
0
  6
Continuous
 62
     7
370
    25
100
AcDbLine
 10
2722.7454585654
 20
2723.8716549046
 30
0.0
 11
2722.7454585654
 21
2724.0716549046
 31
0.0
  0
ARC
  5
2A6
330
1F
100
AcDbEntity
  8
0
  6
Continuous
 62
     7
370
    25
100
AcDbCircle
 10
2722.7454585654
 20
2723.8716549046
 30
0.0
 40
0.2000000000002728
100
AcDbArc
 50
0.0
 51
90.0
  0
ARC
  5
2A7
330
1F
100
AcDbEntity
  8
0
  6
Continuous
 62
     7
370
    25
100
AcDbCircle
 10
2312.4487994325
 20
3299.2477776145
 30
0.0
 40
190.3064363748201
100
AcDbArc
 50
269.697921602
 51
271.989829998
  0
ARC
  5
2A8
330
1F
100
AcDbEntity
  8
0
  6
Continuous
 62
     7
370
    25
100
AcDbCircle
 10
2310.8807674914
 20
3343.5241370816
 30
0.0
 40
234.5808305703626
100
AcDbArc
 50
268.5008299502
 51
270.1379245117
  0
ARC
  5
2A9
330
1F
100
AcDbEntity
  8
0
  6
Continuous
 62
     7
370
    25
100
AcDbCircle
 10
2314.2883976533
 20
3189.5040519046
 30
0.0
 40
82.58290404754958
100
AcDbArc
 50
268.0271873052
 51
274.9717851391
  0
ARC
  5
2AA
330
1F
100
AcDbEntity
  8
0
  6
Continuous
 62
     7
370
    25
100
AcDbCircle
 10
2308.8258447337
 20
3198.0354228505
 30
0.0
 40
91.10299653505113
100
AcDbArc
 50
265.3532935281
 51
271.6477340277
  0
SPLINE
  5
2AB
330
1F
100
AcDbEntity
  8
0
  6
Continuous
 62
     7
370
    25
100
AcDbSpline
210
0.0
220
0.0
230
1.0
 70
     8
 71
     3
 72
    19
 73
    15
 74
     0
 42
0.00000001
 43
0.00000001
 40
0.0
 40
0.0
 40
0.0
 40
0.0
 40
0.0906600731282847
 40
0.2050734138974942
 40
0.2719074979494455
 40
0.3443210476358494
 40
0.4209983262120985
 40
0.4999999792228535
 40
0.5790016347260414
 40
0.6556789199259961
 40
0.7280924783130558
 40
0.7949265709541784
 40
0.9093399235673084
 40
1.0
 40
1.0
 40
1.0
 40
1.0
 10
2321.245458565383
 20
3107.031934860089
 30
0.0
 10
2321.168604520716
 20
3107.007709314852
 30
0.0
 10
2320.994760393221
 20
3106.952911043753
 30
0.0
 10
2319.674903170745
 20
3106.886527760373
 30
0.0
 10
2317.918984010548
 20
3106.836615149726
 30
0.0
 10
2316.095890405666
 20
3106.803484284447
 30
0.0
 10
2313.914524317443
 20
3106.781051426683
 30
0.0
 10
2311.521572113855
 20
3106.772789316651
 30
0.0
 10
2309.124049624973
 20
3106.780087282535
 30
0.0
 10
2306.929764294559
 20
3106.801639484276
 30
0.0
 10
2305.087425031534
 20
3106.834032633708
 30
0.0
 10
2303.302394606059
 20
3106.883232581908
 30
0.0
 10
2301.943699588458
 20
3106.949076769701
 30
0.0
 10
2301.737687244367
 20
3107.003798592487
 30
0.0
 10
2301.646612086808
 20
3107.027990340094
 30
0.0
  0
LINE
  5
2AC
330
1F
100
AcDbEntity
  8
0
  6
Continuous
 62
     7
370
    25
100
AcDbLine
 10
2304.475490279
 20
3109.3742254403
 30
0.0
 11
2304.5274519144
 21
3109.3783936567
 31
0.0
  0
LINE
  5
2AD
330
1F
100
AcDbEntity
  8
0
  6
Continuous
 62
     7
370
    25
100
AcDbLine
 10
2316.1356302781
 20
3109.43111244
 30
0.0
 11
2316.1346783417
 21
3109.4335859309
 31
0.0
  0
LWPOLYLINE
  5
2AE
330
1F
100
AcDbEntity
  8
0
  6
Continuous
 62
     7
370
    25
100
AcDbPolyline
 90
       23
 70
   128
 43
0.0
 10
2316.1346783417
 20
3109.4335859309
 10
2315.9194017973
 20
3109.4679610176
 10
2315.3439780752
 20
3109.499369837
 10
2314.4547281094
 20
3109.5252840161
 10
2313.3232354782
 20
3109.5436174939
 10
2312.04058401
 20
3109.552894447
 10
2310.7100256422
 20
3109.5523680914
 10
2309.4386687614
 20
3109.5420807983
 10
2308.3288561037
 20
3109.5228606826
 10
2307.4699262854
 20
3109.4962549411
 10
2306.9310221483
 20
3109.4644053047
 10
2306.7555248428
 20
3109.4298756318
 10
2306.957561696
 20
3109.3954455205
 10
2307.5208689783
 20
3109.3638865544
 10
2308.4001011149
 20
3109.3377391932
 10
2309.5244809511
 20
3109.3191082686
 10
2310.8034972299
 20
3109.3094935484
 10
2312.1341906426
 20
3109.3096690062
 10
2313.4094419317
 20
3109.3196205179
 10
2314.5265948654
 20
3109.3385469983
 10
2315.3957199443
 20
3109.3649248882
 10
2315.9468536198
 20
3109.3966307983
 10
2316.1356302781
 20
3109.43111244
  0
SPLINE
  5
2AF
330
1F
100
AcDbEntity
  8
0
  6
Continuous
 62
     7
370
    25
100
AcDbSpline
210
0.0
220
0.0
230
1.0
 70
     8
 71
     3
 72
     9
 73
     5
 74
     0
 42
0.00000001
 43
0.00000001
 40
0.0
 40
0.0
 40
0.0
 40
0.0
 40
0.7246937986493067
 40
1.0
 40
1.0
 40
1.0
 40
1.0
 10
2306.947887259422
 20
3106.535975815356
 30
0.0
 10
2306.943212180533
 20
3106.609347136486
 30
0.0
 10
2306.936761071254
 20
3106.710591719048
 30
0.0
 10
2306.872422639865
 20
3106.785078969129
 30
0.0
 10
2306.854709870718
 20
3106.805585770998
 30
0.0
  0
LINE
  5
2B0
330
1F
100
AcDbEntity
  8
0
  6
Continuous
 62
     7
370
    25
100
AcDbLine
 10
2308.9996091615
 20
3109.4176313116
 30
0.0
 11
2310.9304585654
 21
3109.4176313117
 31
0.0
  0
LINE
  5
2B1
330
1F
100
AcDbEntity
  8
0
  6
Continuous
 62
     7
370
    25
100
AcDbLine
 10
2310.9304585654
 20
3109.4176313117
 30
0.0
 11
2310.9304585654
 21
3109.3670875666
 31
0.0
  0
ARC
  5
2B2
330
1F
100
AcDbEntity
  8
0
  6
Continuous
 62
     7
370
    25
100
AcDbCircle
 10
2311.4454585654
 20
3203.6549486783
 30
0.0
 40
94.2892675653854
100
AcDbArc
 50
269.6870537451
 51
270.3129462549
  0
LINE
  5
2B3
330
1F
100
AcDbEntity
  8
0
  6
Continuous
 62
     7
370
    25
100
AcDbLine
 10
2311.9604585654
 20
3109.3670875666
 30
0.0
 11
2311.9604585654
 21
3109.4176313117
 31
0.0
  0
LINE
  5
2B4
330
1F
100
AcDbEntity
  8
0
  6
Continuous
 62
     7
370
    25
100
AcDbLine
 10
2311.9604585654
 20
3109.4176313117
 30
0.0
 11
2313.8913079693
 21
3109.4176313116
 31
0.0
  0
LWPOLYLINE
  5
2B5
330
1F
100
AcDbEntity
  8
0
  6
Continuous
 62
     7
370
    25
100
AcDbPolyline
 90
        9
 70
   128
 43
0.0
 10
2313.8913079693
 20
3109.4445935684
 10
2313.9147242752
 20
3109.44125516
 10
2313.9314953662
 20
3109.4378894559
 10
2313.9415761084
 20
3109.4345055136
 10
2313.9449393728
 20
3109.43111244
 10
2313.9415761084
 20
3109.4277193664
 10
2313.9314953662
 20
3109.4243354242
 10
2313.9147242752
 20
3109.42096972
 10
2313.8913079693
 20
3109.4176313116
  0
LINE
  5
2B6
330
1F
100
AcDbEntity
  8
0
  6
Continuous
 62
     7
370
    25
100
AcDbLine
 10
2313.8913079693
 20
3109.4445935684
 30
0.0
 11
2311.9604585654
 21
3109.4445935684
 31
0.0
  0
LINE
  5
2B7
330
1F
100
AcDbEntity
  8
0
  6
Continuous
 62
     7
370
    25
100
AcDbLine
 10
2311.9604585654
 20
3109.4445935684
 30
0.0
 11
2311.9604585654
 21
3109.4951373134
 31
0.0
  0
ARC
  5
2B8
330
1F
100
AcDbEntity
  8
0
  6
Continuous
 62
     7
370
    25
100
AcDbCircle
 10
2311.4454585653
 20
3015.2072761783
 30
0.0
 40
94.28926758887503
100
AcDbArc
 50
89.6870537451
 51
90.3129462548
  0
LINE
  5
2B9
330
1F
100
AcDbEntity
  8
0
  6
Continuous
 62
     7
370
    25
100
AcDbLine
 10
2310.9304585654
 20
3109.4951373134
 30
0.0
 11
2310.9304585654
 21
3109.4445935684
 31
0.0
  0
LINE
  5
2BA
330
1F
100
AcDbEntity
  8
0
  6
Continuous
 62
     7
370
    25
100
AcDbLine
 10
2310.9304585654
 20
3109.4445935684
 30
0.0
 11
2308.9996091615
 21
3109.4445935684
 31
0.0
  0
LWPOLYLINE
  5
2BB
330
1F
100
AcDbEntity
  8
0
  6
Continuous
 62
     7
370
    25
100
AcDbPolyline
 90
        9
 70
   128
 43
0.0
 10
2308.9996091615
 20
3109.4176313116
 10
2308.9761928556
 20
3109.42096972
 10
2308.9594217646
 20
3109.4243354242
 10
2308.9493410224
 20
3109.4277193664
 10
2308.945977758
 20
3109.43111244
 10
2308.9493410224
 20
3109.4345055136
 10
2308.9594217646
 20
3109.4378894559
 10
2308.9761928556
 20
3109.44125516
 10
2308.9996091615
 20
3109.4445935684
  0
LINE
  5
2BC
330
1F
100
AcDbEntity
  8
0
  6
Continuous
 62
     7
370
    25
100
AcDbLine
 10
2309.0133329309
 20
3109.4176313116
 30
0.0
 11
2308.9996091615
 21
3109.4445935684
 31
0.0
  0
LINE
  5
2BD
330
1F
100
AcDbEntity
  8
0
  6
Continuous
 62
     7
370
    25
100
AcDbLine
 10
2311.9604585654
 20
3109.4445935684
 30
0.0
 11
2311.9604585654
 21
3109.4176313117
 31
0.0
  0
LINE
  5
2BE
330
1F
100
AcDbEntity
  8
0
  6
Continuous
 62
     7
370
    25
100
AcDbLine
 10
2310.9304585654
 20
3109.4445935684
 30
0.0
 11
2310.9304585654
 21
3109.4176313117
 31
0.0
  0
ARC
  5
2BF
330
1F
100
AcDbEntity
  8
0
  6
Continuous
 62
     7
370
    25
100
AcDbCircle
 10
2576.9487994325
 20
3299.2477776136
 30
0.0
 40
190.3064363739178
100
AcDbArc
 50
269.697921602
 51
271.989829998
  0
ARC
  5
2C0
330
1F
100
AcDbEntity
  8
0
  6
Continuous
 62
     7
370
    25
100
AcDbCircle
 10
2575.3807674913
 20
3343.5241370731
 30
0.0
 40
234.580830561899
100
AcDbArc
 50
268.5008299501
 51
270.1379245117
  0
ARC
  5
2C1
330
1F
100
AcDbEntity
  8
0
  6
Continuous
 62
     7
370
    25
100
AcDbCircle
 10
2578.7883976532
 20
3189.504051905
 30
0.0
 40
82.582904047971
100
AcDbArc
 50
268.0271873052
 51
274.971785139
  0
ARC
  5
2C2
330
1F
100
AcDbEntity
  8
0
  6
Continuous
 62
     7
370
    25
100
AcDbCircle
 10
2573.3258447337
 20
3198.0354228507
 30
0.0
 40
91.10299653523418
100
AcDbArc
 50
265.3532935281
 51
271.6477340277
  0
SPLINE
  5
2C3
330
1F
100
AcDbEntity
  8
0
  6
Continuous
 62
     7
370
    25
100
AcDbSpline
210
0.0
220
0.0
230
1.0
 70
     8
 71
     3
 72
    19
 73
    15
 74
     0
 42
0.00000001
 43
0.00000001
 40
0.0
 40
0.0
 40
0.0
 40
0.0
 40
0.0906600731282847
 40
0.2050734138974939
 40
0.2719074979494455
 40
0.3443210476358499
 40
0.4209983262120986
 40
0.4999999792228537
 40
0.5790016347260415
 40
0.6556789199259964
 40
0.7280924783130565
 40
0.794926570954179
 40
0.9093399235673084
 40
1.0
 40
1.0
 40
1.0
 40
1.0
 10
2585.745458565379
 20
3107.031934860085
 30
0.0
 10
2585.668604520712
 20
3107.007709314849
 30
0.0
 10
2585.494760393217
 20
3106.95291104375
 30
0.0
 10
2584.174903170742
 20
3106.886527760369
 30
0.0
 10
2582.418984010545
 20
3106.836615149722
 30
0.0
 10
2580.595890405663
 20
3106.803484284444
 30
0.0
 10
2578.41452431744
 20
3106.78105142668
 30
0.0
 10
2576.021572113852
 20
3106.772789316648
 30
0.0
 10
2573.62404962497
 20
3106.780087282531
 30
0.0
 10
2571.429764294555
 20
3106.801639484272
 30
0.0
 10
2569.587425031531
 20
3106.834032633705
 30
0.0
 10
2567.802394606056
 20
3106.883232581905
 30
0.0
 10
2566.443699588454
 20
3106.949076769698
 30
0.0
 10
2566.237687244363
 20
3107.003798592483
 30
0.0
 10
2566.146612086805
 20
3107.02799034009
 30
0.0
  0
LINE
  5
2C4
330
1F
100
AcDbEntity
  8
0
  6
Continuous
 62
     7
370
    25
100
AcDbLine
 10
2568.975490279
 20
3109.3742254403
 30
0.0
 11
2569.0274519144
 21
3109.3783936567
 31
0.0
  0
LINE
  5
2C5
330
1F
100
AcDbEntity
  8
0
  6
Continuous
 62
     7
370
    25
100
AcDbLine
 10
2580.6356302781
 20
3109.43111244
 30
0.0
 11
2580.6346783417
 21
3109.4335859309
 31
0.0
  0
LWPOLYLINE
  5
2C6
330
1F
100
AcDbEntity
  8
0
  6
Continuous
 62
     7
370
    25
100
AcDbPolyline
 90
       23
 70
   128
 43
0.0
 10
2580.6346783417
 20
3109.4335859309
 10
2580.4194017973
 20
3109.4679610176
 10
2579.8439780752
 20
3109.499369837
 10
2578.9547281094
 20
3109.5252840161
 10
2577.8232354782
 20
3109.5436174939
 10
2576.54058401
 20
3109.552894447
 10
2575.2100256422
 20
3109.5523680914
 10
2573.9386687614
 20
3109.5420807983
 10
2572.8288561037
 20
3109.5228606826
 10
2571.9699262854
 20
3109.4962549411
 10
2571.4310221483
 20
3109.4644053047
 10
2571.2555248428
 20
3109.4298756318
 10
2571.457561696
 20
3109.3954455205
 10
2572.0208689783
 20
3109.3638865544
 10
2572.9001011149
 20
3109.3377391932
 10
2574.0244809511
 20
3109.3191082686
 10
2575.3034972299
 20
3109.3094935484
 10
2576.6341906426
 20
3109.3096690062
 10
2577.9094419317
 20
3109.3196205179
 10
2579.0265948654
 20
3109.3385469983
 10
2579.8957199443
 20
3109.3649248882
 10
2580.4468536198
 20
3109.3966307983
 10
2580.6356302781
 20
3109.43111244
  0
SPLINE
  5
2C7
330
1F
100
AcDbEntity
  8
0
  6
Continuous
 62
     7
370
    25
100
AcDbSpline
210
0.0
220
0.0
230
1.0
 70
     8
 71
     3
 72
     9
 73
     5
 74
     0
 42
0.00000001
 43
0.00000001
 40
0.0
 40
0.0
 40
0.0
 40
0.0
 40
0.7246937986493025
 40
1.0
 40
1.0
 40
1.0
 40
1.0
 10
2571.447887259418
 20
3106.535975815353
 30
0.0
 10
2571.443212180529
 20
3106.609347136482
 30
0.0
 10
2571.43676107125
 20
3106.710591719045
 30
0.0
 10
2571.372422639862
 20
3106.785078969125
 30
0.0
 10
2571.354709870715
 20
3106.805585770994
 30
0.0
  0
LINE
  5
2C8
330
1F
100
AcDbEntity
  8
0
  6
Continuous
 62
     7
370
    25
100
AcDbLine
 10
2573.4996091614
 20
3109.4176313116
 30
0.0
 11
2575.4304585654
 21
3109.4176313116
 31
0.0
  0
LINE
  5
2C9
330
1F
100
AcDbEntity
  8
0
  6
Continuous
 62
     7
370
    25
100
AcDbLine
 10
2575.4304585654
 20
3109.4176313116
 30
0.0
 11
2575.4304585654
 21
3109.3670875666
 31
0.0
  0
ARC
  5
2CA
330
1F
100
AcDbEntity
  8
0
  6
Continuous
 62
     7
370
    25
100
AcDbCircle
 10
2575.9454585654
 20
3203.6549486407
 30
0.0
 40
94.289267527807
100
AcDbArc
 50
269.6870537449
 51
270.312946255
  0
LINE
  5
2CB
330
1F
100
AcDbEntity
  8
0
  6
Continuous
 62
     7
370
    25
100
AcDbLine
 10
2576.4604585654
 20
3109.3670875666
 30
0.0
 11
2576.4604585654
 21
3109.4176313116
 31
0.0
  0
LINE
  5
2CC
330
1F
100
AcDbEntity
  8
0
  6
Continuous
 62
     7
370
    25
100
AcDbLine
 10
2576.4604585654
 20
3109.4176313116
 30
0.0
 11
2578.3913079693
 21
3109.4176313116
 31
0.0
  0
LWPOLYLINE
  5
2CD
330
1F
100
AcDbEntity
  8
0
  6
Continuous
 62
     7
370
    25
100
AcDbPolyline
 90
        9
 70
   128
 43
0.0
 10
2578.3913079693
 20
3109.4445935684
 10
2578.4147242752
 20
3109.44125516
 10
2578.4314953662
 20
3109.4378894559
 10
2578.4415761084
 20
3109.4345055136
 10
2578.4449393728
 20
3109.43111244
 10
2578.4415761084
 20
3109.4277193664
 10
2578.4314953662
 20
3109.4243354242
 10
2578.4147242752
 20
3109.42096972
 10
2578.3913079693
 20
3109.4176313116
  0
LINE
  5
2CE
330
1F
100
AcDbEntity
  8
0
  6
Continuous
 62
     7
370
    25
100
AcDbLine
 10
2578.3913079693
 20
3109.4445935684
 30
0.0
 11
2576.4604585654
 21
3109.4445935684
 31
0.0
  0
LINE
  5
2CF
330
1F
100
AcDbEntity
  8
0
  6
Continuous
 62
     7
370
    25
100
AcDbLine
 10
2576.4604585654
 20
3109.4445935684
 30
0.0
 11
2576.4604585654
 21
3109.4951373134
 31
0.0
  0
ARC
  5
2D0
330
1F
100
AcDbEntity
  8
0
  6
Continuous
 62
     7
370
    25
100
AcDbCircle
 10
2575.9454585653
 20
3015.2072761782
 30
0.0
 40
94.28926758887503
100
AcDbArc
 50
89.6870537451
 51
90.3129462548
  0
LINE
  5
2D1
330
1F
100
AcDbEntity
  8
0
  6
Continuous
 62
     7
370
    25
100
AcDbLine
 10
2575.4304585654
 20
3109.4951373134
 30
0.0
 11
2575.4304585654
 21
3109.4445935684
 31
0.0
  0
LINE
  5
2D2
330
1F
100
AcDbEntity
  8
0
  6
Continuous
 62
     7
370
    25
100
AcDbLine
 10
2575.4304585654
 20
3109.4445935684
 30
0.0
 11
2573.4996091614
 21
3109.4445935684
 31
0.0
  0
LWPOLYLINE
  5
2D3
330
1F
100
AcDbEntity
  8
0
  6
Continuous
 62
     7
370
    25
100
AcDbPolyline
 90
        9
 70
   128
 43
0.0
 10
2573.4996091614
 20
3109.4176313116
 10
2573.4761928556
 20
3109.42096972
 10
2573.4594217646
 20
3109.4243354242
 10
2573.4493410224
 20
3109.4277193664
 10
2573.4459777579
 20
3109.43111244
 10
2573.4493410224
 20
3109.4345055136
 10
2573.4594217646
 20
3109.4378894559
 10
2573.4761928556
 20
3109.44125516
 10
2573.4996091614
 20
3109.4445935684
  0
LINE
  5
2D4
330
1F
100
AcDbEntity
  8
0
  6
Continuous
 62
     7
370
    25
100
AcDbLine
 10
2573.5133329309
 20
3109.4176313116
 30
0.0
 11
2573.4996091614
 21
3109.4445935684
 31
0.0
  0
LINE
  5
2D5
330
1F
100
AcDbEntity
  8
0
  6
Continuous
 62
     7
370
    25
100
AcDbLine
 10
2576.4604585654
 20
3109.4445935684
 30
0.0
 11
2576.4604585654
 21
3109.4176313116
 31
0.0
  0
LINE
  5
2D6
330
1F
100
AcDbEntity
  8
0
  6
Continuous
 62
     7
370
    25
100
AcDbLine
 10
2575.4304585654
 20
3109.4445935684
 30
0.0
 11
2575.4304585654
 21
3109.4176313116
 31
0.0
  0
LINE
  5
2D7
330
1F
100
AcDbEntity
  8
0
  6
Continuous
 62
     7
370
    25
100
AcDbLine
 10
2514.9454585654
 20
2724.9716549046
 30
0.0
 11
2514.9245088447
 21
2725.2716549046
 31
0.0
  0
LINE
  5
2D8
330
1F
100
AcDbEntity
  8
0
  6
Continuous
 62
     7
370
    25
100
AcDbLine
 10
2514.9454585654
 20
2723.7716549046
 30
0.0
 11
2514.9454585654
 21
2724.9716549046
 31
0.0
  0
LINE
  5
2D9
330
1F
100
AcDbEntity
  8
0
  6
Continuous
 62
     7
370
    25
100
AcDbLine
 10
2484.9454585654
 20
2724.9716549046
 30
0.0
 11
2484.9454585654
 21
2723.7716549046
 31
0.0
  0
LINE
  5
2DA
330
1F
100
AcDbEntity
  8
0
  6
Continuous
 62
     7
370
    25
100
AcDbLine
 10
2484.966408286
 20
2725.2716549046
 30
0.0
 11
2484.9454585654
 21
2724.9716549046
 31
0.0
  0
LINE
  5
2DB
330
1F
100
AcDbEntity
  8
0
  6
Continuous
 62
     7
370
    25
100
AcDbLine
 10
2489.5670931167
 20
2725.2716549046
 30
0.0
 11
2489.5468228464
 21
2724.9716549046
 31
0.0
  0
LINE
  5
2DC
330
1F
100
AcDbEntity
  8
0
  6
Continuous
 62
     7
370
    25
100
AcDbLine
 10
2489.5468228464
 20
2724.9716549046
 30
0.0
 11
2510.3440942843
 21
2724.9716549046
 31
0.0
  0
LINE
  5
2DD
330
1F
100
AcDbEntity
  8
0
  6
Continuous
 62
     7
370
    25
100
AcDbLine
 10
2510.3440942843
 20
2724.9716549046
 30
0.0
 11
2510.323824014
 21
2725.2716549046
 31
0.0
  0
LINE
  5
2DE
330
1F
100
AcDbEntity
  8
0
  6
Continuous
 62
     7
370
    25
100
AcDbLine
 10
2316.4454585697
 20
2723.9716549046
 30
0.0
 11
2316.4454585697
 21
2723.7716549046
 31
0.0
  0
LINE
  5
2DF
330
1F
100
AcDbEntity
  8
0
  6
Continuous
 62
     7
370
    25
100
AcDbLine
 10
2296.4454585697
 20
2723.7716549046
 30
0.0
 11
2296.4454585697
 21
2723.9716549046
 31
0.0
  0
LINE
  5
2E0
330
1F
100
AcDbEntity
  8
0
  6
Continuous
 62
     7
370
    25
100
AcDbLine
 10
2295.4454585697
 20
2723.7716549046
 30
0.0
 11
2295.4454585697
 21
2723.9716549046
 31
0.0
  0
LINE
  5
2E1
330
1F
100
AcDbEntity
  8
0
  6
Continuous
 62
     7
370
    25
100
AcDbLine
 10
2295.4454585697
 20
2723.9716549046
 30
0.0
 11
2296.4454585697
 21
2723.9716549046
 31
0.0
  0
LINE
  5
2E2
330
1F
100
AcDbEntity
  8
0
  6
Continuous
 62
     7
370
    25
100
AcDbLine
 10
2317.4454585697
 20
2723.7716549046
 30
0.0
 11
2317.4454585697
 21
2723.9716549046
 31
0.0
  0
LINE
  5
2E3
330
1F
100
AcDbEntity
  8
0
  6
Continuous
 62
     7
370
    25
100
AcDbLine
 10
2316.4454585697
 20
2723.9716549046
 30
0.0
 11
2317.4454585697
 21
2723.9716549046
 31
0.0
  0
ARC
  5
2E4
330
1F
100
AcDbEntity
  8
0
  6
Continuous
 62
     7
370
    25
100
AcDbCircle
 10
2298.4454585697
 20
2723.9716549046
 30
0.0
 40
3.000000000000136
100
AcDbArc
 50
154.3207113805
 51
180.0
  0
ARC
  5
2E5
330
1F
100
AcDbEntity
  8
0
  6
Continuous
 62
     7
370
    25
100
AcDbCircle
 10
2314.4454585697
 20
2723.9716549046
 30
0.0
 40
3.000000000000089
100
AcDbArc
 50
0.0
 51
25.6792886195
  0
LINE
  5
2E6
330
1F
100
AcDbEntity
  8
0
  6
Continuous
 62
     7
370
    25
100
AcDbLine
 10
2295.4454585697
 20
2724.2716549046
 30
0.0
 11
2281.2577838159
 21
2724.2716549046
 31
0.0
  0
LINE
  5
2E7
330
1F
100
AcDbEntity
  8
0
  6
Continuous
 62
     7
370
    25
100
AcDbLine
 10
2281.2577838159
 20
2724.2716549046
 30
0.0
 11
2281.2577838159
 21
2723.7716549046
 31
0.0
  0
LINE
  5
2E8
330
1F
100
AcDbEntity
  8
0
  6
Continuous
 62
     7
370
    25
100
AcDbLine
 10
2295.4454585697
 20
2723.9716549046
 30
0.0
 11
2295.4454585697
 21
2724.2716549046
 31
0.0
  0
LINE
  5
2E9
330
1F
100
AcDbEntity
  8
0
  6
Continuous
 62
     7
370
    25
100
AcDbLine
 10
2293.3859106131
 20
2725.2716549046
 30
0.0
 11
2293.3628582571
 21
2724.2716549046
 31
0.0
  0
LINE
  5
2EA
330
1F
100
AcDbEntity
  8
0
  6
Continuous
 62
     7
370
    25
100
AcDbLine
 10
2294.6632036285
 20
2724.2716549046
 30
0.0
 11
2294.6862559844
 21
2725.2716549046
 31
0.0
  0
LINE
  5
2EB
330
1F
100
AcDbEntity
  8
0
  6
Continuous
 62
     7
370
    25
100
AcDbLine
 10
2277.1454585653
 20
2723.8716549046
 30
0.0
 11
2277.1454585653
 21
2723.7716549046
 31
0.0
  0
LINE
  5
2EC
330
1F
100
AcDbEntity
  8
0
  6
Continuous
 62
     7
370
    25
100
AcDbLine
 10
2720.9454585654
 20
2723.8716549046
 30
0.0
 11
2698.9454585654
 21
2723.8716549046
 31
0.0
  0
LINE
  5
2ED
330
1F
100
AcDbEntity
  8
0
  6
Continuous
 62
     7
370
    25
100
AcDbLine
 10
2658.9454585654
 20
2723.8716549046
 30
0.0
 11
2514.9454585654
 21
2723.8716549046
 31
0.0
  0
LINE
  5
2EE
330
1F
100
AcDbEntity
  8
0
  6
Continuous
 62
     7
370
    25
100
AcDbLine
 10
2484.9454585654
 20
2723.8716549046
 30
0.0
 11
2317.4454585697
 21
2723.8716549046
 31
0.0
  0
LINE
  5
2EF
330
1F
100
AcDbEntity
  8
0
  6
Continuous
 62
     7
370
    25
100
AcDbLine
 10
2281.2577838159
 20
2723.8716549046
 30
0.0
 11
2278.9454585653
 21
2723.8716549046
 31
0.0
  0
LINE
  5
2F0
330
1F
100
AcDbEntity
  8
0
  6
Continuous
 62
     7
370
    25
100
AcDbLine
 10
2722.7454585654
 20
2723.7716549046
 30
0.0
 11
2722.7454585654
 21
2723.8716549046
 31
0.0
  0
ARC
  5
2F1
330
1F
100
AcDbEntity
  8
0
  6
Continuous
 62
     7
370
    25
100
AcDbCircle
 10
2311.4448257767
 20
3254.6497996169
 30
0.0
 40
147.0082502473194
100
AcDbArc
 50
266.0997819288
 51
273.9007124515
  0
LWPOLYLINE
  5
2F2
330
1F
100
AcDbEntity
  8
0
  6
Continuous
 62
     7
370
    25
100
AcDbPolyline
 90
        6
 70
   128
 43
0.0
 10
2319.056639358
 20
3109.056094891
 10
2319.7957539085
 20
3109.0961260079
 10
2320.2473606486
 20
3109.1417840506
 10
2320.3386164832
 20
3109.1888871584
 10
2320.0657853877
 20
3109.2355069245
 10
2319.94183279
 20
3109.2468479058
  0
LWPOLYLINE
  5
2F3
330
1F
100
AcDbEntity
  8
0
  6
Continuous
 62
     7
370
    25
100
AcDbPolyline
 90
        7
 70
   128
 43
0.0
 10
2302.9490843408
 20
3109.2468479058
 10
2302.825131743
 20
3109.2355069245
 10
2302.5523006476
 20
3109.1888871584
 10
2302.6435564822
 20
3109.1417840506
 10
2303.0951632222
 20
3109.0961260079
 10
2303.8886320348
 20
3109.0537822761
 10
2304.7435540403
 20
3109.0236025787
  0
LWPOLYLINE
  5
2F4
330
1F
100
AcDbEntity
  8
0
  6
Continuous
 62
     7
370
    25
100
AcDbPolyline
 90
       19
 70
   128
 43
0.0
 10
2318.4154268518
 20
3109.3742254403
 10
2318.5671548704
 20
3109.3595426267
 10
2318.7503025606
 20
3109.3169925022
 10
2318.5671548704
 20
3109.2744423778
 10
2318.0268955899
 20
3109.2340258942
 10
2317.1566155753
 20
3109.1977697028
 10
2315.9999543005
 20
3109.1674918404
 10
2314.6149115917
 20
3109.1447105655
 10
2313.0709392736
 20
3109.1305682262
 10
2311.4454585654
 20
3109.1257739786
 10
2309.8199778572
 20
3109.1305682262
 10
2308.2760055391
 20
3109.1447105655
 10
2306.8909628302
 20
3109.1674918404
 10
2305.7343015554
 20
3109.1977697028
 10
2304.8640215408
 20
3109.2340258942
 10
2304.3237622604
 20
3109.2744423778
 10
2304.1406145702
 20
3109.3169925022
 10
2304.3237622604
 20
3109.3595426267
 10
2304.475490279
 20
3109.3742254403
  0
SPLINE
  5
2F5
330
1F
100
AcDbEntity
  8
0
  6
Continuous
 62
     7
370
    25
100
AcDbSpline
210
0.0
220
0.0
230
1.0
 70
     8
 71
     3
 72
    10
 73
     6
 74
     0
 42
0.00000001
 43
0.00000001
 40
0.0
 40
0.0
 40
0.0
 40
0.0
 40
0.2348528608094079
 40
0.6323277900321719
 40
0.9999999999999999
 40
0.9999999999999999
 40
0.9999999999999999
 40
0.9999999999999999
 10
2316.139161340502
 20
3106.908496935381
 30
0.0
 10
2316.109898948604
 20
3106.888924055688
 30
0.0
 10
2316.0311116452
 20
3106.836225205358
 30
0.0
 10
2315.960702072953
 20
3106.695638695845
 30
0.0
 10
2315.948765629148
 20
3106.582569255209
 30
0.0
 10
2315.943029871347
 20
3106.528236579846
 30
0.0
  0
ARC
  5
2F6
330
1F
100
AcDbEntity
  8
0
  6
Continuous
 62
     7
370
    25
100
AcDbCircle
 10
2311.4727661044
 20
3172.8487882408
 30
0.0
 40
66.47103753340444
100
AcDbArc
 50
266.0945910318
 51
273.8561261673
  0
LINE
  5
2F7
330
1F
100
AcDbEntity
  8
0
  6
Continuous
 62
     7
370
    25
100
AcDbLine
 10
2315.9454585654
 20
3106.5321061976
 30
0.0
 11
2315.9430298712
 21
3106.5282365797
 31
0.0
  0
ARC
  5
2F8
330
1F
100
AcDbEntity
  8
0
  6
Continuous
 62
     7
370
    25
100
AcDbCircle
 10
2575.9448257767
 20
3254.6497996171
 30
0.0
 40
147.0082502474907
100
AcDbArc
 50
266.0997819289
 51
273.9007124515
  0
LWPOLYLINE
  5
2F9
330
1F
100
AcDbEntity
  8
0
  6
Continuous
 62
     7
370
    25
100
AcDbPolyline
 90
        6
 70
   128
 43
0.0
 10
2583.556639358
 20
3109.056094891
 10
2584.2957539085
 20
3109.0961260079
 10
2584.7473606486
 20
3109.1417840506
 10
2584.8386164832
 20
3109.1888871583
 10
2584.5657853877
 20
3109.2355069245
 10
2584.44183279
 20
3109.2468479058
  0
LWPOLYLINE
  5
2FA
330
1F
100
AcDbEntity
  8
0
  6
Continuous
 62
     7
370
    25
100
AcDbPolyline
 90
        7
 70
   128
 43
0.0
 10
2567.4490843408
 20
3109.2468479058
 10
2567.325131743
 20
3109.2355069245
 10
2567.0523006476
 20
3109.1888871583
 10
2567.1435564822
 20
3109.1417840506
 10
2567.5951632222
 20
3109.0961260079
 10
2568.3886320348
 20
3109.0537822761
 10
2569.2435540403
 20
3109.0236025787
  0
LWPOLYLINE
  5
2FB
330
1F
100
AcDbEntity
  8
0
  6
Continuous
 62
     7
370
    25
100
AcDbPolyline
 90
       19
 70
   128
 43
0.0
 10
2582.9154268518
 20
3109.3742254403
 10
2583.0671548704
 20
3109.3595426267
 10
2583.2503025606
 20
3109.3169925022
 10
2583.0671548704
 20
3109.2744423778
 10
2582.5268955899
 20
3109.2340258942
 10
2581.6566155753
 20
3109.1977697028
 10
2580.4999543005
 20
3109.1674918404
 10
2579.1149115917
 20
3109.1447105655
 10
2577.5709392736
 20
3109.1305682262
 10
2575.9454585654
 20
3109.1257739786
 10
2574.3199778572
 20
3109.1305682262
 10
2572.7760055391
 20
3109.1447105655
 10
2571.3909628302
 20
3109.1674918404
 10
2570.2343015554
 20
3109.1977697028
 10
2569.3640215408
 20
3109.2340258942
 10
2568.8237622604
 20
3109.2744423778
 10
2568.6406145702
 20
3109.3169925022
 10
2568.8237622604
 20
3109.3595426267
 10
2568.975490279
 20
3109.3742254403
  0
SPLINE
  5
2FC
330
1F
100
AcDbEntity
  8
0
  6
Continuous
 62
     7
370
    25
100
AcDbSpline
210
0.0
220
0.0
230
1.0
 70
     8
 71
     3
 72
    10
 73
     6
 74
     0
 42
0.00000001
 43
0.00000001
 40
0.0
 40
0.0
 40
0.0
 40
0.0
 40
0.2348528608093666
 40
0.6323277900321594
 40
0.9999999999999999
 40
0.9999999999999999
 40
0.9999999999999999
 40
0.9999999999999999
 10
2580.639161340499
 20
3106.908496935377
 30
0.0
 10
2580.609898948601
 20
3106.888924055684
 30
0.0
 10
2580.531111645196
 20
3106.836225205354
 30
0.0
 10
2580.460702072949
 20
3106.695638695842
 30
0.0
 10
2580.448765629145
 20
3106.582569255206
 30
0.0
 10
2580.443029871343
 20
3106.528236579843
 30
0.0
  0
ARC
  5
2FD
330
1F
100
AcDbEntity
  8
0
  6
Continuous
 62
     7
370
    25
100
AcDbCircle
 10
2575.9727661044
 20
3172.8487882407
 30
0.0
 40
66.47103753336616
100
AcDbArc
 50
266.0945910318
 51
273.8561261673
  0
LINE
  5
2FE
330
1F
100
AcDbEntity
  8
0
  6
Continuous
 62
     7
370
    25
100
AcDbLine
 10
2580.4454585654
 20
3106.5321061976
 30
0.0
 11
2580.4430298712
 21
3106.5282365797
 31
0.0
  0
SPLINE
  5
2FF
330
1F
100
AcDbEntity
  8
0
  6
Continuous
 62
     7
370
    25
100
AcDbSpline
210
0.0
220
0.0
230
1.0
 70
     8
 71
     3
 72
    10
 73
     6
 74
     0
 42
0.00000001
 43
0.00000001
 40
0.0
 40
0.0
 40
0.0
 40
0.0
 40
0.1834740337130139
 40
0.4713152133471807
 40
1.0
 40
1.0
 40
1.0
 40
1.0
 10
2296.938044120524
 20
2725.271654904573
 30
0.0
 10
2296.881017377273
 20
2725.206204370562
 30
0.0
 10
2296.734524867579
 20
2725.038072500473
 30
0.0
 10
2296.516685233464
 20
2724.609072556932
 30
0.0
 10
2296.473451546597
 20
2724.222168078669
 30
0.0
 10
2296.445458569691
 20
2723.971654904575
 30
0.0
  0
SPLINE
  5
300
330
1F
100
AcDbEntity
  8
0
  6
Continuous
 62
     7
370
    25
100
AcDbSpline
210
0.0
220
0.0
230
1.0
 70
     8
 71
     3
 72
    10
 73
     6
 74
     0
 42
0.00000001
 43
0.00000001
 40
0.0
 40
0.0
 40
0.0
 40
0.0
 40
0.5286786081633629
 40
0.8161383429881691
 40
1.0
 40
1.0
 40
1.0
 40
1.0
 10
2316.445458569692
 20
2723.971654904569
 30
0.0
 10
2316.417467933848
 20
2724.222169411546
 30
0.0
 10
2316.374257879943
 20
2724.608896794614
 30
0.0
 10
2316.15647597296
 20
2725.037913361002
 30
0.0
 10
2316.009989980854
 20
2725.206060857858
 30
0.0
 10
2315.952846049549
 20
2725.271654904573
 30
0.0
  0
ENDSEC
  0
SECTION
  2
OBJECTS
  0
DICTIONARY
  5
C
330
0
100
AcDbDictionary
281
     1
  3
ACAD_GROUP
350
D
  3
ACAD_LAYOUT
350
1A
  3
ACAD_MLINESTYLE
350
17
  3
ACAD_PLOTSETTINGS
350
19
  3
ACAD_PLOTSTYLENAME
350
E
  3
ACAD_SCALELIST
350
47
  3
DWGPROPS
350
301
  0
DICTIONARY
  5
D
102
{ACAD_REACTORS
330
C
102
}
330
C
100
AcDbDictionary
281
     1
  0
DICTIONARY
  5
1A
102
{ACAD_REACTORS
330
C
102
}
330
C
100
AcDbDictionary
281
     1
  3
Layout1
350
1E
  3
Layout2
350
26
  3
Model
350
22
  0
DICTIONARY
  5
17
102
{ACAD_REACTORS
330
C
102
}
330
C
100
AcDbDictionary
281
     1
  3
Standard
350
18
  0
DICTIONARY
  5
19
102
{ACAD_REACTORS
330
C
102
}
330
C
100
AcDbDictionary
281
     1
  0
ACDBDICTIONARYWDFLT
  5
E
102
{ACAD_REACTORS
330
C
102
}
330
C
100
AcDbDictionary
281
     1
  3
Normal
350
F
100
AcDbDictionaryWithDefault
340
F
  0
DICTIONARY
  5
47
102
{ACAD_REACTORS
330
C
102
}
330
C
100
AcDbDictionary
281
     1
  3
A0
350
48
  3
A1
350
49
  3
A2
350
4A
  3
A3
350
4B
  3
A4
350
4C
  3
A5
350
4D
  3
A6
350
4E
  3
A7
350
4F
  3
A8
350
50
  3
A9
350
51
  3
B0
350
52
  3
B1
350
53
  3
B2
350
54
  3
B3
350
55
  3
B4
350
56
  3
B5
350
57
  3
B6
350
58
  0
XRECORD
  5
301
102
{ACAD_REACTORS
330
C
102
}
330
C
100
AcDbXrecord
280
     1
  1
DWGPROPS COOKIE
  2

  3

  4

  6

  7

  8
b
  9

300
=
301
=
302
=
303
=
304
=
305
=
306
=
307
=
308
=
309
=
 40
0.0
 41
2460384.281250348
 42
2460384.281250695
  1

 90
        0
  0
LAYOUT
  5
1E
102
{ACAD_REACTORS
330
1A
102
}
330
1A
100
AcDbPlotSettings
  1

  2
none_device
  4

  6

 40
0.0
 41
0.0
 42
0.0
 43
0.0
 44
0.0
 45
0.0
 46
0.0
 47
0.0
 48
0.0
 49
0.0
140
0.0
141
0.0
142
1.0
143
1.0
 70
   688
 72
     1
 73
     0
 74
     5
  7

 75
    16
147
1.0
148
0.0
149
0.0
100
AcDbLayout
  1
Layout1
 70
     1
 71
     1
 10
0.0
 20
0.0
 11
420.0
 21
297.0
 12
0.0
 22
0.0
 32
0.0
 14
1.0000000000E+20
 24
1.0000000000E+20
 34
1.0000000000E+20
 15
-1.0000000000E+20
 25
-1.0000000000E+20
 35
-1.0000000000E+20
146
0.0
 13
0.0
 23
0.0
 33
0.0
 16
1.0
 26
0.0
 36
0.0
 17
0.0
 27
1.0
 37
0.0
 76
     0
330
1B
  0
LAYOUT
  5
26
102
{ACAD_REACTORS
330
1A
102
}
330
1A
100
AcDbPlotSettings
  1

  2
none_device
  4

  6

 40
0.0
 41
0.0
 42
0.0
 43
0.0
 44
0.0
 45
0.0
 46
0.0
 47
0.0
 48
0.0
 49
0.0
140
0.0
141
0.0
142
1.0
143
1.0
 70
   688
 72
     1
 73
     0
 74
     5
  7

 75
    16
147
1.0
148
0.0
149
0.0
100
AcDbLayout
  1
Layout2
 70
     1
 71
     2
 10
0.0
 20
0.0
 11
0.0
 21
0.0
 12
0.0
 22
0.0
 32
0.0
 14
0.0
 24
0.0
 34
0.0
 15
0.0
 25
0.0
 35
0.0
146
0.0
 13
0.0
 23
0.0
 33
0.0
 16
1.0
 26
0.0
 36
0.0
 17
0.0
 27
1.0
 37
0.0
 76
     0
330
23
  0
LAYOUT
  5
22
102
{ACAD_REACTORS
330
1A
102
}
330
1A
100
AcDbPlotSettings
  1

  2
none_device
  4
Letter_(8.50_x_11.00_Inches)
  6

 40
6.35
 41
6.35
 42
6.35000508
 43
6.35000508
 44
215.9
 45
279.4
 46
0.0
 47
0.0
 48
0.0
 49
0.0
140
0.0
141
0.0
142
1.0
143
1.0
 70
  1712
 72
     1
 73
     0
 74
     0
  7

 75
     0
147
1.0
148
0.0
149
0.0
100
AcDbLayout
  1
Model
 70
     1
 71
     0
 10
0.0
 20
0.0
 11
5000.0
 21
3500.0
 12
0.0
 22
0.0
 32
0.0
 14
0.0
 24
0.0
 34
0.0
 15
5000.0
 25
3500.0
 35
0.0
146
0.0
 13
0.0
 23
0.0
 33
0.0
 16
1.0
 26
0.0
 36
0.0
 17
0.0
 27
1.0
 37
0.0
 76
     0
330
1F
331
29
  0
MLINESTYLE
  5
18
102
{ACAD_REACTORS
330
17
102
}
330
17
100
AcDbMlineStyle
  2
Standard
 70
     0
  3

 62
   256
 51
90.0
 52
90.0
 71
     2
 49
0.5
 62
   256
  6
BYLAYER
 49
-0.5
 62
   256
  6
BYLAYER
  0
ACDBPLACEHOLDER
  5
F
102
{ACAD_REACTORS
330
E
102
}
330
E
  0
SCALE
  5
48
102
{ACAD_REACTORS
330
47
102
}
330
47
100
AcDbScale
 70
     0
300
1:1
140
1.0
141
1.0
290
     1
  0
SCALE
  5
49
102
{ACAD_REACTORS
330
47
102
}
330
47
100
AcDbScale
 70
     0
300
1:2
140
1.0
141
2.0
290
     0
  0
SCALE
  5
4A
102
{ACAD_REACTORS
330
47
102
}
330
47
100
AcDbScale
 70
     0
300
1:4
140
1.0
141
4.0
290
     0
  0
SCALE
  5
4B
102
{ACAD_REACTORS
330
47
102
}
330
47
100
AcDbScale
 70
     0
300
1:5
140
1.0
141
5.0
290
     0
  0
SCALE
  5
4C
102
{ACAD_REACTORS
330
47
102
}
330
47
100
AcDbScale
 70
     0
300
1:8
140
1.0
141
8.0
290
     0
  0
SCALE
  5
4D
102
{ACAD_REACTORS
330
47
102
}
330
47
100
AcDbScale
 70
     0
300
1:10
140
1.0
141
10.0
290
     0
  0
SCALE
  5
4E
102
{ACAD_REACTORS
330
47
102
}
330
47
100
AcDbScale
 70
     0
300
1:16
140
1.0
141
16.0
290
     0
  0
SCALE
  5
4F
102
{ACAD_REACTORS
330
47
102
}
330
47
100
AcDbScale
 70
     0
300
1:20
140
1.0
141
20.0
290
     0
  0
SCALE
  5
50
102
{ACAD_REACTORS
330
47
102
}
330
47
100
AcDbScale
 70
     0
300
1:30
140
1.0
141
30.0
290
     0
  0
SCALE
  5
51
102
{ACAD_REACTORS
330
47
102
}
330
47
100
AcDbScale
 70
     0
300
1:40
140
1.0
141
40.0
290
     0
  0
SCALE
  5
52
102
{ACAD_REACTORS
330
47
102
}
330
47
100
AcDbScale
 70
     0
300
1:50
140
1.0
141
50.0
290
     0
  0
SCALE
  5
53
102
{ACAD_REACTORS
330
47
102
}
330
47
100
AcDbScale
 70
     0
300
1:100
140
1.0
141
100.0
290
     0
  0
SCALE
  5
54
102
{ACAD_REACTORS
330
47
102
}
330
47
100
AcDbScale
 70
     0
300
2:1
140
2.0
141
1.0
290
     0
  0
SCALE
  5
55
102
{ACAD_REACTORS
330
47
102
}
330
47
100
AcDbScale
 70
     0
300
4:1
140
4.0
141
1.0
290
     0
  0
SCALE
  5
56
102
{ACAD_REACTORS
330
47
102
}
330
47
100
AcDbScale
 70
     0
300
8:1
140
8.0
141
1.0
290
     0
  0
SCALE
  5
57
102
{ACAD_REACTORS
330
47
102
}
330
47
100
AcDbScale
 70
     0
300
10:1
140
10.0
141
1.0
290
     0
  0
SCALE
  5
58
102
{ACAD_REACTORS
330
47
102
}
330
47
100
AcDbScale
 70
     0
300
100:1
140
100.0
141
1.0
290
     0
  0
ENDSEC
  0
EOF
