  0
SECTION
  2
HEADER
  9
$ACADVER
  1
AC1015
  9
$ACADMAINTVER
 70
     6
  9
$DWGCODEPAGE
  3
DOS932
  9
$INSBASE
 10
0.0
 20
0.0
 30
0.0
  9
$EXTMIN
 10
0.0
 20
0.0
 30
0.0
  9
$EXTMAX
 10
5000.0
 20
3500.0
 30
0.0
  9
$LIMMIN
 10
0.0
 20
0.0
  9
$LIMMAX
 10
5000.0
 20
3500.0
  9
$ORTHOMODE
 70
     0
  9
$REGENMODE
 70
     1
  9
$FILLMODE
 70
     1
  9
$QTEXTMODE
 70
     0
  9
$MIRRTEXT
 70
     1
  9
$LTSCALE
 40
1.0
  9
$ATTMODE
 70
     1
  9
$TEXTSIZE
 40
3.5
  9
$TRACEWID
 40
1.0
  9
$TEXTSTYLE
  7
Standard
  9
$CLAYER
  8
0
  9
$CELTYPE
  6
ByLayer
  9
$CECOLOR
 62
   256
  9
$CELTSCALE
 40
1.0
  9
$DISPSILH
 70
     0
  9
$DIMSCALE
 40
1.0
  9
$DIMASZ
 40
3.302
  9
$DIMEXO
 40
1.0
  9
$DIMDLI
 40
3.75
  9
$DIMRND
 40
0.0
  9
$DIMDLE
 40
0.0
  9
$DIMEXE
 40
1.0
  9
$DIMTP
 40
0.0
  9
$DIMTM
 40
0.0
  9
$DIMTXT
 40
3.5
  9
$DIMCEN
 40
2.5
  9
$DIMTSZ
 40
0.0
  9
$DIMTOL
 70
     0
  9
$DIMLIM
 70
     0
  9
$DIMTIH
 70
     1
  9
$DIMTOH
 70
     1
  9
$DIMSE1
 70
     0
  9
$DIMSE2
 70
     0
  9
$DIMTAD
 70
     1
  9
$DIMZIN
 70
     0
  9
$DIMBLK
  1

  9
$DIMASO
 70
     1
  9
$DIMSHO
 70
     1
  9
$DIMPOST
  1

  9
$DIMAPOST
  1

  9
$DIMALT
 70
     0
  9
$DIMALTD
 70
     3
  9
$DIMALTF
 40
0.0393700787
  9
$DIMLFAC
 40
1.0
  9
$DIMTOFL
 70
     1
  9
$DIMTVP
 40
0.0
  9
$DIMTIX
 70
     0
  9
$DIMSOXD
 70
     0
  9
$DIMSAH
 70
     0
  9
$DIMBLK1
  1

  9
$DIMBLK2
  1

  9
$DIMSTYLE
  2
ISO-25
  9
$DIMCLRD
 70
     0
  9
$DIMCLRE
 70
     0
  9
$DIMCLRT
 70
     0
  9
$DIMTFAC
 40
1.0
  9
$DIMGAP
 40
1.524
  9
$DIMJUST
 70
     0
  9
$DIMSD1
 70
     0
  9
$DIMSD2
 70
     0
  9
$DIMTOLJ
 70
     0
  9
$DIMTZIN
 70
     0
  9
$DIMALTZ
 70
     0
  9
$DIMALTTZ
 70
     0
  9
$DIMUPT
 70
     0
  9
$DIMDEC
 70
     2
  9
$DIMTDEC
 70
     2
  9
$DIMALTU
 70
     2
  9
$DIMALTTD
 70
     3
  9
$DIMTXSTY
  7
Standard
  9
$DIMAUNIT
 70
     0
  9
$DIMADEC
 70
     2
  9
$DIMALTRND
 40
0.0
  9
$DIMAZIN
 70
     0
  9
$DIMDSEP
 70
    44
  9
$DIMATFIT
 70
     3
  9
$DIMFRAC
 70
     0
  9
$DIMLDRBLK
  1

  9
$DIMLUNIT
 70
     2
  9
$DIMLWD
 70
    -2
  9
$DIMLWE
 70
    -2
  9
$DIMTMOVE
 70
     0
  9
$LUNITS
 70
     2
  9
$LUPREC
 70
     3
  9
$SKETCHINC
 40
1.0
  9
$FILLETRAD
 40
0.0
  9
$AUNITS
 70
     0
  9
$AUPREC
 70
     2
  9
$MENU
  1
.
  9
$ELEVATION
 40
0.0
  9
$PELEVATION
 40
0.0
  9
$THICKNESS
 40
0.0
  9
$LIMCHECK
 70
     0
  9
$CHAMFERA
 40
0.0
  9
$CHAMFERB
 40
0.0
  9
$CHAMFERC
 40
0.0
  9
$CHAMFERD
 40
0.0
  9
$SKPOLY
 70
     0
  9
$TDCREATE
 40
2460384.651356447
  9
$TDUCREATE
 40
2460384.276356447
  9
$TDUPDATE
 40
2460384.651356632
  9
$TDUUPDATE
 40
2460384.276356632
  9
$TDINDWG
 40
0.0000000116
  9
$TDUSRTIMER
 40
0.0000000116
  9
$USRTIMER
 70
     1
  9
$ANGBASE
 50
0.0
  9
$ANGDIR
 70
     0
  9
$PDMODE
 70
     0
  9
$PDSIZE
 40
-1.0
  9
$PLINEWID
 40
0.0
  9
$SPLFRAME
 70
     0
  9
$SPLINETYPE
 70
     6
  9
$SPLINESEGS
 70
     8
  9
$HANDSEED
  5
303
  9
$SURFTAB1
 70
     6
  9
$SURFTAB2
 70
     6
  9
$SURFTYPE
 70
     6
  9
$SURFU
 70
     6
  9
$SURFV
 70
     6
  9
$UCSBASE
  2

  9
$UCSNAME
  2

  9
$UCSORG
 10
0.0
 20
0.0
 30
0.0
  9
$UCSXDIR
 10
1.0
 20
0.0
 30
0.0
  9
$UCSYDIR
 10
0.0
 20
1.0
 30
0.0
  9
$UCSORTHOREF
  2

  9
$UCSORTHOVIEW
 70
     0
  9
$UCSORGTOP
 10
0.0
 20
0.0
 30
0.0
  9
$UCSORGBOTTOM
 10
0.0
 20
0.0
 30
0.0
  9
$UCSORGLEFT
 10
0.0
 20
0.0
 30
0.0
  9
$UCSORGRIGHT
 10
0.0
 20
0.0
 30
0.0
  9
$UCSORGFRONT
 10
0.0
 20
0.0
 30
0.0
  9
$UCSORGBACK
 10
0.0
 20
0.0
 30
0.0
  9
$PUCSBASE
  2

  9
$PUCSNAME
  2

  9
$PUCSORG
 10
0.0
 20
0.0
 30
0.0
  9
$PUCSXDIR
 10
1.0
 20
0.0
 30
0.0
  9
$PUCSYDIR
 10
0.0
 20
1.0
 30
0.0
  9
$PUCSORTHOREF
  2

  9
$PUCSORTHOVIEW
 70
     0
  9
$PUCSORGTOP
 10
0.0
 20
0.0
 30
0.0
  9
$PUCSORGBOTTOM
 10
0.0
 20
0.0
 30
0.0
  9
$PUCSORGLEFT
 10
0.0
 20
0.0
 30
0.0
  9
$PUCSORGRIGHT
 10
0.0
 20
0.0
 30
0.0
  9
$PUCSORGFRONT
 10
0.0
 20
0.0
 30
0.0
  9
$PUCSORGBACK
 10
0.0
 20
0.0
 30
0.0
  9
$USERI1
 70
     0
  9
$USERI2
 70
     0
  9
$USERI3
 70
     0
  9
$USERI4
 70
     0
  9
$USERI5
 70
     0
  9
$USERR1
 40
0.0
  9
$USERR2
 40
0.0
  9
$USERR3
 40
0.0
  9
$USERR4
 40
0.0
  9
$USERR5
 40
0.0
  9
$WORLDVIEW
 70
     1
  9
$SHADEDGE
 70
     3
  9
$SHADEDIF
 70
    70
  9
$TILEMODE
 70
     1
  9
$MAXACTVP
 70
    64
  9
$PINSBASE
 10
0.0
 20
0.0
 30
0.0
  9
$PLIMCHECK
 70
     0
  9
$PEXTMIN
 10
1.0000000000E+20
 20
1.0000000000E+20
 30
1.0000000000E+20
  9
$PEXTMAX
 10
-1.0000000000E+20
 20
-1.0000000000E+20
 30
-1.0000000000E+20
  9
$PLIMMIN
 10
0.0
 20
0.0
  9
$PLIMMAX
 10
420.0
 20
297.0
  9
$UNITMODE
 70
     0
  9
$VISRETAIN
 70
     1
  9
$PLINEGEN
 70
     0
  9
$PSLTSCALE
 70
     1
  9
$TREEDEPTH
 70
  3020
  9
$CMLSTYLE
  2
Standard
  9
$CMLJUST
 70
     0
  9
$CMLSCALE
 40
20.0
  9
$PROXYGRAPHICS
 70
     1
  9
$MEASUREMENT
 70
     1
  9
$CELWEIGHT
370
    -1
  9
$ENDCAPS
280
     0
  9
$JOINSTYLE
280
     0
  9
$LWDISPLAY
290
     1
  9
$INSUNITS
 70
     4
  9
$HYPERLINKBASE
  1

  9
$STYLESHEET
  1

  9
$XEDIT
290
     1
  9
$CEPSNTYPE
380
     0
  9
$PSTYLEMODE
290
     1
  9
$FINGERPRINTGUID
  2
{5cfc33e3-1304-4731-87fd-027ddf07a8b4}
  9
$VERSIONGUID
  2
{FAEB1C32-E019-11D5-929B-00C0DF256EC4}
  9
$EXTNAMES
290
     1
  9
$PSVPSCALE
 40
0.0
  9
$OLESTARTUP
290
     0
  0
ENDSEC
  0
SECTION
  2
CLASSES
  0
CLASS
  1
ACDBDICTIONARYWDFLT
  2
AcDbDictionaryWithDefault
  3
ObjectDBX Classes
 90
        0
280
     0
281
     0
  0
CLASS
  1
VISUALSTYLE
  2
AcDbVisualStyle
  3
ObjectDBX Classes
 90
     4095
280
     0
281
     0
  0
CLASS
  1
MATERIAL
  2
AcDbMaterial
  3
ObjectDBX Classes
 90
     1153
280
     0
281
     0
  0
CLASS
  1
SCALE
  2
AcDbScale
  3
ObjectDBX Classes
 90
     1153
280
     0
281
     0
  0
CLASS
  1
TABLESTYLE
  2
AcDbTableStyle
  3
ObjectDBX Classes
 90
     4095
280
     0
281
     0
  0
CLASS
  1
MLEADERSTYLE
  2
AcDbMLeaderStyle
  3
ACDB_MLEADERSTYLE_CLASS
 90
     4095
280
     0
281
     0
  0
CLASS
  1
SUN
  2
AcDbSun
  3
SCENEOE
 90
     1153
280
     0
281
     0
  0
CLASS
  1
ACDBPLACEHOLDER
  2
AcDbPlaceHolder
  3
ObjectDBX Classes
 90
        0
280
     0
281
     0
  0
CLASS
  1
LAYOUT
  2
AcDbLayout
  3
ObjectDBX Classes
 90
        0
280
     0
281
     0
  0
ENDSEC
  0
SECTION
  2
TABLES
  0
TABLE
  2
VPORT
  5
8
330
0
100
AcDbSymbolTable
 70
     1
  0
VPORT
  5
29
330
8
100
AcDbSymbolTableRecord
100
AcDbViewportTableRecord
  2
*Active
 70
     0
 10
0.0
 20
0.0
 11
1.0
 21
1.0
 12
2500.0
 22
1750.0
 13
0.0
 23
0.0
 14
10.0
 24
10.0
 15
10.0
 25
10.0
 16
0.0
 26
0.0
 36
1.0
 17
0.0
 27
0.0
 37
0.0
 40
3500.0
 41
1.4285714286
 42
50.0
 43
0.0
 44
0.0
 50
0.0
 51
0.0
 71
     0
 72
  2000
 73
     1
 74
     3
 75
     0
 76
     0
 77
     0
 78
     0
281
     0
 65
     1
110
0.0
120
0.0
130
0.0
111
1.0
121
0.0
131
0.0
112
0.0
122
1.0
132
0.0
 79
     0
146
0.0
  0
ENDTAB
  0
TABLE
  2
LTYPE
  5
5
330
0
100
AcDbSymbolTable
 70
     6
  0
LTYPE
  5
14
330
5
100
AcDbSymbolTableRecord
100
AcDbLinetypeTableRecord
  2
ByBlock
 70
     0
  3

 72
    65
 73
     0
 40
0.0
  0
LTYPE
  5
15
330
5
100
AcDbSymbolTableRecord
100
AcDbLinetypeTableRecord
  2
ByLayer
 70
     0
  3

 72
    65
 73
     0
 40
0.0
  0
LTYPE
  5
16
330
5
100
AcDbSymbolTableRecord
100
AcDbLinetypeTableRecord
  2
Continuous
 70
     0
  3
Solid line
 72
    65
 73
     0
 40
0.0
  0
LTYPE
  5
5E
330
5
100
AcDbSymbolTableRecord
100
AcDbLinetypeTableRecord
  2
HIDDEN
 70
     0
  3
Hidden __ __ __ __ __ __ __ __ __ __ __ __ __ __
 72
    65
 73
     2
 40
1.905
 49
1.27
 74
     0
 49
-0.635
 74
     0
  0
LTYPE
  5
5F
330
5
100
AcDbSymbolTableRecord
100
AcDbLinetypeTableRecord
  2
PHANTOM
 70
     0
  3
Phantom ______  __  __  ______  __  __  ______
 72
    65
 73
     6
 40
12.7
 49
6.35
 74
     0
 49
-1.27
 74
     0
 49
1.27
 74
     0
 49
-1.27
 74
     0
 49
1.27
 74
     0
 49
-1.27
 74
     0
  0
LTYPE
  5
60
330
5
100
AcDbSymbolTableRecord
100
AcDbLinetypeTableRecord
  2
CENTER
 70
     0
  3
Center ____ _ ____ _ ____ _ ____ _ ____ _ ____
 72
    65
 73
     4
 40
10.16
 49
6.35
 74
     0
 49
-1.27
 74
     0
 49
1.27
 74
     0
 49
-1.27
 74
     0
  0
LTYPE
  5
61
330
5
100
AcDbSymbolTableRecord
100
AcDbLinetypeTableRecord
  2
CENTERX2
 70
     0
  3
Center (2x) ________  __  ________  __  _____
 72
    65
 73
     4
 40
20.32
 49
12.7
 74
     0
 49
-2.54
 74
     0
 49
2.54
 74
     0
 49
-2.54
 74
     0
  0
LTYPE
  5
62
330
5
100
AcDbSymbolTableRecord
100
AcDbLinetypeTableRecord
  2
DOT2
 70
     0
  3
Dot (.5x) ........................................
 72
    65
 73
     2
 40
0.635
 49
0.0
 74
     0
 49
-0.635
 74
     0
  0
ENDTAB
  0
TABLE
  2
LAYER
  5
2
330
0
100
AcDbSymbolTable
 70
     3
  0
LAYER
  5
10
330
2
100
AcDbSymbolTableRecord
100
AcDbLayerTableRecord
  2
0
 70
     0
 62
     7
  6
Continuous
370
    -3
390
F
  0
LAYER
  5
63
330
2
100
AcDbSymbolTableRecord
100
AcDbLayerTableRecord
  2
SLD-0
 70
     0
 62
   179
  6
Continuous
370
    -3
390
F
  0
LAYER
  5
64
330
2
100
AcDbSymbolTableRecord
100
AcDbLayerTableRecord
  2
寸法
 70
     0
 62
   179
  6
Continuous
370
    -3
390
F
  0
ENDTAB
  0
TABLE
  2
STYLE
  5
3
330
0
100
AcDbSymbolTable
 70
     2
  0
STYLE
  5
11
330
3
100
AcDbSymbolTableRecord
100
AcDbTextStyleTableRecord
  2
Standard
 70
     0
 40
0.0
 41
1.0
 50
0.0
 71
     0
 42
3.5
  3
txt
  4
bigfont
  0
STYLE
  5
66
330
3
100
AcDbSymbolTableRecord
100
AcDbTextStyleTableRecord
  2
SLDTEXTSTYLE0
 70
     0
 40
0.0
 41
0.75
 50
0.0
 71
     0
 42
3.5
  3
TXT
  4
bigfont
  0
ENDTAB
  0
TABLE
  2
VIEW
  5
6
330
0
100
AcDbSymbolTable
 70
     0
  0
ENDTAB
  0
TABLE
  2
UCS
  5
7
330
0
100
AcDbSymbolTable
 70
     0
  0
ENDTAB
  0
TABLE
  2
APPID
  5
9
330
0
100
AcDbSymbolTable
 70
     1
  0
APPID
  5
12
330
9
100
AcDbSymbolTableRecord
100
AcDbRegAppTableRecord
  2
ACAD
 70
     0
  0
ENDTAB
  0
TABLE
  2
DIMSTYLE
  5
A
330
0
100
AcDbSymbolTable
 70
     1
100
AcDbDimStyleTable
  0
DIMSTYLE
105
27
330
A
100
AcDbSymbolTableRecord
100
AcDbDimStyleTableRecord
  2
ISO-25
 70
     0
 41
2.5
 42
0.625
 43
3.75
 44
1.25
 73
     0
 74
     0
 77
     1
 78
     8
140
2.5
141
2.5
143
0.0393700787
147
0.625
171
     3
172
     1
178
     0
271
     2
272
     2
274
     3
278
    44
283
     0
284
     8
340
11
  0
ENDTAB
  0
TABLE
  2
BLOCK_RECORD
  5
1
330
0
100
AcDbSymbolTable
 70
     1
  0
BLOCK_RECORD
  5
1F
330
1
100
AcDbSymbolTableRecord
100
AcDbBlockTableRecord
  2
*Model_Space
340
22
  0
BLOCK_RECORD
  5
1B
330
1
100
AcDbSymbolTableRecord
100
AcDbBlockTableRecord
  2
*Paper_Space
340
1E
  0
BLOCK_RECORD
  5
23
330
1
100
AcDbSymbolTableRecord
100
AcDbBlockTableRecord
  2
*Paper_Space0
340
26
  0
ENDTAB
  0
ENDSEC
  0
SECTION
  2
BLOCKS
  0
BLOCK
  5
20
330
1F
100
AcDbEntity
  8
0
100
AcDbBlockBegin
  2
*Model_Space
 70
     0
 10
0.0
 20
0.0
 30
0.0
  3
*Model_Space
  1

  0
ENDBLK
  5
21
330
1F
100
AcDbEntity
  8
0
100
AcDbBlockEnd
  0
BLOCK
  5
1C
330
1B
100
AcDbEntity
 67
     1
  8
0
100
AcDbBlockBegin
  2
*Paper_Space
 70
     0
 10
0.0
 20
0.0
 30
0.0
  3
*Paper_Space
  1

  0
ENDBLK
  5
1D
330
1B
100
AcDbEntity
 67
     1
  8
0
100
AcDbBlockEnd
  0
BLOCK
  5
24
330
23
100
AcDbEntity
  8
0
100
AcDbBlockBegin
  2
*Paper_Space0
 70
     0
 10
0.0
 20
0.0
 30
0.0
  3
*Paper_Space0
  1

  0
ENDBLK
  5
25
330
23
100
AcDbEntity
  8
0
100
AcDbBlockEnd
  0
ENDSEC
  0
SECTION
  2
ENTITIES
  0
LINE
  5
65
330
1F
100
AcDbEntity
  8
0
  6
Continuous
 62
     7
370
    18
100
AcDbLine
 10
4801.663086451
 20
279.1403827252
 30
0.0
 11
3345.9062220501
 21
279.1403827252
 31
0.0
  0
MTEXT
  5
67
330
1F
100
AcDbEntity
  8
0
  6
Continuous
 62
     7
370
     0
100
AcDbMText
 10
1882.8324799637
 20
2519.2846179971
 30
0.0
 40
52.9166666667
 41
0.0
 71
     1
 72
     1
  1
＜正面＞
  7
SLDTEXTSTYLE0
 73
     1
 44
1.0
  0
MTEXT
  5
68
330
1F
100
AcDbEntity
  8
0
  6
Continuous
 62
     7
370
     0
100
AcDbMText
 10
3377.8142431891
 20
379.4057208634
 30
0.0
 40
52.9166666667
 41
0.0
 71
     1
 72
     1
  1
品名：
  7
SLDTEXTSTYLE0
 73
     1
 44
1.0
  0
MTEXT
  5
69
330
1F
100
AcDbEntity
  8
0
  6
Continuous
 62
     7
370
     0
100
AcDbMText
 10
4446.6634374817
 20
385.2343854145
 30
0.0
 40
52.9166666667
 41
0.0
 71
     1
 72
     1
  1
Pamouna
  7
SLDTEXTSTYLE0
 73
     1
 44
1.0
  0
MTEXT
  5
6A
330
1F
100
AcDbEntity
  8
寸法
 62
     7
100
AcDbMText
 10
4688.0073048854
 20
218.6255182943
 30
0.0
 40
52.9166666667
 41
0.0
 71
     1
 72
     1
  1
1/1
  7
SLDTEXTSTYLE0
 73
     1
 44
1.0
  0
MTEXT
  5
6B
330
1F
100
AcDbEntity
  8
寸法
 62
     7
100
AcDbMText
 10
3611.2831293492
 20
398.3924235142
 30
0.0
 40
66.1458333333
 41
0.0
 71
     1
 72
     1
  1
MAGS450L
  7
SLDTEXTSTYLE0
 73
     1
 44
1.0
  0
MTEXT
  5
6C
330
1F
100
AcDbEntity
  8
寸法
 62
     7
100
AcDbMText
 10
4198.7969392118
 20
218.6255210883
 30
0.0
 40
52.9166666667
 41
0.0
 71
     1
 72
     1
  1
2024/03/14
  7
SLDTEXTSTYLE0
 73
     1
 44
1.0
  0
MTEXT
  5
6D
330
1F
100
AcDbEntity
  8
寸法
 62
     7
100
AcDbMText
 10
3662.4665930518
 20
2520.6575766403
 30
0.0
 40
52.9166666667
 41
0.0
 71
     1
 72
     1
  1
＜右側面＞
  7
SLDTEXTSTYLE0
 73
     1
 44
1.0
  0
MTEXT
  5
6E
330
1F
100
AcDbEntity
  8
0
  6
Continuous
 62
     7
370
     0
100
AcDbMText
 10
1882.8017261557
 20
3205.5678091759
 30
0.0
 40
52.9166666667
 41
0.0
 71
     1
 72
     1
  1
＜上面＞
  7
SLDTEXTSTYLE0
 73
     1
 44
1.0
  0
MTEXT
  5
6F
330
1F
100
AcDbEntity
  8
0
  6
Continuous
 62
     7
370
     0
100
AcDbMText
 10
599.5723251208
 20
2520.5928474105
 30
0.0
 40
52.9166666667
 41
0.0
 71
     1
 72
     1
  1
＜左側面＞
  7
SLDTEXTSTYLE0
 73
     1
 44
1.0
  0
LINE
  5
70
330
1F
100
AcDbEntity
  8
0
  6
Continuous
 62
     7
370
    25
100
AcDbLine
 10
2164.6454585654
 20
616.2543978663
 30
0.0
 11
2166.4454585654
 21
616.2543978663
 31
0.0
  0
ARC
  5
71
330
1F
100
AcDbEntity
  8
0
  6
Continuous
 62
     7
370
    25
100
AcDbCircle
 10
2164.6454585654
 20
616.4543978663
 30
0.0
 40
0.1999999999999318
100
AcDbArc
 50
179.9999999999
 51
270.0
  0
LINE
  5
72
330
1F
100
AcDbEntity
  8
0
  6
Continuous
 62
     7
370
    25
100
AcDbLine
 10
2166.4454585654
 20
616.2543978663
 30
0.0
 11
2608.4454585654
 21
616.2543978663
 31
0.0
  0
LINE
  5
73
330
1F
100
AcDbEntity
  8
0
  6
Continuous
 62
     7
370
    25
100
AcDbLine
 10
2608.4454585654
 20
616.2543978663
 30
0.0
 11
2610.2454585654
 21
616.2543978663
 31
0.0
  0
ARC
  5
74
330
1F
100
AcDbEntity
  8
0
  6
Continuous
 62
     7
370
    25
100
AcDbCircle
 10
2610.2454585654
 20
616.4543978663
 30
0.0
 40
0.2000000000000455
100
AcDbArc
 50
270.0
 51
0.0
  0
LINE
  5
75
330
1F
100
AcDbEntity
  8
0
  6
Continuous
 62
     7
370
    25
100
AcDbLine
 10
2163.4454585654
 20
607.2543978663
 30
0.0
 11
2275.4454585654
 21
607.2543978663
 31
0.0
  0
LINE
  5
76
330
1F
100
AcDbEntity
  8
0
  6
Continuous
 62
     7
370
    25
100
AcDbLine
 10
2163.4454585654
 20
2378.2543978663
 30
0.0
 11
2163.4454585654
 21
607.2543978663
 31
0.0
  0
LINE
  5
77
330
1F
100
AcDbEntity
  8
0
  6
Continuous
 62
     7
370
    25
100
AcDbLine
 10
2164.4454585654
 20
2396.7543978663
 30
0.0
 11
2164.4454585654
 21
616.7543978663
 31
0.0
  0
LINE
  5
78
330
1F
100
AcDbEntity
  8
0
  6
Continuous
 62
     7
370
    25
100
AcDbLine
 10
2610.4454585654
 20
2396.7543978663
 30
0.0
 11
2164.4454585654
 21
2396.7543978663
 31
0.0
  0
LINE
  5
79
330
1F
100
AcDbEntity
  8
0
  6
Continuous
 62
     7
370
    25
100
AcDbLine
 10
2610.4454585654
 20
616.7543978663
 30
0.0
 11
2610.4454585654
 21
2396.7543978663
 31
0.0
  0
LINE
  5
7A
330
1F
100
AcDbEntity
  8
0
  6
Continuous
 62
     7
370
    25
100
AcDbLine
 10
2164.4454585654
 20
616.7543978663
 30
0.0
 11
2610.4454585654
 21
616.7543978663
 31
0.0
  0
LINE
  5
7B
330
1F
100
AcDbEntity
  8
0
  6
Continuous
 62
     7
370
    25
100
AcDbLine
 10
2594.4454585654
 20
616.2543978663
 30
0.0
 11
2594.4454585654
 21
606.7543978663
 31
0.0
  0
LINE
  5
7C
330
1F
100
AcDbEntity
  8
0
  6
Continuous
 62
     7
370
    25
100
AcDbLine
 10
2611.9454585654
 20
606.7543978663
 30
0.0
 11
2611.9454585654
 21
2378.2543978663
 31
0.0
  0
LINE
  5
7D
330
1F
100
AcDbEntity
  8
0
  6
Continuous
 62
     7
370
    25
100
AcDbLine
 10
2594.4454585654
 20
606.7543978663
 30
0.0
 11
2611.9454585654
 21
606.7543978663
 31
0.0
  0
LINE
  5
7E
330
1F
100
AcDbEntity
  8
0
  6
Continuous
 62
     7
370
    25
100
AcDbLine
 10
2292.9454585654
 20
606.7543978663
 30
0.0
 11
2292.9454585654
 21
616.2543978663
 31
0.0
  0
LINE
  5
7F
330
1F
100
AcDbEntity
  8
0
  6
Continuous
 62
     7
370
    25
100
AcDbLine
 10
2275.4454585654
 20
606.7543978663
 30
0.0
 11
2292.9454585654
 21
606.7543978663
 31
0.0
  0
LINE
  5
80
330
1F
100
AcDbEntity
  8
0
  6
Continuous
 62
     7
370
    25
100
AcDbLine
 10
2275.4454585654
 20
616.2543978663
 30
0.0
 11
2275.4454585654
 21
606.7543978663
 31
0.0
  0
LINE
  5
81
330
1F
100
AcDbEntity
  8
0
  6
Continuous
 62
     7
370
    25
100
AcDbLine
 10
2594.4454585654
 20
607.7543978663
 30
0.0
 11
2292.9454585654
 21
607.7543978663
 31
0.0
  0
LINE
  5
82
330
1F
100
AcDbEntity
  8
0
  6
Continuous
 62
     7
370
    25
100
AcDbLine
 10
2612.9454585654
 20
2406.7543978663
 30
0.0
 11
2162.4454585654
 21
2406.7543978663
 31
0.0
  0
LINE
  5
83
330
1F
100
AcDbEntity
  8
0
  6
Continuous
 62
     7
370
    25
100
AcDbLine
 10
2162.4454585654
 20
2406.7543978663
 30
0.0
 11
2162.4454585654
 21
2378.2543978663
 31
0.0
  0
LINE
  5
84
330
1F
100
AcDbEntity
  8
0
  6
Continuous
 62
     7
370
    25
100
AcDbLine
 10
2612.9454585654
 20
2378.2543978663
 30
0.0
 11
2610.4454585654
 21
2378.2543978663
 31
0.0
  0
LINE
  5
85
330
1F
100
AcDbEntity
  8
0
  6
Continuous
 62
     7
370
    25
100
AcDbLine
 10
2164.4454585654
 20
2378.2543978663
 30
0.0
 11
2162.4454585654
 21
2378.2543978663
 31
0.0
  0
LINE
  5
86
330
1F
100
AcDbEntity
  8
0
  6
Continuous
 62
     7
370
    25
100
AcDbLine
 10
2612.9454585654
 20
2406.7543978663
 30
0.0
 11
2612.9454585654
 21
2378.2543978663
 31
0.0
  0
LINE
  5
87
330
1F
100
AcDbEntity
  8
0
  6
Continuous
 62
     7
370
    25
100
AcDbLine
 10
2164.4454585654
 20
616.4655465881
 30
0.0
 11
2164.4454585654
 21
616.5543978663
 31
0.0
  0
SPLINE
  5
88
330
1F
100
AcDbEntity
  8
0
  6
Continuous
 62
     7
370
    25
100
AcDbSpline
210
0.0
220
0.0
230
1.0
 70
     8
 71
     3
 72
    13
 73
     9
 74
     0
 42
0.00000001
 43
0.00000001
 40
0.0
 40
0.0
 40
0.0
 40
0.0
 40
0.0075029974114416
 40
0.3818974549664173
 40
0.6070018873272666
 40
0.7653769096343476
 40
0.8824605049810764
 40
1.0
 40
1.0
 40
1.0
 40
1.0
 10
2164.445458565351
 20
616.5543978663152
 30
0.0
 10
2164.445459520956
 20
616.5548358642103
 30
0.0
 10
2164.445508160569
 20
616.5771296585793
 30
0.0
 10
2164.45163026531
 20
616.6240140467953
 30
0.0
 10
2164.493646370784
 20
616.6902984838316
 30
0.0
 10
2164.54245717275
 20
616.7285600430041
 30
0.0
 10
2164.593187820066
 20
616.7503158187393
 30
0.0
 10
2164.628012427516
 20
616.7530354222888
 30
0.0
 10
2164.645458565351
 20
616.7543978663148
 30
0.0
  0
LINE
  5
89
330
1F
100
AcDbEntity
  8
0
  6
Continuous
 62
     7
370
    25
100
AcDbLine
 10
2164.6454585654
 20
616.7543978663
 30
0.0
 11
2164.6454585654
 21
616.2683337685
 31
0.0
  0
ARC
  5
8A
330
1F
100
AcDbEntity
  8
0
  6
Continuous
 62
     7
370
    25
100
AcDbCircle
 10
2164.6440746856
 20
616.466950026
 30
0.0
 40
0.1986210785930891
100
AcDbArc
 50
180.4048499763
 51
270.3992079344
  0
LINE
  5
8B
330
1F
100
AcDbEntity
  8
0
  6
Continuous
 62
     7
370
    25
100
AcDbLine
 10
2166.4454585654
 20
616.2683337685
 30
0.0
 11
2166.4454585654
 21
616.7543978663
 31
0.0
  0
LINE
  5
8C
330
1F
100
AcDbEntity
  8
0
  6
Continuous
 62
     7
370
    25
100
AcDbLine
 10
2164.6454585654
 20
616.2683337685
 30
0.0
 11
2166.4454585654
 21
616.2683337685
 31
0.0
  0
LINE
  5
8D
330
1F
100
AcDbEntity
  8
0
  6
Continuous
 62
     7
370
    25
100
AcDbLine
 10
2166.4454585654
 20
616.2543978663
 30
0.0
 11
2166.4454585654
 21
616.2683337685
 31
0.0
  0
LINE
  5
8E
330
1F
100
AcDbEntity
  8
0
  6
Continuous
 62
     7
370
    25
100
AcDbLine
 10
2164.4454585654
 20
616.4543978663
 30
0.0
 11
2164.4454585654
 21
616.4655465881
 31
0.0
  0
LINE
  5
8F
330
1F
100
AcDbEntity
  8
0
  6
Continuous
 62
     7
370
    25
100
AcDbLine
 10
2164.4454585654
 20
616.5543978663
 30
0.0
 11
2164.4454585654
 21
616.7543978663
 31
0.0
  0
LINE
  5
90
330
1F
100
AcDbEntity
  8
0
  6
Continuous
 62
     7
370
    25
100
AcDbLine
 10
2166.4454585654
 20
616.2683337685
 30
0.0
 11
2608.4454585654
 21
616.2683337685
 31
0.0
  0
LINE
  5
91
330
1F
100
AcDbEntity
  8
0
  6
Continuous
 62
     7
370
    25
100
AcDbLine
 10
2608.4454585654
 20
616.7543978663
 30
0.0
 11
2608.4454585654
 21
616.2683337685
 31
0.0
  0
LINE
  5
92
330
1F
100
AcDbEntity
  8
0
  6
Continuous
 62
     7
370
    25
100
AcDbLine
 10
2608.4454585654
 20
616.2683337685
 30
0.0
 11
2608.4454585654
 21
616.2543978663
 31
0.0
  0
LINE
  5
93
330
1F
100
AcDbEntity
  8
0
  6
Continuous
 62
     7
370
    25
100
AcDbLine
 10
2610.4454585654
 20
616.5543978663
 30
0.0
 11
2610.4454585654
 21
616.4655465881
 31
0.0
  0
ARC
  5
94
330
1F
100
AcDbEntity
  8
0
  6
Continuous
 62
     7
370
    25
100
AcDbCircle
 10
2610.2468424451
 20
616.466950026
 30
0.0
 40
0.1986210785916859
100
AcDbArc
 50
269.6007920651
 51
359.5951500239
  0
LINE
  5
95
330
1F
100
AcDbEntity
  8
0
  6
Continuous
 62
     7
370
    25
100
AcDbLine
 10
2610.2454585654
 20
616.2683337685
 30
0.0
 11
2610.2454585654
 21
616.7543978663
 31
0.0
  0
SPLINE
  5
96
330
1F
100
AcDbEntity
  8
0
  6
Continuous
 62
     7
370
    25
100
AcDbSpline
210
0.0
220
0.0
230
1.0
 70
     8
 71
     3
 72
    13
 73
     9
 74
     0
 42
0.00000001
 43
0.00000001
 40
0.0
 40
0.0
 40
0.0
 40
0.0
 40
0.0075029974113241
 40
0.3818974549655675
 40
0.6070018873266094
 40
0.7653769096339128
 40
0.8824605049806455
 40
0.9999999999999999
 40
0.9999999999999999
 40
0.9999999999999999
 40
0.9999999999999999
 10
2610.445458565359
 20
616.554397866313
 30
0.0
 10
2610.445457609755
 20
616.5548358642081
 30
0.0
 10
2610.44540897014
 20
616.5771296585774
 30
0.0
 10
2610.439286865401
 20
616.6240140467929
 30
0.0
 10
2610.397270759927
 20
616.6902984838292
 30
0.0
 10
2610.34845995796
 20
616.728560043002
 30
0.0
 10
2610.297729310645
 20
616.750315818737
 30
0.0
 10
2610.262904703195
 20
616.7530354222868
 30
0.0
 10
2610.245458565359
 20
616.7543978663131
 30
0.0
  0
LINE
  5
97
330
1F
100
AcDbEntity
  8
0
  6
Continuous
 62
     7
370
    25
100
AcDbLine
 10
2608.4454585654
 20
616.2683337685
 30
0.0
 11
2610.2454585654
 21
616.2683337685
 31
0.0
  0
LINE
  5
98
330
1F
100
AcDbEntity
  8
0
  6
Continuous
 62
     7
370
    25
100
AcDbLine
 10
2610.4454585654
 20
616.4655465881
 30
0.0
 11
2610.4454585654
 21
616.4543978663
 31
0.0
  0
LINE
  5
99
330
1F
100
AcDbEntity
  8
0
  6
Continuous
 62
     7
370
    25
100
AcDbLine
 10
2610.4454585654
 20
616.7543978663
 30
0.0
 11
2610.4454585654
 21
616.5543978663
 31
0.0
  0
LINE
  5
9A
330
1F
100
AcDbEntity
  8
0
  6
Continuous
 62
     7
370
    25
100
AcDbLine
 10
2164.6454585654
 20
616.2683337685
 30
0.0
 11
2164.6454585654
 21
616.2543978663
 31
0.0
  0
LINE
  5
9B
330
1F
100
AcDbEntity
  8
0
  6
Continuous
 62
     7
370
    25
100
AcDbLine
 10
2610.2454585654
 20
616.2543978663
 30
0.0
 11
2610.2454585654
 21
616.2683337685
 31
0.0
  0
LINE
  5
9C
330
1F
100
AcDbEntity
  8
0
  6
Continuous
 62
     7
370
    25
100
AcDbLine
 10
755.7831445376
 20
2309.2767567878
 30
0.0
 11
757.7608646997
 21
2309.2249683628
 31
0.0
  0
LINE
  5
9D
330
1F
100
AcDbEntity
  8
0
  6
Continuous
 62
     7
370
    25
100
AcDbLine
 10
757.7608646997
 20
2314.7268537215
 30
0.0
 11
755.9271177533
 21
2314.7748720752
 31
0.0
  0
ARC
  5
9E
330
1F
100
AcDbEntity
  8
0
  6
Continuous
 62
     7
370
    25
100
AcDbCircle
 10
755.7909976221
 20
2309.5766539853
 30
0.0
 40
0.3000000000007911
100
AcDbArc
 50
178.5000000001
 51
268.5
  0
ARC
  5
9F
330
1F
100
AcDbEntity
  8
0
  6
Continuous
 62
     7
370
    25
100
AcDbCircle
 10
755.9192646688
 20
2314.4749748777
 30
0.0
 40
0.2999999999999956
100
AcDbArc
 50
88.5
 51
178.5
  0
ARC
  5
A0
330
1F
100
AcDbEntity
  8
0
  6
Continuous
 62
     7
370
    25
100
AcDbCircle
 10
754.280819647
 20
2337.8758832752
 30
0.0
 40
1.19999999999999
100
AcDbArc
 50
88.5000000001
 51
173.5000000033
  0
ARC
  5
A1
330
1F
100
AcDbEntity
  8
0
  6
Continuous
 62
     7
370
    25
100
AcDbCircle
 10
753.8201053568
 20
2320.2819143556
 30
0.0
 40
1.199999999999974
100
AcDbArc
 50
183.4999999969
 51
268.5000000001
  0
LINE
  5
A2
330
1F
100
AcDbEntity
  8
0
  6
Continuous
 62
     7
370
    25
100
AcDbLine
 10
755.0624227623
 20
2339.0558276283
 30
0.0
 11
754.312231985
 21
2339.0754720652
 31
0.0
  0
LINE
  5
A3
330
1F
100
AcDbEntity
  8
0
  6
Continuous
 62
     7
370
    25
100
AcDbLine
 10
753.7886930188
 20
2319.0823255657
 30
0.0
 11
754.5388837961
 21
2319.0626811288
 31
0.0
  0
ARC
  5
A4
330
1F
100
AcDbEntity
  8
0
  6
Continuous
 62
     7
370
    25
100
AcDbCircle
 10
755.0571873726
 20
2338.8558961633
 30
0.0
 40
0.1999999999999552
100
AcDbArc
 50
358.5000000001
 51
88.5000000001
  0
ARC
  5
A5
330
1F
100
AcDbEntity
  8
0
  6
Continuous
 62
     7
370
    25
100
AcDbCircle
 10
754.5441191858
 20
2319.2626125938
 30
0.0
 40
0.2000000000000718
100
AcDbArc
 50
268.5000000001
 51
358.5000000001
  0
LINE
  5
A6
330
1F
100
AcDbEntity
  8
0
  6
Continuous
 62
     7
370
    25
100
AcDbLine
 10
753.0885334202
 20
2338.0117271316
 30
0.0
 11
752.9067456257
 21
2336.4161961367
 31
0.0
  0
LINE
  5
A7
330
1F
100
AcDbEntity
  8
0
  6
Continuous
 62
     7
370
    25
100
AcDbLine
 10
752.5243085784
 20
2321.8115145215
 30
0.0
 11
752.6223435987
 21
2320.2086561082
 31
0.0
  0
ARC
  5
A8
330
1F
100
AcDbEntity
  8
0
  6
Continuous
 62
     7
370
    25
100
AcDbCircle
 10
782.713901296
 20
2333.0200997237
 30
0.0
 40
30.00000000000212
100
AcDbArc
 50
173.5000000001
 51
178.5000000001
  0
ARC
  5
A9
330
1F
100
AcDbEntity
  8
0
  6
Continuous
 62
     7
370
    25
100
AcDbCircle
 10
782.4683525311
 20
2323.6429707076
 30
0.0
 40
30.0000000000021
100
AcDbArc
 50
178.5000000001
 51
183.5000000001
  0
SPLINE
  5
AA
330
1F
100
AcDbEntity
  8
0
  6
Continuous
 62
     7
370
    25
100
AcDbSpline
210
0.0
220
0.0
230
1.0
 70
     8
 71
     3
 72
    11
 73
     7
 74
     0
 42
0.00000001
 43
0.00000001
 40
0.0
 40
0.0
 40
0.0
 40
0.0
 40
0.2706712709042883
 40
0.5632120728000981
 40
0.7903891635243743
 40
1.0
 40
1.0
 40
1.0
 40
1.0
 10
755.6182096740729
 20
2333.539388477128
 30
0.0
 10
755.5468684198308
 20
2333.550264842409
 30
0.0
 10
755.398421724533
 20
2333.57289635485
 30
0.0
 10
755.2335290074539
 20
2333.715140595837
 30
0.0
 10
755.1414156889861
 20
2333.888327175569
 30
0.0
 10
755.134819864951
 20
2334.00390799813
 30
0.0
 10
755.1316545847151
 20
2334.059374258503
 30
0.0
  0
SPLINE
  5
AB
330
1F
100
AcDbEntity
  8
0
  6
Continuous
 62
     7
370
    25
100
AcDbSpline
210
0.0
220
0.0
230
1.0
 70
     8
 71
     3
 72
    11
 73
     7
 74
     0
 42
0.00000001
 43
0.00000001
 40
0.0
 40
0.0
 40
0.0
 40
0.0
 40
0.2695105035986207
 40
0.5617364405776101
 40
0.7894224931279318
 40
1.0
 40
1.0
 40
1.0
 40
1.0
 10
754.8695149036932
 20
2324.048663719286
 30
0.0
 10
754.8793194530741
 20
2324.119837570832
 30
0.0
 10
754.8997549188432
 20
2324.268184093495
 30
0.0
 10
755.0390762672753
 20
2324.435140957513
 30
0.0
 10
755.2110587288972
 20
2324.530232716836
 30
0.0
 10
755.3269388781396
 20
2324.538500186575
 30
0.0
 10
755.382617139311
 20
2324.542472552354
 30
0.0
  0
LINE
  5
AC
330
1F
100
AcDbEntity
  8
0
  6
Continuous
 62
     7
370
    25
100
AcDbLine
 10
757.7608646997
 20
2333.4832810807
 30
0.0
 11
755.6182096741
 21
2333.5393884771
 31
0.0
  0
LINE
  5
AD
330
1F
100
AcDbEntity
  8
0
  6
Continuous
 62
     7
370
    25
100
AcDbLine
 10
755.3826171393
 20
2324.5424725523
 30
0.0
 11
757.7608646997
 21
2324.4801959483
 31
0.0
  0
LINE
  5
AE
330
1F
100
AcDbEntity
  8
0
  6
Continuous
 62
     7
370
    25
100
AcDbLine
 10
1138.2608646997
 20
1796.2543978663
 30
0.0
 11
1136.2608646997
 21
1796.2543978663
 31
0.0
  0
LINE
  5
AF
330
1F
100
AcDbEntity
  8
0
  6
Continuous
 62
     7
370
    25
100
AcDbLine
 10
1136.2608646997
 20
1761.2543978663
 30
0.0
 11
1138.2608646997
 21
1761.2543978663
 31
0.0
  0
LINE
  5
B0
330
1F
100
AcDbEntity
  8
0
  6
Continuous
 62
     7
370
    25
100
AcDbLine
 10
1136.2608646997
 20
2250.7543978663
 30
0.0
 11
1138.2608646997
 21
2250.7543978663
 31
0.0
  0
LINE
  5
B1
330
1F
100
AcDbEntity
  8
0
  6
Continuous
 62
     7
370
    25
100
AcDbLine
 10
1138.2608646997
 20
2312.7543978663
 30
0.0
 11
1136.2608646997
 21
2312.7543978663
 31
0.0
  0
LINE
  5
B2
330
1F
100
AcDbEntity
  8
0
  6
Continuous
 62
     7
370
    25
100
AcDbLine
 10
1138.2608646997
 20
822.7543978663
 30
0.0
 11
1136.2608646997
 21
822.7543978663
 31
0.0
  0
LINE
  5
B3
330
1F
100
AcDbEntity
  8
0
  6
Continuous
 62
     7
370
    25
100
AcDbLine
 10
1136.2608646997
 20
722.7543978663
 30
0.0
 11
1138.2608646997
 21
722.7543978663
 31
0.0
  0
LINE
  5
B4
330
1F
100
AcDbEntity
  8
0
  6
Continuous
 62
     7
370
    25
100
AcDbLine
 10
1138.2608646997
 20
1313.2543978663
 30
0.0
 11
1136.2608646997
 21
1313.2543978663
 31
0.0
  0
LINE
  5
B5
330
1F
100
AcDbEntity
  8
0
  6
Continuous
 62
     7
370
    25
100
AcDbLine
 10
1136.2608646997
 20
1278.2543978663
 30
0.0
 11
1138.2608646997
 21
1278.2543978663
 31
0.0
  0
LINE
  5
B6
330
1F
100
AcDbEntity
  8
0
  6
Continuous
 62
     7
370
    25
100
AcDbLine
 10
1115.5108646997
 20
1988.7543978663
 30
0.0
 11
1115.5108646997
 21
2005.7543978663
 31
0.0
  0
LINE
  5
B7
330
1F
100
AcDbEntity
  8
0
  6
Continuous
 62
     7
370
    25
100
AcDbLine
 10
776.0108646997
 20
2005.7543978663
 30
0.0
 11
776.0108646997
 21
1988.7543978663
 31
0.0
  0
LINE
  5
B8
330
1F
100
AcDbEntity
  8
0
  6
Continuous
 62
     7
370
    25
100
AcDbLine
 10
1115.5108646997
 20
2005.7543978663
 30
0.0
 11
776.0108646997
 21
2005.7543978663
 31
0.0
  0
LINE
  5
B9
330
1F
100
AcDbEntity
  8
0
  6
Continuous
 62
     7
370
    25
100
AcDbLine
 10
776.0108646997
 20
1988.7543978663
 30
0.0
 11
1115.5108646997
 21
1988.7543978663
 31
0.0
  0
LINE
  5
BA
330
1F
100
AcDbEntity
  8
0
  6
Continuous
 62
     7
370
    25
100
AcDbLine
 10
1115.5108646997
 20
618.7543978663
 30
0.0
 11
1115.5108646997
 21
635.7543978663
 31
0.0
  0
LINE
  5
BB
330
1F
100
AcDbEntity
  8
0
  6
Continuous
 62
     7
370
    25
100
AcDbLine
 10
776.0108646997
 20
618.7543978663
 30
0.0
 11
1115.5108646997
 21
618.7543978663
 31
0.0
  0
LINE
  5
BC
330
1F
100
AcDbEntity
  8
0
  6
Continuous
 62
     7
370
    25
100
AcDbLine
 10
776.0108646997
 20
635.7543978663
 30
0.0
 11
776.0108646997
 21
618.7543978663
 31
0.0
  0
LINE
  5
BD
330
1F
100
AcDbEntity
  8
0
  6
Continuous
 62
     7
370
    25
100
AcDbLine
 10
1115.5108646997
 20
635.7543978663
 30
0.0
 11
776.0108646997
 21
635.7543978663
 31
0.0
  0
LINE
  5
BE
330
1F
100
AcDbEntity
  8
0
  6
Continuous
 62
     7
370
    25
100
AcDbLine
 10
1115.5108646997
 20
1118.7543978663
 30
0.0
 11
1115.5108646997
 21
1135.7543978663
 31
0.0
  0
LINE
  5
BF
330
1F
100
AcDbEntity
  8
0
  6
Continuous
 62
     7
370
    25
100
AcDbLine
 10
776.0108646997
 20
1135.7543978663
 30
0.0
 11
776.0108646997
 21
1118.7543978663
 31
0.0
  0
LINE
  5
C0
330
1F
100
AcDbEntity
  8
0
  6
Continuous
 62
     7
370
    25
100
AcDbLine
 10
1115.5108646997
 20
1135.7543978663
 30
0.0
 11
776.0108646997
 21
1135.7543978663
 31
0.0
  0
LINE
  5
C1
330
1F
100
AcDbEntity
  8
0
  6
Continuous
 62
     7
370
    25
100
AcDbLine
 10
776.0108646997
 20
1118.7543978663
 30
0.0
 11
1115.5108646997
 21
1118.7543978663
 31
0.0
  0
LINE
  5
C2
330
1F
100
AcDbEntity
  8
0
  6
Continuous
 62
     7
370
    25
100
AcDbLine
 10
1115.7608646997
 20
1506.7543978663
 30
0.0
 11
775.7608646997
 21
1506.7543978663
 31
0.0
  0
LINE
  5
C3
330
1F
100
AcDbEntity
  8
0
  6
Continuous
 62
     7
370
    25
100
AcDbLine
 10
1115.7608646997
 20
1489.7543978663
 30
0.0
 11
775.7608646997
 21
1489.7543978663
 31
0.0
  0
LINE
  5
C4
330
1F
100
AcDbEntity
  8
0
  6
Continuous
 62
     7
370
    25
100
AcDbLine
 10
1133.2608646997
 20
2378.2543978663
 30
0.0
 11
1133.2608646997
 21
607.2543978663
 31
0.0
  0
LINE
  5
C5
330
1F
100
AcDbEntity
  8
0
  6
Continuous
 62
     7
370
    25
100
AcDbLine
 10
1115.7608646997
 20
607.2543978663
 30
0.0
 11
1115.7608646997
 21
2378.2543978663
 31
0.0
  0
LINE
  5
C6
330
1F
100
AcDbEntity
  8
0
  6
Continuous
 62
     7
370
    25
100
AcDbLine
 10
1133.2608646997
 20
607.2543978663
 30
0.0
 11
1115.7608646997
 21
607.2543978663
 31
0.0
  0
LINE
  5
C7
330
1F
100
AcDbEntity
  8
0
  6
Continuous
 62
     7
370
    25
100
AcDbLine
 10
775.7608646997
 20
607.2543978663
 30
0.0
 11
758.2608646997
 21
607.2543978663
 31
0.0
  0
LINE
  5
C8
330
1F
100
AcDbEntity
  8
0
  6
Continuous
 62
     7
370
    25
100
AcDbLine
 10
758.2608646997
 20
607.2543978663
 30
0.0
 11
758.2608646997
 21
2378.2543978663
 31
0.0
  0
LINE
  5
C9
330
1F
100
AcDbEntity
  8
0
  6
Continuous
 62
     7
370
    25
100
AcDbLine
 10
775.7608646997
 20
2378.2543978663
 30
0.0
 11
775.7608646997
 21
607.2543978663
 31
0.0
  0
SPLINE
  5
CA
330
1F
100
AcDbEntity
  8
0
  6
Continuous
 62
     7
370
    25
100
AcDbSpline
210
0.0
220
0.0
230
1.0
 70
     8
 71
     3
 72
    11
 73
     7
 74
     0
 42
0.00000001
 43
0.00000001
 40
0.0
 40
0.0
 40
0.0
 40
0.0
 40
0.2382247349852441
 40
0.4921376904596991
 40
0.7460575595479955
 40
1.0
 40
1.0
 40
1.0
 40
1.0
 10
755.4913742188841
 20
2309.594962851254
 30
0.0
 10
755.4920466031306
 20
2309.62064017077
 30
0.0
 10
755.4934356512919
 20
2309.673685782194
 30
0.0
 10
755.5069732494546
 20
2310.190665780915
 30
0.0
 10
755.5270738372204
 20
2310.958276326873
 30
0.0
 10
755.5434574874987
 20
2311.583942518898
 30
0.0
 10
755.5516496767143
 20
2311.896789518421
 30
0.0
  0
LINE
  5
CB
330
1F
100
AcDbEntity
  8
0
  6
Continuous
 62
     7
370
    25
100
AcDbLine
 10
755.5516496767
 20
2311.8967895184
 30
0.0
 11
755.555233948
 21
2312.033667516
 31
0.0
  0
SPLINE
  5
CC
330
1F
100
AcDbEntity
  8
0
  6
Continuous
 62
     7
370
    25
100
AcDbSpline
210
0.0
220
0.0
230
1.0
 70
    24
 71
     3
 72
    12
 73
     8
 74
     0
 42
0.00000001
 43
0.00000001
 40
0.0
 40
0.0
 40
0.0
 40
0.0
 40
0.2460973337390421
 40
0.492195565419535
 40
0.7383025770440239
 40
0.9844160040481702
 40
0.9999999999999999
 40
0.9999999999999999
 40
0.9999999999999999
 40
0.9999999999999999
 10
755.555233947963
 20
2312.033667515997
 30
0.0
 10
755.563463424964
 20
2312.347938563495
 30
0.0
 10
755.5799224089927
 20
2312.97648180518
 30
0.0
 10
755.6012384121025
 20
2313.790507122341
 30
0.0
 10
755.614778674848
 20
2314.30758889509
 30
0.0
 10
755.6206981519312
 20
2314.533644604741
 30
0.0
 10
755.6191779215924
 20
2314.475589350331
 30
0.0
 10
755.619087392373
 20
2314.472132178917
 30
0.0
  0
SPLINE
  5
CD
330
1F
100
AcDbEntity
  8
0
  6
Continuous
 62
     7
370
    25
100
AcDbSpline
210
0.0
220
0.0
230
1.0
 70
    24
 71
     3
 72
    13
 73
     9
 74
     0
 42
0.00000001
 43
0.00000001
 40
0.0
 40
0.0
 40
0.0
 40
0.0
 40
0.1538581583652745
 40
0.3079676862453877
 40
0.4535077802386499
 40
0.5878340078347466
 40
0.8177872163815896
 40
0.9999999999999999
 40
0.9999999999999999
 40
0.9999999999999999
 40
0.9999999999999999
 10
755.2568851491648
 20
2338.841736571925
 30
0.0
 10
755.2555656725214
 20
2338.791347791833
 30
0.0
 10
755.2529245635075
 20
2338.690487907751
 30
0.0
 10
755.2306977780952
 20
2337.841681217697
 30
0.0
 10
755.1985297677987
 20
2336.613234465781
 30
0.0
 10
755.1492668362107
 20
2334.731959007908
 30
0.0
 10
755.0834475074713
 20
2332.218420251279
 30
0.0
 10
755.0287224443244
 20
2330.128554404691
 30
0.0
 10
755.0045292641997
 20
2329.204654130203
 30
0.0
  0
SPLINE
  5
CE
330
1F
100
AcDbEntity
  8
0
  6
Continuous
 62
     7
370
    25
100
AcDbSpline
210
0.0
220
0.0
230
1.0
 70
    24
 71
     3
 72
    13
 73
     9
 74
     0
 42
0.00000001
 43
0.00000001
 40
0.0
 40
0.0
 40
0.0
 40
0.0
 40
0.1813201537908955
 40
0.4101468448381287
 40
0.5438150184965721
 40
0.6886421238876179
 40
0.8419966874127123
 40
1.0
 40
1.0
 40
1.0
 40
1.0
 10
755.0005847442039
 20
2329.054018988889
 30
0.0
 10
754.9763578705611
 20
2328.128832010848
 30
0.0
 10
754.9215565946016
 20
2326.036055714359
 30
0.0
 10
754.8551963635792
 20
2323.501860732923
 30
0.0
 10
754.8052253470261
 20
2321.59354460118
 30
0.0
 10
754.7723032583107
 20
2320.336300756249
 30
0.0
 10
754.7490210995843
 20
2319.447190985343
 30
0.0
 10
754.7457289061754
 20
2319.321467191345
 30
0.0
 10
754.7440582323168
 20
2319.257666730695
 30
0.0
  0
LINE
  5
CF
330
1F
100
AcDbEntity
  8
0
  6
Continuous
 62
     7
370
    25
100
AcDbLine
 10
752.4786327818
 20
2324.4282791568
 30
0.0
 11
752.7241815467
 21
2333.8054081729
 31
0.0
  0
SPLINE
  5
D0
330
1F
100
AcDbEntity
  8
0
  6
Continuous
 62
     7
370
    25
100
AcDbSpline
210
0.0
220
0.0
230
1.0
 70
     8
 71
     3
 72
    11
 73
     7
 74
     0
 42
0.00000001
 43
0.00000001
 40
0.0
 40
0.0
 40
0.0
 40
0.0
 40
0.2702619356875479
 40
0.5624305486172654
 40
0.7897374073710786
 40
1.0
 40
1.0
 40
1.0
 40
1.0
 10
755.4965437889365
 20
2328.893155774585
 30
0.0
 10
755.4257065946488
 20
2328.894721041429
 30
0.0
 10
755.2782903410637
 20
2328.897978451272
 30
0.0
 10
755.1105191259073
 20
2328.897927095682
 30
0.0
 10
755.0127956958077
 20
2328.894958610164
 30
0.0
 10
755.0016438762465
 20
2328.891490841407
 30
0.0
 10
754.9962851600791
 20
2328.889824495534
 30
0.0
  0
LINE
  5
D1
330
1F
100
AcDbEntity
  8
0
  6
Continuous
 62
     7
370
    25
100
AcDbLine
 10
1136.2608646997
 20
1778.7543978663
 30
0.0
 11
1136.2608646997
 21
1796.2543978663
 31
0.0
  0
LINE
  5
D2
330
1F
100
AcDbEntity
  8
0
  6
Continuous
 62
     7
370
    25
100
AcDbLine
 10
1136.2608646997
 20
1761.2543978663
 30
0.0
 11
1136.2608646997
 21
1778.7543978663
 31
0.0
  0
LINE
  5
D3
330
1F
100
AcDbEntity
  8
0
  6
Continuous
 62
     7
370
    25
100
AcDbLine
 10
1136.2608646997
 20
2270.7543978663
 30
0.0
 11
1138.2608646997
 21
2270.7543978663
 31
0.0
  0
LINE
  5
D4
330
1F
100
AcDbEntity
  8
0
  6
Continuous
 62
     7
370
    25
100
AcDbLine
 10
1136.2608646997
 20
2270.7543978663
 30
0.0
 11
1136.2608646997
 21
2292.7543978663
 31
0.0
  0
LINE
  5
D5
330
1F
100
AcDbEntity
  8
0
  6
Continuous
 62
     7
370
    25
100
AcDbLine
 10
1136.2608646997
 20
2292.7543978663
 30
0.0
 11
1138.2608646997
 21
2292.7543978663
 31
0.0
  0
LINE
  5
D6
330
1F
100
AcDbEntity
  8
0
  6
Continuous
 62
     7
370
    25
100
AcDbLine
 10
1136.2608646997
 20
2250.7543978663
 30
0.0
 11
1136.2608646997
 21
2270.7543978663
 31
0.0
  0
LINE
  5
D7
330
1F
100
AcDbEntity
  8
0
  6
Continuous
 62
     7
370
    25
100
AcDbLine
 10
1136.2608646997
 20
2292.7543978663
 30
0.0
 11
1136.2608646997
 21
2312.7543978663
 31
0.0
  0
LINE
  5
D8
330
1F
100
AcDbEntity
  8
0
  6
Continuous
 62
     7
370
    25
100
AcDbLine
 10
1136.2608646997
 20
802.7543978663
 30
0.0
 11
1138.2608646997
 21
802.7543978663
 31
0.0
  0
LINE
  5
D9
330
1F
100
AcDbEntity
  8
0
  6
Continuous
 62
     7
370
    25
100
AcDbLine
 10
1136.2608646997
 20
802.7543978663
 30
0.0
 11
1136.2608646997
 21
822.7543978663
 31
0.0
  0
LINE
  5
DA
330
1F
100
AcDbEntity
  8
0
  6
Continuous
 62
     7
370
    25
100
AcDbLine
 10
1136.2608646997
 20
742.7543978663
 30
0.0
 11
1138.2608646997
 21
742.7543978663
 31
0.0
  0
LINE
  5
DB
330
1F
100
AcDbEntity
  8
0
  6
Continuous
 62
     7
370
    25
100
AcDbLine
 10
1136.2608646997
 20
722.7543978663
 30
0.0
 11
1136.2608646997
 21
742.7543978663
 31
0.0
  0
LINE
  5
DC
330
1F
100
AcDbEntity
  8
0
  6
Continuous
 62
     7
370
    25
100
AcDbLine
 10
1136.2608646997
 20
742.7543978663
 30
0.0
 11
1136.2608646997
 21
802.7543978663
 31
0.0
  0
LINE
  5
DD
330
1F
100
AcDbEntity
  8
0
  6
Continuous
 62
     7
370
    25
100
AcDbLine
 10
1136.2608646997
 20
1295.7543978663
 30
0.0
 11
1136.2608646997
 21
1313.2543978663
 31
0.0
  0
LINE
  5
DE
330
1F
100
AcDbEntity
  8
0
  6
Continuous
 62
     7
370
    25
100
AcDbLine
 10
1136.2608646997
 20
1278.2543978663
 30
0.0
 11
1136.2608646997
 21
1295.7543978663
 31
0.0
  0
LINE
  5
DF
330
1F
100
AcDbEntity
  8
0
  6
Continuous
 62
     7
370
    25
100
AcDbLine
 10
1156.2608646997
 20
2396.7543978663
 30
0.0
 11
1156.2608646997
 21
616.7543978663
 31
0.0
  0
LINE
  5
E0
330
1F
100
AcDbEntity
  8
0
  6
Continuous
 62
     7
370
    25
100
AcDbLine
 10
1156.2608646997
 20
616.7543978663
 30
0.0
 11
1152.2608646997
 21
616.7543978663
 31
0.0
  0
LINE
  5
E1
330
1F
100
AcDbEntity
  8
0
  6
Continuous
 62
     7
370
    25
100
AcDbLine
 10
1152.2608646997
 20
616.7543978663
 30
0.0
 11
1152.2608646997
 21
629.7543978663
 31
0.0
  0
LINE
  5
E2
330
1F
100
AcDbEntity
  8
0
  6
Continuous
 62
     7
370
    25
100
AcDbLine
 10
1156.2608646997
 20
2396.7543978663
 30
0.0
 11
1138.2608646997
 21
2396.7543978663
 31
0.0
  0
LINE
  5
E3
330
1F
100
AcDbEntity
  8
0
  6
Continuous
 62
     7
370
    25
100
AcDbLine
 10
1152.2608646997
 20
629.7543978663
 30
0.0
 11
1139.7608646997
 21
629.7543978663
 31
0.0
  0
LINE
  5
E4
330
1F
100
AcDbEntity
  8
0
  6
Continuous
 62
     7
370
    25
100
AcDbLine
 10
1139.7608646997
 20
629.7543978663
 30
0.0
 11
1139.7608646997
 21
650.2543978663
 31
0.0
  0
LINE
  5
E5
330
1F
100
AcDbEntity
  8
0
  6
Continuous
 62
     7
370
    25
100
AcDbLine
 10
1138.2608646997
 20
2396.7543978663
 30
0.0
 11
1138.2608646997
 21
650.2543978663
 31
0.0
  0
LINE
  5
E6
330
1F
100
AcDbEntity
  8
0
  6
Continuous
 62
     7
370
    25
100
AcDbLine
 10
1139.7608646997
 20
650.2543978663
 30
0.0
 11
1138.2608646997
 21
650.2543978663
 31
0.0
  0
LINE
  5
E7
330
1F
100
AcDbEntity
  8
0
  6
Continuous
 62
     7
370
    25
100
AcDbLine
 10
1136.2608646997
 20
2378.2543978663
 30
0.0
 11
1136.2608646997
 21
2312.7543978663
 31
0.0
  0
LINE
  5
E8
330
1F
100
AcDbEntity
  8
0
  6
Continuous
 62
     7
370
    25
100
AcDbLine
 10
1136.2608646997
 20
2250.7543978663
 30
0.0
 11
1136.2608646997
 21
1796.2543978663
 31
0.0
  0
LINE
  5
E9
330
1F
100
AcDbEntity
  8
0
  6
Continuous
 62
     7
370
    25
100
AcDbLine
 10
1136.2608646997
 20
1761.2543978663
 30
0.0
 11
1136.2608646997
 21
1313.2543978663
 31
0.0
  0
LINE
  5
EA
330
1F
100
AcDbEntity
  8
0
  6
Continuous
 62
     7
370
    25
100
AcDbLine
 10
1136.2608646997
 20
1278.2543978663
 30
0.0
 11
1136.2608646997
 21
822.7543978663
 31
0.0
  0
LINE
  5
EB
330
1F
100
AcDbEntity
  8
0
  6
Continuous
 62
     7
370
    25
100
AcDbLine
 10
1136.2608646997
 20
722.7543978663
 30
0.0
 11
1136.2608646997
 21
606.7543978663
 31
0.0
  0
LINE
  5
EC
330
1F
100
AcDbEntity
  8
0
  6
Continuous
 62
     7
370
    25
100
AcDbLine
 10
1136.2608646997
 20
606.7543978663
 30
0.0
 11
757.7608646997
 21
606.7543978663
 31
0.0
  0
LINE
  5
ED
330
1F
100
AcDbEntity
  8
0
  6
Continuous
 62
     7
370
    25
100
AcDbLine
 10
757.7608646997
 20
2378.2543978663
 30
0.0
 11
757.7608646997
 21
606.7543978663
 31
0.0
  0
LINE
  5
EE
330
1F
100
AcDbEntity
  8
0
  6
Continuous
 62
     7
370
    25
100
AcDbLine
 10
1136.7608646997
 20
2406.7543978663
 30
0.0
 11
1136.7608646997
 21
2378.2543978663
 31
0.0
  0
LINE
  5
EF
330
1F
100
AcDbEntity
  8
0
  6
Continuous
 62
     7
370
    25
100
AcDbLine
 10
757.7608646997
 20
2378.2543978663
 30
0.0
 11
757.7608646997
 21
2406.7543978663
 31
0.0
  0
LINE
  5
F0
330
1F
100
AcDbEntity
  8
0
  6
Continuous
 62
     7
370
    25
100
AcDbLine
 10
1136.7608646997
 20
2378.2543978663
 30
0.0
 11
757.7608646997
 21
2378.2543978663
 31
0.0
  0
LINE
  5
F1
330
1F
100
AcDbEntity
  8
0
  6
Continuous
 62
     7
370
    25
100
AcDbLine
 10
757.7608646997
 20
2406.7543978663
 30
0.0
 11
1136.7608646997
 21
2406.7543978663
 31
0.0
  0
LINE
  5
F2
330
1F
100
AcDbEntity
  8
0
  6
Continuous
 62
     7
370
    25
100
AcDbLine
 10
1152.0608646997
 20
616.5543978663
 30
0.0
 11
1152.0608646997
 21
629.5543978663
 31
0.0
  0
LINE
  5
F3
330
1F
100
AcDbEntity
  8
0
  6
Continuous
 62
     7
370
    25
100
AcDbLine
 10
1152.4780763832
 20
616.5543978663
 30
0.0
 11
1152.0608646997
 21
616.5543978663
 31
0.0
  0
ARC
  5
F4
330
1F
100
AcDbEntity
  8
0
  6
Continuous
 62
     7
370
    25
100
AcDbCircle
 10
1152.2609030256
 20
616.7613658174
 30
0.0
 40
0.300000000000115
100
AcDbArc
 50
279.5765884811
 51
316.3783470328
  0
ARC
  5
F5
330
1F
100
AcDbEntity
  8
0
  6
Continuous
 62
     7
370
    25
100
AcDbCircle
 10
1152.1777201022
 20
617.2543978663
 30
0.0
 40
0.8000000000001971
100
AcDbArc
 50
184.9699465947
 51
279.5765884811
  0
LINE
  5
F6
330
1F
100
AcDbEntity
  8
0
  6
Continuous
 62
     7
370
    25
100
AcDbLine
 10
1150.539539262
 20
626.8583577014
 30
0.0
 11
1151.3807278807
 21
617.1850913096
 31
0.0
  0
ARC
  5
F7
330
1F
100
AcDbEntity
  8
0
  6
Continuous
 62
     7
370
    25
100
AcDbCircle
 10
1149.3440509297
 20
626.7543978663
 30
0.0
 40
1.199999999999961
100
AcDbArc
 50
4.9699465947
 51
90.0
  0
LINE
  5
F8
330
1F
100
AcDbEntity
  8
0
  6
Continuous
 62
     7
370
    25
100
AcDbLine
 10
1138.9608646997
 20
627.9543978663
 30
0.0
 11
1149.3440509297
 21
627.9543978663
 31
0.0
  0
ARC
  5
F9
330
1F
100
AcDbEntity
  8
0
  6
Continuous
 62
     7
370
    25
100
AcDbCircle
 10
1138.9608646997
 20
628.7543978663
 30
0.0
 40
0.8000000000000682
100
AcDbArc
 50
180.0
 51
270.0
  0
LINE
  5
FA
330
1F
100
AcDbEntity
  8
0
  6
Continuous
 62
     7
370
    25
100
AcDbLine
 10
1138.1608646997
 20
649.5543978663
 30
0.0
 11
1138.1608646997
 21
628.7543978663
 31
0.0
  0
LINE
  5
FB
330
1F
100
AcDbEntity
  8
0
  6
Continuous
 62
     7
370
    25
100
AcDbLine
 10
1139.5608646997
 20
649.5543978663
 30
0.0
 11
1138.1608646997
 21
649.5543978663
 31
0.0
  0
LINE
  5
FC
330
1F
100
AcDbEntity
  8
0
  6
Continuous
 62
     7
370
    25
100
AcDbLine
 10
1139.5608646997
 20
629.5543978663
 30
0.0
 11
1139.5608646997
 21
649.5543978663
 31
0.0
  0
LINE
  5
FD
330
1F
100
AcDbEntity
  8
0
  6
Continuous
 62
     7
370
    25
100
AcDbLine
 10
1152.0608646997
 20
629.5543978663
 30
0.0
 11
1139.5608646997
 21
629.5543978663
 31
0.0
  0
LINE
  5
FE
330
1F
100
AcDbEntity
  8
0
  6
Continuous
 62
     7
370
    25
100
AcDbLine
 10
1139.7608646997
 20
649.7543978663
 30
0.0
 11
1139.5608646997
 21
649.5543978663
 31
0.0
  0
LINE
  5
FF
330
1F
100
AcDbEntity
  8
0
  6
Continuous
 62
     7
370
    25
100
AcDbLine
 10
1139.5608646997
 20
629.5543978663
 30
0.0
 11
1139.7608646997
 21
629.7543978663
 31
0.0
  0
LINE
  5
100
330
1F
100
AcDbEntity
  8
0
  6
Continuous
 62
     7
370
    25
100
AcDbLine
 10
1137.9608646997
 20
628.7543978663
 30
0.0
 11
1137.9608646997
 21
649.5543978663
 31
0.0
  0
LINE
  5
101
330
1F
100
AcDbEntity
  8
0
  6
Continuous
 62
     7
370
    25
100
AcDbLine
 10
1137.9608646997
 20
649.5543978663
 30
0.0
 11
1138.1608646997
 21
649.5543978663
 31
0.0
  0
LINE
  5
102
330
1F
100
AcDbEntity
  8
0
  6
Continuous
 62
     7
370
    25
100
AcDbLine
 10
1137.9608646997
 20
628.7543978663
 30
0.0
 11
1138.1608646997
 21
628.7543978663
 31
0.0
  0
LINE
  5
103
330
1F
100
AcDbEntity
  8
0
  6
Continuous
 62
     7
370
    25
100
AcDbLine
 10
1138.1608646997
 20
649.7543978663
 30
0.0
 11
1139.7608646997
 21
649.7543978663
 31
0.0
  0
LINE
  5
104
330
1F
100
AcDbEntity
  8
0
  6
Continuous
 62
     7
370
    25
100
AcDbLine
 10
1138.1608646997
 20
649.7543978663
 30
0.0
 11
1138.1608646997
 21
649.5543978663
 31
0.0
  0
ARC
  5
105
330
1F
100
AcDbEntity
  8
0
  6
Continuous
 62
     7
370
    25
100
AcDbCircle
 10
1138.1608646997
 20
649.5543978663
 30
0.0
 40
0.2000000000000455
100
AcDbArc
 50
90.0
 51
180.0
  0
LINE
  5
106
330
1F
100
AcDbEntity
  8
0
  6
Continuous
 62
     7
370
    25
100
AcDbLine
 10
1152.0608646997
 20
629.5543978663
 30
0.0
 11
1152.2608646997
 21
629.7543978663
 31
0.0
  0
ARC
  5
107
330
1F
100
AcDbEntity
  8
0
  6
Continuous
 62
     7
370
    25
100
AcDbCircle
 10
1138.9608646997
 20
628.7543978663
 30
0.0
 40
1.0
100
AcDbArc
 50
180.0
 51
270.0
  0
LINE
  5
108
330
1F
100
AcDbEntity
  8
0
  6
Continuous
 62
     7
370
    25
100
AcDbLine
 10
1138.9608646997
 20
627.7543978663
 30
0.0
 11
1138.9608646997
 21
627.9543978663
 31
0.0
  0
LINE
  5
109
330
1F
100
AcDbEntity
  8
0
  6
Continuous
 62
     7
370
    25
100
AcDbLine
 10
1149.3440509297
 20
627.7543978663
 30
0.0
 11
1138.9608646997
 21
627.7543978663
 31
0.0
  0
LINE
  5
10A
330
1F
100
AcDbEntity
  8
0
  6
Continuous
 62
     7
370
    25
100
AcDbLine
 10
1149.3440509297
 20
627.7543978663
 30
0.0
 11
1149.3440509297
 21
627.9543978663
 31
0.0
  0
SPLINE
  5
10B
330
1F
100
AcDbEntity
  8
0
  6
Continuous
 62
     7
370
    25
100
AcDbSpline
210
0.0
220
0.0
230
1.0
 70
     8
 71
     3
 72
    13
 73
     9
 74
     0
 42
0.00000001
 43
0.00000001
 40
0.0
 40
0.0
 40
0.0
 40
0.0
 40
0.0075029974114416
 40
0.3818974549664173
 40
0.6070018873272666
 40
0.7653769096343476
 40
0.8824605049810764
 40
1.0
 40
1.0
 40
1.0
 40
1.0
 10
1152.478076383159
 20
616.5543978663152
 30
0.0
 10
1152.479094159775
 20
616.5548358642103
 30
0.0
 10
1152.530898295914
 20
616.5771296585793
 30
0.0
 10
1152.609483661281
 20
616.6240140467953
 30
0.0
 10
1152.692123125313
 20
616.6902984838316
 30
0.0
 10
1152.734219243412
 20
616.7285600430041
 30
0.0
 10
1152.756742670247
 20
616.7503158187393
 30
0.0
 10
1152.759482096361
 20
616.7530354222888
 30
0.0
 10
1152.760854470929
 20
616.7543978663148
 30
0.0
  0
ARC
  5
10C
330
1F
100
AcDbEntity
  8
0
  6
Continuous
 62
     7
370
    25
100
AcDbCircle
 10
1152.2609030256
 20
616.7613658174
 30
0.0
 40
0.5000000000001907
100
AcDbArc
 50
279.5765884811
 51
359.2015057739
  0
LINE
  5
10D
330
1F
100
AcDbEntity
  8
0
  6
Continuous
 62
     7
370
    25
100
AcDbLine
 10
1152.3108127797
 20
616.4655465881
 30
0.0
 11
1152.3440859491
 21
616.2683337685
 31
0.0
  0
LINE
  5
10E
330
1F
100
AcDbEntity
  8
0
  6
Continuous
 62
     7
370
    25
100
AcDbLine
 10
1152.0608646997
 20
616.5543978663
 30
0.0
 11
1152.2608646997
 21
616.7543978663
 31
0.0
  0
ARC
  5
10F
330
1F
100
AcDbEntity
  8
0
  6
Continuous
 62
     7
370
    25
100
AcDbCircle
 10
1152.1777201022
 20
617.2543978663
 30
0.0
 40
1.000000000000197
100
AcDbArc
 50
184.9699465947
 51
279.5765884811
  0
LINE
  5
110
330
1F
100
AcDbEntity
  8
0
  6
Continuous
 62
     7
370
    25
100
AcDbLine
 10
1151.3807278807
 20
617.1850913096
 30
0.0
 11
1151.1814798253
 21
617.1677646704
 31
0.0
  0
LINE
  5
111
330
1F
100
AcDbEntity
  8
0
  6
Continuous
 62
     7
370
    25
100
AcDbLine
 10
1151.1814798253
 20
617.1677646704
 30
0.0
 11
1150.3402912066
 21
626.8410310622
 31
0.0
  0
LINE
  5
112
330
1F
100
AcDbEntity
  8
0
  6
Continuous
 62
     7
370
    25
100
AcDbLine
 10
1150.3402912066
 20
626.8410310622
 30
0.0
 11
1150.539539262
 21
626.8583577014
 31
0.0
  0
ARC
  5
113
330
1F
100
AcDbEntity
  8
0
  6
Continuous
 62
     7
370
    25
100
AcDbCircle
 10
1149.3440509297
 20
626.7543978663
 30
0.0
 40
0.9999999999999509
100
AcDbArc
 50
4.9699465947
 51
90.0
  0
LINE
  5
114
330
1F
100
AcDbEntity
  8
0
  6
Continuous
 62
     7
370
    25
100
AcDbLine
 10
1137.0608646997
 20
2364.0543978663
 30
0.0
 11
1137.0608646997
 21
2365.2543978663
 31
0.0
  0
LINE
  5
115
330
1F
100
AcDbEntity
  8
0
  6
Continuous
 62
     7
370
    25
100
AcDbLine
 10
1136.2608646997
 20
2364.0543978663
 30
0.0
 11
1137.0608646997
 21
2364.0543978663
 31
0.0
  0
LINE
  5
116
330
1F
100
AcDbEntity
  8
0
  6
Continuous
 62
     7
370
    25
100
AcDbLine
 10
1136.2608646997
 20
2365.2543978663
 30
0.0
 11
1137.0608646997
 21
2365.2543978663
 31
0.0
  0
LINE
  5
117
330
1F
100
AcDbEntity
  8
0
  6
Continuous
 62
     7
370
    25
100
AcDbLine
 10
1137.0608646997
 20
2365.2543978663
 30
0.0
 11
1138.2608646997
 21
2365.2543978663
 31
0.0
  0
LINE
  5
118
330
1F
100
AcDbEntity
  8
0
  6
Continuous
 62
     7
370
    25
100
AcDbLine
 10
1137.0608646997
 20
2364.0543978663
 30
0.0
 11
1138.2608646997
 21
2364.0543978663
 31
0.0
  0
LINE
  5
119
330
1F
100
AcDbEntity
  8
0
  6
Continuous
 62
     7
370
    25
100
AcDbLine
 10
1137.0608646997
 20
2346.2543978663
 30
0.0
 11
1138.2608646997
 21
2346.2543978663
 31
0.0
  0
LINE
  5
11A
330
1F
100
AcDbEntity
  8
0
  6
Continuous
 62
     7
370
    25
100
AcDbLine
 10
1137.0608646997
 20
2346.2543978663
 30
0.0
 11
1137.0608646997
 21
2364.0543978663
 31
0.0
  0
LINE
  5
11B
330
1F
100
AcDbEntity
  8
0
  6
Continuous
 62
     7
370
    25
100
AcDbLine
 10
1138.2608646997
 20
2343.2543978663
 30
0.0
 11
1137.0608646997
 21
2343.2543978663
 31
0.0
  0
LINE
  5
11C
330
1F
100
AcDbEntity
  8
0
  6
Continuous
 62
     7
370
    25
100
AcDbLine
 10
1137.0608646997
 20
2343.2543978663
 30
0.0
 11
1137.0608646997
 21
2346.2543978663
 31
0.0
  0
SPLINE
  5
11D
330
1F
100
AcDbEntity
  8
0
  6
Continuous
 62
     7
370
    25
100
AcDbSpline
210
0.0
220
0.0
230
1.0
 70
    24
 71
     3
 72
    12
 73
     8
 74
     0
 42
0.00000001
 43
0.00000001
 40
0.0
 40
0.0
 40
0.0
 40
0.0
 40
0.123488218961026
 40
0.3047574776067067
 40
0.4857888495158306
 40
0.6670582153981671
 40
1.0
 40
1.0
 40
1.0
 40
1.0
 10
1136.260864699701
 20
1445.254397866317
 30
0.0
 10
1136.300611268738
 20
1445.254397866317
 30
0.0
 10
1136.398702116796
 20
1445.254397866317
 30
0.0
 10
1136.638675405157
 20
1445.254397866317
 30
0.0
 10
1136.954289593651
 20
1445.254397866316
 30
0.0
 10
1137.421199682753
 20
1445.254397866317
 30
0.0
 10
1137.809468282991
 20
1445.254397866316
 30
0.0
 10
1138.060864699709
 20
1445.254397866316
 30
0.0
  0
LINE
  5
11E
330
1F
100
AcDbEntity
  8
0
  6
Continuous
 62
     7
370
    25
100
AcDbLine
 10
1138.0608646997
 20
1444.2543978663
 30
0.0
 11
1138.0608646997
 21
1445.2543978663
 31
0.0
  0
LINE
  5
11F
330
1F
100
AcDbEntity
  8
0
  6
Continuous
 62
     7
370
    25
100
AcDbLine
 10
1138.0608646997
 20
1388.2543978663
 30
0.0
 11
1138.0608646997
 21
1389.2543978663
 31
0.0
  0
SPLINE
  5
120
330
1F
100
AcDbEntity
  8
0
  6
Continuous
 62
     7
370
    25
100
AcDbSpline
210
0.0
220
0.0
230
1.0
 70
    24
 71
     3
 72
    12
 73
     8
 74
     0
 42
0.00000001
 43
0.00000001
 40
0.0
 40
0.0
 40
0.0
 40
0.0
 40
0.3329369653770106
 40
0.5139656098177956
 40
0.695232244649076
 40
0.876260996187731
 40
1.0
 40
1.0
 40
1.0
 40
1.0
 10
1138.060864699705
 20
1388.254397866317
 30
0.0
 10
1137.809467286562
 20
1388.254397866317
 30
0.0
 10
1137.421376932561
 20
1388.254397866318
 30
0.0
 10
1136.954447662887
 20
1388.254397866317
 30
0.0
 10
1136.638928773866
 20
1388.254397866318
 30
0.0
 10
1136.398804555354
 20
1388.254397866318
 30
0.0
 10
1136.300697304344
 20
1388.254397866317
 30
0.0
 10
1136.260864699701
 20
1388.254397866318
 30
0.0
  0
LINE
  5
121
330
1F
100
AcDbEntity
  8
0
  6
Continuous
 62
     7
370
    25
100
AcDbLine
 10
1138.0608646997
 20
1444.2543978663
 30
0.0
 11
1138.0608646997
 21
1389.2543978663
 31
0.0
  0
LINE
  5
122
330
1F
100
AcDbEntity
  8
0
  6
Continuous
 62
     7
370
    25
100
AcDbLine
 10
1138.2608646997
 20
1445.2543978663
 30
0.0
 11
1138.0608646997
 21
1445.2543978663
 31
0.0
  0
LINE
  5
123
330
1F
100
AcDbEntity
  8
0
  6
Continuous
 62
     7
370
    25
100
AcDbLine
 10
1138.2608646997
 20
1444.2543978663
 30
0.0
 11
1138.0608646997
 21
1444.2543978663
 31
0.0
  0
LINE
  5
124
330
1F
100
AcDbEntity
  8
0
  6
Continuous
 62
     7
370
    25
100
AcDbLine
 10
1138.2608646997
 20
1389.2543978663
 30
0.0
 11
1138.0608646997
 21
1389.2543978663
 31
0.0
  0
LINE
  5
125
330
1F
100
AcDbEntity
  8
0
  6
Continuous
 62
     7
370
    25
100
AcDbLine
 10
1138.0608646997
 20
1388.2543978663
 30
0.0
 11
1138.2608646997
 21
1388.2543978663
 31
0.0
  0
SPLINE
  5
126
330
1F
100
AcDbEntity
  8
0
  6
Continuous
 62
     7
370
    25
100
AcDbSpline
210
0.0
220
0.0
230
1.0
 70
    24
 71
     3
 72
    12
 73
     8
 74
     0
 42
0.00000001
 43
0.00000001
 40
0.0
 40
0.0
 40
0.0
 40
0.0
 40
0.1234882189613159
 40
0.3047574776069367
 40
0.4857888495160008
 40
0.6670582153982773
 40
1.0
 40
1.0
 40
1.0
 40
1.0
 10
1136.260864699701
 20
1975.254397866318
 30
0.0
 10
1136.300611268738
 20
1975.254397866318
 30
0.0
 10
1136.398702116796
 20
1975.254397866318
 30
0.0
 10
1136.638675405157
 20
1975.254397866319
 30
0.0
 10
1136.954289593651
 20
1975.254397866319
 30
0.0
 10
1137.421199682753
 20
1975.254397866318
 30
0.0
 10
1137.809468282991
 20
1975.254397866318
 30
0.0
 10
1138.06086469971
 20
1975.254397866318
 30
0.0
  0
LINE
  5
127
330
1F
100
AcDbEntity
  8
0
  6
Continuous
 62
     7
370
    25
100
AcDbLine
 10
1138.0608646997
 20
1974.2543978663
 30
0.0
 11
1138.0608646997
 21
1975.2543978663
 31
0.0
  0
LINE
  5
128
330
1F
100
AcDbEntity
  8
0
  6
Continuous
 62
     7
370
    25
100
AcDbLine
 10
1138.0608646997
 20
1918.2543978663
 30
0.0
 11
1138.0608646997
 21
1919.2543978663
 31
0.0
  0
SPLINE
  5
129
330
1F
100
AcDbEntity
  8
0
  6
Continuous
 62
     7
370
    25
100
AcDbSpline
210
0.0
220
0.0
230
1.0
 70
    24
 71
     3
 72
    12
 73
     8
 74
     0
 42
0.00000001
 43
0.00000001
 40
0.0
 40
0.0
 40
0.0
 40
0.0
 40
0.3329369653769078
 40
0.5139656098176368
 40
0.6952322446488611
 40
0.8762609961874603
 40
1.0
 40
1.0
 40
1.0
 40
1.0
 10
1138.060864699706
 20
1918.254397866319
 30
0.0
 10
1137.809467286562
 20
1918.254397866319
 30
0.0
 10
1137.421376932562
 20
1918.254397866319
 30
0.0
 10
1136.954447662887
 20
1918.254397866319
 30
0.0
 10
1136.638928773867
 20
1918.254397866319
 30
0.0
 10
1136.398804555354
 20
1918.254397866319
 30
0.0
 10
1136.300697304344
 20
1918.254397866319
 30
0.0
 10
1136.260864699701
 20
1918.254397866319
 30
0.0
  0
LINE
  5
12A
330
1F
100
AcDbEntity
  8
0
  6
Continuous
 62
     7
370
    25
100
AcDbLine
 10
1138.0608646997
 20
1974.2543978663
 30
0.0
 11
1138.0608646997
 21
1919.2543978663
 31
0.0
  0
LINE
  5
12B
330
1F
100
AcDbEntity
  8
0
  6
Continuous
 62
     7
370
    25
100
AcDbLine
 10
1138.2608646997
 20
1919.2543978663
 30
0.0
 11
1138.0608646997
 21
1919.2543978663
 31
0.0
  0
LINE
  5
12C
330
1F
100
AcDbEntity
  8
0
  6
Continuous
 62
     7
370
    25
100
AcDbLine
 10
1138.2608646997
 20
1974.2543978663
 30
0.0
 11
1138.0608646997
 21
1974.2543978663
 31
0.0
  0
LINE
  5
12D
330
1F
100
AcDbEntity
  8
0
  6
Continuous
 62
     7
370
    25
100
AcDbLine
 10
1138.2608646997
 20
1975.2543978663
 30
0.0
 11
1138.0608646997
 21
1975.2543978663
 31
0.0
  0
LINE
  5
12E
330
1F
100
AcDbEntity
  8
0
  6
Continuous
 62
     7
370
    25
100
AcDbLine
 10
1138.0608646997
 20
1918.2543978663
 30
0.0
 11
1138.2608646997
 21
1918.2543978663
 31
0.0
  0
SPLINE
  5
12F
330
1F
100
AcDbEntity
  8
0
  6
Continuous
 62
     7
370
    25
100
AcDbSpline
210
0.0
220
0.0
230
1.0
 70
    24
 71
     3
 72
    11
 73
     7
 74
     0
 42
0.00000001
 43
0.00000001
 40
0.0
 40
0.0
 40
0.0
 40
0.0
 40
0.2307910683541067
 40
0.5695709634348035
 40
0.9079062644113816
 40
1.0
 40
1.0
 40
1.0
 40
1.0
 10
1136.260864699701
 20
2345.254397866317
 30
0.0
 10
1136.300516430172
 20
2345.254397866317
 30
0.0
 10
1136.398373225442
 20
2345.254397866317
 30
0.0
 10
1136.640735641998
 20
2345.254397866316
 30
0.0
 10
1136.872379655307
 20
2345.254397866317
 30
0.0
 10
1137.027644536357
 20
2345.254397866316
 30
0.0
 10
1137.060864699699
 20
2345.254397866317
 30
0.0
  0
LINE
  5
130
330
1F
100
AcDbEntity
  8
0
  6
Continuous
 62
     7
370
    25
100
AcDbLine
 10
1138.0608646997
 20
668.2543978663
 30
0.0
 11
1138.0608646997
 21
669.2543978663
 31
0.0
  0
SPLINE
  5
131
330
1F
100
AcDbEntity
  8
0
  6
Continuous
 62
     7
370
    25
100
AcDbSpline
210
0.0
220
0.0
230
1.0
 70
    24
 71
     3
 72
    12
 73
     8
 74
     0
 42
0.00000001
 43
0.00000001
 40
0.0
 40
0.0
 40
0.0
 40
0.0
 40
0.332936965376445
 40
0.5139656098169224
 40
0.6952322446478949
 40
0.8762609961862424
 40
0.9999999999999999
 40
0.9999999999999999
 40
0.9999999999999999
 40
0.9999999999999999
 10
1138.060864699707
 20
668.2543978663172
 30
0.0
 10
1137.809467286564
 20
668.2543978663173
 30
0.0
 10
1137.421376932563
 20
668.2543978663174
 30
0.0
 10
1136.954447662889
 20
668.2543978663174
 30
0.0
 10
1136.638928773868
 20
668.2543978663174
 30
0.0
 10
1136.398804555355
 20
668.2543978663174
 30
0.0
 10
1136.300697304344
 20
668.2543978663174
 30
0.0
 10
1136.260864699701
 20
668.2543978663174
 30
0.0
  0
LINE
  5
132
330
1F
100
AcDbEntity
  8
0
  6
Continuous
 62
     7
370
    25
100
AcDbLine
 10
1138.2608646997
 20
669.2543978663
 30
0.0
 11
1138.0608646997
 21
669.2543978663
 31
0.0
  0
LINE
  5
133
330
1F
100
AcDbEntity
  8
0
  6
Continuous
 62
     7
370
    25
100
AcDbLine
 10
1138.0608646997
 20
668.2543978663
 30
0.0
 11
1138.2608646997
 21
668.2543978663
 31
0.0
  0
LINE
  5
134
330
1F
100
AcDbEntity
  8
0
  6
Continuous
 62
     7
370
    25
100
AcDbLine
 10
755.9271177533
 20
2314.7748720752
 30
0.0
 11
755.7831445376
 21
2309.2767567878
 31
0.0
  0
LINE
  5
135
330
1F
100
AcDbEntity
  8
0
  6
Continuous
 62
     7
370
    25
100
AcDbLine
 10
754.312231985
 20
2339.0754720652
 30
0.0
 11
753.7886930188
 21
2319.0823255657
 31
0.0
  0
LINE
  5
136
330
1F
100
AcDbEntity
  8
0
  6
Continuous
 62
     7
370
    25
100
AcDbLine
 10
752.6223435987
 20
2320.2086561082
 30
0.0
 11
753.0885334202
 21
2338.0117271316
 31
0.0
  0
LINE
  5
137
330
1F
100
AcDbEntity
  8
0
  6
Continuous
 62
     7
370
    25
100
AcDbLine
 10
754.8081328374
 20
2329.3448871838
 30
0.0
 11
755.0624227623
 21
2339.0558276283
 31
0.0
  0
LINE
  5
138
330
1F
100
AcDbEntity
  8
0
  6
Continuous
 62
     7
370
    25
100
AcDbLine
 10
752.9067456257
 20
2336.4161961367
 30
0.0
 11
752.5243085784
 21
2321.8115145215
 31
0.0
  0
LINE
  5
139
330
1F
100
AcDbEntity
  8
0
  6
Continuous
 62
     7
370
    25
100
AcDbLine
 10
755.6182096283
 20
2333.5393867276
 30
0.0
 11
755.4965437888
 21
2328.8931557708
 31
0.0
  0
LINE
  5
13A
330
1F
100
AcDbEntity
  8
0
  6
Continuous
 62
     7
370
    25
100
AcDbLine
 10
755.4965437888
 20
2328.8931557708
 30
0.0
 11
755.382617177
 21
2324.5424739934
 31
0.0
  0
LINE
  5
13B
330
1F
100
AcDbEntity
  8
0
  6
Continuous
 62
     7
370
    25
100
AcDbLine
 10
1138.0608646997
 20
1444.2543978663
 30
0.0
 11
1136.2608646997
 21
1444.2543978663
 31
0.0
  0
LINE
  5
13C
330
1F
100
AcDbEntity
  8
0
  6
Continuous
 62
     7
370
    25
100
AcDbLine
 10
1136.2608646997
 20
1389.2543978663
 30
0.0
 11
1138.0608646997
 21
1389.2543978663
 31
0.0
  0
LINE
  5
13D
330
1F
100
AcDbEntity
  8
0
  6
Continuous
 62
     7
370
    25
100
AcDbLine
 10
1138.0608646997
 20
1974.2543978663
 30
0.0
 11
1136.2608646997
 21
1974.2543978663
 31
0.0
  0
LINE
  5
13E
330
1F
100
AcDbEntity
  8
0
  6
Continuous
 62
     7
370
    25
100
AcDbLine
 10
1136.2608646997
 20
1919.2543978663
 30
0.0
 11
1138.0608646997
 21
1919.2543978663
 31
0.0
  0
LINE
  5
13F
330
1F
100
AcDbEntity
  8
0
  6
Continuous
 62
     7
370
    25
100
AcDbLine
 10
1137.0608646997
 20
2344.2543978663
 30
0.0
 11
1136.2608646997
 21
2344.2543978663
 31
0.0
  0
LINE
  5
140
330
1F
100
AcDbEntity
  8
0
  6
Continuous
 62
     7
370
    25
100
AcDbLine
 10
1138.0608646997
 20
2343.2543978663
 30
0.0
 11
1138.0608646997
 21
2312.7543978663
 31
0.0
  0
LINE
  5
141
330
1F
100
AcDbEntity
  8
0
  6
Continuous
 62
     7
370
    25
100
AcDbLine
 10
1136.2608646997
 20
669.2543978663
 30
0.0
 11
1138.0608646997
 21
669.2543978663
 31
0.0
  0
LINE
  5
142
330
1F
100
AcDbEntity
  8
0
  6
Continuous
 62
     7
370
    25
100
AcDbLine
 10
1138.0608646997
 20
722.7543978663
 30
0.0
 11
1138.0608646997
 21
669.2543978663
 31
0.0
  0
LINE
  5
143
330
1F
100
AcDbEntity
  8
0
  6
Continuous
 62
     7
370
    25
100
AcDbLine
 10
4220.4562626188
 20
2314.7748720752
 30
0.0
 11
4218.6225156724
 21
2314.7268537215
 31
0.0
  0
LINE
  5
144
330
1F
100
AcDbEntity
  8
0
  6
Continuous
 62
     7
370
    25
100
AcDbLine
 10
4218.6225156724
 20
2309.2249683628
 30
0.0
 11
4220.6002358345
 21
2309.2767567878
 31
0.0
  0
ARC
  5
145
330
1F
100
AcDbEntity
  8
0
  6
Continuous
 62
     7
370
    25
100
AcDbCircle
 10
4220.4641157033
 20
2314.4749748777
 30
0.0
 40
0.3000000000003366
100
AcDbArc
 50
1.5
 51
91.5
  0
ARC
  5
146
330
1F
100
AcDbEntity
  8
0
  6
Continuous
 62
     7
370
    25
100
AcDbCircle
 10
4220.59238275
 20
2309.5766539853
 30
0.0
 40
0.3000000000012457
100
AcDbArc
 50
271.5
 51
1.4999999999
  0
LINE
  5
147
330
1F
100
AcDbEntity
  8
0
  6
Continuous
 62
     7
370
    25
100
AcDbLine
 10
4221.8444965759
 20
2319.0626811288
 30
0.0
 11
4222.5946873532
 21
2319.0823255656
 31
0.0
  0
LINE
  5
148
330
1F
100
AcDbEntity
  8
0
  6
Continuous
 62
     7
370
    25
100
AcDbLine
 10
4222.0711483871
 20
2339.0754720652
 30
0.0
 11
4221.3209576098
 21
2339.0558276283
 31
0.0
  0
ARC
  5
149
330
1F
100
AcDbEntity
  8
0
  6
Continuous
 62
     7
370
    25
100
AcDbCircle
 10
4222.5632750153
 20
2320.2819143556
 30
0.0
 40
1.200000000000284
100
AcDbArc
 50
271.5
 51
356.5000000032
  0
ARC
  5
14A
330
1F
100
AcDbEntity
  8
0
  6
Continuous
 62
     7
370
    25
100
AcDbCircle
 10
4222.1025607251
 20
2337.8758832752
 30
0.0
 40
1.200000000000437
100
AcDbArc
 50
6.4999999967
 51
91.5
  0
ARC
  5
14B
330
1F
100
AcDbEntity
  8
0
  6
Continuous
 62
     7
370
    25
100
AcDbCircle
 10
4221.8392611863
 20
2319.2626125938
 30
0.0
 40
0.2000000000000808
100
AcDbArc
 50
181.4999999999
 51
271.5
  0
ARC
  5
14C
330
1F
100
AcDbEntity
  8
0
  6
Continuous
 62
     7
370
    25
100
AcDbCircle
 10
4221.3261929995
 20
2338.8558961633
 30
0.0
 40
0.2000000000005235
100
AcDbArc
 50
91.5
 51
181.4999999999
  0
LINE
  5
14D
330
1F
100
AcDbEntity
  8
0
  6
Continuous
 62
     7
370
    25
100
AcDbLine
 10
4223.7610367734
 20
2320.2086561082
 30
0.0
 11
4223.8590717937
 21
2321.8115145215
 31
0.0
  0
LINE
  5
14E
330
1F
100
AcDbEntity
  8
0
  6
Continuous
 62
     7
370
    25
100
AcDbLine
 10
4223.4766347464
 20
2336.4161961367
 30
0.0
 11
4223.2948469519
 21
2338.0117271316
 31
0.0
  0
ARC
  5
14F
330
1F
100
AcDbEntity
  8
0
  6
Continuous
 62
     7
370
    25
100
AcDbCircle
 10
4193.915027841
 20
2323.6429707076
 30
0.0
 40
30.00000000000254
100
AcDbArc
 50
356.4999999999
 51
1.4999999999
  0
ARC
  5
150
330
1F
100
AcDbEntity
  8
0
  6
Continuous
 62
     7
370
    25
100
AcDbCircle
 10
4193.6694790761
 20
2333.0200997237
 30
0.0
 40
30.00000000000258
100
AcDbArc
 50
1.4999999999
 51
6.4999999999
  0
LINE
  5
151
330
1F
100
AcDbEntity
  8
0
  6
Continuous
 62
     7
370
    25
100
AcDbLine
 10
4223.7844466987
 20
2329.0223848583
 30
0.0
 11
4223.7819732078
 21
2329.1168436648
 31
0.0
  0
SPLINE
  5
152
330
1F
100
AcDbEntity
  8
0
  6
Continuous
 62
     7
370
    25
100
AcDbSpline
210
0.0
220
0.0
230
1.0
 70
     8
 71
     3
 72
    11
 73
     7
 74
     0
 42
0.00000001
 43
0.00000001
 40
0.0
 40
0.0
 40
0.0
 40
0.0
 40
0.2706712709043727
 40
0.5632120727999769
 40
0.7903891635243906
 40
0.9999999999999999
 40
0.9999999999999999
 40
0.9999999999999999
 40
0.9999999999999999
 10
4221.000763232756
 20
2324.542472552352
 30
0.0
 10
4221.072575941266
 20
2324.53534480551
 30
0.0
 10
4221.222003637372
 20
2324.520513408521
 30
0.0
 10
4221.394114863086
 20
2324.387093926348
 30
0.0
 10
4221.49516582871
 20
2324.218965531408
 30
0.0
 10
4221.50780164627
 20
2324.103888307106
 30
0.0
 10
4221.513865468374
 20
2324.048663719284
 30
0.0
  0
SPLINE
  5
153
330
1F
100
AcDbEntity
  8
0
  6
Continuous
 62
     7
370
    25
100
AcDbSpline
210
0.0
220
0.0
230
1.0
 70
     8
 71
     3
 72
    11
 73
     7
 74
     0
 42
0.00000001
 43
0.00000001
 40
0.0
 40
0.0
 40
0.0
 40
0.0
 40
0.2695105035985444
 40
0.5617364405776758
 40
0.7894224931280065
 40
0.9999999999999999
 40
0.9999999999999999
 40
0.9999999999999999
 40
0.9999999999999999
 10
4221.251725787353
 20
2334.059374258501
 30
0.0
 10
4221.245659626346
 20
2333.987784817777
 30
0.0
 10
4221.233016023791
 20
2333.838572089225
 30
0.0
 10
4221.102623457554
 20
2333.664552517792
 30
0.0
 10
4220.935853410073
 20
2333.560590211834
 30
0.0
 10
4220.820564756482
 20
2333.546269373956
 30
0.0
 10
4220.765170697994
 20
2333.539388477126
 30
0.0
  0
LINE
  5
154
330
1F
100
AcDbEntity
  8
0
  6
Continuous
 62
     7
370
    25
100
AcDbLine
 10
4218.6225156724
 20
2324.4801959483
 30
0.0
 11
4221.0007632328
 21
2324.5424725523
 31
0.0
  0
LINE
  5
155
330
1F
100
AcDbEntity
  8
0
  6
Continuous
 62
     7
370
    25
100
AcDbLine
 10
4220.765170698
 20
2333.5393884771
 30
0.0
 11
4218.6225156724
 21
2333.4832810807
 31
0.0
  0
LINE
  5
156
330
1F
100
AcDbEntity
  8
0
  6
Continuous
 62
     7
370
    25
100
AcDbLine
 10
3838.1225156724
 20
1761.2543978663
 30
0.0
 11
3840.1225156724
 21
1761.2543978663
 31
0.0
  0
LINE
  5
157
330
1F
100
AcDbEntity
  8
0
  6
Continuous
 62
     7
370
    25
100
AcDbLine
 10
3840.1225156724
 20
1796.2543978663
 30
0.0
 11
3838.1225156724
 21
1796.2543978663
 31
0.0
  0
LINE
  5
158
330
1F
100
AcDbEntity
  8
0
  6
Continuous
 62
     7
370
    25
100
AcDbLine
 10
3838.1225156724
 20
2250.7543978663
 30
0.0
 11
3840.1225156724
 21
2250.7543978663
 31
0.0
  0
LINE
  5
159
330
1F
100
AcDbEntity
  8
0
  6
Continuous
 62
     7
370
    25
100
AcDbLine
 10
3840.1225156724
 20
822.7543978663
 30
0.0
 11
3838.1225156724
 21
822.7543978663
 31
0.0
  0
LINE
  5
15A
330
1F
100
AcDbEntity
  8
0
  6
Continuous
 62
     7
370
    25
100
AcDbLine
 10
3838.1225156724
 20
1278.2543978663
 30
0.0
 11
3840.1225156724
 21
1278.2543978663
 31
0.0
  0
LINE
  5
15B
330
1F
100
AcDbEntity
  8
0
  6
Continuous
 62
     7
370
    25
100
AcDbLine
 10
3840.1225156724
 20
1313.2543978663
 30
0.0
 11
3838.1225156724
 21
1313.2543978663
 31
0.0
  0
SPLINE
  5
15C
330
1F
100
AcDbEntity
  8
0
  6
Continuous
 62
     7
370
    25
100
AcDbSpline
210
0.0
220
0.0
230
1.0
 70
    24
 71
     3
 72
    12
 73
     8
 74
     0
 42
0.00000001
 43
0.00000001
 40
0.0
 40
0.0
 40
0.0
 40
0.0
 40
0.246097333739019
 40
0.4921955654195876
 40
0.7383025770441238
 40
0.9844160040482757
 40
0.9999999999999999
 40
0.9999999999999999
 40
0.9999999999999999
 40
0.9999999999999999
 10
4220.828146424104
 20
2312.033667515995
 30
0.0
 10
4220.836375901106
 20
2311.719396468497
 30
0.0
 10
4220.852834885134
 20
2311.090853226813
 30
0.0
 10
4220.874150888244
 20
2310.276827909652
 30
0.0
 10
4220.887691150989
 20
2309.759746136903
 30
0.0
 10
4220.893610628073
 20
2309.533690427248
 30
0.0
 10
4220.892090397734
 20
2309.591745681662
 30
0.0
 10
4220.891999868514
 20
2309.595202853076
 30
0.0
  0
SPLINE
  5
15D
330
1F
100
AcDbEntity
  8
0
  6
Continuous
 62
     7
370
    25
100
AcDbSpline
210
0.0
220
0.0
230
1.0
 70
     8
 71
     3
 72
    11
 73
     7
 74
     0
 42
0.00000001
 43
0.00000001
 40
0.0
 40
0.0
 40
0.0
 40
0.0
 40
0.2382247349852454
 40
0.492137690459701
 40
0.7460575595478811
 40
1.0
 40
1.0
 40
1.0
 40
1.0
 10
4220.764286695026
 20
2314.472372180738
 30
0.0
 10
4220.764959079329
 20
2314.446694861224
 30
0.0
 10
4220.766348127608
 20
2314.393649249804
 30
0.0
 10
4220.779885724844
 20
2313.876669251058
 30
0.0
 10
4220.799986316178
 20
2313.109058705194
 30
0.0
 10
4220.816369957571
 20
2312.483392512936
 30
0.0
 10
4220.824562142343
 20
2312.170545513296
 30
0.0
  0
LINE
  5
15E
330
1F
100
AcDbEntity
  8
0
  6
Continuous
 62
     7
370
    25
100
AcDbLine
 10
4220.8245621423
 20
2312.1705455133
 30
0.0
 11
4220.8281464241
 21
2312.033667516
 31
0.0
  0
SPLINE
  5
15F
330
1F
100
AcDbEntity
  8
0
  6
Continuous
 62
     7
370
    25
100
AcDbSpline
210
0.0
220
0.0
230
1.0
 70
    24
 71
     3
 72
    13
 73
     9
 74
     0
 42
0.00000001
 43
0.00000001
 40
0.0
 40
0.0
 40
0.0
 40
0.0
 40
0.1813201537907995
 40
0.4101468448380576
 40
0.543815018496514
 40
0.6886421238875833
 40
0.8419966874126963
 40
1.0
 40
1.0
 40
1.0
 40
1.0
 10
4221.382795627864
 20
2329.054018988885
 30
0.0
 10
4221.35856875422
 20
2329.979205966927
 30
0.0
 10
4221.303767478261
 20
2332.071982263414
 30
0.0
 10
4221.23740724724
 20
2334.60617724485
 30
0.0
 10
4221.187436230686
 20
2336.514493376593
 30
0.0
 10
4221.15451414197
 20
2337.771737221525
 30
0.0
 10
4221.131231983244
 20
2338.660846992431
 30
0.0
 10
4221.127939789835
 20
2338.786570786429
 30
0.0
 10
4221.126269115977
 20
2338.850371247079
 30
0.0
  0
SPLINE
  5
160
330
1F
100
AcDbEntity
  8
0
  6
Continuous
 62
     7
370
    25
100
AcDbSpline
210
0.0
220
0.0
230
1.0
 70
    24
 71
     3
 72
    13
 73
     9
 74
     0
 42
0.00000001
 43
0.00000001
 40
0.0
 40
0.0
 40
0.0
 40
0.0
 40
0.1538581583652078
 40
0.3079676862452875
 40
0.4535077802385075
 40
0.5878340078345708
 40
0.8177872163813593
 40
1.0
 40
1.0
 40
1.0
 40
1.0
 10
4221.639096032825
 20
2319.266301405848
 30
0.0
 10
4221.63777655618
 20
2319.31669018594
 30
0.0
 10
4221.635135447166
 20
2319.417550070022
 30
0.0
 10
4221.612908661754
 20
2320.266356760077
 30
0.0
 10
4221.580740651458
 20
2321.494803511992
 30
0.0
 10
4221.53147771987
 20
2323.376078969866
 30
0.0
 10
4221.46565839113
 20
2325.889617726495
 30
0.0
 10
4221.410933327983
 20
2327.979483573086
 30
0.0
 10
4221.386740147859
 20
2328.903383847575
 30
0.0
  0
LINE
  5
161
330
1F
100
AcDbEntity
  8
0
  6
Continuous
 62
     7
370
    25
100
AcDbLine
 10
4223.7844466987
 20
2329.0223848582
 30
0.0
 11
4223.9047475903
 21
2324.4282791568
 31
0.0
  0
LINE
  5
162
330
1F
100
AcDbEntity
  8
0
  6
Continuous
 62
     7
370
    25
100
AcDbLine
 10
4223.6591988253
 20
2333.8054081729
 30
0.0
 11
4223.7819732078
 21
2329.1168436648
 31
0.0
  0
SPLINE
  5
163
330
1F
100
AcDbEntity
  8
0
  6
Continuous
 62
     7
370
    25
100
AcDbSpline
210
0.0
220
0.0
230
1.0
 70
     8
 71
     3
 72
    11
 73
     7
 74
     0
 42
0.00000001
 43
0.00000001
 40
0.0
 40
0.0
 40
0.0
 40
0.0
 40
0.2702602051692217
 40
0.5624283659902265
 40
0.7897359586727662
 40
1.0
 40
1.0
 40
1.0
 40
1.0
 10
4221.378496043738
 20
2329.218213482241
 30
0.0
 10
4221.369746636027
 20
2329.215656025556
 30
0.0
 10
4221.351538572135
 20
2329.21033379847
 30
0.0
 10
4221.21648029973
 20
2329.20128582409
 30
0.0
 10
4221.048418110196
 20
2329.193677152424
 30
0.0
 10
4220.934052746304
 20
2329.190318953096
 30
0.0
 10
4220.879097347621
 20
2329.188705254885
 30
0.0
  0
SPLINE
  5
164
330
1F
100
AcDbEntity
  8
0
  6
Continuous
 62
     7
370
    25
100
AcDbSpline
210
0.0
220
0.0
230
1.0
 70
     8
 71
     3
 72
    10
 73
     6
 74
     0
 42
0.00000001
 43
0.00000001
 40
0.0
 40
0.0
 40
0.0
 40
0.0
 40
0.3698682463933906
 40
0.7394183665248452
 40
1.0
 40
1.0
 40
1.0
 40
1.0
 10
4221.106375995111
 20
2328.53160938049
 30
0.0
 10
4221.103156272141
 20
2328.655185441901
 30
0.0
 10
4221.09671959551
 20
2328.902231276091
 30
0.0
 10
4221.087227043609
 20
2329.268343236763
 30
0.0
 10
4221.081699744658
 20
2329.475556144412
 30
0.0
 10
4221.079414012222
 20
2329.561245966649
 30
0.0
  0
LINE
  5
165
330
1F
100
AcDbEntity
  8
0
  6
Continuous
 62
     7
370
    25
100
AcDbLine
 10
3840.1225156724
 20
2270.7543978663
 30
0.0
 11
3838.1225156724
 21
2270.7543978663
 31
0.0
  0
LINE
  5
166
330
1F
100
AcDbEntity
  8
0
  6
Continuous
 62
     7
370
    25
100
AcDbLine
 10
3840.1225156724
 20
742.7543978663
 30
0.0
 11
3838.1225156724
 21
742.7543978663
 31
0.0
  0
LINE
  5
167
330
1F
100
AcDbEntity
  8
0
  6
Continuous
 62
     7
370
    25
100
AcDbLine
 10
3840.1225156724
 20
802.7543978663
 30
0.0
 11
3838.1225156724
 21
802.7543978663
 31
0.0
  0
LINE
  5
168
330
1F
100
AcDbEntity
  8
0
  6
Continuous
 62
     7
370
    25
100
AcDbLine
 10
3824.1225156724
 20
629.7543978663
 30
0.0
 11
3824.1225156724
 21
616.7543978663
 31
0.0
  0
LINE
  5
169
330
1F
100
AcDbEntity
  8
0
  6
Continuous
 62
     7
370
    25
100
AcDbLine
 10
3820.1225156724
 20
616.7543978663
 30
0.0
 11
3824.1225156724
 21
616.7543978663
 31
0.0
  0
LINE
  5
16A
330
1F
100
AcDbEntity
  8
0
  6
Continuous
 62
     7
370
    25
100
AcDbLine
 10
3820.1225156724
 20
616.7543978663
 30
0.0
 11
3820.1225156724
 21
2396.7543978663
 31
0.0
  0
LINE
  5
16B
330
1F
100
AcDbEntity
  8
0
  6
Continuous
 62
     7
370
    25
100
AcDbLine
 10
3838.1225156724
 20
650.2543978663
 30
0.0
 11
3836.6225156724
 21
650.2543978663
 31
0.0
  0
LINE
  5
16C
330
1F
100
AcDbEntity
  8
0
  6
Continuous
 62
     7
370
    25
100
AcDbLine
 10
3836.6225156724
 20
629.7543978663
 30
0.0
 11
3824.1225156724
 21
629.7543978663
 31
0.0
  0
LINE
  5
16D
330
1F
100
AcDbEntity
  8
0
  6
Continuous
 62
     7
370
    25
100
AcDbLine
 10
3838.1225156724
 20
650.2543978663
 30
0.0
 11
3838.1225156724
 21
2396.7543978663
 31
0.0
  0
LINE
  5
16E
330
1F
100
AcDbEntity
  8
0
  6
Continuous
 62
     7
370
    25
100
AcDbLine
 10
3820.1225156724
 20
2396.7543978663
 30
0.0
 11
3838.1225156724
 21
2396.7543978663
 31
0.0
  0
LINE
  5
16F
330
1F
100
AcDbEntity
  8
0
  6
Continuous
 62
     7
370
    25
100
AcDbLine
 10
3836.6225156724
 20
650.2543978663
 30
0.0
 11
3836.6225156724
 21
629.7543978663
 31
0.0
  0
LINE
  5
170
330
1F
100
AcDbEntity
  8
0
  6
Continuous
 62
     7
370
    25
100
AcDbLine
 10
3840.1225156724
 20
606.7543978663
 30
0.0
 11
4218.6225156724
 21
606.7543978663
 31
0.0
  0
LINE
  5
171
330
1F
100
AcDbEntity
  8
0
  6
Continuous
 62
     7
370
    25
100
AcDbLine
 10
3840.1225156724
 20
606.7543978663
 30
0.0
 11
3840.1225156724
 21
2378.2543978663
 31
0.0
  0
LINE
  5
172
330
1F
100
AcDbEntity
  8
0
  6
Continuous
 62
     7
370
    25
100
AcDbLine
 10
4218.6225156724
 20
606.7543978663
 30
0.0
 11
4218.6225156724
 21
2378.2543978663
 31
0.0
  0
LINE
  5
173
330
1F
100
AcDbEntity
  8
0
  6
Continuous
 62
     7
370
    25
100
AcDbLine
 10
3839.6225156724
 20
2378.2543978663
 30
0.0
 11
4218.6225156724
 21
2378.2543978663
 31
0.0
  0
LINE
  5
174
330
1F
100
AcDbEntity
  8
0
  6
Continuous
 62
     7
370
    25
100
AcDbLine
 10
3839.6225156724
 20
2406.7543978663
 30
0.0
 11
3839.6225156724
 21
2378.2543978663
 31
0.0
  0
LINE
  5
175
330
1F
100
AcDbEntity
  8
0
  6
Continuous
 62
     7
370
    25
100
AcDbLine
 10
4218.6225156724
 20
2406.7543978663
 30
0.0
 11
3839.6225156724
 21
2406.7543978663
 31
0.0
  0
LINE
  5
176
330
1F
100
AcDbEntity
  8
0
  6
Continuous
 62
     7
370
    25
100
AcDbLine
 10
4218.6225156724
 20
2378.2543978663
 30
0.0
 11
4218.6225156724
 21
2406.7543978663
 31
0.0
  0
LINE
  5
177
330
1F
100
AcDbEntity
  8
0
  6
Continuous
 62
     7
370
    25
100
AcDbLine
 10
3836.6225156724
 20
649.7543978663
 30
0.0
 11
3836.8225156724
 21
649.5543978663
 31
0.0
  0
LINE
  5
178
330
1F
100
AcDbEntity
  8
0
  6
Continuous
 62
     7
370
    25
100
AcDbLine
 10
3836.8225156724
 20
649.5543978663
 30
0.0
 11
3836.8225156724
 21
629.5543978663
 31
0.0
  0
LINE
  5
179
330
1F
100
AcDbEntity
  8
0
  6
Continuous
 62
     7
370
    25
100
AcDbLine
 10
3836.6225156724
 20
629.7543978663
 30
0.0
 11
3836.8225156724
 21
629.5543978663
 31
0.0
  0
ARC
  5
17A
330
1F
100
AcDbEntity
  8
0
  6
Continuous
 62
     7
370
    25
100
AcDbCircle
 10
3827.0393294423
 20
626.7543978663
 30
0.0
 40
1.199999999999961
100
AcDbArc
 50
90.0
 51
175.0300534053
  0
LINE
  5
17B
330
1F
100
AcDbEntity
  8
0
  6
Continuous
 62
     7
370
    25
100
AcDbLine
 10
3825.0026524914
 20
617.1850913096
 30
0.0
 11
3825.84384111
 21
626.8583577014
 31
0.0
  0
ARC
  5
17C
330
1F
100
AcDbEntity
  8
0
  6
Continuous
 62
     7
370
    25
100
AcDbCircle
 10
3824.2056602699
 20
617.2543978663
 30
0.0
 40
0.8000000000000178
100
AcDbArc
 50
260.423411519
 51
355.0300534053
  0
ARC
  5
17D
330
1F
100
AcDbEntity
  8
0
  6
Continuous
 62
     7
370
    25
100
AcDbCircle
 10
3824.1224773464
 20
616.7613658174
 30
0.0
 40
0.3000000000004442
100
AcDbArc
 50
223.6216529672
 51
260.4234115189
  0
LINE
  5
17E
330
1F
100
AcDbEntity
  8
0
  6
Continuous
 62
     7
370
    25
100
AcDbLine
 10
3824.3225156724
 20
616.5543978663
 30
0.0
 11
3823.9053039889
 21
616.5543978663
 31
0.0
  0
LINE
  5
17F
330
1F
100
AcDbEntity
  8
0
  6
Continuous
 62
     7
370
    25
100
AcDbLine
 10
3824.3225156724
 20
629.5543978663
 30
0.0
 11
3824.3225156724
 21
616.5543978663
 31
0.0
  0
LINE
  5
180
330
1F
100
AcDbEntity
  8
0
  6
Continuous
 62
     7
370
    25
100
AcDbLine
 10
3836.8225156724
 20
629.5543978663
 30
0.0
 11
3824.3225156724
 21
629.5543978663
 31
0.0
  0
LINE
  5
181
330
1F
100
AcDbEntity
  8
0
  6
Continuous
 62
     7
370
    25
100
AcDbLine
 10
3838.2225156724
 20
649.5543978663
 30
0.0
 11
3836.8225156724
 21
649.5543978663
 31
0.0
  0
LINE
  5
182
330
1F
100
AcDbEntity
  8
0
  6
Continuous
 62
     7
370
    25
100
AcDbLine
 10
3838.2225156724
 20
628.7543978663
 30
0.0
 11
3838.2225156724
 21
649.5543978663
 31
0.0
  0
ARC
  5
183
330
1F
100
AcDbEntity
  8
0
  6
Continuous
 62
     7
370
    25
100
AcDbCircle
 10
3837.4225156724
 20
628.7543978663
 30
0.0
 40
0.7999999999999545
100
AcDbArc
 50
270.0
 51
0.0
  0
LINE
  5
184
330
1F
100
AcDbEntity
  8
0
  6
Continuous
 62
     7
370
    25
100
AcDbLine
 10
3827.0393294423
 20
627.9543978663
 30
0.0
 11
3837.4225156724
 21
627.9543978663
 31
0.0
  0
LINE
  5
185
330
1F
100
AcDbEntity
  8
0
  6
Continuous
 62
     7
370
    25
100
AcDbLine
 10
3836.6225156724
 20
649.7543978663
 30
0.0
 11
3838.2225156724
 21
649.7543978663
 31
0.0
  0
LINE
  5
186
330
1F
100
AcDbEntity
  8
0
  6
Continuous
 62
     7
370
    25
100
AcDbLine
 10
3838.2225156724
 20
649.7543978663
 30
0.0
 11
3838.2225156724
 21
649.5543978663
 31
0.0
  0
LINE
  5
187
330
1F
100
AcDbEntity
  8
0
  6
Continuous
 62
     7
370
    25
100
AcDbLine
 10
3838.4225156724
 20
649.5543978663
 30
0.0
 11
3838.4225156724
 21
628.7543978663
 31
0.0
  0
LINE
  5
188
330
1F
100
AcDbEntity
  8
0
  6
Continuous
 62
     7
370
    25
100
AcDbLine
 10
3838.4225156724
 20
628.7543978663
 30
0.0
 11
3838.2225156724
 21
628.7543978663
 31
0.0
  0
LINE
  5
189
330
1F
100
AcDbEntity
  8
0
  6
Continuous
 62
     7
370
    25
100
AcDbLine
 10
3838.4225156724
 20
649.5543978663
 30
0.0
 11
3838.2225156724
 21
649.5543978663
 31
0.0
  0
ARC
  5
18A
330
1F
100
AcDbEntity
  8
0
  6
Continuous
 62
     7
370
    25
100
AcDbCircle
 10
3838.2225156724
 20
649.5543978663
 30
0.0
 40
0.2000000000000455
100
AcDbArc
 50
0.0
 51
90.0
  0
ARC
  5
18B
330
1F
100
AcDbEntity
  8
0
  6
Continuous
 62
     7
370
    25
100
AcDbCircle
 10
3837.4225156724
 20
628.7543978663
 30
0.0
 40
1.000000000000455
100
AcDbArc
 50
270.0
 51
0.0
  0
LINE
  5
18C
330
1F
100
AcDbEntity
  8
0
  6
Continuous
 62
     7
370
    25
100
AcDbLine
 10
3837.4225156724
 20
627.9543978663
 30
0.0
 11
3837.4225156724
 21
627.7543978663
 31
0.0
  0
LINE
  5
18D
330
1F
100
AcDbEntity
  8
0
  6
Continuous
 62
     7
370
    25
100
AcDbLine
 10
3824.1225156724
 20
629.7543978663
 30
0.0
 11
3824.3225156724
 21
629.5543978663
 31
0.0
  0
LINE
  5
18E
330
1F
100
AcDbEntity
  8
0
  6
Continuous
 62
     7
370
    25
100
AcDbLine
 10
3837.4225156724
 20
627.7543978663
 30
0.0
 11
3827.0393294423
 21
627.7543978663
 31
0.0
  0
LINE
  5
18F
330
1F
100
AcDbEntity
  8
0
  6
Continuous
 62
     7
370
    25
100
AcDbLine
 10
3827.0393294423
 20
627.9543978663
 30
0.0
 11
3827.0393294423
 21
627.7543978663
 31
0.0
  0
LINE
  5
190
330
1F
100
AcDbEntity
  8
0
  6
Continuous
 62
     7
370
    25
100
AcDbLine
 10
3824.1225156724
 20
616.7543978663
 30
0.0
 11
3824.3225156724
 21
616.5543978663
 31
0.0
  0
ARC
  5
191
330
1F
100
AcDbEntity
  8
0
  6
Continuous
 62
     7
370
    25
100
AcDbCircle
 10
3827.0393294423
 20
626.7543978663
 30
0.0
 40
1.0
100
AcDbArc
 50
90.0
 51
175.0300534053
  0
LINE
  5
192
330
1F
100
AcDbEntity
  8
0
  6
Continuous
 62
     7
370
    25
100
AcDbLine
 10
3825.84384111
 20
626.8583577014
 30
0.0
 11
3826.0430891654
 21
626.8410310622
 31
0.0
  0
LINE
  5
193
330
1F
100
AcDbEntity
  8
0
  6
Continuous
 62
     7
370
    25
100
AcDbLine
 10
3826.0430891654
 20
626.8410310622
 30
0.0
 11
3825.2019005468
 21
617.1677646704
 31
0.0
  0
LINE
  5
194
330
1F
100
AcDbEntity
  8
0
  6
Continuous
 62
     7
370
    25
100
AcDbLine
 10
3825.0026524914
 20
617.1850913096
 30
0.0
 11
3825.2019005468
 21
617.1677646704
 31
0.0
  0
ARC
  5
195
330
1F
100
AcDbEntity
  8
0
  6
Continuous
 62
     7
370
    25
100
AcDbCircle
 10
3824.2056602699
 20
617.2543978663
 30
0.0
 40
0.9999999999999706
100
AcDbArc
 50
260.4234115189
 51
355.0300534053
  0
LINE
  5
196
330
1F
100
AcDbEntity
  8
0
  6
Continuous
 62
     7
370
    25
100
AcDbLine
 10
3824.0725675924
 20
616.4655465881
 30
0.0
 11
3824.039294423
 21
616.2683337685
 31
0.0
  0
SPLINE
  5
197
330
1F
100
AcDbEntity
  8
0
  6
Continuous
 62
     7
370
    25
100
AcDbSpline
210
0.0
220
0.0
230
1.0
 70
     8
 71
     3
 72
    13
 73
     9
 74
     0
 42
0.00000001
 43
0.00000001
 40
0.0
 40
0.0
 40
0.0
 40
0.0
 40
0.0075029974113241
 40
0.3818974549655675
 40
0.6070018873266094
 40
0.7653769096339128
 40
0.8824605049806455
 40
0.9999999999999999
 40
0.9999999999999999
 40
0.9999999999999999
 40
0.9999999999999999
 10
3823.905303988904
 20
616.554397866313
 30
0.0
 10
3823.904286212288
 20
616.5548358642081
 30
0.0
 10
3823.85248207615
 20
616.5771296585774
 30
0.0
 10
3823.773896710781
 20
616.6240140467929
 30
0.0
 10
3823.69125724675
 20
616.6902984838292
 30
0.0
 10
3823.649161128651
 20
616.728560043002
 30
0.0
 10
3823.626637701816
 20
616.750315818737
 30
0.0
 10
3823.623898275701
 20
616.7530354222868
 30
0.0
 10
3823.622525901134
 20
616.7543978663131
 30
0.0
  0
ARC
  5
198
330
1F
100
AcDbEntity
  8
0
  6
Continuous
 62
     7
370
    25
100
AcDbCircle
 10
3824.1224773464
 20
616.7613658174
 30
0.0
 40
0.5000000000006438
100
AcDbArc
 50
180.7984942261
 51
260.4234115189
  0
LINE
  5
199
330
1F
100
AcDbEntity
  8
0
  6
Continuous
 62
     7
370
    25
100
AcDbLine
 10
3839.3225156724
 20
2364.0543978663
 30
0.0
 11
3839.3225156724
 21
2365.2543978663
 31
0.0
  0
LINE
  5
19A
330
1F
100
AcDbEntity
  8
0
  6
Continuous
 62
     7
370
    25
100
AcDbLine
 10
3839.3225156724
 20
2364.0543978663
 30
0.0
 11
3840.1225156724
 21
2364.0543978663
 31
0.0
  0
LINE
  5
19B
330
1F
100
AcDbEntity
  8
0
  6
Continuous
 62
     7
370
    25
100
AcDbLine
 10
3839.3225156724
 20
2365.2543978663
 30
0.0
 11
3840.1225156724
 21
2365.2543978663
 31
0.0
  0
LINE
  5
19C
330
1F
100
AcDbEntity
  8
0
  6
Continuous
 62
     7
370
    25
100
AcDbLine
 10
3838.1225156724
 20
2364.0543978663
 30
0.0
 11
3839.3225156724
 21
2364.0543978663
 31
0.0
  0
LINE
  5
19D
330
1F
100
AcDbEntity
  8
0
  6
Continuous
 62
     7
370
    25
100
AcDbLine
 10
3838.1225156724
 20
2365.2543978663
 30
0.0
 11
3839.3225156724
 21
2365.2543978663
 31
0.0
  0
LINE
  5
19E
330
1F
100
AcDbEntity
  8
0
  6
Continuous
 62
     7
370
    25
100
AcDbLine
 10
3838.1225156724
 20
2346.2543978663
 30
0.0
 11
3839.3225156724
 21
2346.2543978663
 31
0.0
  0
LINE
  5
19F
330
1F
100
AcDbEntity
  8
0
  6
Continuous
 62
     7
370
    25
100
AcDbLine
 10
3839.3225156724
 20
2346.2543978663
 30
0.0
 11
3839.3225156724
 21
2364.0543978663
 31
0.0
  0
LINE
  5
1A0
330
1F
100
AcDbEntity
  8
0
  6
Continuous
 62
     7
370
    25
100
AcDbLine
 10
3839.3225156724
 20
2346.2543978663
 30
0.0
 11
3839.3225156724
 21
2345.2470896858
 31
0.0
  0
LINE
  5
1A1
330
1F
100
AcDbEntity
  8
0
  6
Continuous
 62
     7
370
    25
100
AcDbLine
 10
3838.6225156724
 20
1407.7984397273
 30
0.0
 11
3838.1225156724
 21
1407.7984397273
 31
0.0
  0
LINE
  5
1A2
330
1F
100
AcDbEntity
  8
0
  6
Continuous
 62
     7
370
    25
100
AcDbLine
 10
3838.6225156724
 20
1409.3543978665
 30
0.0
 11
3838.1225156724
 21
1409.3543978665
 31
0.0
  0
LINE
  5
1A3
330
1F
100
AcDbEntity
  8
0
  6
Continuous
 62
     7
370
    25
100
AcDbLine
 10
3838.6225156724
 20
1409.3543978665
 30
0.0
 11
3838.6225156724
 21
1407.7984397273
 31
0.0
  0
LINE
  5
1A4
330
1F
100
AcDbEntity
  8
0
  6
Continuous
 62
     7
370
    25
100
AcDbLine
 10
3838.1225156724
 20
1425.7103560054
 30
0.0
 11
3838.6225156724
 21
1425.7103560054
 31
0.0
  0
LINE
  5
1A5
330
1F
100
AcDbEntity
  8
0
  6
Continuous
 62
     7
370
    25
100
AcDbLine
 10
3838.6225156724
 20
1425.7103560054
 30
0.0
 11
3838.6225156724
 21
1424.1543978661
 31
0.0
  0
LINE
  5
1A6
330
1F
100
AcDbEntity
  8
0
  6
Continuous
 62
     7
370
    25
100
AcDbLine
 10
3838.1225156724
 20
1424.1543978661
 30
0.0
 11
3838.6225156724
 21
1424.1543978661
 31
0.0
  0
LINE
  5
1A7
330
1F
100
AcDbEntity
  8
0
  6
Continuous
 62
     7
370
    25
100
AcDbLine
 10
3838.3225156724
 20
1398.3628237086
 30
0.0
 11
3838.6225156724
 21
1398.3628237086
 31
0.0
  0
LINE
  5
1A8
330
1F
100
AcDbEntity
  8
0
  6
Continuous
 62
     7
370
    25
100
AcDbLine
 10
3838.1225156724
 20
1398.3628237086
 30
0.0
 11
3838.3225156724
 21
1398.3628237086
 31
0.0
  0
LINE
  5
1A9
330
1F
100
AcDbEntity
  8
0
  6
Continuous
 62
     7
370
    25
100
AcDbLine
 10
3838.6225156724
 20
1398.3628237086
 30
0.0
 11
3838.6225156724
 21
1407.7984397273
 31
0.0
  0
LINE
  5
1AA
330
1F
100
AcDbEntity
  8
0
  6
Continuous
 62
     7
370
    25
100
AcDbLine
 10
3838.3225156724
 20
1435.1459720241
 30
0.0
 11
3838.1225156724
 21
1435.1459720241
 31
0.0
  0
LINE
  5
1AB
330
1F
100
AcDbEntity
  8
0
  6
Continuous
 62
     7
370
    25
100
AcDbLine
 10
3838.6225156724
 20
1435.1459720241
 30
0.0
 11
3838.3225156724
 21
1435.1459720241
 31
0.0
  0
LINE
  5
1AC
330
1F
100
AcDbEntity
  8
0
  6
Continuous
 62
     7
370
    25
100
AcDbLine
 10
3838.6225156724
 20
1425.7103560054
 30
0.0
 11
3838.6225156724
 21
1435.1459720241
 31
0.0
  0
SPLINE
  5
1AD
330
1F
100
AcDbEntity
  8
0
  6
Continuous
 62
     7
370
    25
100
AcDbSpline
210
0.0
220
0.0
230
1.0
 70
    24
 71
     3
 72
    12
 73
     8
 74
     0
 42
0.00000001
 43
0.00000001
 40
0.0
 40
0.0
 40
0.0
 40
0.0
 40
0.1234882189592358
 40
0.3047574776055879
 40
0.4857888495149846
 40
0.667058215398968
 40
1.0
 40
1.0
 40
1.0
 40
1.0
 10
3840.122515672364
 20
1388.254397866317
 30
0.0
 10
3840.082769103328
 20
1388.254397866317
 30
0.0
 10
3839.98467825527
 20
1388.254397866317
 30
0.0
 10
3839.744704966911
 20
1388.254397866317
 30
0.0
 10
3839.429090778416
 20
1388.254397866317
 30
0.0
 10
3838.962180689317
 20
1388.254397866318
 30
0.0
 10
3838.57391208908
 20
1388.254397866315
 30
0.0
 10
3838.322515672364
 20
1388.254397866315
 30
0.0
  0
LINE
  5
1AE
330
1F
100
AcDbEntity
  8
0
  6
Continuous
 62
     7
370
    25
100
AcDbLine
 10
3838.3225156724
 20
1389.2543978663
 30
0.0
 11
3838.3225156724
 21
1388.2543978663
 31
0.0
  0
SPLINE
  5
1AF
330
1F
100
AcDbEntity
  8
0
  6
Continuous
 62
     7
370
    25
100
AcDbSpline
210
0.0
220
0.0
230
1.0
 70
    24
 71
     3
 72
    12
 73
     8
 74
     0
 42
0.00000001
 43
0.00000001
 40
0.0
 40
0.0
 40
0.0
 40
0.0
 40
0.3329369653748987
 40
0.5139656098138642
 40
0.6952322446458521
 40
0.8762609961867959
 40
1.0
 40
1.0
 40
1.0
 40
1.0
 10
3838.322515672358
 20
1445.254397866314
 30
0.0
 10
3838.5739130855
 20
1445.254397866315
 30
0.0
 10
3838.962003439498
 20
1445.254397866317
 30
0.0
 10
3839.428932709173
 20
1445.254397866317
 30
0.0
 10
3839.744451598194
 20
1445.254397866317
 30
0.0
 10
3839.984575816711
 20
1445.254397866317
 30
0.0
 10
3840.082683067721
 20
1445.254397866317
 30
0.0
 10
3840.122515672364
 20
1445.254397866317
 30
0.0
  0
LINE
  5
1B0
330
1F
100
AcDbEntity
  8
0
  6
Continuous
 62
     7
370
    25
100
AcDbLine
 10
3838.3225156724
 20
1444.2543978663
 30
0.0
 11
3838.3225156724
 21
1445.2543978663
 31
0.0
  0
LINE
  5
1B1
330
1F
100
AcDbEntity
  8
0
  6
Continuous
 62
     7
370
    25
100
AcDbLine
 10
3838.1225156724
 20
1389.2543978663
 30
0.0
 11
3838.3225156724
 21
1389.2543978663
 31
0.0
  0
LINE
  5
1B2
330
1F
100
AcDbEntity
  8
0
  6
Continuous
 62
     7
370
    25
100
AcDbLine
 10
3838.3225156724
 20
1389.2543978663
 30
0.0
 11
3838.3225156724
 21
1398.3628237086
 31
0.0
  0
SPLINE
  5
1B3
330
1F
100
AcDbEntity
  8
0
  6
Continuous
 62
     7
370
    25
100
AcDbSpline
210
0.0
220
0.0
230
1.0
 70
     8
 71
     3
 72
    10
 73
     6
 74
     0
 42
0.00000001
 43
0.00000001
 40
0.0
 40
0.0
 40
0.0
 40
0.0
 40
0.0371311943338294
 40
0.548662819554776
 40
1.0
 40
1.0
 40
1.0
 40
1.0
 10
3840.122515672364
 20
1406.508633526147
 30
0.0
 10
3840.116892820151
 20
1406.515351873572
 30
0.0
 10
3840.033807694445
 20
1406.614624399194
 30
0.0
 10
3839.812251721862
 20
1406.715053312386
 30
0.0
 10
3839.580940832616
 20
1406.741841237216
 30
0.0
 10
3839.472515672361
 20
1406.754397866314
 30
0.0
  0
LINE
  5
1B4
330
1F
100
AcDbEntity
  8
0
  6
Continuous
 62
     7
370
    25
100
AcDbLine
 10
3838.6225156724
 20
1406.7543978663
 30
0.0
 11
3839.4725156724
 21
1406.7543978663
 31
0.0
  0
SPLINE
  5
1B5
330
1F
100
AcDbEntity
  8
0
  6
Continuous
 62
     7
370
    25
100
AcDbSpline
210
0.0
220
0.0
230
1.0
 70
     8
 71
     3
 72
     9
 73
     5
 74
     0
 42
0.00000001
 43
0.00000001
 40
0.0
 40
0.0
 40
0.0
 40
0.0
 40
0.5050081268957244
 40
1.0
 40
1.0
 40
1.0
 40
1.0
 10
3839.47251567236
 20
1426.754397866314
 30
0.0
 10
3839.595811944227
 20
1426.766617725698
 30
0.0
 10
3839.839959048602
 20
1426.790815077648
 30
0.0
 10
3840.028961162155
 20
1426.92789115091
 30
0.0
 10
3840.122515672364
 20
1426.995742693171
 30
0.0
  0
LINE
  5
1B6
330
1F
100
AcDbEntity
  8
0
  6
Continuous
 62
     7
370
    25
100
AcDbLine
 10
3838.3225156724
 20
1435.1459720241
 30
0.0
 11
3838.3225156724
 21
1444.2543978663
 31
0.0
  0
LINE
  5
1B7
330
1F
100
AcDbEntity
  8
0
  6
Continuous
 62
     7
370
    25
100
AcDbLine
 10
3839.4725156724
 20
1426.7543978663
 30
0.0
 11
3838.6225156724
 21
1426.7543978663
 31
0.0
  0
LINE
  5
1B8
330
1F
100
AcDbEntity
  8
0
  6
Continuous
 62
     7
370
    25
100
AcDbLine
 10
3838.1225156724
 20
1444.2543978663
 30
0.0
 11
3838.3225156724
 21
1444.2543978663
 31
0.0
  0
LINE
  5
1B9
330
1F
100
AcDbEntity
  8
0
  6
Continuous
 62
     7
370
    25
100
AcDbLine
 10
3838.1225156724
 20
1388.2543978663
 30
0.0
 11
3838.3225156724
 21
1388.2543978663
 31
0.0
  0
LINE
  5
1BA
330
1F
100
AcDbEntity
  8
0
  6
Continuous
 62
     7
370
    25
100
AcDbLine
 10
3838.1225156724
 20
1445.2543978663
 30
0.0
 11
3838.3225156724
 21
1445.2543978663
 31
0.0
  0
LINE
  5
1BB
330
1F
100
AcDbEntity
  8
0
  6
Continuous
 62
     7
370
    25
100
AcDbLine
 10
3838.6225156724
 20
1937.7984397273
 30
0.0
 11
3838.1225156724
 21
1937.7984397273
 31
0.0
  0
LINE
  5
1BC
330
1F
100
AcDbEntity
  8
0
  6
Continuous
 62
     7
370
    25
100
AcDbLine
 10
3838.6225156724
 20
1939.3543978665
 30
0.0
 11
3838.1225156724
 21
1939.3543978665
 31
0.0
  0
LINE
  5
1BD
330
1F
100
AcDbEntity
  8
0
  6
Continuous
 62
     7
370
    25
100
AcDbLine
 10
3838.6225156724
 20
1939.3543978665
 30
0.0
 11
3838.6225156724
 21
1937.7984397273
 31
0.0
  0
LINE
  5
1BE
330
1F
100
AcDbEntity
  8
0
  6
Continuous
 62
     7
370
    25
100
AcDbLine
 10
3838.1225156724
 20
1955.7103560054
 30
0.0
 11
3838.6225156724
 21
1955.7103560054
 31
0.0
  0
LINE
  5
1BF
330
1F
100
AcDbEntity
  8
0
  6
Continuous
 62
     7
370
    25
100
AcDbLine
 10
3838.6225156724
 20
1955.7103560054
 30
0.0
 11
3838.6225156724
 21
1954.1543978661
 31
0.0
  0
LINE
  5
1C0
330
1F
100
AcDbEntity
  8
0
  6
Continuous
 62
     7
370
    25
100
AcDbLine
 10
3838.1225156724
 20
1954.1543978661
 30
0.0
 11
3838.6225156724
 21
1954.1543978661
 31
0.0
  0
LINE
  5
1C1
330
1F
100
AcDbEntity
  8
0
  6
Continuous
 62
     7
370
    25
100
AcDbLine
 10
3838.3225156724
 20
1928.3628237086
 30
0.0
 11
3838.6225156724
 21
1928.3628237086
 31
0.0
  0
LINE
  5
1C2
330
1F
100
AcDbEntity
  8
0
  6
Continuous
 62
     7
370
    25
100
AcDbLine
 10
3838.1225156724
 20
1928.3628237086
 30
0.0
 11
3838.3225156724
 21
1928.3628237086
 31
0.0
  0
LINE
  5
1C3
330
1F
100
AcDbEntity
  8
0
  6
Continuous
 62
     7
370
    25
100
AcDbLine
 10
3838.6225156724
 20
1928.3628237086
 30
0.0
 11
3838.6225156724
 21
1937.7984397273
 31
0.0
  0
LINE
  5
1C4
330
1F
100
AcDbEntity
  8
0
  6
Continuous
 62
     7
370
    25
100
AcDbLine
 10
3838.3225156724
 20
1965.1459720241
 30
0.0
 11
3838.1225156724
 21
1965.1459720241
 31
0.0
  0
LINE
  5
1C5
330
1F
100
AcDbEntity
  8
0
  6
Continuous
 62
     7
370
    25
100
AcDbLine
 10
3838.6225156724
 20
1965.1459720241
 30
0.0
 11
3838.3225156724
 21
1965.1459720241
 31
0.0
  0
LINE
  5
1C6
330
1F
100
AcDbEntity
  8
0
  6
Continuous
 62
     7
370
    25
100
AcDbLine
 10
3838.6225156724
 20
1955.7103560054
 30
0.0
 11
3838.6225156724
 21
1965.1459720241
 31
0.0
  0
SPLINE
  5
1C7
330
1F
100
AcDbEntity
  8
0
  6
Continuous
 62
     7
370
    25
100
AcDbSpline
210
0.0
220
0.0
230
1.0
 70
    24
 71
     3
 72
    12
 73
     8
 74
     0
 42
0.00000001
 43
0.00000001
 40
0.0
 40
0.0
 40
0.0
 40
0.0
 40
0.1234882189595258
 40
0.3047574776058178
 40
0.4857888495151546
 40
0.667058215399078
 40
0.9999999999999999
 40
0.9999999999999999
 40
0.9999999999999999
 40
0.9999999999999999
 10
3840.122515672364
 20
1918.254397866319
 30
0.0
 10
3840.082769103328
 20
1918.254397866319
 30
0.0
 10
3839.98467825527
 20
1918.254397866319
 30
0.0
 10
3839.744704966911
 20
1918.254397866319
 30
0.0
 10
3839.429090778416
 20
1918.254397866319
 30
0.0
 10
3838.962180689317
 20
1918.254397866319
 30
0.0
 10
3838.57391208908
 20
1918.254397866317
 30
0.0
 10
3838.322515672364
 20
1918.254397866316
 30
0.0
  0
LINE
  5
1C8
330
1F
100
AcDbEntity
  8
0
  6
Continuous
 62
     7
370
    25
100
AcDbLine
 10
3838.3225156724
 20
1919.2543978663
 30
0.0
 11
3838.3225156724
 21
1918.2543978663
 31
0.0
  0
SPLINE
  5
1C9
330
1F
100
AcDbEntity
  8
0
  6
Continuous
 62
     7
370
    25
100
AcDbSpline
210
0.0
220
0.0
230
1.0
 70
    24
 71
     3
 72
    12
 73
     8
 74
     0
 42
0.00000001
 43
0.00000001
 40
0.0
 40
0.0
 40
0.0
 40
0.0
 40
0.3329369653747958
 40
0.5139656098137053
 40
0.6952322446456373
 40
0.8762609961865251
 40
1.0
 40
1.0
 40
1.0
 40
1.0
 10
3838.322515672357
 20
1975.254397866315
 30
0.0
 10
3838.5739130855
 20
1975.254397866316
 30
0.0
 10
3838.962003439498
 20
1975.254397866318
 30
0.0
 10
3839.428932709173
 20
1975.254397866319
 30
0.0
 10
3839.744451598194
 20
1975.254397866319
 30
0.0
 10
3839.984575816711
 20
1975.254397866319
 30
0.0
 10
3840.082683067721
 20
1975.254397866319
 30
0.0
 10
3840.122515672364
 20
1975.254397866318
 30
0.0
  0
LINE
  5
1CA
330
1F
100
AcDbEntity
  8
0
  6
Continuous
 62
     7
370
    25
100
AcDbLine
 10
3838.3225156724
 20
1974.2543978663
 30
0.0
 11
3838.3225156724
 21
1975.2543978663
 31
0.0
  0
SPLINE
  5
1CB
330
1F
100
AcDbEntity
  8
0
  6
Continuous
 62
     7
370
    25
100
AcDbSpline
210
0.0
220
0.0
230
1.0
 70
     8
 71
     3
 72
    10
 73
     6
 74
     0
 42
0.00000001
 43
0.00000001
 40
0.0
 40
0.0
 40
0.0
 40
0.0
 40
0.0371311943345745
 40
0.5486628195551253
 40
1.0
 40
1.0
 40
1.0
 40
1.0
 10
3840.122515672363
 20
1936.508633526149
 30
0.0
 10
3840.116892820151
 20
1936.515351873574
 30
0.0
 10
3840.033807694446
 20
1936.614624399193
 30
0.0
 10
3839.812251721861
 20
1936.715053312388
 30
0.0
 10
3839.580940832616
 20
1936.741841237218
 30
0.0
 10
3839.472515672361
 20
1936.754397866316
 30
0.0
  0
LINE
  5
1CC
330
1F
100
AcDbEntity
  8
0
  6
Continuous
 62
     7
370
    25
100
AcDbLine
 10
3838.3225156724
 20
1919.2543978663
 30
0.0
 11
3838.3225156724
 21
1928.3628237086
 31
0.0
  0
LINE
  5
1CD
330
1F
100
AcDbEntity
  8
0
  6
Continuous
 62
     7
370
    25
100
AcDbLine
 10
3838.6225156724
 20
1936.7543978663
 30
0.0
 11
3839.4725156724
 21
1936.7543978663
 31
0.0
  0
LINE
  5
1CE
330
1F
100
AcDbEntity
  8
0
  6
Continuous
 62
     7
370
    25
100
AcDbLine
 10
3838.1225156724
 20
1919.2543978663
 30
0.0
 11
3838.3225156724
 21
1919.2543978663
 31
0.0
  0
SPLINE
  5
1CF
330
1F
100
AcDbEntity
  8
0
  6
Continuous
 62
     7
370
    25
100
AcDbSpline
210
0.0
220
0.0
230
1.0
 70
     8
 71
     3
 72
     9
 73
     5
 74
     0
 42
0.00000001
 43
0.00000001
 40
0.0
 40
0.0
 40
0.0
 40
0.0
 40
0.5050081268954345
 40
1.0
 40
1.0
 40
1.0
 40
1.0
 10
3839.47251567236
 20
1956.754397866316
 30
0.0
 10
3839.595811944227
 20
1956.7666177257
 30
0.0
 10
3839.839959048602
 20
1956.790815077649
 30
0.0
 10
3840.028961162155
 20
1956.927891150912
 30
0.0
 10
3840.122515672364
 20
1956.995742693173
 30
0.0
  0
LINE
  5
1D0
330
1F
100
AcDbEntity
  8
0
  6
Continuous
 62
     7
370
    25
100
AcDbLine
 10
3838.3225156724
 20
1965.1459720241
 30
0.0
 11
3838.3225156724
 21
1974.2543978663
 31
0.0
  0
LINE
  5
1D1
330
1F
100
AcDbEntity
  8
0
  6
Continuous
 62
     7
370
    25
100
AcDbLine
 10
3839.4725156724
 20
1956.7543978663
 30
0.0
 11
3838.6225156724
 21
1956.7543978663
 31
0.0
  0
LINE
  5
1D2
330
1F
100
AcDbEntity
  8
0
  6
Continuous
 62
     7
370
    25
100
AcDbLine
 10
3838.1225156724
 20
1974.2543978663
 30
0.0
 11
3838.3225156724
 21
1974.2543978663
 31
0.0
  0
LINE
  5
1D3
330
1F
100
AcDbEntity
  8
0
  6
Continuous
 62
     7
370
    25
100
AcDbLine
 10
3838.1225156724
 20
1918.2543978663
 30
0.0
 11
3838.3225156724
 21
1918.2543978663
 31
0.0
  0
LINE
  5
1D4
330
1F
100
AcDbEntity
  8
0
  6
Continuous
 62
     7
370
    25
100
AcDbLine
 10
3838.1225156724
 20
1975.2543978663
 30
0.0
 11
3838.3225156724
 21
1975.2543978663
 31
0.0
  0
LINE
  5
1D5
330
1F
100
AcDbEntity
  8
0
  6
Continuous
 62
     7
370
    25
100
AcDbLine
 10
3838.6225156724
 20
2307.7984397273
 30
0.0
 11
3838.1225156724
 21
2307.7984397273
 31
0.0
  0
LINE
  5
1D6
330
1F
100
AcDbEntity
  8
0
  6
Continuous
 62
     7
370
    25
100
AcDbLine
 10
3838.6225156724
 20
2309.3543978665
 30
0.0
 11
3838.1225156724
 21
2309.3543978665
 31
0.0
  0
LINE
  5
1D7
330
1F
100
AcDbEntity
  8
0
  6
Continuous
 62
     7
370
    25
100
AcDbLine
 10
3838.6225156724
 20
2309.3543978665
 30
0.0
 11
3838.6225156724
 21
2307.7984397273
 31
0.0
  0
LINE
  5
1D8
330
1F
100
AcDbEntity
  8
0
  6
Continuous
 62
     7
370
    25
100
AcDbLine
 10
3838.1225156724
 20
2325.7103560054
 30
0.0
 11
3838.6225156724
 21
2325.7103560054
 31
0.0
  0
LINE
  5
1D9
330
1F
100
AcDbEntity
  8
0
  6
Continuous
 62
     7
370
    25
100
AcDbLine
 10
3838.6225156724
 20
2325.7103560054
 30
0.0
 11
3838.6225156724
 21
2324.1543978661
 31
0.0
  0
LINE
  5
1DA
330
1F
100
AcDbEntity
  8
0
  6
Continuous
 62
     7
370
    25
100
AcDbLine
 10
3838.1225156724
 20
2324.1543978661
 30
0.0
 11
3838.6225156724
 21
2324.1543978661
 31
0.0
  0
LINE
  5
1DB
330
1F
100
AcDbEntity
  8
0
  6
Continuous
 62
     7
370
    25
100
AcDbLine
 10
3838.3225156724
 20
2298.3628237086
 30
0.0
 11
3838.6225156724
 21
2298.3628237086
 31
0.0
  0
LINE
  5
1DC
330
1F
100
AcDbEntity
  8
0
  6
Continuous
 62
     7
370
    25
100
AcDbLine
 10
3838.1225156724
 20
2298.3628237086
 30
0.0
 11
3838.3225156724
 21
2298.3628237086
 31
0.0
  0
LINE
  5
1DD
330
1F
100
AcDbEntity
  8
0
  6
Continuous
 62
     7
370
    25
100
AcDbLine
 10
3838.6225156724
 20
2298.3628237086
 30
0.0
 11
3838.6225156724
 21
2307.7984397273
 31
0.0
  0
LINE
  5
1DE
330
1F
100
AcDbEntity
  8
0
  6
Continuous
 62
     7
370
    25
100
AcDbLine
 10
3838.3225156724
 20
2335.1459720241
 30
0.0
 11
3838.1225156724
 21
2335.1459720241
 31
0.0
  0
LINE
  5
1DF
330
1F
100
AcDbEntity
  8
0
  6
Continuous
 62
     7
370
    25
100
AcDbLine
 10
3838.6225156724
 20
2335.1459720241
 30
0.0
 11
3838.3225156724
 21
2335.1459720241
 31
0.0
  0
LINE
  5
1E0
330
1F
100
AcDbEntity
  8
0
  6
Continuous
 62
     7
370
    25
100
AcDbLine
 10
3838.6225156724
 20
2325.7103560054
 30
0.0
 11
3838.6225156724
 21
2335.1459720241
 31
0.0
  0
SPLINE
  5
1E1
330
1F
100
AcDbEntity
  8
0
  6
Continuous
 62
     7
370
    25
100
AcDbSpline
210
0.0
220
0.0
230
1.0
 70
    24
 71
     3
 72
    12
 73
     8
 74
     0
 42
0.00000001
 43
0.00000001
 40
0.0
 40
0.0
 40
0.0
 40
0.0
 40
0.1234882189573603
 40
0.3047574776041002
 40
0.4857888495138842
 40
0.6670582153982555
 40
1.0
 40
1.0
 40
1.0
 40
1.0
 10
3840.122515672364
 20
2288.254397866317
 30
0.0
 10
3840.082769103328
 20
2288.254397866317
 30
0.0
 10
3839.984678255272
 20
2288.254397866317
 30
0.0
 10
3839.744704966913
 20
2288.254397866318
 30
0.0
 10
3839.429090778419
 20
2288.254397866318
 30
0.0
 10
3838.962180689319
 20
2288.254397866317
 30
0.0
 10
3838.573912089082
 20
2288.254397866315
 30
0.0
 10
3838.322515672366
 20
2288.254397866315
 30
0.0
  0
LINE
  5
1E2
330
1F
100
AcDbEntity
  8
0
  6
Continuous
 62
     7
370
    25
100
AcDbLine
 10
3838.3225156724
 20
2289.2543978663
 30
0.0
 11
3838.3225156724
 21
2288.2543978663
 31
0.0
  0
SPLINE
  5
1E3
330
1F
100
AcDbEntity
  8
0
  6
Continuous
 62
     7
370
    25
100
AcDbSpline
210
0.0
220
0.0
230
1.0
 70
    24
 71
     3
 72
    12
 73
     8
 74
     0
 42
0.00000001
 43
0.00000001
 40
0.0
 40
0.0
 40
0.0
 40
0.0
 40
0.3329369653756111
 40
0.513965609814964
 40
0.6952322446473397
 40
0.8762609961886708
 40
1.0
 40
1.0
 40
1.0
 40
1.0
 10
3838.32251567236
 20
2345.254397866313
 30
0.0
 10
3838.573913085502
 20
2345.254397866315
 30
0.0
 10
3838.9620034395
 20
2345.254397866317
 30
0.0
 10
3839.428932709175
 20
2345.254397866316
 30
0.0
 10
3839.744451598196
 20
2345.254397866317
 30
0.0
 10
3839.984575816712
 20
2345.254397866316
 30
0.0
 10
3840.082683067721
 20
2345.254397866317
 30
0.0
 10
3840.122515672364
 20
2345.254397866317
 30
0.0
  0
LINE
  5
1E4
330
1F
100
AcDbEntity
  8
0
  6
Continuous
 62
     7
370
    25
100
AcDbLine
 10
3838.3225156724
 20
2344.2543978663
 30
0.0
 11
3838.3225156724
 21
2345.2543978663
 31
0.0
  0
LINE
  5
1E5
330
1F
100
AcDbEntity
  8
0
  6
Continuous
 62
     7
370
    25
100
AcDbLine
 10
3838.1225156724
 20
2289.2543978663
 30
0.0
 11
3838.3225156724
 21
2289.2543978663
 31
0.0
  0
LINE
  5
1E6
330
1F
100
AcDbEntity
  8
0
  6
Continuous
 62
     7
370
    25
100
AcDbLine
 10
3838.3225156724
 20
2289.2543978663
 30
0.0
 11
3838.3225156724
 21
2298.3628237086
 31
0.0
  0
SPLINE
  5
1E7
330
1F
100
AcDbEntity
  8
0
  6
Continuous
 62
     7
370
    25
100
AcDbSpline
210
0.0
220
0.0
230
1.0
 70
     8
 71
     3
 72
    10
 73
     6
 74
     0
 42
0.00000001
 43
0.00000001
 40
0.0
 40
0.0
 40
0.0
 40
0.0
 40
0.0371311943291114
 40
0.5486628195525645
 40
1.0
 40
1.0
 40
1.0
 40
1.0
 10
3840.122515672364
 20
2306.50863352615
 30
0.0
 10
3840.116892820152
 20
2306.515351873574
 30
0.0
 10
3840.033807694447
 20
2306.614624399193
 30
0.0
 10
3839.812251721864
 20
2306.715053312387
 30
0.0
 10
3839.580940832618
 20
2306.741841237216
 30
0.0
 10
3839.472515672364
 20
2306.754397866314
 30
0.0
  0
LINE
  5
1E8
330
1F
100
AcDbEntity
  8
0
  6
Continuous
 62
     7
370
    25
100
AcDbLine
 10
3838.6225156724
 20
2306.7543978663
 30
0.0
 11
3839.4725156724
 21
2306.7543978663
 31
0.0
  0
LINE
  5
1E9
330
1F
100
AcDbEntity
  8
0
  6
Continuous
 62
     7
370
    25
100
AcDbLine
 10
3838.1225156724
 20
2344.2543978663
 30
0.0
 11
3838.3225156724
 21
2344.2543978663
 31
0.0
  0
LINE
  5
1EA
330
1F
100
AcDbEntity
  8
0
  6
Continuous
 62
     7
370
    25
100
AcDbLine
 10
3838.3225156724
 20
2335.1459720241
 30
0.0
 11
3838.3225156724
 21
2344.2543978663
 31
0.0
  0
SPLINE
  5
1EB
330
1F
100
AcDbEntity
  8
0
  6
Continuous
 62
     7
370
    25
100
AcDbSpline
210
0.0
220
0.0
230
1.0
 70
     8
 71
     3
 72
     9
 73
     5
 74
     0
 42
0.00000001
 43
0.00000001
 40
0.0
 40
0.0
 40
0.0
 40
0.0
 40
0.5050081268976032
 40
1.0
 40
1.0
 40
1.0
 40
1.0
 10
3839.472515672362
 20
2326.754397866315
 30
0.0
 10
3839.59581194423
 20
2326.766617725699
 30
0.0
 10
3839.839959048604
 20
2326.790815077648
 30
0.0
 10
3840.028961162156
 20
2326.927891150909
 30
0.0
 10
3840.122515672364
 20
2326.99574269317
 30
0.0
  0
LINE
  5
1EC
330
1F
100
AcDbEntity
  8
0
  6
Continuous
 62
     7
370
    25
100
AcDbLine
 10
3839.4725156724
 20
2326.7543978663
 30
0.0
 11
3838.6225156724
 21
2326.7543978663
 31
0.0
  0
LINE
  5
1ED
330
1F
100
AcDbEntity
  8
0
  6
Continuous
 62
     7
370
    25
100
AcDbLine
 10
3838.1225156724
 20
2288.2543978663
 30
0.0
 11
3838.3225156724
 21
2288.2543978663
 31
0.0
  0
LINE
  5
1EE
330
1F
100
AcDbEntity
  8
0
  6
Continuous
 62
     7
370
    25
100
AcDbLine
 10
3838.1225156724
 20
2345.2543978663
 30
0.0
 11
3838.3225156724
 21
2345.2543978663
 31
0.0
  0
LINE
  5
1EF
330
1F
100
AcDbEntity
  8
0
  6
Continuous
 62
     7
370
    25
100
AcDbLine
 10
3838.6225156724
 20
687.7984397273
 30
0.0
 11
3838.1225156724
 21
687.7984397273
 31
0.0
  0
LINE
  5
1F0
330
1F
100
AcDbEntity
  8
0
  6
Continuous
 62
     7
370
    25
100
AcDbLine
 10
3838.6225156724
 20
689.3543978665
 30
0.0
 11
3838.1225156724
 21
689.3543978665
 31
0.0
  0
LINE
  5
1F1
330
1F
100
AcDbEntity
  8
0
  6
Continuous
 62
     7
370
    25
100
AcDbLine
 10
3838.6225156724
 20
689.3543978665
 30
0.0
 11
3838.6225156724
 21
687.7984397273
 31
0.0
  0
LINE
  5
1F2
330
1F
100
AcDbEntity
  8
0
  6
Continuous
 62
     7
370
    25
100
AcDbLine
 10
3838.1225156724
 20
705.7103560054
 30
0.0
 11
3838.6225156724
 21
705.7103560054
 31
0.0
  0
LINE
  5
1F3
330
1F
100
AcDbEntity
  8
0
  6
Continuous
 62
     7
370
    25
100
AcDbLine
 10
3838.6225156724
 20
705.7103560054
 30
0.0
 11
3838.6225156724
 21
704.1543978661
 31
0.0
  0
LINE
  5
1F4
330
1F
100
AcDbEntity
  8
0
  6
Continuous
 62
     7
370
    25
100
AcDbLine
 10
3838.1225156724
 20
704.1543978661
 30
0.0
 11
3838.6225156724
 21
704.1543978661
 31
0.0
  0
LINE
  5
1F5
330
1F
100
AcDbEntity
  8
0
  6
Continuous
 62
     7
370
    25
100
AcDbLine
 10
3838.3225156724
 20
678.3628237086
 30
0.0
 11
3838.6225156724
 21
678.3628237086
 31
0.0
  0
LINE
  5
1F6
330
1F
100
AcDbEntity
  8
0
  6
Continuous
 62
     7
370
    25
100
AcDbLine
 10
3838.1225156724
 20
678.3628237086
 30
0.0
 11
3838.3225156724
 21
678.3628237086
 31
0.0
  0
LINE
  5
1F7
330
1F
100
AcDbEntity
  8
0
  6
Continuous
 62
     7
370
    25
100
AcDbLine
 10
3838.6225156724
 20
678.3628237086
 30
0.0
 11
3838.6225156724
 21
687.7984397273
 31
0.0
  0
LINE
  5
1F8
330
1F
100
AcDbEntity
  8
0
  6
Continuous
 62
     7
370
    25
100
AcDbLine
 10
3838.3225156724
 20
715.1459720241
 30
0.0
 11
3838.1225156724
 21
715.1459720241
 31
0.0
  0
LINE
  5
1F9
330
1F
100
AcDbEntity
  8
0
  6
Continuous
 62
     7
370
    25
100
AcDbLine
 10
3838.6225156724
 20
715.1459720241
 30
0.0
 11
3838.3225156724
 21
715.1459720241
 31
0.0
  0
LINE
  5
1FA
330
1F
100
AcDbEntity
  8
0
  6
Continuous
 62
     7
370
    25
100
AcDbLine
 10
3838.6225156724
 20
705.7103560054
 30
0.0
 11
3838.6225156724
 21
715.1459720241
 31
0.0
  0
SPLINE
  5
1FB
330
1F
100
AcDbEntity
  8
0
  6
Continuous
 62
     7
370
    25
100
AcDbSpline
210
0.0
220
0.0
230
1.0
 70
    24
 71
     3
 72
    12
 73
     8
 74
     0
 42
0.00000001
 43
0.00000001
 40
0.0
 40
0.0
 40
0.0
 40
0.0
 40
0.1234882189607439
 40
0.3047574776067841
 40
0.4857888495158693
 40
0.6670582153995408
 40
1.0
 40
1.0
 40
1.0
 40
1.0
 10
3840.122515672364
 20
668.2543978663173
 30
0.0
 10
3840.082769103327
 20
668.2543978663174
 30
0.0
 10
3839.984678255269
 20
668.2543978663173
 30
0.0
 10
3839.74470496691
 20
668.2543978663174
 30
0.0
 10
3839.429090778415
 20
668.2543978663172
 30
0.0
 10
3838.962180689315
 20
668.2543978663177
 30
0.0
 10
3838.573912089079
 20
668.2543978663156
 30
0.0
 10
3838.322515672362
 20
668.2543978663142
 30
0.0
  0
LINE
  5
1FC
330
1F
100
AcDbEntity
  8
0
  6
Continuous
 62
     7
370
    25
100
AcDbLine
 10
3838.3225156724
 20
669.2543978663
 30
0.0
 11
3838.3225156724
 21
668.2543978663
 31
0.0
  0
SPLINE
  5
1FD
330
1F
100
AcDbEntity
  8
0
  6
Continuous
 62
     7
370
    25
100
AcDbSpline
210
0.0
220
0.0
230
1.0
 70
    24
 71
     3
 72
    12
 73
     8
 74
     0
 42
0.00000001
 43
0.00000001
 40
0.0
 40
0.0
 40
0.0
 40
0.0
 40
0.3329369653743331
 40
0.5139656098129911
 40
0.6952322446446711
 40
0.8762609961853074
 40
1.0
 40
1.0
 40
1.0
 40
1.0
 10
3838.322515672356
 20
725.2543978663133
 30
0.0
 10
3838.573913085498
 20
725.2543978663148
 30
0.0
 10
3838.962003439496
 20
725.2543978663169
 30
0.0
 10
3839.428932709171
 20
725.2543978663164
 30
0.0
 10
3839.744451598193
 20
725.2543978663165
 30
0.0
 10
3839.98457581671
 20
725.2543978663165
 30
0.0
 10
3840.082683067721
 20
725.2543978663165
 30
0.0
 10
3840.122515672363
 20
725.2543978663165
 30
0.0
  0
LINE
  5
1FE
330
1F
100
AcDbEntity
  8
0
  6
Continuous
 62
     7
370
    25
100
AcDbLine
 10
3838.3225156724
 20
724.2543978663
 30
0.0
 11
3838.3225156724
 21
725.2543978663
 31
0.0
  0
LINE
  5
1FF
330
1F
100
AcDbEntity
  8
0
  6
Continuous
 62
     7
370
    25
100
AcDbLine
 10
3838.1225156724
 20
669.2543978663
 30
0.0
 11
3838.3225156724
 21
669.2543978663
 31
0.0
  0
LINE
  5
200
330
1F
100
AcDbEntity
  8
0
  6
Continuous
 62
     7
370
    25
100
AcDbLine
 10
3838.3225156724
 20
669.2543978663
 30
0.0
 11
3838.3225156724
 21
678.3628237086
 31
0.0
  0
SPLINE
  5
201
330
1F
100
AcDbEntity
  8
0
  6
Continuous
 62
     7
370
    25
100
AcDbSpline
210
0.0
220
0.0
230
1.0
 70
     8
 71
     3
 72
    10
 73
     6
 74
     0
 42
0.00000001
 43
0.00000001
 40
0.0
 40
0.0
 40
0.0
 40
0.0
 40
0.0371311943375621
 40
0.5486628195565256
 40
0.9999999999999999
 40
0.9999999999999999
 40
0.9999999999999999
 40
0.9999999999999999
 10
3840.122515672364
 20
686.5086335261451
 30
0.0
 10
3840.116892820151
 20
686.5153518735706
 30
0.0
 10
3840.033807694444
 20
686.6146243991919
 30
0.0
 10
3839.812251721861
 20
686.7150533123857
 30
0.0
 10
3839.580940832614
 20
686.7418412372157
 30
0.0
 10
3839.47251567236
 20
686.7543978663138
 30
0.0
  0
LINE
  5
202
330
1F
100
AcDbEntity
  8
0
  6
Continuous
 62
     7
370
    25
100
AcDbLine
 10
3838.6225156724
 20
686.7543978663
 30
0.0
 11
3839.4725156724
 21
686.7543978663
 31
0.0
  0
LINE
  5
203
330
1F
100
AcDbEntity
  8
0
  6
Continuous
 62
     7
370
    25
100
AcDbLine
 10
3838.1225156724
 20
724.2543978663
 30
0.0
 11
3838.3225156724
 21
724.2543978663
 31
0.0
  0
LINE
  5
204
330
1F
100
AcDbEntity
  8
0
  6
Continuous
 62
     7
370
    25
100
AcDbLine
 10
3838.3225156724
 20
715.1459720241
 30
0.0
 11
3838.3225156724
 21
724.2543978663
 31
0.0
  0
SPLINE
  5
205
330
1F
100
AcDbEntity
  8
0
  6
Continuous
 62
     7
370
    25
100
AcDbSpline
210
0.0
220
0.0
230
1.0
 70
     8
 71
     3
 72
     9
 73
     5
 74
     0
 42
0.00000001
 43
0.00000001
 40
0.0
 40
0.0
 40
0.0
 40
0.0
 40
0.5050081268942209
 40
1.0
 40
1.0
 40
1.0
 40
1.0
 10
3839.472515672358
 20
706.7543978663142
 30
0.0
 10
3839.595811944226
 20
706.7666177256981
 30
0.0
 10
3839.839959048601
 20
706.7908150776476
 30
0.0
 10
3840.028961162155
 20
706.92789115091
 30
0.0
 10
3840.122515672364
 20
706.9957426931724
 30
0.0
  0
LINE
  5
206
330
1F
100
AcDbEntity
  8
0
  6
Continuous
 62
     7
370
    25
100
AcDbLine
 10
3839.4725156724
 20
706.7543978663
 30
0.0
 11
3838.6225156724
 21
706.7543978663
 31
0.0
  0
LINE
  5
207
330
1F
100
AcDbEntity
  8
0
  6
Continuous
 62
     7
370
    25
100
AcDbLine
 10
3838.1225156724
 20
668.2543978663
 30
0.0
 11
3838.3225156724
 21
668.2543978663
 31
0.0
  0
LINE
  5
208
330
1F
100
AcDbEntity
  8
0
  6
Continuous
 62
     7
370
    25
100
AcDbLine
 10
3838.1225156724
 20
725.2543978663
 30
0.0
 11
3838.3225156724
 21
725.2543978663
 31
0.0
  0
LINE
  5
209
330
1F
100
AcDbEntity
  8
0
  6
Continuous
 62
     7
370
    25
100
AcDbLine
 10
3839.9877005974
 20
2308.3793978663
 30
0.0
 11
3839.9877005974
 21
2309.3043978663
 31
0.0
  0
LINE
  5
20A
330
1F
100
AcDbEntity
  8
0
  6
Continuous
 62
     7
370
    25
100
AcDbLine
 10
3839.9877005974
 20
2324.2043978663
 30
0.0
 11
3839.9877005974
 21
2325.1293978663
 31
0.0
  0
LINE
  5
20B
330
1F
100
AcDbEntity
  8
0
  6
Continuous
 62
     7
370
    25
100
AcDbLine
 10
3839.9877005974
 20
2325.1293978663
 30
0.0
 11
3840.1225156724
 21
2325.1293978663
 31
0.0
  0
LINE
  5
20C
330
1F
100
AcDbEntity
  8
0
  6
Continuous
 62
     7
370
    25
100
AcDbLine
 10
3840.1225156724
 20
2308.3793978663
 30
0.0
 11
3839.9877005974
 21
2308.3793978663
 31
0.0
  0
LINE
  5
20D
330
1F
100
AcDbEntity
  8
0
  6
Continuous
 62
     7
370
    25
100
AcDbLine
 10
3838.6225156724
 20
2325.1293978663
 30
0.0
 11
3839.9877005974
 21
2325.1293978663
 31
0.0
  0
LINE
  5
20E
330
1F
100
AcDbEntity
  8
0
  6
Continuous
 62
     7
370
    25
100
AcDbLine
 10
3839.9877005974
 20
2308.3793978663
 30
0.0
 11
3838.6225156724
 21
2308.3793978663
 31
0.0
  0
LINE
  5
20F
330
1F
100
AcDbEntity
  8
0
  6
Continuous
 62
     7
370
    25
100
AcDbLine
 10
3839.9877005974
 20
1408.3793978663
 30
0.0
 11
3839.9877005974
 21
1409.3043978663
 31
0.0
  0
LINE
  5
210
330
1F
100
AcDbEntity
  8
0
  6
Continuous
 62
     7
370
    25
100
AcDbLine
 10
3839.9877005974
 20
1424.2043978663
 30
0.0
 11
3839.9877005974
 21
1425.1293978663
 31
0.0
  0
LINE
  5
211
330
1F
100
AcDbEntity
  8
0
  6
Continuous
 62
     7
370
    25
100
AcDbLine
 10
3839.9877005974
 20
1425.1293978663
 30
0.0
 11
3840.1225156724
 21
1425.1293978663
 31
0.0
  0
LINE
  5
212
330
1F
100
AcDbEntity
  8
0
  6
Continuous
 62
     7
370
    25
100
AcDbLine
 10
3840.1225156724
 20
1408.3793978663
 30
0.0
 11
3839.9877005974
 21
1408.3793978663
 31
0.0
  0
LINE
  5
213
330
1F
100
AcDbEntity
  8
0
  6
Continuous
 62
     7
370
    25
100
AcDbLine
 10
3838.6225156724
 20
1425.1293978663
 30
0.0
 11
3839.9877005974
 21
1425.1293978663
 31
0.0
  0
LINE
  5
214
330
1F
100
AcDbEntity
  8
0
  6
Continuous
 62
     7
370
    25
100
AcDbLine
 10
3839.9877005974
 20
1408.3793978663
 30
0.0
 11
3838.6225156724
 21
1408.3793978663
 31
0.0
  0
LINE
  5
215
330
1F
100
AcDbEntity
  8
0
  6
Continuous
 62
     7
370
    25
100
AcDbLine
 10
3839.9877005974
 20
1938.3793978663
 30
0.0
 11
3839.9877005974
 21
1939.3043978663
 31
0.0
  0
LINE
  5
216
330
1F
100
AcDbEntity
  8
0
  6
Continuous
 62
     7
370
    25
100
AcDbLine
 10
3839.9877005974
 20
1954.2043978663
 30
0.0
 11
3839.9877005974
 21
1955.1293978663
 31
0.0
  0
LINE
  5
217
330
1F
100
AcDbEntity
  8
0
  6
Continuous
 62
     7
370
    25
100
AcDbLine
 10
3839.9877005974
 20
1955.1293978663
 30
0.0
 11
3840.1225156724
 21
1955.1293978663
 31
0.0
  0
LINE
  5
218
330
1F
100
AcDbEntity
  8
0
  6
Continuous
 62
     7
370
    25
100
AcDbLine
 10
3840.1225156724
 20
1938.3793978663
 30
0.0
 11
3839.9877005974
 21
1938.3793978663
 31
0.0
  0
LINE
  5
219
330
1F
100
AcDbEntity
  8
0
  6
Continuous
 62
     7
370
    25
100
AcDbLine
 10
3838.6225156724
 20
1955.1293978663
 30
0.0
 11
3839.9877005974
 21
1955.1293978663
 31
0.0
  0
LINE
  5
21A
330
1F
100
AcDbEntity
  8
0
  6
Continuous
 62
     7
370
    25
100
AcDbLine
 10
3839.9877005974
 20
1938.3793978663
 30
0.0
 11
3838.6225156724
 21
1938.3793978663
 31
0.0
  0
LINE
  5
21B
330
1F
100
AcDbEntity
  8
0
  6
Continuous
 62
     7
370
    25
100
AcDbLine
 10
3839.9877005974
 20
688.3793978663
 30
0.0
 11
3839.9877005974
 21
689.3043978663
 31
0.0
  0
LINE
  5
21C
330
1F
100
AcDbEntity
  8
0
  6
Continuous
 62
     7
370
    25
100
AcDbLine
 10
3839.9877005974
 20
704.2043978663
 30
0.0
 11
3839.9877005974
 21
705.1293978663
 31
0.0
  0
LINE
  5
21D
330
1F
100
AcDbEntity
  8
0
  6
Continuous
 62
     7
370
    25
100
AcDbLine
 10
3839.9877005974
 20
705.1293978663
 30
0.0
 11
3840.1225156724
 21
705.1293978663
 31
0.0
  0
LINE
  5
21E
330
1F
100
AcDbEntity
  8
0
  6
Continuous
 62
     7
370
    25
100
AcDbLine
 10
3840.1225156724
 20
688.3793978663
 30
0.0
 11
3839.9877005974
 21
688.3793978663
 31
0.0
  0
LINE
  5
21F
330
1F
100
AcDbEntity
  8
0
  6
Continuous
 62
     7
370
    25
100
AcDbLine
 10
3838.6225156724
 20
705.1293978663
 30
0.0
 11
3839.9877005974
 21
705.1293978663
 31
0.0
  0
LINE
  5
220
330
1F
100
AcDbEntity
  8
0
  6
Continuous
 62
     7
370
    25
100
AcDbLine
 10
3839.9877005974
 20
688.3793978663
 30
0.0
 11
3838.6225156724
 21
688.3793978663
 31
0.0
  0
LINE
  5
221
330
1F
100
AcDbEntity
  8
0
  6
Continuous
 62
     7
370
    25
100
AcDbLine
 10
3840.1225156724
 20
690.2543978663
 30
0.0
 11
3838.1225156724
 21
690.2543978663
 31
0.0
  0
LINE
  5
222
330
1F
100
AcDbEntity
  8
0
  6
Continuous
 62
     7
370
    25
100
AcDbLine
 10
3838.1225156724
 20
703.2543978663
 30
0.0
 11
3840.1225156724
 21
703.2543978663
 31
0.0
  0
LINE
  5
223
330
1F
100
AcDbEntity
  8
0
  6
Continuous
 62
     7
370
    25
100
AcDbLine
 10
3839.3937982176
 20
704.2043978663
 30
0.0
 11
3839.3937982176
 21
703.2543978663
 31
0.0
  0
LINE
  5
224
330
1F
100
AcDbEntity
  8
0
  6
Continuous
 62
     7
370
    25
100
AcDbLine
 10
3839.3937982176
 20
690.2543978663
 30
0.0
 11
3839.3937982176
 21
689.3043978663
 31
0.0
  0
LINE
  5
225
330
1F
100
AcDbEntity
  8
0
  6
Continuous
 62
     7
370
    25
100
AcDbLine
 10
3839.3937982176
 20
704.2043978663
 30
0.0
 11
3840.1225156724
 21
704.2043978663
 31
0.0
  0
LINE
  5
226
330
1F
100
AcDbEntity
  8
0
  6
Continuous
 62
     7
370
    25
100
AcDbLine
 10
3839.3937982176
 20
689.3043978663
 30
0.0
 11
3840.1225156724
 21
689.3043978663
 31
0.0
  0
LINE
  5
227
330
1F
100
AcDbEntity
  8
0
  6
Continuous
 62
     7
370
    25
100
AcDbLine
 10
3839.332428722
 20
704.2043978663
 30
0.0
 11
3839.332428722
 21
703.2543978663
 31
0.0
  0
LINE
  5
228
330
1F
100
AcDbEntity
  8
0
  6
Continuous
 62
     7
370
    25
100
AcDbLine
 10
3839.332428722
 20
690.2543978663
 30
0.0
 11
3839.332428722
 21
689.3043978663
 31
0.0
  0
LINE
  5
229
330
1F
100
AcDbEntity
  8
0
  6
Continuous
 62
     7
370
    25
100
AcDbLine
 10
3839.332428722
 20
704.2043978663
 30
0.0
 11
3839.3937982176
 21
704.2043978663
 31
0.0
  0
LINE
  5
22A
330
1F
100
AcDbEntity
  8
0
  6
Continuous
 62
     7
370
    25
100
AcDbLine
 10
3839.332428722
 20
689.3043978663
 30
0.0
 11
3839.3937982176
 21
689.3043978663
 31
0.0
  0
LINE
  5
22B
330
1F
100
AcDbEntity
  8
0
  6
Continuous
 62
     7
370
    25
100
AcDbLine
 10
3840.1225156724
 20
2310.2543978663
 30
0.0
 11
3838.1225156724
 21
2310.2543978663
 31
0.0
  0
LINE
  5
22C
330
1F
100
AcDbEntity
  8
0
  6
Continuous
 62
     7
370
    25
100
AcDbLine
 10
3838.1225156724
 20
2323.2543978663
 30
0.0
 11
3840.1225156724
 21
2323.2543978663
 31
0.0
  0
LINE
  5
22D
330
1F
100
AcDbEntity
  8
0
  6
Continuous
 62
     7
370
    25
100
AcDbLine
 10
3839.3937982176
 20
2324.2043978663
 30
0.0
 11
3839.3937982176
 21
2323.2543978663
 31
0.0
  0
LINE
  5
22E
330
1F
100
AcDbEntity
  8
0
  6
Continuous
 62
     7
370
    25
100
AcDbLine
 10
3839.3937982176
 20
2310.2543978663
 30
0.0
 11
3839.3937982176
 21
2309.3043978663
 31
0.0
  0
LINE
  5
22F
330
1F
100
AcDbEntity
  8
0
  6
Continuous
 62
     7
370
    25
100
AcDbLine
 10
3839.3937982176
 20
2324.2043978663
 30
0.0
 11
3840.1225156724
 21
2324.2043978663
 31
0.0
  0
LINE
  5
230
330
1F
100
AcDbEntity
  8
0
  6
Continuous
 62
     7
370
    25
100
AcDbLine
 10
3839.3937982176
 20
2309.3043978663
 30
0.0
 11
3840.1225156724
 21
2309.3043978663
 31
0.0
  0
LINE
  5
231
330
1F
100
AcDbEntity
  8
0
  6
Continuous
 62
     7
370
    25
100
AcDbLine
 10
3839.332428722
 20
2324.2043978663
 30
0.0
 11
3839.332428722
 21
2323.2543978663
 31
0.0
  0
LINE
  5
232
330
1F
100
AcDbEntity
  8
0
  6
Continuous
 62
     7
370
    25
100
AcDbLine
 10
3839.332428722
 20
2310.2543978663
 30
0.0
 11
3839.332428722
 21
2309.3043978663
 31
0.0
  0
LINE
  5
233
330
1F
100
AcDbEntity
  8
0
  6
Continuous
 62
     7
370
    25
100
AcDbLine
 10
3839.332428722
 20
2324.2043978663
 30
0.0
 11
3839.3937982176
 21
2324.2043978663
 31
0.0
  0
LINE
  5
234
330
1F
100
AcDbEntity
  8
0
  6
Continuous
 62
     7
370
    25
100
AcDbLine
 10
3839.332428722
 20
2309.3043978663
 30
0.0
 11
3839.3937982176
 21
2309.3043978663
 31
0.0
  0
LINE
  5
235
330
1F
100
AcDbEntity
  8
0
  6
Continuous
 62
     7
370
    25
100
AcDbLine
 10
3840.1225156724
 20
1410.2543978663
 30
0.0
 11
3838.1225156724
 21
1410.2543978663
 31
0.0
  0
LINE
  5
236
330
1F
100
AcDbEntity
  8
0
  6
Continuous
 62
     7
370
    25
100
AcDbLine
 10
3838.1225156724
 20
1423.2543978663
 30
0.0
 11
3840.1225156724
 21
1423.2543978663
 31
0.0
  0
LINE
  5
237
330
1F
100
AcDbEntity
  8
0
  6
Continuous
 62
     7
370
    25
100
AcDbLine
 10
3839.3937982176
 20
1424.2043978663
 30
0.0
 11
3839.3937982176
 21
1423.2543978663
 31
0.0
  0
LINE
  5
238
330
1F
100
AcDbEntity
  8
0
  6
Continuous
 62
     7
370
    25
100
AcDbLine
 10
3839.3937982176
 20
1410.2543978663
 30
0.0
 11
3839.3937982176
 21
1409.3043978663
 31
0.0
  0
LINE
  5
239
330
1F
100
AcDbEntity
  8
0
  6
Continuous
 62
     7
370
    25
100
AcDbLine
 10
3839.3937982176
 20
1424.2043978663
 30
0.0
 11
3840.1225156724
 21
1424.2043978663
 31
0.0
  0
LINE
  5
23A
330
1F
100
AcDbEntity
  8
0
  6
Continuous
 62
     7
370
    25
100
AcDbLine
 10
3839.3937982176
 20
1409.3043978663
 30
0.0
 11
3840.1225156724
 21
1409.3043978663
 31
0.0
  0
LINE
  5
23B
330
1F
100
AcDbEntity
  8
0
  6
Continuous
 62
     7
370
    25
100
AcDbLine
 10
3839.332428722
 20
1424.2043978663
 30
0.0
 11
3839.332428722
 21
1423.2543978663
 31
0.0
  0
LINE
  5
23C
330
1F
100
AcDbEntity
  8
0
  6
Continuous
 62
     7
370
    25
100
AcDbLine
 10
3839.332428722
 20
1410.2543978663
 30
0.0
 11
3839.332428722
 21
1409.3043978663
 31
0.0
  0
LINE
  5
23D
330
1F
100
AcDbEntity
  8
0
  6
Continuous
 62
     7
370
    25
100
AcDbLine
 10
3839.332428722
 20
1424.2043978663
 30
0.0
 11
3839.3937982176
 21
1424.2043978663
 31
0.0
  0
LINE
  5
23E
330
1F
100
AcDbEntity
  8
0
  6
Continuous
 62
     7
370
    25
100
AcDbLine
 10
3839.332428722
 20
1409.3043978663
 30
0.0
 11
3839.3937982176
 21
1409.3043978663
 31
0.0
  0
LINE
  5
23F
330
1F
100
AcDbEntity
  8
0
  6
Continuous
 62
     7
370
    25
100
AcDbLine
 10
3840.1225156724
 20
1940.2543978663
 30
0.0
 11
3838.1225156724
 21
1940.2543978663
 31
0.0
  0
LINE
  5
240
330
1F
100
AcDbEntity
  8
0
  6
Continuous
 62
     7
370
    25
100
AcDbLine
 10
3838.1225156724
 20
1953.2543978663
 30
0.0
 11
3840.1225156724
 21
1953.2543978663
 31
0.0
  0
LINE
  5
241
330
1F
100
AcDbEntity
  8
0
  6
Continuous
 62
     7
370
    25
100
AcDbLine
 10
3839.3937982176
 20
1954.2043978663
 30
0.0
 11
3839.3937982176
 21
1953.2543978663
 31
0.0
  0
LINE
  5
242
330
1F
100
AcDbEntity
  8
0
  6
Continuous
 62
     7
370
    25
100
AcDbLine
 10
3839.3937982176
 20
1940.2543978663
 30
0.0
 11
3839.3937982176
 21
1939.3043978663
 31
0.0
  0
LINE
  5
243
330
1F
100
AcDbEntity
  8
0
  6
Continuous
 62
     7
370
    25
100
AcDbLine
 10
3839.3937982176
 20
1954.2043978663
 30
0.0
 11
3840.1225156724
 21
1954.2043978663
 31
0.0
  0
LINE
  5
244
330
1F
100
AcDbEntity
  8
0
  6
Continuous
 62
     7
370
    25
100
AcDbLine
 10
3839.3937982176
 20
1939.3043978663
 30
0.0
 11
3840.1225156724
 21
1939.3043978663
 31
0.0
  0
LINE
  5
245
330
1F
100
AcDbEntity
  8
0
  6
Continuous
 62
     7
370
    25
100
AcDbLine
 10
3839.332428722
 20
1954.2043978663
 30
0.0
 11
3839.332428722
 21
1953.2543978663
 31
0.0
  0
LINE
  5
246
330
1F
100
AcDbEntity
  8
0
  6
Continuous
 62
     7
370
    25
100
AcDbLine
 10
3839.332428722
 20
1940.2543978663
 30
0.0
 11
3839.332428722
 21
1939.3043978663
 31
0.0
  0
LINE
  5
247
330
1F
100
AcDbEntity
  8
0
  6
Continuous
 62
     7
370
    25
100
AcDbLine
 10
3839.332428722
 20
1954.2043978663
 30
0.0
 11
3839.3937982176
 21
1954.2043978663
 31
0.0
  0
LINE
  5
248
330
1F
100
AcDbEntity
  8
0
  6
Continuous
 62
     7
370
    25
100
AcDbLine
 10
3839.332428722
 20
1939.3043978663
 30
0.0
 11
3839.3937982176
 21
1939.3043978663
 31
0.0
  0
LINE
  5
249
330
1F
100
AcDbEntity
  8
0
  6
Continuous
 62
     7
370
    25
100
AcDbLine
 10
3838.6225156724
 20
2324.2293978663
 30
0.0
 11
3838.9340814752
 21
2324.2293978663
 31
0.0
  0
LINE
  5
24A
330
1F
100
AcDbEntity
  8
0
  6
Continuous
 62
     7
370
    25
100
AcDbLine
 10
3838.9340814752
 20
2309.2793978663
 30
0.0
 11
3838.9340814752
 21
2310.2543978663
 31
0.0
  0
LINE
  5
24B
330
1F
100
AcDbEntity
  8
0
  6
Continuous
 62
     7
370
    25
100
AcDbLine
 10
3838.9340814752
 20
2323.2543978663
 30
0.0
 11
3838.9340814752
 21
2324.2293978663
 31
0.0
  0
LINE
  5
24C
330
1F
100
AcDbEntity
  8
0
  6
Continuous
 62
     7
370
    25
100
AcDbLine
 10
3838.6225156724
 20
2309.2793978663
 30
0.0
 11
3838.9340814752
 21
2309.2793978663
 31
0.0
  0
LINE
  5
24D
330
1F
100
AcDbEntity
  8
0
  6
Continuous
 62
     7
370
    25
100
AcDbLine
 10
3838.9340814752
 20
2324.2293978663
 30
0.0
 11
3838.9732240696
 21
2324.2293978663
 31
0.0
  0
LINE
  5
24E
330
1F
100
AcDbEntity
  8
0
  6
Continuous
 62
     7
370
    25
100
AcDbLine
 10
3838.9340814752
 20
2309.2793978663
 30
0.0
 11
3838.9732240696
 21
2309.2793978663
 31
0.0
  0
LINE
  5
24F
330
1F
100
AcDbEntity
  8
0
  6
Continuous
 62
     7
370
    25
100
AcDbLine
 10
3838.6225156724
 20
1424.2293978663
 30
0.0
 11
3838.9340814752
 21
1424.2293978663
 31
0.0
  0
LINE
  5
250
330
1F
100
AcDbEntity
  8
0
  6
Continuous
 62
     7
370
    25
100
AcDbLine
 10
3838.9340814752
 20
1409.2793978663
 30
0.0
 11
3838.9340814752
 21
1410.2543978663
 31
0.0
  0
LINE
  5
251
330
1F
100
AcDbEntity
  8
0
  6
Continuous
 62
     7
370
    25
100
AcDbLine
 10
3838.9340814752
 20
1423.2543978663
 30
0.0
 11
3838.9340814752
 21
1424.2293978663
 31
0.0
  0
LINE
  5
252
330
1F
100
AcDbEntity
  8
0
  6
Continuous
 62
     7
370
    25
100
AcDbLine
 10
3838.6225156724
 20
1409.2793978663
 30
0.0
 11
3838.9340814752
 21
1409.2793978663
 31
0.0
  0
LINE
  5
253
330
1F
100
AcDbEntity
  8
0
  6
Continuous
 62
     7
370
    25
100
AcDbLine
 10
3838.9340814752
 20
1424.2293978663
 30
0.0
 11
3838.9732240696
 21
1424.2293978663
 31
0.0
  0
LINE
  5
254
330
1F
100
AcDbEntity
  8
0
  6
Continuous
 62
     7
370
    25
100
AcDbLine
 10
3838.9340814752
 20
1409.2793978663
 30
0.0
 11
3838.9732240696
 21
1409.2793978663
 31
0.0
  0
LINE
  5
255
330
1F
100
AcDbEntity
  8
0
  6
Continuous
 62
     7
370
    25
100
AcDbLine
 10
3838.6225156724
 20
1954.2293978663
 30
0.0
 11
3838.9340814752
 21
1954.2293978663
 31
0.0
  0
LINE
  5
256
330
1F
100
AcDbEntity
  8
0
  6
Continuous
 62
     7
370
    25
100
AcDbLine
 10
3838.9340814752
 20
1939.2793978663
 30
0.0
 11
3838.9340814752
 21
1940.2543978663
 31
0.0
  0
LINE
  5
257
330
1F
100
AcDbEntity
  8
0
  6
Continuous
 62
     7
370
    25
100
AcDbLine
 10
3838.9340814752
 20
1953.2543978663
 30
0.0
 11
3838.9340814752
 21
1954.2293978663
 31
0.0
  0
LINE
  5
258
330
1F
100
AcDbEntity
  8
0
  6
Continuous
 62
     7
370
    25
100
AcDbLine
 10
3838.6225156724
 20
1939.2793978663
 30
0.0
 11
3838.9340814752
 21
1939.2793978663
 31
0.0
  0
LINE
  5
259
330
1F
100
AcDbEntity
  8
0
  6
Continuous
 62
     7
370
    25
100
AcDbLine
 10
3838.9340814752
 20
1954.2293978663
 30
0.0
 11
3838.9732240696
 21
1954.2293978663
 31
0.0
  0
LINE
  5
25A
330
1F
100
AcDbEntity
  8
0
  6
Continuous
 62
     7
370
    25
100
AcDbLine
 10
3838.9340814752
 20
1939.2793978663
 30
0.0
 11
3838.9732240696
 21
1939.2793978663
 31
0.0
  0
LINE
  5
25B
330
1F
100
AcDbEntity
  8
0
  6
Continuous
 62
     7
370
    25
100
AcDbLine
 10
3838.6225156724
 20
704.2293978663
 30
0.0
 11
3838.9340814752
 21
704.2293978663
 31
0.0
  0
LINE
  5
25C
330
1F
100
AcDbEntity
  8
0
  6
Continuous
 62
     7
370
    25
100
AcDbLine
 10
3838.9340814752
 20
689.2793978663
 30
0.0
 11
3838.9340814752
 21
690.2543978663
 31
0.0
  0
LINE
  5
25D
330
1F
100
AcDbEntity
  8
0
  6
Continuous
 62
     7
370
    25
100
AcDbLine
 10
3838.9340814752
 20
703.2543978663
 30
0.0
 11
3838.9340814752
 21
704.2293978663
 31
0.0
  0
LINE
  5
25E
330
1F
100
AcDbEntity
  8
0
  6
Continuous
 62
     7
370
    25
100
AcDbLine
 10
3838.6225156724
 20
689.2793978663
 30
0.0
 11
3838.9340814752
 21
689.2793978663
 31
0.0
  0
LINE
  5
25F
330
1F
100
AcDbEntity
  8
0
  6
Continuous
 62
     7
370
    25
100
AcDbLine
 10
3838.9340814752
 20
704.2293978663
 30
0.0
 11
3838.9732240696
 21
704.2293978663
 31
0.0
  0
LINE
  5
260
330
1F
100
AcDbEntity
  8
0
  6
Continuous
 62
     7
370
    25
100
AcDbLine
 10
3838.9340814752
 20
689.2793978663
 30
0.0
 11
3838.9732240696
 21
689.2793978663
 31
0.0
  0
LINE
  5
261
330
1F
100
AcDbEntity
  8
0
  6
Continuous
 62
     7
370
    25
100
AcDbLine
 10
4220.6002358345
 20
2309.2767567878
 30
0.0
 11
4220.4562626188
 21
2314.7748720752
 31
0.0
  0
LINE
  5
262
330
1F
100
AcDbEntity
  8
0
  6
Continuous
 62
     7
370
    25
100
AcDbLine
 10
4221.590560553
 20
2328.7601066029
 30
0.0
 11
4221.8444965759
 21
2319.0626811288
 31
0.0
  0
LINE
  5
263
330
1F
100
AcDbEntity
  8
0
  6
Continuous
 62
     7
370
    25
100
AcDbLine
 10
4222.5946873532
 20
2319.0823255656
 30
0.0
 11
4222.0711483871
 21
2339.0754720652
 31
0.0
  0
LINE
  5
264
330
1F
100
AcDbEntity
  8
0
  6
Continuous
 62
     7
370
    25
100
AcDbLine
 10
4223.2948469519
 20
2338.0117271316
 30
0.0
 11
4223.7610367734
 21
2320.2086561082
 31
0.0
  0
LINE
  5
265
330
1F
100
AcDbEntity
  8
0
  6
Continuous
 62
     7
370
    25
100
AcDbLine
 10
4223.8590717937
 20
2321.8115145215
 30
0.0
 11
4223.4766347464
 21
2336.4161961367
 31
0.0
  0
LINE
  5
266
330
1F
100
AcDbEntity
  8
0
  6
Continuous
 62
     7
370
    25
100
AcDbLine
 10
4221.0007631869
 20
2324.5424743019
 30
0.0
 11
4220.8790973475
 21
2329.1887052586
 31
0.0
  0
LINE
  5
267
330
1F
100
AcDbEntity
  8
0
  6
Continuous
 62
     7
370
    25
100
AcDbLine
 10
4220.8790973475
 20
2329.1887052586
 30
0.0
 11
4220.7651707357
 21
2333.539387036
 31
0.0
  0
LINE
  5
268
330
1F
100
AcDbEntity
  8
0
  6
Continuous
 62
     7
370
    25
100
AcDbLine
 10
3838.3225156724
 20
1389.2543978663
 30
0.0
 11
3840.1225156724
 21
1389.2543978663
 31
0.0
  0
LINE
  5
269
330
1F
100
AcDbEntity
  8
0
  6
Continuous
 62
     7
370
    25
100
AcDbLine
 10
3838.3225156724
 20
1444.2543978663
 30
0.0
 11
3840.1225156724
 21
1444.2543978663
 31
0.0
  0
LINE
  5
26A
330
1F
100
AcDbEntity
  8
0
  6
Continuous
 62
     7
370
    25
100
AcDbLine
 10
3839.4725156724
 20
1408.3793978663
 30
0.0
 11
3839.4725156724
 21
1406.7543978663
 31
0.0
  0
LINE
  5
26B
330
1F
100
AcDbEntity
  8
0
  6
Continuous
 62
     7
370
    25
100
AcDbLine
 10
3839.4725156724
 20
1426.7543978663
 30
0.0
 11
3839.4725156724
 21
1425.1293978663
 31
0.0
  0
LINE
  5
26C
330
1F
100
AcDbEntity
  8
0
  6
Continuous
 62
     7
370
    25
100
AcDbLine
 10
3838.3225156724
 20
1919.2543978663
 30
0.0
 11
3840.1225156724
 21
1919.2543978663
 31
0.0
  0
LINE
  5
26D
330
1F
100
AcDbEntity
  8
0
  6
Continuous
 62
     7
370
    25
100
AcDbLine
 10
3838.3225156724
 20
1974.2543978663
 30
0.0
 11
3840.1225156724
 21
1974.2543978663
 31
0.0
  0
LINE
  5
26E
330
1F
100
AcDbEntity
  8
0
  6
Continuous
 62
     7
370
    25
100
AcDbLine
 10
3839.4725156724
 20
1938.3793978663
 30
0.0
 11
3839.4725156724
 21
1936.7543978663
 31
0.0
  0
LINE
  5
26F
330
1F
100
AcDbEntity
  8
0
  6
Continuous
 62
     7
370
    25
100
AcDbLine
 10
3839.4725156724
 20
1956.7543978663
 30
0.0
 11
3839.4725156724
 21
1955.1293978663
 31
0.0
  0
LINE
  5
270
330
1F
100
AcDbEntity
  8
0
  6
Continuous
 62
     7
370
    25
100
AcDbLine
 10
3838.3225156724
 20
2289.2543978663
 30
0.0
 11
3840.1225156724
 21
2289.2543978663
 31
0.0
  0
LINE
  5
271
330
1F
100
AcDbEntity
  8
0
  6
Continuous
 62
     7
370
    25
100
AcDbLine
 10
3838.3225156724
 20
2344.2543978663
 30
0.0
 11
3840.1225156724
 21
2344.2543978663
 31
0.0
  0
LINE
  5
272
330
1F
100
AcDbEntity
  8
0
  6
Continuous
 62
     7
370
    25
100
AcDbLine
 10
3839.4725156724
 20
2308.3793978663
 30
0.0
 11
3839.4725156724
 21
2306.7543978663
 31
0.0
  0
LINE
  5
273
330
1F
100
AcDbEntity
  8
0
  6
Continuous
 62
     7
370
    25
100
AcDbLine
 10
3839.4725156724
 20
2326.7543978663
 30
0.0
 11
3839.4725156724
 21
2325.1293978663
 31
0.0
  0
LINE
  5
274
330
1F
100
AcDbEntity
  8
0
  6
Continuous
 62
     7
370
    25
100
AcDbLine
 10
3838.3225156724
 20
669.2543978663
 30
0.0
 11
3840.1225156724
 21
669.2543978663
 31
0.0
  0
LINE
  5
275
330
1F
100
AcDbEntity
  8
0
  6
Continuous
 62
     7
370
    25
100
AcDbLine
 10
3838.3225156724
 20
724.2543978663
 30
0.0
 11
3840.1225156724
 21
724.2543978663
 31
0.0
  0
LINE
  5
276
330
1F
100
AcDbEntity
  8
0
  6
Continuous
 62
     7
370
    25
100
AcDbLine
 10
3839.4725156724
 20
688.3793978663
 30
0.0
 11
3839.4725156724
 21
686.7543978663
 31
0.0
  0
LINE
  5
277
330
1F
100
AcDbEntity
  8
0
  6
Continuous
 62
     7
370
    25
100
AcDbLine
 10
3839.4725156724
 20
706.7543978663
 30
0.0
 11
3839.4725156724
 21
705.1293978663
 31
0.0
  0
SPLINE
  5
278
330
1F
100
AcDbEntity
  8
0
  6
Continuous
 62
     7
370
    25
100
AcDbSpline
210
0.0
220
0.0
230
1.0
 70
     8
 71
     3
 72
    16
 73
    12
 74
     0
 42
0.00000001
 43
0.00000001
 40
0.0
 40
0.0
 40
0.0
 40
0.0
 40
0.0490847390187623
 40
0.1518473045647184
 40
0.2358684990992647
 40
0.3090519161655193
 40
0.3734786142110993
 40
0.4370328180327975
 40
0.5258016248251325
 40
0.7068629655468593
 40
1.0
 40
1.0
 40
1.0
 40
1.0
 10
2585.925074168676
 20
3107.982522916325
 30
0.0
 10
2585.929765765411
 20
3108.048713308546
 30
0.0
 10
2585.94427957016
 20
3108.253478228309
 30
0.0
 10
2585.817101818789
 20
3108.557694887955
 30
0.0
 10
2585.612885409263
 20
3108.833758526977
 30
0.0
 10
2585.391873803397
 20
3109.007097001617
 30
0.0
 10
2585.200107235655
 20
3109.104101014119
 30
0.0
 10
2585.042893347471
 20
3109.158174379476
 30
0.0
 10
2584.877542172418
 20
3109.196807200847
 30
0.0
 10
2584.681828237492
 20
3109.226544086368
 30
0.0
 10
2584.454213845385
 20
3109.243759755639
 30
0.0
 10
2584.313508580682
 20
3109.254402032165
 30
0.0
  0
SPLINE
  5
279
330
1F
100
AcDbEntity
  8
0
  6
Continuous
 62
     7
370
    25
100
AcDbSpline
210
0.0
220
0.0
230
1.0
 70
     8
 71
     3
 72
    15
 73
    11
 74
     0
 42
0.00000001
 43
0.00000001
 40
0.0
 40
0.0
 40
0.0
 40
0.0
 40
0.0366146332908439
 40
0.4586206584971243
 40
0.6039592141586595
 40
0.6771237587643648
 40
0.7596633924486826
 40
0.8571328939029802
 40
0.963417108777495
 40
1.0
 40
1.0
 40
1.0
 40
1.0
 10
2567.595706343181
 20
3109.257096001312
 30
0.0
 10
2567.573357319803
 20
3109.255823552642
 30
0.0
 10
2567.293422143692
 20
3109.239885355408
 30
0.0
 10
2567.137947923132
 20
3109.218833256146
 30
0.0
 10
2566.826115586828
 20
3109.15868929244
 30
0.0
 10
2566.553551866991
 20
3109.042171305227
 30
0.0
 10
2566.289122930552
 20
3108.8522450442
 30
0.0
 10
2566.060974971925
 20
3108.539748887458
 30
0.0
 10
2565.936909000221
 20
3108.217783908186
 30
0.0
 10
2565.95838960671
 20
3108.022470086486
 30
0.0
 10
2565.963889981932
 20
3107.972457564439
 30
0.0
  0
LINE
  5
27A
330
1F
100
AcDbEntity
  8
0
  6
Continuous
 62
     7
370
    25
100
AcDbLine
 10
2585.9454585654
 20
3107.2318663251
 30
0.0
 11
2585.9454585654
 21
3107.9820571024
 31
0.0
  0
LINE
  5
27B
330
1F
100
AcDbEntity
  8
0
  6
Continuous
 62
     7
370
    25
100
AcDbLine
 10
2565.9454585654
 20
3107.9820571024
 30
0.0
 11
2565.9454585654
 21
3107.2318663251
 31
0.0
  0
LINE
  5
27C
330
1F
100
AcDbEntity
  8
0
  6
Continuous
 62
     7
370
    25
100
AcDbLine
 10
2584.4418327899
 20
3109.2468479058
 30
0.0
 11
2582.9154268517
 21
3109.3742254403
 31
0.0
  0
LINE
  5
27D
330
1F
100
AcDbEntity
  8
0
  6
Continuous
 62
     7
370
    25
100
AcDbLine
 10
2568.975490279
 20
3109.3742254403
 30
0.0
 11
2567.4490843408
 21
3109.2468479058
 31
0.0
  0
SPLINE
  5
27E
330
1F
100
AcDbEntity
  8
0
  6
Continuous
 62
     7
370
    25
100
AcDbSpline
210
0.0
220
0.0
230
1.0
 70
     8
 71
     3
 72
    14
 73
    10
 74
     0
 42
0.00000001
 43
0.00000001
 40
0.0
 40
0.0
 40
0.0
 40
0.0
 40
0.0907475556428144
 40
0.2288563839002352
 40
0.4128530542465395
 40
0.6071420004332206
 40
0.7878282318391995
 40
0.9626611221742323
 40
0.9999999999999999
 40
0.9999999999999999
 40
0.9999999999999999
 40
0.9999999999999999
 10
2582.825460923733
 20
3109.379327213114
 30
0.0
 10
2582.613909756885
 20
3109.396159746662
 30
0.0
 10
2582.080398581715
 20
3109.438609735893
 30
0.0
 10
2581.219912941165
 20
3109.480570026104
 30
0.0
 10
2580.170112580984
 20
3109.517502171322
 30
0.0
 10
2578.935496063461
 20
3109.543227737944
 30
0.0
 10
2577.598989846258
 20
3109.559073656578
 30
0.0
 10
2576.588959722671
 20
3109.563885326817
 30
0.0
 10
2576.041757506835
 20
3109.564124910313
 30
0.0
 10
2575.945458565368
 20
3109.564167073222
 30
0.0
  0
SPLINE
  5
27F
330
1F
100
AcDbEntity
  8
0
  6
Continuous
 62
     7
370
    25
100
AcDbSpline
210
0.0
220
0.0
230
1.0
 70
     8
 71
     3
 72
    13
 73
     9
 74
     0
 42
0.00000001
 43
0.00000001
 40
0.0
 40
0.0
 40
0.0
 40
0.0
 40
0.0971790056423904
 40
0.2845710337029535
 40
0.4775192778487891
 40
0.6890792027696939
 40
0.8771625243238399
 40
1.0
 40
1.0
 40
1.0
 40
1.0
 10
2575.945458565368
 20
3109.564167073222
 30
0.0
 10
2575.698437493659
 20
3109.563905304346
 30
0.0
 10
2574.975081237252
 20
3109.563138761827
 30
0.0
 10
2573.782482825124
 20
3109.554264289763
 30
0.0
 10
2572.412409207469
 20
3109.534024945494
 30
0.0
 10
2571.17810408221
 20
3109.50000799957
 30
0.0
 10
2570.148335398517
 20
3109.460504786325
 30
0.0
 10
2569.441932094422
 20
3109.40688462592
 30
0.0
 10
2569.162848805502
 20
3109.385700564873
 30
0.0
  0
LINE
  5
280
330
1F
100
AcDbEntity
  8
0
  6
Continuous
 62
     7
370
    25
100
AcDbLine
 10
2580.4454585654
 20
3104.2716549046
 30
0.0
 11
2580.4454585654
 21
3106.5321061976
 31
0.0
  0
LINE
  5
281
330
1F
100
AcDbEntity
  8
0
  6
Continuous
 62
     7
370
    25
100
AcDbLine
 10
2571.4454585654
 20
3106.5321061976
 30
0.0
 11
2571.4454585654
 21
3104.2716549046
 31
0.0
  0
SPLINE
  5
282
330
1F
100
AcDbEntity
  8
0
  6
Continuous
 62
     7
370
    25
100
AcDbSpline
210
0.0
220
0.0
230
1.0
 70
     8
 71
     3
 72
    16
 73
    12
 74
     0
 42
0.00000001
 43
0.00000001
 40
0.0
 40
0.0
 40
0.0
 40
0.0
 40
0.0490847390187652
 40
0.1518473045647198
 40
0.2358684990992616
 40
0.3090519161655224
 40
0.3734786142111022
 40
0.4370328180328001
 40
0.5258016248251334
 40
0.7068629655468576
 40
1.0
 40
1.0
 40
1.0
 40
1.0
 10
2321.425074168674
 20
3107.98252291632
 30
0.0
 10
2321.429765765409
 20
3108.048713308541
 30
0.0
 10
2321.444279570157
 20
3108.253478228305
 30
0.0
 10
2321.317101818787
 20
3108.557694887952
 30
0.0
 10
2321.112885409261
 20
3108.833758526973
 30
0.0
 10
2320.891873803395
 20
3109.007097001612
 30
0.0
 10
2320.700107235652
 20
3109.104101014115
 30
0.0
 10
2320.542893347469
 20
3109.158174379473
 30
0.0
 10
2320.377542172415
 20
3109.196807200844
 30
0.0
 10
2320.18182823749
 20
3109.226544086364
 30
0.0
 10
2319.954213845383
 20
3109.243759755636
 30
0.0
 10
2319.81350858068
 20
3109.254402032161
 30
0.0
  0
SPLINE
  5
283
330
1F
100
AcDbEntity
  8
0
  6
Continuous
 62
     7
370
    25
100
AcDbSpline
210
0.0
220
0.0
230
1.0
 70
     8
 71
     3
 72
    15
 73
    11
 74
     0
 42
0.00000001
 43
0.00000001
 40
0.0
 40
0.0
 40
0.0
 40
0.0
 40
0.0366146332908932
 40
0.458620658497148
 40
0.6039592141586753
 40
0.6771237587643782
 40
0.7596633924486857
 40
0.8571328939029841
 40
0.9634171087774964
 40
1.0
 40
1.0
 40
1.0
 40
1.0
 10
2303.095706343179
 20
3109.257096001308
 30
0.0
 10
2303.073357319801
 20
3109.255823552638
 30
0.0
 10
2302.793422143689
 20
3109.239885355404
 30
0.0
 10
2302.63794792313
 20
3109.218833256143
 30
0.0
 10
2302.326115586826
 20
3109.158689292437
 30
0.0
 10
2302.053551866988
 20
3109.042171305223
 30
0.0
 10
2301.78912293055
 20
3108.852245044196
 30
0.0
 10
2301.560974971923
 20
3108.539748887454
 30
0.0
 10
2301.436909000219
 20
3108.217783908183
 30
0.0
 10
2301.458389606707
 20
3108.022470086483
 30
0.0
 10
2301.46388998193
 20
3107.972457564435
 30
0.0
  0
LINE
  5
284
330
1F
100
AcDbEntity
  8
0
  6
Continuous
 62
     7
370
    25
100
AcDbLine
 10
2321.4454585654
 20
3107.2318663251
 30
0.0
 11
2321.4454585654
 21
3107.9820571024
 31
0.0
  0
LINE
  5
285
330
1F
100
AcDbEntity
  8
0
  6
Continuous
 62
     7
370
    25
100
AcDbLine
 10
2301.4454585654
 20
3107.9820571024
 30
0.0
 11
2301.4454585654
 21
3107.2318663251
 31
0.0
  0
LINE
  5
286
330
1F
100
AcDbEntity
  8
0
  6
Continuous
 62
     7
370
    25
100
AcDbLine
 10
2319.9418327899
 20
3109.2468479058
 30
0.0
 11
2318.4154268517
 21
3109.3742254403
 31
0.0
  0
LINE
  5
287
330
1F
100
AcDbEntity
  8
0
  6
Continuous
 62
     7
370
    25
100
AcDbLine
 10
2304.475490279
 20
3109.3742254403
 30
0.0
 11
2302.9490843408
 21
3109.2468479058
 31
0.0
  0
SPLINE
  5
288
330
1F
100
AcDbEntity
  8
0
  6
Continuous
 62
     7
370
    25
100
AcDbSpline
210
0.0
220
0.0
230
1.0
 70
     8
 71
     3
 72
    14
 73
    10
 74
     0
 42
0.00000001
 43
0.00000001
 40
0.0
 40
0.0
 40
0.0
 40
0.0
 40
0.0907475556428098
 40
0.2288563839002346
 40
0.4128530542465355
 40
0.6071420004332163
 40
0.7878282318391965
 40
0.9626611221742305
 40
1.0
 40
1.0
 40
1.0
 40
1.0
 10
2318.325460923731
 20
3109.37932721311
 30
0.0
 10
2318.113909756882
 20
3109.396159746658
 30
0.0
 10
2317.580398581713
 20
3109.438609735889
 30
0.0
 10
2316.719912941163
 20
3109.4805700261
 30
0.0
 10
2315.670112580982
 20
3109.517502171318
 30
0.0
 10
2314.435496063458
 20
3109.54322773794
 30
0.0
 10
2313.098989846256
 20
3109.559073656574
 30
0.0
 10
2312.088959722668
 20
3109.563885326813
 30
0.0
 10
2311.541757506833
 20
3109.56412491031
 30
0.0
 10
2311.445458565365
 20
3109.564167073218
 30
0.0
  0
SPLINE
  5
289
330
1F
100
AcDbEntity
  8
0
  6
Continuous
 62
     7
370
    25
100
AcDbSpline
210
0.0
220
0.0
230
1.0
 70
     8
 71
     3
 72
    13
 73
     9
 74
     0
 42
0.00000001
 43
0.00000001
 40
0.0
 40
0.0
 40
0.0
 40
0.0
 40
0.0971790056423941
 40
0.2845710337029655
 40
0.4775192778487891
 40
0.6890792027696945
 40
0.8771625243238411
 40
1.0
 40
1.0
 40
1.0
 40
1.0
 10
2311.445458565365
 20
3109.564167073218
 30
0.0
 10
2311.198437493656
 20
3109.563905304342
 30
0.0
 10
2310.475081237249
 20
3109.563138761823
 30
0.0
 10
2309.282482825123
 20
3109.554264289759
 30
0.0
 10
2307.912409207467
 20
3109.53402494549
 30
0.0
 10
2306.678104082208
 20
3109.500007999567
 30
0.0
 10
2305.648335398515
 20
3109.460504786321
 30
0.0
 10
2304.941932094419
 20
3109.406884625917
 30
0.0
 10
2304.662848805501
 20
3109.385700564869
 30
0.0
  0
LINE
  5
28A
330
1F
100
AcDbEntity
  8
0
  6
Continuous
 62
     7
370
    25
100
AcDbLine
 10
2315.9454585654
 20
3104.2716549046
 30
0.0
 11
2315.9454585654
 21
3106.5321061976
 31
0.0
  0
LINE
  5
28B
330
1F
100
AcDbEntity
  8
0
  6
Continuous
 62
     7
370
    25
100
AcDbLine
 10
2306.9454585654
 20
3106.5321061976
 30
0.0
 11
2306.9454585654
 21
3104.2716549046
 31
0.0
  0
ARC
  5
28C
330
1F
100
AcDbEntity
  8
0
  6
Continuous
 62
     7
370
    25
100
AcDbCircle
 10
2576.9487994324
 20
3299.2477776177
 30
0.0
 40
190.3064363779857
100
AcDbArc
 50
269.697921602
 51
271.989829998
  0
ARC
  5
28D
330
1F
100
AcDbEntity
  8
0
  6
Continuous
 62
     7
370
    25
100
AcDbCircle
 10
2575.3807674914
 20
3343.5241370781
 30
0.0
 40
234.5808305669102
100
AcDbArc
 50
268.5008299501
 51
270.1379245117
  0
ARC
  5
28E
330
1F
100
AcDbEntity
  8
0
  6
Continuous
 62
     7
370
    25
100
AcDbCircle
 10
2578.7883976532
 20
3189.504051905
 30
0.0
 40
82.58290404798424
100
AcDbArc
 50
268.0271873052
 51
274.971785139
  0
ARC
  5
28F
330
1F
100
AcDbEntity
  8
0
  6
Continuous
 62
     7
370
    25
100
AcDbCircle
 10
2573.3258447337
 20
3198.0354228509
 30
0.0
 40
91.10299653542722
100
AcDbArc
 50
265.3532935281
 51
271.6477340277
  0
SPLINE
  5
290
330
1F
100
AcDbEntity
  8
0
  6
Continuous
 62
     7
370
    25
100
AcDbSpline
210
0.0
220
0.0
230
1.0
 70
     8
 71
     3
 72
    19
 73
    15
 74
     0
 42
0.00000001
 43
0.00000001
 40
0.0
 40
0.0
 40
0.0
 40
0.0
 40
0.0906600731280807
 40
0.2050734138973395
 40
0.2719074979493218
 40
0.3443210476357596
 40
0.4209983262120428
 40
0.4999999792228336
 40
0.5790016347260554
 40
0.6556789199260449
 40
0.7280924783131343
 40
0.79492657095429
 40
0.9093399235674698
 40
1.0
 40
1.0
 40
1.0
 40
1.0
 10
2585.745458565368
 20
3107.031934860074
 30
0.0
 10
2585.6686045207
 20
3107.007709314838
 30
0.0
 10
2585.494760393202
 20
3106.952911043739
 30
0.0
 10
2584.174903170728
 20
3106.886527760358
 30
0.0
 10
2582.418984010532
 20
3106.836615149711
 30
0.0
 10
2580.595890405649
 20
3106.803484284432
 30
0.0
 10
2578.414524317426
 20
3106.781051426669
 30
0.0
 10
2576.021572113838
 20
3106.772789316637
 30
0.0
 10
2573.624049624955
 20
3106.780087282521
 30
0.0
 10
2571.429764294541
 20
3106.801639484262
 30
0.0
 10
2569.587425031517
 20
3106.834032633694
 30
0.0
 10
2567.802394606041
 20
3106.883232581894
 30
0.0
 10
2566.443699588441
 20
3106.949076769687
 30
0.0
 10
2566.237687244349
 20
3107.003798592473
 30
0.0
 10
2566.14661208679
 20
3107.027990340079
 30
0.0
  0
LINE
  5
291
330
1F
100
AcDbEntity
  8
0
  6
Continuous
 62
     7
370
    25
100
AcDbLine
 10
2568.975490279
 20
3109.3742254403
 30
0.0
 11
2569.0274519143
 21
3109.3783936567
 31
0.0
  0
LINE
  5
292
330
1F
100
AcDbEntity
  8
0
  6
Continuous
 62
     7
370
    25
100
AcDbLine
 10
2580.6356302781
 20
3109.43111244
 30
0.0
 11
2580.6346783417
 21
3109.4335859309
 31
0.0
  0
LWPOLYLINE
  5
293
330
1F
100
AcDbEntity
  8
0
  6
Continuous
 62
     7
370
    25
100
AcDbPolyline
 90
       23
 70
   128
 43
0.0
 10
2580.6346783417
 20
3109.4335859309
 10
2580.4194017973
 20
3109.4679610176
 10
2579.8439780752
 20
3109.499369837
 10
2578.9547281093
 20
3109.5252840161
 10
2577.8232354781
 20
3109.5436174939
 10
2576.54058401
 20
3109.5528944469
 10
2575.2100256422
 20
3109.5523680914
 10
2573.9386687613
 20
3109.5420807983
 10
2572.8288561037
 20
3109.5228606826
 10
2571.9699262854
 20
3109.4962549411
 10
2571.4310221483
 20
3109.4644053047
 10
2571.2555248428
 20
3109.4298756318
 10
2571.4575616959
 20
3109.3954455205
 10
2572.0208689783
 20
3109.3638865544
 10
2572.9001011149
 20
3109.3377391931
 10
2574.0244809511
 20
3109.3191082686
 10
2575.3034972299
 20
3109.3094935484
 10
2576.6341906426
 20
3109.3096690062
 10
2577.9094419316
 20
3109.3196205178
 10
2579.0265948654
 20
3109.3385469983
 10
2579.8957199443
 20
3109.3649248882
 10
2580.4468536198
 20
3109.3966307983
 10
2580.6356302781
 20
3109.43111244
  0
LINE
  5
294
330
1F
100
AcDbEntity
  8
0
  6
Continuous
 62
     7
370
    25
100
AcDbLine
 10
2573.4996091614
 20
3109.4176313116
 30
0.0
 11
2575.4304585654
 21
3109.4176313116
 31
0.0
  0
LINE
  5
295
330
1F
100
AcDbEntity
  8
0
  6
Continuous
 62
     7
370
    25
100
AcDbLine
 10
2575.4304585654
 20
3109.4176313116
 30
0.0
 11
2575.4304585654
 21
3109.3670875666
 31
0.0
  0
ARC
  5
296
330
1F
100
AcDbEntity
  8
0
  6
Continuous
 62
     7
370
    25
100
AcDbCircle
 10
2575.9454585654
 20
3203.6549486598
 30
0.0
 40
94.28926754687862
100
AcDbArc
 50
269.687053745
 51
270.312946255
  0
LINE
  5
297
330
1F
100
AcDbEntity
  8
0
  6
Continuous
 62
     7
370
    25
100
AcDbLine
 10
2576.4604585654
 20
3109.3670875666
 30
0.0
 11
2576.4604585654
 21
3109.4176313116
 31
0.0
  0
LINE
  5
298
330
1F
100
AcDbEntity
  8
0
  6
Continuous
 62
     7
370
    25
100
AcDbLine
 10
2576.4604585654
 20
3109.4176313116
 30
0.0
 11
2578.3913079693
 21
3109.4176313116
 31
0.0
  0
LWPOLYLINE
  5
299
330
1F
100
AcDbEntity
  8
0
  6
Continuous
 62
     7
370
    25
100
AcDbPolyline
 90
        9
 70
   128
 43
0.0
 10
2578.3913079693
 20
3109.4445935684
 10
2578.4147242752
 20
3109.44125516
 10
2578.4314953662
 20
3109.4378894559
 10
2578.4415761084
 20
3109.4345055136
 10
2578.4449393728
 20
3109.43111244
 10
2578.4415761084
 20
3109.4277193664
 10
2578.4314953662
 20
3109.4243354241
 10
2578.4147242752
 20
3109.42096972
 10
2578.3913079693
 20
3109.4176313116
  0
LINE
  5
29A
330
1F
100
AcDbEntity
  8
0
  6
Continuous
 62
     7
370
    25
100
AcDbLine
 10
2578.3913079693
 20
3109.4445935684
 30
0.0
 11
2576.4604585654
 21
3109.4445935684
 31
0.0
  0
LINE
  5
29B
330
1F
100
AcDbEntity
  8
0
  6
Continuous
 62
     7
370
    25
100
AcDbLine
 10
2576.4604585654
 20
3109.4445935684
 30
0.0
 11
2576.4604585654
 21
3109.4951373134
 31
0.0
  0
ARC
  5
29C
330
1F
100
AcDbEntity
  8
0
  6
Continuous
 62
     7
370
    25
100
AcDbCircle
 10
2575.9454585654
 20
3015.2072761829
 30
0.0
 40
94.28926758422554
100
AcDbArc
 50
89.6870537451
 51
90.3129462549
  0
LINE
  5
29D
330
1F
100
AcDbEntity
  8
0
  6
Continuous
 62
     7
370
    25
100
AcDbLine
 10
2575.4304585654
 20
3109.4951373134
 30
0.0
 11
2575.4304585654
 21
3109.4445935684
 31
0.0
  0
LINE
  5
29E
330
1F
100
AcDbEntity
  8
0
  6
Continuous
 62
     7
370
    25
100
AcDbLine
 10
2575.4304585654
 20
3109.4445935684
 30
0.0
 11
2573.4996091614
 21
3109.4445935684
 31
0.0
  0
LWPOLYLINE
  5
29F
330
1F
100
AcDbEntity
  8
0
  6
Continuous
 62
     7
370
    25
100
AcDbPolyline
 90
        9
 70
   128
 43
0.0
 10
2573.4996091614
 20
3109.4176313116
 10
2573.4761928556
 20
3109.42096972
 10
2573.4594217646
 20
3109.4243354241
 10
2573.4493410224
 20
3109.4277193664
 10
2573.4459777579
 20
3109.43111244
 10
2573.4493410224
 20
3109.4345055136
 10
2573.4594217646
 20
3109.4378894559
 10
2573.4761928556
 20
3109.44125516
 10
2573.4996091614
 20
3109.4445935684
  0
LINE
  5
2A0
330
1F
100
AcDbEntity
  8
0
  6
Continuous
 62
     7
370
    25
100
AcDbLine
 10
2573.5133329309
 20
3109.4176313116
 30
0.0
 11
2573.4996091614
 21
3109.4445935684
 31
0.0
  0
LINE
  5
2A1
330
1F
100
AcDbEntity
  8
0
  6
Continuous
 62
     7
370
    25
100
AcDbLine
 10
2576.4604585654
 20
3109.4445935684
 30
0.0
 11
2576.4604585654
 21
3109.4176313116
 31
0.0
  0
LINE
  5
2A2
330
1F
100
AcDbEntity
  8
0
  6
Continuous
 62
     7
370
    25
100
AcDbLine
 10
2575.4304585654
 20
3109.4445935684
 30
0.0
 11
2575.4304585654
 21
3109.4176313116
 31
0.0
  0
ARC
  5
2A3
330
1F
100
AcDbEntity
  8
0
  6
Continuous
 62
     7
370
    25
100
AcDbCircle
 10
2312.4487994324
 20
3299.2477776183
 30
0.0
 40
190.3064363785813
100
AcDbArc
 50
269.697921602
 51
271.989829998
  0
ARC
  5
2A4
330
1F
100
AcDbEntity
  8
0
  6
Continuous
 62
     7
370
    25
100
AcDbCircle
 10
2310.8807674915
 20
3343.5241370863
 30
0.0
 40
234.5808305751077
100
AcDbArc
 50
268.5008299502
 51
270.1379245117
  0
ARC
  5
2A5
330
1F
100
AcDbEntity
  8
0
  6
Continuous
 62
     7
370
    25
100
AcDbCircle
 10
2314.2883976532
 20
3189.5040519049
 30
0.0
 40
82.58290404786813
100
AcDbArc
 50
268.0271873052
 51
274.971785139
  0
ARC
  5
2A6
330
1F
100
AcDbEntity
  8
0
  6
Continuous
 62
     7
370
    25
100
AcDbCircle
 10
2308.8258447337
 20
3198.0354228507
 30
0.0
 40
91.10299653518797
100
AcDbArc
 50
265.3532935281
 51
271.6477340277
  0
SPLINE
  5
2A7
330
1F
100
AcDbEntity
  8
0
  6
Continuous
 62
     7
370
    25
100
AcDbSpline
210
0.0
220
0.0
230
1.0
 70
     8
 71
     3
 72
    19
 73
    15
 74
     0
 42
0.00000001
 43
0.00000001
 40
0.0
 40
0.0
 40
0.0
 40
0.0
 40
0.0906600731280805
 40
0.2050734138973391
 40
0.271907497949322
 40
0.3443210476357599
 40
0.4209983262120419
 40
0.4999999792228319
 40
0.5790016347260547
 40
0.6556789199260407
 40
0.7280924783131351
 40
0.7949265709542899
 40
0.90933992356747
 40
0.9999999999999999
 40
0.9999999999999999
 40
0.9999999999999999
 40
0.9999999999999999
 10
2321.245458565366
 20
3107.03193486007
 30
0.0
 10
2321.168604520698
 20
3107.007709314835
 30
0.0
 10
2320.9947603932
 20
3106.952911043735
 30
0.0
 10
2319.674903170726
 20
3106.886527760355
 30
0.0
 10
2317.918984010529
 20
3106.836615149707
 30
0.0
 10
2316.095890405647
 20
3106.803484284429
 30
0.0
 10
2313.914524317423
 20
3106.781051426665
 30
0.0
 10
2311.521572113836
 20
3106.772789316633
 30
0.0
 10
2309.124049624953
 20
3106.780087282517
 30
0.0
 10
2306.929764294538
 20
3106.801639484258
 30
0.0
 10
2305.087425031514
 20
3106.83403263369
 30
0.0
 10
2303.302394606039
 20
3106.88323258189
 30
0.0
 10
2301.943699588438
 20
3106.949076769684
 30
0.0
 10
2301.737687244346
 20
3107.003798592468
 30
0.0
 10
2301.646612086787
 20
3107.027990340075
 30
0.0
  0
LINE
  5
2A8
330
1F
100
AcDbEntity
  8
0
  6
Continuous
 62
     7
370
    25
100
AcDbLine
 10
2304.475490279
 20
3109.3742254403
 30
0.0
 11
2304.5274519143
 21
3109.3783936567
 31
0.0
  0
LINE
  5
2A9
330
1F
100
AcDbEntity
  8
0
  6
Continuous
 62
     7
370
    25
100
AcDbLine
 10
2316.1356302781
 20
3109.43111244
 30
0.0
 11
2316.1346783417
 21
3109.4335859309
 31
0.0
  0
LWPOLYLINE
  5
2AA
330
1F
100
AcDbEntity
  8
0
  6
Continuous
 62
     7
370
    25
100
AcDbPolyline
 90
       23
 70
   128
 43
0.0
 10
2316.1346783417
 20
3109.4335859309
 10
2315.9194017973
 20
3109.4679610176
 10
2315.3439780752
 20
3109.499369837
 10
2314.4547281093
 20
3109.5252840161
 10
2313.3232354781
 20
3109.5436174939
 10
2312.04058401
 20
3109.5528944469
 10
2310.7100256422
 20
3109.5523680914
 10
2309.4386687613
 20
3109.5420807983
 10
2308.3288561037
 20
3109.5228606826
 10
2307.4699262854
 20
3109.496254941
 10
2306.9310221483
 20
3109.4644053047
 10
2306.7555248428
 20
3109.4298756318
 10
2306.9575616959
 20
3109.3954455205
 10
2307.5208689783
 20
3109.3638865544
 10
2308.4001011149
 20
3109.3377391931
 10
2309.5244809511
 20
3109.3191082686
 10
2310.8034972299
 20
3109.3094935484
 10
2312.1341906426
 20
3109.3096690062
 10
2313.4094419316
 20
3109.3196205178
 10
2314.5265948654
 20
3109.3385469983
 10
2315.3957199443
 20
3109.3649248882
 10
2315.9468536198
 20
3109.3966307983
 10
2316.1356302781
 20
3109.43111244
  0
LINE
  5
2AB
330
1F
100
AcDbEntity
  8
0
  6
Continuous
 62
     7
370
    25
100
AcDbLine
 10
2308.9996091614
 20
3109.4176313116
 30
0.0
 11
2310.9304585654
 21
3109.4176313116
 31
0.0
  0
LINE
  5
2AC
330
1F
100
AcDbEntity
  8
0
  6
Continuous
 62
     7
370
    25
100
AcDbLine
 10
2310.9304585654
 20
3109.4176313116
 30
0.0
 11
2310.9304585654
 21
3109.3670875666
 31
0.0
  0
ARC
  5
2AD
330
1F
100
AcDbEntity
  8
0
  6
Continuous
 62
     7
370
    25
100
AcDbCircle
 10
2311.4454585654
 20
3203.6549486699
 30
0.0
 40
94.28926755696202
100
AcDbArc
 50
269.687053745
 51
270.312946255
  0
LINE
  5
2AE
330
1F
100
AcDbEntity
  8
0
  6
Continuous
 62
     7
370
    25
100
AcDbLine
 10
2311.9604585654
 20
3109.3670875666
 30
0.0
 11
2311.9604585654
 21
3109.4176313116
 31
0.0
  0
LINE
  5
2AF
330
1F
100
AcDbEntity
  8
0
  6
Continuous
 62
     7
370
    25
100
AcDbLine
 10
2311.9604585654
 20
3109.4176313116
 30
0.0
 11
2313.8913079693
 21
3109.4176313116
 31
0.0
  0
LWPOLYLINE
  5
2B0
330
1F
100
AcDbEntity
  8
0
  6
Continuous
 62
     7
370
    25
100
AcDbPolyline
 90
        9
 70
   128
 43
0.0
 10
2313.8913079693
 20
3109.4445935684
 10
2313.9147242752
 20
3109.44125516
 10
2313.9314953662
 20
3109.4378894559
 10
2313.9415761084
 20
3109.4345055136
 10
2313.9449393728
 20
3109.43111244
 10
2313.9415761084
 20
3109.4277193664
 10
2313.9314953662
 20
3109.4243354241
 10
2313.9147242752
 20
3109.42096972
 10
2313.8913079693
 20
3109.4176313116
  0
LINE
  5
2B1
330
1F
100
AcDbEntity
  8
0
  6
Continuous
 62
     7
370
    25
100
AcDbLine
 10
2313.8913079693
 20
3109.4445935684
 30
0.0
 11
2311.9604585654
 21
3109.4445935684
 31
0.0
  0
LINE
  5
2B2
330
1F
100
AcDbEntity
  8
0
  6
Continuous
 62
     7
370
    25
100
AcDbLine
 10
2311.9604585654
 20
3109.4445935684
 30
0.0
 11
2311.9604585654
 21
3109.4951373134
 31
0.0
  0
ARC
  5
2B3
330
1F
100
AcDbEntity
  8
0
  6
Continuous
 62
     7
370
    25
100
AcDbCircle
 10
2311.4454585654
 20
3015.2072761592
 30
0.0
 40
94.2892676078816
100
AcDbArc
 50
89.6870537452
 51
90.3129462548
  0
LINE
  5
2B4
330
1F
100
AcDbEntity
  8
0
  6
Continuous
 62
     7
370
    25
100
AcDbLine
 10
2310.9304585654
 20
3109.4951373134
 30
0.0
 11
2310.9304585654
 21
3109.4445935684
 31
0.0
  0
LINE
  5
2B5
330
1F
100
AcDbEntity
  8
0
  6
Continuous
 62
     7
370
    25
100
AcDbLine
 10
2310.9304585654
 20
3109.4445935684
 30
0.0
 11
2308.9996091614
 21
3109.4445935684
 31
0.0
  0
LWPOLYLINE
  5
2B6
330
1F
100
AcDbEntity
  8
0
  6
Continuous
 62
     7
370
    25
100
AcDbPolyline
 90
        9
 70
   128
 43
0.0
 10
2308.9996091614
 20
3109.4176313116
 10
2308.9761928556
 20
3109.42096972
 10
2308.9594217646
 20
3109.4243354241
 10
2308.9493410224
 20
3109.4277193664
 10
2308.9459777579
 20
3109.43111244
 10
2308.9493410224
 20
3109.4345055136
 10
2308.9594217646
 20
3109.4378894559
 10
2308.9761928556
 20
3109.44125516
 10
2308.9996091614
 20
3109.4445935684
  0
LINE
  5
2B7
330
1F
100
AcDbEntity
  8
0
  6
Continuous
 62
     7
370
    25
100
AcDbLine
 10
2309.0133329309
 20
3109.4176313116
 30
0.0
 11
2308.9996091614
 21
3109.4445935684
 31
0.0
  0
LINE
  5
2B8
330
1F
100
AcDbEntity
  8
0
  6
Continuous
 62
     7
370
    25
100
AcDbLine
 10
2311.9604585654
 20
3109.4445935684
 30
0.0
 11
2311.9604585654
 21
3109.4176313116
 31
0.0
  0
LINE
  5
2B9
330
1F
100
AcDbEntity
  8
0
  6
Continuous
 62
     7
370
    25
100
AcDbLine
 10
2310.9304585654
 20
3109.4445935684
 30
0.0
 11
2310.9304585654
 21
3109.4176313116
 31
0.0
  0
LINE
  5
2BA
330
1F
100
AcDbEntity
  8
0
  6
Continuous
 62
     7
370
    25
100
AcDbLine
 10
2188.4454585654
 20
2725.2716549046
 30
0.0
 11
2188.4454585654
 21
2723.7716549046
 31
0.0
  0
LINE
  5
2BB
330
1F
100
AcDbEntity
  8
0
  6
Continuous
 62
     7
370
    25
100
AcDbLine
 10
2228.4454585654
 20
2725.2716549046
 30
0.0
 11
2228.4454585654
 21
2723.7716549046
 31
0.0
  0
LINE
  5
2BC
330
1F
100
AcDbEntity
  8
0
  6
Continuous
 62
     7
370
    25
100
AcDbLine
 10
2164.4454585654
 20
2705.7716549046
 30
0.0
 11
2164.4454585654
 21
2723.7716549046
 31
0.0
  0
LINE
  5
2BD
330
1F
100
AcDbEntity
  8
0
  6
Continuous
 62
     7
370
    25
100
AcDbLine
 10
2610.4454585654
 20
2723.7716549046
 30
0.0
 11
2164.4454585654
 21
2723.7716549046
 31
0.0
  0
LINE
  5
2BE
330
1F
100
AcDbEntity
  8
0
  6
Continuous
 62
     7
370
    25
100
AcDbLine
 10
2610.4454585654
 20
2705.7716549046
 30
0.0
 11
2610.4454585654
 21
2723.7716549046
 31
0.0
  0
LINE
  5
2BF
330
1F
100
AcDbEntity
  8
0
  6
Continuous
 62
     7
370
    25
100
AcDbLine
 10
2610.4454585654
 20
2705.7716549046
 30
0.0
 11
2164.4454585654
 21
2705.7716549046
 31
0.0
  0
LINE
  5
2C0
330
1F
100
AcDbEntity
  8
0
  6
Continuous
 62
     7
370
    25
100
AcDbLine
 10
2612.9454585654
 20
3104.2716549046
 30
0.0
 11
2162.4454585654
 21
3104.2716549046
 31
0.0
  0
LINE
  5
2C1
330
1F
100
AcDbEntity
  8
0
  6
Continuous
 62
     7
370
    25
100
AcDbLine
 10
2612.9454585654
 20
2725.2716549046
 30
0.0
 11
2162.4454585654
 21
2725.2716549046
 31
0.0
  0
LINE
  5
2C2
330
1F
100
AcDbEntity
  8
0
  6
Continuous
 62
     7
370
    25
100
AcDbLine
 10
2162.4454585654
 20
3104.2716549046
 30
0.0
 11
2162.4454585654
 21
2725.2716549046
 31
0.0
  0
LINE
  5
2C3
330
1F
100
AcDbEntity
  8
0
  6
Continuous
 62
     7
370
    25
100
AcDbLine
 10
2612.9454585654
 20
3104.2716549046
 30
0.0
 11
2612.9454585654
 21
2725.2716549046
 31
0.0
  0
LINE
  5
2C4
330
1F
100
AcDbEntity
  8
0
  6
Continuous
 62
     7
370
    25
100
AcDbLine
 10
2164.4454585653
 20
2723.7716549046
 30
0.0
 11
2164.4454585653
 21
2723.8716549046
 31
0.0
  0
LINE
  5
2C5
330
1F
100
AcDbEntity
  8
0
  6
Continuous
 62
     7
370
    25
100
AcDbLine
 10
2164.6454585653
 20
2723.8716549046
 30
0.0
 11
2164.4454585653
 21
2723.8716549046
 31
0.0
  0
ARC
  5
2C6
330
1F
100
AcDbEntity
  8
0
  6
Continuous
 62
     7
370
    25
100
AcDbCircle
 10
2164.6454585653
 20
2723.8716549046
 30
0.0
 40
0.2000000000002728
100
AcDbArc
 50
90.0
 51
180.0
  0
LINE
  5
2C7
330
1F
100
AcDbEntity
  8
0
  6
Continuous
 62
     7
370
    25
100
AcDbLine
 10
2164.6454585653
 20
2724.0716549046
 30
0.0
 11
2164.6454585653
 21
2723.8716549046
 31
0.0
  0
LINE
  5
2C8
330
1F
100
AcDbEntity
  8
0
  6
Continuous
 62
     7
370
    25
100
AcDbLine
 10
2166.4454585653
 20
2724.0716549046
 30
0.0
 11
2166.4454585653
 21
2723.8716549046
 31
0.0
  0
LINE
  5
2C9
330
1F
100
AcDbEntity
  8
0
  6
Continuous
 62
     7
370
    25
100
AcDbLine
 10
2166.4454585653
 20
2723.8716549046
 30
0.0
 11
2164.6454585653
 21
2723.8716549046
 31
0.0
  0
LINE
  5
2CA
330
1F
100
AcDbEntity
  8
0
  6
Continuous
 62
     7
370
    25
100
AcDbLine
 10
2164.6454585653
 20
2724.0716549046
 30
0.0
 11
2166.4454585653
 21
2724.0716549046
 31
0.0
  0
LINE
  5
2CB
330
1F
100
AcDbEntity
  8
0
  6
Continuous
 62
     7
370
    25
100
AcDbLine
 10
2166.4454585653
 20
2723.7716549046
 30
0.0
 11
2166.4454585653
 21
2723.8716549046
 31
0.0
  0
LINE
  5
2CC
330
1F
100
AcDbEntity
  8
0
  6
Continuous
 62
     7
370
    25
100
AcDbLine
 10
2608.4454585654
 20
2723.8716549046
 30
0.0
 11
2608.4454585654
 21
2723.7716549046
 31
0.0
  0
LINE
  5
2CD
330
1F
100
AcDbEntity
  8
0
  6
Continuous
 62
     7
370
    25
100
AcDbLine
 10
2166.4454585653
 20
2724.0716549046
 30
0.0
 11
2188.4454585654
 21
2724.0716549046
 31
0.0
  0
LINE
  5
2CE
330
1F
100
AcDbEntity
  8
0
  6
Continuous
 62
     7
370
    25
100
AcDbLine
 10
2228.4454585654
 20
2724.0716549046
 30
0.0
 11
2372.4454585654
 21
2724.0716549046
 31
0.0
  0
LINE
  5
2CF
330
1F
100
AcDbEntity
  8
0
  6
Continuous
 62
     7
370
    25
100
AcDbLine
 10
2402.4454585654
 20
2724.0716549046
 30
0.0
 11
2569.9471256909
 21
2724.0716549046
 31
0.0
  0
LINE
  5
2D0
330
1F
100
AcDbEntity
  8
0
  6
Continuous
 62
     7
370
    25
100
AcDbLine
 10
2606.1331333148
 20
2724.0716549046
 30
0.0
 11
2608.4454585654
 21
2724.0716549046
 31
0.0
  0
LINE
  5
2D1
330
1F
100
AcDbEntity
  8
0
  6
Continuous
 62
     7
370
    25
100
AcDbLine
 10
2608.4454585654
 20
2723.8716549046
 30
0.0
 11
2608.4454585654
 21
2724.0716549046
 31
0.0
  0
LINE
  5
2D2
330
1F
100
AcDbEntity
  8
0
  6
Continuous
 62
     7
370
    25
100
AcDbLine
 10
2610.2454585654
 20
2723.8716549046
 30
0.0
 11
2608.4454585654
 21
2723.8716549046
 31
0.0
  0
LINE
  5
2D3
330
1F
100
AcDbEntity
  8
0
  6
Continuous
 62
     7
370
    25
100
AcDbLine
 10
2610.2454585654
 20
2723.8716549046
 30
0.0
 11
2610.4454585654
 21
2723.8716549046
 31
0.0
  0
LINE
  5
2D4
330
1F
100
AcDbEntity
  8
0
  6
Continuous
 62
     7
370
    25
100
AcDbLine
 10
2610.4454585654
 20
2723.8716549046
 30
0.0
 11
2610.4454585654
 21
2723.7716549046
 31
0.0
  0
ARC
  5
2D5
330
1F
100
AcDbEntity
  8
0
  6
Continuous
 62
     7
370
    25
100
AcDbCircle
 10
2610.2454585654
 20
2723.8716549046
 30
0.0
 40
0.2000000000002728
100
AcDbArc
 50
0.0
 51
90.0
  0
LINE
  5
2D6
330
1F
100
AcDbEntity
  8
0
  6
Continuous
 62
     7
370
    25
100
AcDbLine
 10
2610.2454585654
 20
2723.8716549046
 30
0.0
 11
2610.2454585654
 21
2724.0716549046
 31
0.0
  0
LINE
  5
2D7
330
1F
100
AcDbEntity
  8
0
  6
Continuous
 62
     7
370
    25
100
AcDbLine
 10
2608.4454585654
 20
2724.0716549046
 30
0.0
 11
2610.2454585654
 21
2724.0716549046
 31
0.0
  0
LINE
  5
2D8
330
1F
100
AcDbEntity
  8
0
  6
Continuous
 62
     7
370
    25
100
AcDbLine
 10
2402.4454585654
 20
2723.7716549046
 30
0.0
 11
2402.4454585654
 21
2724.9716549046
 31
0.0
  0
LINE
  5
2D9
330
1F
100
AcDbEntity
  8
0
  6
Continuous
 62
     7
370
    25
100
AcDbLine
 10
2372.4454585654
 20
2724.9716549046
 30
0.0
 11
2372.4454585654
 21
2723.7716549046
 31
0.0
  0
LINE
  5
2DA
330
1F
100
AcDbEntity
  8
0
  6
Continuous
 62
     7
370
    25
100
AcDbLine
 10
2372.466408286
 20
2725.2716549046
 30
0.0
 11
2372.4454585654
 21
2724.9716549046
 31
0.0
  0
LINE
  5
2DB
330
1F
100
AcDbEntity
  8
0
  6
Continuous
 62
     7
370
    25
100
AcDbLine
 10
2377.0670931167
 20
2725.2716549046
 30
0.0
 11
2377.0468228464
 21
2724.9716549046
 31
0.0
  0
LINE
  5
2DC
330
1F
100
AcDbEntity
  8
0
  6
Continuous
 62
     7
370
    25
100
AcDbLine
 10
2377.0468228464
 20
2724.9716549046
 30
0.0
 11
2397.8440942843
 21
2724.9716549046
 31
0.0
  0
LINE
  5
2DD
330
1F
100
AcDbEntity
  8
0
  6
Continuous
 62
     7
370
    25
100
AcDbLine
 10
2397.8440942843
 20
2724.9716549046
 30
0.0
 11
2397.823824014
 21
2725.2716549046
 31
0.0
  0
LINE
  5
2DE
330
1F
100
AcDbEntity
  8
0
  6
Continuous
 62
     7
370
    25
100
AcDbLine
 10
2402.4454585654
 20
2724.9716549046
 30
0.0
 11
2402.4245088447
 21
2725.2716549046
 31
0.0
  0
LINE
  5
2DF
330
1F
100
AcDbEntity
  8
0
  6
Continuous
 62
     7
370
    25
100
AcDbLine
 10
2590.945458561
 20
2723.7716549046
 30
0.0
 11
2590.945458561
 21
2723.9716549046
 31
0.0
  0
LINE
  5
2E0
330
1F
100
AcDbEntity
  8
0
  6
Continuous
 62
     7
370
    25
100
AcDbLine
 10
2570.945458561
 20
2723.7716549046
 30
0.0
 11
2570.945458561
 21
2723.9716549046
 31
0.0
  0
LINE
  5
2E1
330
1F
100
AcDbEntity
  8
0
  6
Continuous
 62
     7
370
    25
100
AcDbLine
 10
2569.945458561
 20
2723.7716549046
 30
0.0
 11
2569.945458561
 21
2723.9716549046
 31
0.0
  0
LINE
  5
2E2
330
1F
100
AcDbEntity
  8
0
  6
Continuous
 62
     7
370
    25
100
AcDbLine
 10
2569.945458561
 20
2723.9716549046
 30
0.0
 11
2570.945458561
 21
2723.9716549046
 31
0.0
  0
LINE
  5
2E3
330
1F
100
AcDbEntity
  8
0
  6
Continuous
 62
     7
370
    25
100
AcDbLine
 10
2591.945458561
 20
2723.9716549046
 30
0.0
 11
2590.945458561
 21
2723.9716549046
 31
0.0
  0
LINE
  5
2E4
330
1F
100
AcDbEntity
  8
0
  6
Continuous
 62
     7
370
    25
100
AcDbLine
 10
2591.945458561
 20
2723.7716549046
 30
0.0
 11
2591.945458561
 21
2723.9716549046
 31
0.0
  0
ARC
  5
2E5
330
1F
100
AcDbEntity
  8
0
  6
Continuous
 62
     7
370
    25
100
AcDbCircle
 10
2572.945458561
 20
2723.9716549046
 30
0.0
 40
3.0
100
AcDbArc
 50
154.3207113804
 51
180.0
  0
ARC
  5
2E6
330
1F
100
AcDbEntity
  8
0
  6
Continuous
 62
     7
370
    25
100
AcDbCircle
 10
2588.945458561
 20
2723.9716549046
 30
0.0
 40
3.0
100
AcDbArc
 50
0.0
 51
25.6792886196
  0
LINE
  5
2E7
330
1F
100
AcDbEntity
  8
0
  6
Continuous
 62
     7
370
    25
100
AcDbLine
 10
2606.1331333148
 20
2724.2716549046
 30
0.0
 11
2591.945458561
 21
2724.2716549046
 31
0.0
  0
LINE
  5
2E8
330
1F
100
AcDbEntity
  8
0
  6
Continuous
 62
     7
370
    25
100
AcDbLine
 10
2606.1331333148
 20
2723.7716549046
 30
0.0
 11
2606.1331333148
 21
2724.2716549046
 31
0.0
  0
LINE
  5
2E9
330
1F
100
AcDbEntity
  8
0
  6
Continuous
 62
     7
370
    25
100
AcDbLine
 10
2591.945458561
 20
2724.2716549046
 30
0.0
 11
2591.945458561
 21
2723.9716549046
 31
0.0
  0
LINE
  5
2EA
330
1F
100
AcDbEntity
  8
0
  6
Continuous
 62
     7
370
    25
100
AcDbLine
 10
2592.7046611463
 20
2725.2716549046
 30
0.0
 11
2592.7277135022
 21
2724.2716549046
 31
0.0
  0
LINE
  5
2EB
330
1F
100
AcDbEntity
  8
0
  6
Continuous
 62
     7
370
    25
100
AcDbLine
 10
2594.0280588736
 20
2724.2716549046
 30
0.0
 11
2594.0050065176
 21
2725.2716549046
 31
0.0
  0
ARC
  5
2EC
330
1F
100
AcDbEntity
  8
0
  6
Continuous
 62
     7
370
    25
100
AcDbCircle
 10
2575.9448257767
 20
3254.6497996171
 30
0.0
 40
147.0082502474894
100
AcDbArc
 50
266.0997819289
 51
273.9007124515
  0
LWPOLYLINE
  5
2ED
330
1F
100
AcDbEntity
  8
0
  6
Continuous
 62
     7
370
    25
100
AcDbPolyline
 90
        6
 70
   128
 43
0.0
 10
2583.556639358
 20
3109.056094891
 10
2584.2957539085
 20
3109.0961260079
 10
2584.7473606486
 20
3109.1417840506
 10
2584.8386164832
 20
3109.1888871583
 10
2584.5657853877
 20
3109.2355069245
 10
2584.4418327899
 20
3109.2468479058
  0
LWPOLYLINE
  5
2EE
330
1F
100
AcDbEntity
  8
0
  6
Continuous
 62
     7
370
    25
100
AcDbPolyline
 90
        7
 70
   128
 43
0.0
 10
2567.4490843408
 20
3109.2468479058
 10
2567.325131743
 20
3109.2355069245
 10
2567.0523006476
 20
3109.1888871583
 10
2567.1435564822
 20
3109.1417840506
 10
2567.5951632222
 20
3109.0961260079
 10
2568.3886320348
 20
3109.0537822761
 10
2569.2435540402
 20
3109.0236025787
  0
LWPOLYLINE
  5
2EF
330
1F
100
AcDbEntity
  8
0
  6
Continuous
 62
     7
370
    25
100
AcDbPolyline
 90
       19
 70
   128
 43
0.0
 10
2582.9154268517
 20
3109.3742254403
 10
2583.0671548704
 20
3109.3595426267
 10
2583.2503025605
 20
3109.3169925022
 10
2583.0671548704
 20
3109.2744423778
 10
2582.5268955899
 20
3109.2340258942
 10
2581.6566155753
 20
3109.1977697028
 10
2580.4999543005
 20
3109.1674918404
 10
2579.1149115917
 20
3109.1447105655
 10
2577.5709392736
 20
3109.1305682262
 10
2575.9454585654
 20
3109.1257739786
 10
2574.3199778572
 20
3109.1305682262
 10
2572.7760055391
 20
3109.1447105655
 10
2571.3909628302
 20
3109.1674918404
 10
2570.2343015554
 20
3109.1977697028
 10
2569.3640215408
 20
3109.2340258942
 10
2568.8237622603
 20
3109.2744423778
 10
2568.6406145702
 20
3109.3169925022
 10
2568.8237622603
 20
3109.3595426267
 10
2568.975490279
 20
3109.3742254403
  0
SPLINE
  5
2F0
330
1F
100
AcDbEntity
  8
0
  6
Continuous
 62
     7
370
    25
100
AcDbSpline
210
0.0
220
0.0
230
1.0
 70
     8
 71
     3
 72
    10
 73
     6
 74
     0
 42
0.00000001
 43
0.00000001
 40
0.0
 40
0.0
 40
0.0
 40
0.0
 40
0.0219459922123247
 40
0.5300207501358714
 40
1.0
 40
1.0
 40
1.0
 40
1.0
 10
2580.562172969181
 20
3106.849442565986
 30
0.0
 10
2580.560135481756
 20
3106.847904260401
 30
0.0
 10
2580.510927835861
 20
3106.81075242546
 30
0.0
 10
2580.462555166669
 20
3106.69368108949
 30
0.0
 10
2580.44936707637
 20
3106.581933886943
 30
0.0
 10
2580.443029871332
 20
3106.528236579831
 30
0.0
  0
ARC
  5
2F1
330
1F
100
AcDbEntity
  8
0
  6
Continuous
 62
     7
370
    25
100
AcDbCircle
 10
2575.9727661044
 20
3172.8487882408
 30
0.0
 40
66.47103753350004
100
AcDbArc
 50
266.0945910318
 51
273.8561261672
  0
LINE
  5
2F2
330
1F
100
AcDbEntity
  8
0
  6
Continuous
 62
     7
370
    25
100
AcDbLine
 10
2580.4454585654
 20
3106.5321061976
 30
0.0
 11
2580.4430298712
 21
3106.5282365797
 31
0.0
  0
ARC
  5
2F3
330
1F
100
AcDbEntity
  8
0
  6
Continuous
 62
     7
370
    25
100
AcDbCircle
 10
2311.4448257767
 20
3254.6497996171
 30
0.0
 40
147.0082502475071
100
AcDbArc
 50
266.0997819289
 51
273.9007124515
  0
LWPOLYLINE
  5
2F4
330
1F
100
AcDbEntity
  8
0
  6
Continuous
 62
     7
370
    25
100
AcDbPolyline
 90
        6
 70
   128
 43
0.0
 10
2319.056639358
 20
3109.056094891
 10
2319.7957539085
 20
3109.0961260079
 10
2320.2473606486
 20
3109.1417840506
 10
2320.3386164832
 20
3109.1888871583
 10
2320.0657853877
 20
3109.2355069245
 10
2319.9418327899
 20
3109.2468479058
  0
LWPOLYLINE
  5
2F5
330
1F
100
AcDbEntity
  8
0
  6
Continuous
 62
     7
370
    25
100
AcDbPolyline
 90
        7
 70
   128
 43
0.0
 10
2302.9490843408
 20
3109.2468479058
 10
2302.825131743
 20
3109.2355069245
 10
2302.5523006476
 20
3109.1888871583
 10
2302.6435564822
 20
3109.1417840506
 10
2303.0951632222
 20
3109.0961260079
 10
2303.8886320348
 20
3109.0537822761
 10
2304.7435540402
 20
3109.0236025787
  0
LWPOLYLINE
  5
2F6
330
1F
100
AcDbEntity
  8
0
  6
Continuous
 62
     7
370
    25
100
AcDbPolyline
 90
       19
 70
   128
 43
0.0
 10
2318.4154268517
 20
3109.3742254403
 10
2318.5671548704
 20
3109.3595426267
 10
2318.7503025605
 20
3109.3169925022
 10
2318.5671548704
 20
3109.2744423778
 10
2318.0268955899
 20
3109.2340258942
 10
2317.1566155753
 20
3109.1977697028
 10
2315.9999543005
 20
3109.1674918404
 10
2314.6149115917
 20
3109.1447105654
 10
2313.0709392736
 20
3109.1305682262
 10
2311.4454585654
 20
3109.1257739786
 10
2309.8199778572
 20
3109.1305682262
 10
2308.2760055391
 20
3109.1447105654
 10
2306.8909628302
 20
3109.1674918404
 10
2305.7343015554
 20
3109.1977697028
 10
2304.8640215408
 20
3109.2340258942
 10
2304.3237622603
 20
3109.2744423778
 10
2304.1406145702
 20
3109.3169925022
 10
2304.3237622603
 20
3109.3595426267
 10
2304.475490279
 20
3109.3742254403
  0
SPLINE
  5
2F7
330
1F
100
AcDbEntity
  8
0
  6
Continuous
 62
     7
370
    25
100
AcDbSpline
210
0.0
220
0.0
230
1.0
 70
     8
 71
     3
 72
    10
 73
     6
 74
     0
 42
0.00000001
 43
0.00000001
 40
0.0
 40
0.0
 40
0.0
 40
0.0
 40
0.0219459922126356
 40
0.5300207501360131
 40
1.0
 40
1.0
 40
1.0
 40
1.0
 10
2316.062172969179
 20
3106.849442565982
 30
0.0
 10
2316.060135481753
 20
3106.847904260397
 30
0.0
 10
2316.010927835858
 20
3106.810752425457
 30
0.0
 10
2315.962555166667
 20
3106.693681089486
 30
0.0
 10
2315.949367076368
 20
3106.581933886939
 30
0.0
 10
2315.94302987133
 20
3106.528236579827
 30
0.0
  0
ARC
  5
2F8
330
1F
100
AcDbEntity
  8
0
  6
Continuous
 62
     7
370
    25
100
AcDbCircle
 10
2311.4727661044
 20
3172.8487882409
 30
0.0
 40
66.47103753354924
100
AcDbArc
 50
266.0945910318
 51
273.8561261672
  0
LINE
  5
2F9
330
1F
100
AcDbEntity
  8
0
  6
Continuous
 62
     7
370
    25
100
AcDbLine
 10
2315.9454585654
 20
3106.5321061976
 30
0.0
 11
2315.9430298712
 21
3106.5282365797
 31
0.0
  0
LINE
  5
2FA
330
1F
100
AcDbEntity
  8
0
  6
Continuous
 62
     7
370
    25
100
AcDbLine
 10
2164.6454585653
 20
2723.8716549046
 30
0.0
 11
2164.6454585653
 21
2723.7716549046
 31
0.0
  0
LINE
  5
2FB
330
1F
100
AcDbEntity
  8
0
  6
Continuous
 62
     7
370
    25
100
AcDbLine
 10
2608.4454585654
 20
2723.8716549046
 30
0.0
 11
2606.1331333148
 21
2723.8716549046
 31
0.0
  0
LINE
  5
2FC
330
1F
100
AcDbEntity
  8
0
  6
Continuous
 62
     7
370
    25
100
AcDbLine
 10
2569.945458561
 20
2723.8716549046
 30
0.0
 11
2402.4454585654
 21
2723.8716549046
 31
0.0
  0
LINE
  5
2FD
330
1F
100
AcDbEntity
  8
0
  6
Continuous
 62
     7
370
    25
100
AcDbLine
 10
2372.4454585654
 20
2723.8716549046
 30
0.0
 11
2228.4454585654
 21
2723.8716549046
 31
0.0
  0
LINE
  5
2FE
330
1F
100
AcDbEntity
  8
0
  6
Continuous
 62
     7
370
    25
100
AcDbLine
 10
2188.4454585654
 20
2723.8716549046
 30
0.0
 11
2166.4454585653
 21
2723.8716549046
 31
0.0
  0
LINE
  5
2FF
330
1F
100
AcDbEntity
  8
0
  6
Continuous
 62
     7
370
    25
100
AcDbLine
 10
2610.2454585654
 20
2723.7716549046
 30
0.0
 11
2610.2454585654
 21
2723.8716549046
 31
0.0
  0
SPLINE
  5
300
330
1F
100
AcDbEntity
  8
0
  6
Continuous
 62
     7
370
    25
100
AcDbSpline
210
0.0
220
0.0
230
1.0
 70
     8
 71
     3
 72
    10
 73
     6
 74
     0
 42
0.00000001
 43
0.00000001
 40
0.0
 40
0.0
 40
0.0
 40
0.0
 40
0.5286786081619612
 40
0.8161383429849496
 40
1.0
 40
1.0
 40
1.0
 40
1.0
 10
2590.945458561018
 20
2723.971654904571
 30
0.0
 10
2590.917467925173
 20
2724.222169411547
 30
0.0
 10
2590.874257871267
 20
2724.608896794612
 30
0.0
 10
2590.656475964285
 20
2725.037913361002
 30
0.0
 10
2590.509989972179
 20
2725.206060857857
 30
0.0
 10
2590.452846040873
 20
2725.271654904573
 30
0.0
  0
SPLINE
  5
301
330
1F
100
AcDbEntity
  8
0
  6
Continuous
 62
     7
370
    25
100
AcDbSpline
210
0.0
220
0.0
230
1.0
 70
     8
 71
     3
 72
    10
 73
     6
 74
     0
 42
0.00000001
 43
0.00000001
 40
0.0
 40
0.0
 40
0.0
 40
0.0
 40
0.1834740337142651
 40
0.4713152133458491
 40
1.0
 40
1.0
 40
1.0
 40
1.0
 10
2571.438044111853
 20
2725.271654904573
 30
0.0
 10
2571.381017368601
 20
2725.206204370562
 30
0.0
 10
2571.234524858907
 20
2725.038072500472
 30
0.0
 10
2571.016685224792
 20
2724.609072556929
 30
0.0
 10
2570.973451537924
 20
2724.222168078665
 30
0.0
 10
2570.945458561018
 20
2723.971654904568
 30
0.0
  0
ENDSEC
  0
SECTION
  2
OBJECTS
  0
DICTIONARY
  5
C
330
0
100
AcDbDictionary
281
     1
  3
ACAD_GROUP
350
D
  3
ACAD_LAYOUT
350
1A
  3
ACAD_MLINESTYLE
350
17
  3
ACAD_PLOTSETTINGS
350
19
  3
ACAD_PLOTSTYLENAME
350
E
  3
ACAD_SCALELIST
350
47
  3
DWGPROPS
350
302
  0
DICTIONARY
  5
D
102
{ACAD_REACTORS
330
C
102
}
330
C
100
AcDbDictionary
281
     1
  0
DICTIONARY
  5
1A
102
{ACAD_REACTORS
330
C
102
}
330
C
100
AcDbDictionary
281
     1
  3
Layout1
350
1E
  3
Layout2
350
26
  3
Model
350
22
  0
DICTIONARY
  5
17
102
{ACAD_REACTORS
330
C
102
}
330
C
100
AcDbDictionary
281
     1
  3
Standard
350
18
  0
DICTIONARY
  5
19
102
{ACAD_REACTORS
330
C
102
}
330
C
100
AcDbDictionary
281
     1
  0
ACDBDICTIONARYWDFLT
  5
E
102
{ACAD_REACTORS
330
C
102
}
330
C
100
AcDbDictionary
281
     1
  3
Normal
350
F
100
AcDbDictionaryWithDefault
340
F
  0
DICTIONARY
  5
47
102
{ACAD_REACTORS
330
C
102
}
330
C
100
AcDbDictionary
281
     1
  3
A0
350
48
  3
A1
350
49
  3
A2
350
4A
  3
A3
350
4B
  3
A4
350
4C
  3
A5
350
4D
  3
A6
350
4E
  3
A7
350
4F
  3
A8
350
50
  3
A9
350
51
  3
B0
350
52
  3
B1
350
53
  3
B2
350
54
  3
B3
350
55
  3
B4
350
56
  3
B5
350
57
  3
B6
350
58
  0
XRECORD
  5
302
102
{ACAD_REACTORS
330
C
102
}
330
C
100
AcDbXrecord
280
     1
  1
DWGPROPS COOKIE
  2

  3

  4

  6

  7

  8
b
  9

300
=
301
=
302
=
303
=
304
=
305
=
306
=
307
=
308
=
309
=
 40
0.0
 41
2460384.276356447
 42
2460384.276356632
  1

 90
        0
  0
LAYOUT
  5
1E
102
{ACAD_REACTORS
330
1A
102
}
330
1A
100
AcDbPlotSettings
  1

  2
none_device
  4

  6

 40
0.0
 41
0.0
 42
0.0
 43
0.0
 44
0.0
 45
0.0
 46
0.0
 47
0.0
 48
0.0
 49
0.0
140
0.0
141
0.0
142
1.0
143
1.0
 70
   688
 72
     1
 73
     0
 74
     5
  7

 75
    16
147
1.0
148
0.0
149
0.0
100
AcDbLayout
  1
Layout1
 70
     1
 71
     1
 10
0.0
 20
0.0
 11
420.0
 21
297.0
 12
0.0
 22
0.0
 32
0.0
 14
1.0000000000E+20
 24
1.0000000000E+20
 34
1.0000000000E+20
 15
-1.0000000000E+20
 25
-1.0000000000E+20
 35
-1.0000000000E+20
146
0.0
 13
0.0
 23
0.0
 33
0.0
 16
1.0
 26
0.0
 36
0.0
 17
0.0
 27
1.0
 37
0.0
 76
     0
330
1B
  0
LAYOUT
  5
26
102
{ACAD_REACTORS
330
1A
102
}
330
1A
100
AcDbPlotSettings
  1

  2
none_device
  4

  6

 40
0.0
 41
0.0
 42
0.0
 43
0.0
 44
0.0
 45
0.0
 46
0.0
 47
0.0
 48
0.0
 49
0.0
140
0.0
141
0.0
142
1.0
143
1.0
 70
   688
 72
     1
 73
     0
 74
     5
  7

 75
    16
147
1.0
148
0.0
149
0.0
100
AcDbLayout
  1
Layout2
 70
     1
 71
     2
 10
0.0
 20
0.0
 11
0.0
 21
0.0
 12
0.0
 22
0.0
 32
0.0
 14
0.0
 24
0.0
 34
0.0
 15
0.0
 25
0.0
 35
0.0
146
0.0
 13
0.0
 23
0.0
 33
0.0
 16
1.0
 26
0.0
 36
0.0
 17
0.0
 27
1.0
 37
0.0
 76
     0
330
23
  0
LAYOUT
  5
22
102
{ACAD_REACTORS
330
1A
102
}
330
1A
100
AcDbPlotSettings
  1

  2
none_device
  4
Letter_(8.50_x_11.00_Inches)
  6

 40
6.35
 41
6.35
 42
6.35000508
 43
6.35000508
 44
215.9
 45
279.4
 46
0.0
 47
0.0
 48
0.0
 49
0.0
140
0.0
141
0.0
142
1.0
143
1.0
 70
  1712
 72
     1
 73
     0
 74
     0
  7

 75
     0
147
1.0
148
0.0
149
0.0
100
AcDbLayout
  1
Model
 70
     1
 71
     0
 10
0.0
 20
0.0
 11
5000.0
 21
3500.0
 12
0.0
 22
0.0
 32
0.0
 14
0.0
 24
0.0
 34
0.0
 15
5000.0
 25
3500.0
 35
0.0
146
0.0
 13
0.0
 23
0.0
 33
0.0
 16
1.0
 26
0.0
 36
0.0
 17
0.0
 27
1.0
 37
0.0
 76
     0
330
1F
331
29
  0
MLINESTYLE
  5
18
102
{ACAD_REACTORS
330
17
102
}
330
17
100
AcDbMlineStyle
  2
Standard
 70
     0
  3

 62
   256
 51
90.0
 52
90.0
 71
     2
 49
0.5
 62
   256
  6
BYLAYER
 49
-0.5
 62
   256
  6
BYLAYER
  0
ACDBPLACEHOLDER
  5
F
102
{ACAD_REACTORS
330
E
102
}
330
E
  0
SCALE
  5
48
102
{ACAD_REACTORS
330
47
102
}
330
47
100
AcDbScale
 70
     0
300
1:1
140
1.0
141
1.0
290
     1
  0
SCALE
  5
49
102
{ACAD_REACTORS
330
47
102
}
330
47
100
AcDbScale
 70
     0
300
1:2
140
1.0
141
2.0
290
     0
  0
SCALE
  5
4A
102
{ACAD_REACTORS
330
47
102
}
330
47
100
AcDbScale
 70
     0
300
1:4
140
1.0
141
4.0
290
     0
  0
SCALE
  5
4B
102
{ACAD_REACTORS
330
47
102
}
330
47
100
AcDbScale
 70
     0
300
1:5
140
1.0
141
5.0
290
     0
  0
SCALE
  5
4C
102
{ACAD_REACTORS
330
47
102
}
330
47
100
AcDbScale
 70
     0
300
1:8
140
1.0
141
8.0
290
     0
  0
SCALE
  5
4D
102
{ACAD_REACTORS
330
47
102
}
330
47
100
AcDbScale
 70
     0
300
1:10
140
1.0
141
10.0
290
     0
  0
SCALE
  5
4E
102
{ACAD_REACTORS
330
47
102
}
330
47
100
AcDbScale
 70
     0
300
1:16
140
1.0
141
16.0
290
     0
  0
SCALE
  5
4F
102
{ACAD_REACTORS
330
47
102
}
330
47
100
AcDbScale
 70
     0
300
1:20
140
1.0
141
20.0
290
     0
  0
SCALE
  5
50
102
{ACAD_REACTORS
330
47
102
}
330
47
100
AcDbScale
 70
     0
300
1:30
140
1.0
141
30.0
290
     0
  0
SCALE
  5
51
102
{ACAD_REACTORS
330
47
102
}
330
47
100
AcDbScale
 70
     0
300
1:40
140
1.0
141
40.0
290
     0
  0
SCALE
  5
52
102
{ACAD_REACTORS
330
47
102
}
330
47
100
AcDbScale
 70
     0
300
1:50
140
1.0
141
50.0
290
     0
  0
SCALE
  5
53
102
{ACAD_REACTORS
330
47
102
}
330
47
100
AcDbScale
 70
     0
300
1:100
140
1.0
141
100.0
290
     0
  0
SCALE
  5
54
102
{ACAD_REACTORS
330
47
102
}
330
47
100
AcDbScale
 70
     0
300
2:1
140
2.0
141
1.0
290
     0
  0
SCALE
  5
55
102
{ACAD_REACTORS
330
47
102
}
330
47
100
AcDbScale
 70
     0
300
4:1
140
4.0
141
1.0
290
     0
  0
SCALE
  5
56
102
{ACAD_REACTORS
330
47
102
}
330
47
100
AcDbScale
 70
     0
300
8:1
140
8.0
141
1.0
290
     0
  0
SCALE
  5
57
102
{ACAD_REACTORS
330
47
102
}
330
47
100
AcDbScale
 70
     0
300
10:1
140
10.0
141
1.0
290
     0
  0
SCALE
  5
58
102
{ACAD_REACTORS
330
47
102
}
330
47
100
AcDbScale
 70
     0
300
100:1
140
100.0
141
1.0
290
     0
  0
ENDSEC
  0
EOF
