  0
SECTION
  2
HEADER
  9
$ACADVER
  1
AC1015
  9
$ACADMAINTVER
 70
     6
  9
$DWGCODEPAGE
  3
DOS932
  9
$INSBASE
 10
0.0
 20
0.0
 30
0.0
  9
$EXTMIN
 10
0.0
 20
0.0
 30
0.0
  9
$EXTMAX
 10
5000.0
 20
3500.0
 30
0.0
  9
$LIMMIN
 10
0.0
 20
0.0
  9
$LIMMAX
 10
5000.0
 20
3500.0
  9
$ORTHOMODE
 70
     0
  9
$REGENMODE
 70
     1
  9
$FILLMODE
 70
     1
  9
$QTEXTMODE
 70
     0
  9
$MIRRTEXT
 70
     1
  9
$LTSCALE
 40
1.0
  9
$ATTMODE
 70
     1
  9
$TEXTSIZE
 40
3.5
  9
$TRACEWID
 40
1.0
  9
$TEXTSTYLE
  7
Standard
  9
$CLAYER
  8
0
  9
$CELTYPE
  6
ByLayer
  9
$CECOLOR
 62
   256
  9
$CELTSCALE
 40
1.0
  9
$DISPSILH
 70
     0
  9
$DIMSCALE
 40
1.0
  9
$DIMASZ
 40
3.302
  9
$DIMEXO
 40
1.0
  9
$DIMDLI
 40
3.75
  9
$DIMRND
 40
0.0
  9
$DIMDLE
 40
0.0
  9
$DIMEXE
 40
1.0
  9
$DIMTP
 40
0.0
  9
$DIMTM
 40
0.0
  9
$DIMTXT
 40
3.5
  9
$DIMCEN
 40
2.5
  9
$DIMTSZ
 40
0.0
  9
$DIMTOL
 70
     0
  9
$DIMLIM
 70
     0
  9
$DIMTIH
 70
     1
  9
$DIMTOH
 70
     1
  9
$DIMSE1
 70
     0
  9
$DIMSE2
 70
     0
  9
$DIMTAD
 70
     1
  9
$DIMZIN
 70
     0
  9
$DIMBLK
  1

  9
$DIMASO
 70
     1
  9
$DIMSHO
 70
     1
  9
$DIMPOST
  1

  9
$DIMAPOST
  1

  9
$DIMALT
 70
     0
  9
$DIMALTD
 70
     3
  9
$DIMALTF
 40
0.0393700787
  9
$DIMLFAC
 40
1.0
  9
$DIMTOFL
 70
     1
  9
$DIMTVP
 40
0.0
  9
$DIMTIX
 70
     0
  9
$DIMSOXD
 70
     0
  9
$DIMSAH
 70
     0
  9
$DIMBLK1
  1

  9
$DIMBLK2
  1

  9
$DIMSTYLE
  2
ISO-25
  9
$DIMCLRD
 70
     0
  9
$DIMCLRE
 70
     0
  9
$DIMCLRT
 70
     0
  9
$DIMTFAC
 40
1.0
  9
$DIMGAP
 40
1.524
  9
$DIMJUST
 70
     0
  9
$DIMSD1
 70
     0
  9
$DIMSD2
 70
     0
  9
$DIMTOLJ
 70
     0
  9
$DIMTZIN
 70
     0
  9
$DIMALTZ
 70
     0
  9
$DIMALTTZ
 70
     0
  9
$DIMUPT
 70
     0
  9
$DIMDEC
 70
     2
  9
$DIMTDEC
 70
     2
  9
$DIMALTU
 70
     2
  9
$DIMALTTD
 70
     3
  9
$DIMTXSTY
  7
Standard
  9
$DIMAUNIT
 70
     0
  9
$DIMADEC
 70
     2
  9
$DIMALTRND
 40
0.0
  9
$DIMAZIN
 70
     0
  9
$DIMDSEP
 70
    44
  9
$DIMATFIT
 70
     3
  9
$DIMFRAC
 70
     0
  9
$DIMLDRBLK
  1

  9
$DIMLUNIT
 70
     2
  9
$DIMLWD
 70
    -2
  9
$DIMLWE
 70
    -2
  9
$DIMTMOVE
 70
     0
  9
$LUNITS
 70
     2
  9
$LUPREC
 70
     3
  9
$SKETCHINC
 40
1.0
  9
$FILLETRAD
 40
0.0
  9
$AUNITS
 70
     0
  9
$AUPREC
 70
     2
  9
$MENU
  1
.
  9
$ELEVATION
 40
0.0
  9
$PELEVATION
 40
0.0
  9
$THICKNESS
 40
0.0
  9
$LIMCHECK
 70
     0
  9
$CHAMFERA
 40
0.0
  9
$CHAMFERB
 40
0.0
  9
$CHAMFERC
 40
0.0
  9
$CHAMFERD
 40
0.0
  9
$SKPOLY
 70
     0
  9
$TDCREATE
 40
2460384.633709017
  9
$TDUCREATE
 40
2460384.258709017
  9
$TDUPDATE
 40
2460384.633709283
  9
$TDUUPDATE
 40
2460384.258709283
  9
$TDINDWG
 40
0.0000000116
  9
$TDUSRTIMER
 40
0.0000000116
  9
$USRTIMER
 70
     1
  9
$ANGBASE
 50
0.0
  9
$ANGDIR
 70
     0
  9
$PDMODE
 70
     0
  9
$PDSIZE
 40
-1.0
  9
$PLINEWID
 40
0.0
  9
$SPLFRAME
 70
     0
  9
$SPLINETYPE
 70
     6
  9
$SPLINESEGS
 70
     8
  9
$HANDSEED
  5
262
  9
$SURFTAB1
 70
     6
  9
$SURFTAB2
 70
     6
  9
$SURFTYPE
 70
     6
  9
$SURFU
 70
     6
  9
$SURFV
 70
     6
  9
$UCSBASE
  2

  9
$UCSNAME
  2

  9
$UCSORG
 10
0.0
 20
0.0
 30
0.0
  9
$UCSXDIR
 10
1.0
 20
0.0
 30
0.0
  9
$UCSYDIR
 10
0.0
 20
1.0
 30
0.0
  9
$UCSORTHOREF
  2

  9
$UCSORTHOVIEW
 70
     0
  9
$UCSORGTOP
 10
0.0
 20
0.0
 30
0.0
  9
$UCSORGBOTTOM
 10
0.0
 20
0.0
 30
0.0
  9
$UCSORGLEFT
 10
0.0
 20
0.0
 30
0.0
  9
$UCSORGRIGHT
 10
0.0
 20
0.0
 30
0.0
  9
$UCSORGFRONT
 10
0.0
 20
0.0
 30
0.0
  9
$UCSORGBACK
 10
0.0
 20
0.0
 30
0.0
  9
$PUCSBASE
  2

  9
$PUCSNAME
  2

  9
$PUCSORG
 10
0.0
 20
0.0
 30
0.0
  9
$PUCSXDIR
 10
1.0
 20
0.0
 30
0.0
  9
$PUCSYDIR
 10
0.0
 20
1.0
 30
0.0
  9
$PUCSORTHOREF
  2

  9
$PUCSORTHOVIEW
 70
     0
  9
$PUCSORGTOP
 10
0.0
 20
0.0
 30
0.0
  9
$PUCSORGBOTTOM
 10
0.0
 20
0.0
 30
0.0
  9
$PUCSORGLEFT
 10
0.0
 20
0.0
 30
0.0
  9
$PUCSORGRIGHT
 10
0.0
 20
0.0
 30
0.0
  9
$PUCSORGFRONT
 10
0.0
 20
0.0
 30
0.0
  9
$PUCSORGBACK
 10
0.0
 20
0.0
 30
0.0
  9
$USERI1
 70
     0
  9
$USERI2
 70
     0
  9
$USERI3
 70
     0
  9
$USERI4
 70
     0
  9
$USERI5
 70
     0
  9
$USERR1
 40
0.0
  9
$USERR2
 40
0.0
  9
$USERR3
 40
0.0
  9
$USERR4
 40
0.0
  9
$USERR5
 40
0.0
  9
$WORLDVIEW
 70
     1
  9
$SHADEDGE
 70
     3
  9
$SHADEDIF
 70
    70
  9
$TILEMODE
 70
     1
  9
$MAXACTVP
 70
    64
  9
$PINSBASE
 10
0.0
 20
0.0
 30
0.0
  9
$PLIMCHECK
 70
     0
  9
$PEXTMIN
 10
1.0000000000E+20
 20
1.0000000000E+20
 30
1.0000000000E+20
  9
$PEXTMAX
 10
-1.0000000000E+20
 20
-1.0000000000E+20
 30
-1.0000000000E+20
  9
$PLIMMIN
 10
0.0
 20
0.0
  9
$PLIMMAX
 10
420.0
 20
297.0
  9
$UNITMODE
 70
     0
  9
$VISRETAIN
 70
     1
  9
$PLINEGEN
 70
     0
  9
$PSLTSCALE
 70
     1
  9
$TREEDEPTH
 70
  3020
  9
$CMLSTYLE
  2
Standard
  9
$CMLJUST
 70
     0
  9
$CMLSCALE
 40
20.0
  9
$PROXYGRAPHICS
 70
     1
  9
$MEASUREMENT
 70
     1
  9
$CELWEIGHT
370
    -1
  9
$ENDCAPS
280
     0
  9
$JOINSTYLE
280
     0
  9
$LWDISPLAY
290
     1
  9
$INSUNITS
 70
     4
  9
$HYPERLINKBASE
  1

  9
$STYLESHEET
  1

  9
$XEDIT
290
     1
  9
$CEPSNTYPE
380
     0
  9
$PSTYLEMODE
290
     1
  9
$FINGERPRINTGUID
  2
{5d482996-a4e7-4ba3-903a-769145e35796}
  9
$VERSIONGUID
  2
{FAEB1C32-E019-11D5-929B-00C0DF256EC4}
  9
$EXTNAMES
290
     1
  9
$PSVPSCALE
 40
0.0
  9
$OLESTARTUP
290
     0
  0
ENDSEC
  0
SECTION
  2
CLASSES
  0
CLASS
  1
ACDBDICTIONARYWDFLT
  2
AcDbDictionaryWithDefault
  3
ObjectDBX Classes
 90
        0
280
     0
281
     0
  0
CLASS
  1
VISUALSTYLE
  2
AcDbVisualStyle
  3
ObjectDBX Classes
 90
     4095
280
     0
281
     0
  0
CLASS
  1
MATERIAL
  2
AcDbMaterial
  3
ObjectDBX Classes
 90
     1153
280
     0
281
     0
  0
CLASS
  1
SCALE
  2
AcDbScale
  3
ObjectDBX Classes
 90
     1153
280
     0
281
     0
  0
CLASS
  1
TABLESTYLE
  2
AcDbTableStyle
  3
ObjectDBX Classes
 90
     4095
280
     0
281
     0
  0
CLASS
  1
MLEADERSTYLE
  2
AcDbMLeaderStyle
  3
ACDB_MLEADERSTYLE_CLASS
 90
     4095
280
     0
281
     0
  0
CLASS
  1
SUN
  2
AcDbSun
  3
SCENEOE
 90
     1153
280
     0
281
     0
  0
CLASS
  1
ACDBPLACEHOLDER
  2
AcDbPlaceHolder
  3
ObjectDBX Classes
 90
        0
280
     0
281
     0
  0
CLASS
  1
LAYOUT
  2
AcDbLayout
  3
ObjectDBX Classes
 90
        0
280
     0
281
     0
  0
ENDSEC
  0
SECTION
  2
TABLES
  0
TABLE
  2
VPORT
  5
8
330
0
100
AcDbSymbolTable
 70
     1
  0
VPORT
  5
29
330
8
100
AcDbSymbolTableRecord
100
AcDbViewportTableRecord
  2
*Active
 70
     0
 10
0.0
 20
0.0
 11
1.0
 21
1.0
 12
2500.0
 22
1750.0
 13
0.0
 23
0.0
 14
10.0
 24
10.0
 15
10.0
 25
10.0
 16
0.0
 26
0.0
 36
1.0
 17
0.0
 27
0.0
 37
0.0
 40
3500.0
 41
1.4285714286
 42
50.0
 43
0.0
 44
0.0
 50
0.0
 51
0.0
 71
     0
 72
  2000
 73
     1
 74
     3
 75
     0
 76
     0
 77
     0
 78
     0
281
     0
 65
     1
110
0.0
120
0.0
130
0.0
111
1.0
121
0.0
131
0.0
112
0.0
122
1.0
132
0.0
 79
     0
146
0.0
  0
ENDTAB
  0
TABLE
  2
LTYPE
  5
5
330
0
100
AcDbSymbolTable
 70
     6
  0
LTYPE
  5
14
330
5
100
AcDbSymbolTableRecord
100
AcDbLinetypeTableRecord
  2
ByBlock
 70
     0
  3

 72
    65
 73
     0
 40
0.0
  0
LTYPE
  5
15
330
5
100
AcDbSymbolTableRecord
100
AcDbLinetypeTableRecord
  2
ByLayer
 70
     0
  3

 72
    65
 73
     0
 40
0.0
  0
LTYPE
  5
16
330
5
100
AcDbSymbolTableRecord
100
AcDbLinetypeTableRecord
  2
Continuous
 70
     0
  3
Solid line
 72
    65
 73
     0
 40
0.0
  0
LTYPE
  5
5E
330
5
100
AcDbSymbolTableRecord
100
AcDbLinetypeTableRecord
  2
HIDDEN
 70
     0
  3
Hidden __ __ __ __ __ __ __ __ __ __ __ __ __ __
 72
    65
 73
     2
 40
1.905
 49
1.27
 74
     0
 49
-0.635
 74
     0
  0
LTYPE
  5
5F
330
5
100
AcDbSymbolTableRecord
100
AcDbLinetypeTableRecord
  2
PHANTOM
 70
     0
  3
Phantom ______  __  __  ______  __  __  ______
 72
    65
 73
     6
 40
12.7
 49
6.35
 74
     0
 49
-1.27
 74
     0
 49
1.27
 74
     0
 49
-1.27
 74
     0
 49
1.27
 74
     0
 49
-1.27
 74
     0
  0
LTYPE
  5
60
330
5
100
AcDbSymbolTableRecord
100
AcDbLinetypeTableRecord
  2
CENTER
 70
     0
  3
Center ____ _ ____ _ ____ _ ____ _ ____ _ ____
 72
    65
 73
     4
 40
10.16
 49
6.35
 74
     0
 49
-1.27
 74
     0
 49
1.27
 74
     0
 49
-1.27
 74
     0
  0
LTYPE
  5
61
330
5
100
AcDbSymbolTableRecord
100
AcDbLinetypeTableRecord
  2
CENTERX2
 70
     0
  3
Center (2x) ________  __  ________  __  _____
 72
    65
 73
     4
 40
20.32
 49
12.7
 74
     0
 49
-2.54
 74
     0
 49
2.54
 74
     0
 49
-2.54
 74
     0
  0
LTYPE
  5
62
330
5
100
AcDbSymbolTableRecord
100
AcDbLinetypeTableRecord
  2
DOT2
 70
     0
  3
Dot (.5x) ........................................
 72
    65
 73
     2
 40
0.635
 49
0.0
 74
     0
 49
-0.635
 74
     0
  0
ENDTAB
  0
TABLE
  2
LAYER
  5
2
330
0
100
AcDbSymbolTable
 70
     3
  0
LAYER
  5
10
330
2
100
AcDbSymbolTableRecord
100
AcDbLayerTableRecord
  2
0
 70
     0
 62
     7
  6
Continuous
370
    -3
390
F
  0
LAYER
  5
63
330
2
100
AcDbSymbolTableRecord
100
AcDbLayerTableRecord
  2
SLD-0
 70
     0
 62
   179
  6
Continuous
370
    -3
390
F
  0
LAYER
  5
64
330
2
100
AcDbSymbolTableRecord
100
AcDbLayerTableRecord
  2
寸法
 70
     0
 62
   179
  6
Continuous
370
    -3
390
F
  0
ENDTAB
  0
TABLE
  2
STYLE
  5
3
330
0
100
AcDbSymbolTable
 70
     2
  0
STYLE
  5
11
330
3
100
AcDbSymbolTableRecord
100
AcDbTextStyleTableRecord
  2
Standard
 70
     0
 40
0.0
 41
1.0
 50
0.0
 71
     0
 42
3.5
  3
txt
  4
bigfont
  0
STYLE
  5
66
330
3
100
AcDbSymbolTableRecord
100
AcDbTextStyleTableRecord
  2
SLDTEXTSTYLE0
 70
     0
 40
0.0
 41
0.75
 50
0.0
 71
     0
 42
3.5
  3
TXT
  4
bigfont
  0
ENDTAB
  0
TABLE
  2
VIEW
  5
6
330
0
100
AcDbSymbolTable
 70
     0
  0
ENDTAB
  0
TABLE
  2
UCS
  5
7
330
0
100
AcDbSymbolTable
 70
     0
  0
ENDTAB
  0
TABLE
  2
APPID
  5
9
330
0
100
AcDbSymbolTable
 70
     1
  0
APPID
  5
12
330
9
100
AcDbSymbolTableRecord
100
AcDbRegAppTableRecord
  2
ACAD
 70
     0
  0
ENDTAB
  0
TABLE
  2
DIMSTYLE
  5
A
330
0
100
AcDbSymbolTable
 70
     1
100
AcDbDimStyleTable
  0
DIMSTYLE
105
27
330
A
100
AcDbSymbolTableRecord
100
AcDbDimStyleTableRecord
  2
ISO-25
 70
     0
 41
2.5
 42
0.625
 43
3.75
 44
1.25
 73
     0
 74
     0
 77
     1
 78
     8
140
2.5
141
2.5
143
0.0393700787
147
0.625
171
     3
172
     1
178
     0
271
     2
272
     2
274
     3
278
    44
283
     0
284
     8
340
11
  0
ENDTAB
  0
TABLE
  2
BLOCK_RECORD
  5
1
330
0
100
AcDbSymbolTable
 70
     1
  0
BLOCK_RECORD
  5
1F
330
1
100
AcDbSymbolTableRecord
100
AcDbBlockTableRecord
  2
*Model_Space
340
22
  0
BLOCK_RECORD
  5
1B
330
1
100
AcDbSymbolTableRecord
100
AcDbBlockTableRecord
  2
*Paper_Space
340
1E
  0
BLOCK_RECORD
  5
23
330
1
100
AcDbSymbolTableRecord
100
AcDbBlockTableRecord
  2
*Paper_Space0
340
26
  0
ENDTAB
  0
ENDSEC
  0
SECTION
  2
BLOCKS
  0
BLOCK
  5
20
330
1F
100
AcDbEntity
  8
0
100
AcDbBlockBegin
  2
*Model_Space
 70
     0
 10
0.0
 20
0.0
 30
0.0
  3
*Model_Space
  1

  0
ENDBLK
  5
21
330
1F
100
AcDbEntity
  8
0
100
AcDbBlockEnd
  0
BLOCK
  5
1C
330
1B
100
AcDbEntity
 67
     1
  8
0
100
AcDbBlockBegin
  2
*Paper_Space
 70
     0
 10
0.0
 20
0.0
 30
0.0
  3
*Paper_Space
  1

  0
ENDBLK
  5
1D
330
1B
100
AcDbEntity
 67
     1
  8
0
100
AcDbBlockEnd
  0
BLOCK
  5
24
330
23
100
AcDbEntity
  8
0
100
AcDbBlockBegin
  2
*Paper_Space0
 70
     0
 10
0.0
 20
0.0
 30
0.0
  3
*Paper_Space0
  1

  0
ENDBLK
  5
25
330
23
100
AcDbEntity
  8
0
100
AcDbBlockEnd
  0
ENDSEC
  0
SECTION
  2
ENTITIES
  0
LINE
  5
65
330
1F
100
AcDbEntity
  8
0
  6
Continuous
 62
     7
370
    18
100
AcDbLine
 10
4801.663086451
 20
279.1403827252
 30
0.0
 11
3345.9062220501
 21
279.1403827252
 31
0.0
  0
MTEXT
  5
67
330
1F
100
AcDbEntity
  8
0
  6
Continuous
 62
     7
370
     0
100
AcDbMText
 10
1882.8324799637
 20
1989.2846179971
 30
0.0
 40
52.9166666667
 41
0.0
 71
     1
 72
     1
  1
＜正面＞
  7
SLDTEXTSTYLE0
 73
     1
 44
1.0
  0
MTEXT
  5
68
330
1F
100
AcDbEntity
  8
0
  6
Continuous
 62
     7
370
     0
100
AcDbMText
 10
3377.8142431891
 20
379.4057208634
 30
0.0
 40
52.9166666667
 41
0.0
 71
     1
 72
     1
  1
品名：
  7
SLDTEXTSTYLE0
 73
     1
 44
1.0
  0
MTEXT
  5
69
330
1F
100
AcDbEntity
  8
0
  6
Continuous
 62
     7
370
     0
100
AcDbMText
 10
4446.6634374817
 20
385.2343854145
 30
0.0
 40
52.9166666667
 41
0.0
 71
     1
 72
     1
  1
Pamouna
  7
SLDTEXTSTYLE0
 73
     1
 44
1.0
  0
MTEXT
  5
6A
330
1F
100
AcDbEntity
  8
寸法
 62
     7
100
AcDbMText
 10
4688.0073048854
 20
218.6255182943
 30
0.0
 40
52.9166666667
 41
0.0
 71
     1
 72
     1
  1
1/1
  7
SLDTEXTSTYLE0
 73
     1
 44
1.0
  0
MTEXT
  5
6B
330
1F
100
AcDbEntity
  8
寸法
 62
     7
100
AcDbMText
 10
3611.2831293492
 20
398.3924235142
 30
0.0
 40
66.1458333333
 41
0.0
 71
     1
 72
     1
  1
MAGS42UL
  7
SLDTEXTSTYLE0
 73
     1
 44
1.0
  0
MTEXT
  5
6C
330
1F
100
AcDbEntity
  8
寸法
 62
     7
100
AcDbMText
 10
4198.7969392118
 20
218.6255210883
 30
0.0
 40
52.9166666667
 41
0.0
 71
     1
 72
     1
  1
2024/03/14
  7
SLDTEXTSTYLE0
 73
     1
 44
1.0
  0
MTEXT
  5
6D
330
1F
100
AcDbEntity
  8
寸法
 62
     7
100
AcDbMText
 10
3662.4665930518
 20
2002.9002064516
 30
0.0
 40
52.9166666667
 41
0.0
 71
     1
 72
     1
  1
＜右側面＞
  7
SLDTEXTSTYLE0
 73
     1
 44
1.0
  0
MTEXT
  5
6E
330
1F
100
AcDbEntity
  8
0
  6
Continuous
 62
     7
370
     0
100
AcDbMText
 10
1921.8777540945
 20
2965.5678091759
 30
0.0
 40
52.9166666667
 41
0.0
 71
     1
 72
     1
  1
＜上面＞
  7
SLDTEXTSTYLE0
 73
     1
 44
1.0
  0
MTEXT
  5
6F
330
1F
100
AcDbEntity
  8
0
  6
Continuous
 62
     7
370
     0
100
AcDbMText
 10
599.5723251208
 20
1997.9509737295
 30
0.0
 40
52.9166666667
 41
0.0
 71
     1
 72
     1
  1
＜左側面＞
  7
SLDTEXTSTYLE0
 73
     1
 44
1.0
  0
LINE
  5
70
330
1F
100
AcDbEntity
  8
0
  6
Continuous
 62
     7
370
    25
100
AcDbLine
 10
2254.6454585654
 20
986.2543978663
 30
0.0
 11
2256.4454585654
 21
986.2543978663
 31
0.0
  0
ARC
  5
71
330
1F
100
AcDbEntity
  8
0
  6
Continuous
 62
     7
370
    25
100
AcDbCircle
 10
2254.6454585654
 20
986.4543978663
 30
0.0
 40
0.1999999999999318
100
AcDbArc
 50
180.0
 51
270.0
  0
LINE
  5
72
330
1F
100
AcDbEntity
  8
0
  6
Continuous
 62
     7
370
    25
100
AcDbLine
 10
2256.4454585654
 20
986.2543978663
 30
0.0
 11
2648.4454585654
 21
986.2543978663
 31
0.0
  0
LINE
  5
73
330
1F
100
AcDbEntity
  8
0
  6
Continuous
 62
     7
370
    25
100
AcDbLine
 10
2648.4454585654
 20
986.2543978663
 30
0.0
 11
2650.2454585654
 21
986.2543978663
 31
0.0
  0
ARC
  5
74
330
1F
100
AcDbEntity
  8
0
  6
Continuous
 62
     7
370
    25
100
AcDbCircle
 10
2650.2454585654
 20
986.4543978663
 30
0.0
 40
0.2000000000000455
100
AcDbArc
 50
270.0
 51
0.0
  0
LINE
  5
75
330
1F
100
AcDbEntity
  8
0
  6
Continuous
 62
     7
370
    25
100
AcDbLine
 10
2253.4454585654
 20
977.2543978663
 30
0.0
 11
2365.4454585654
 21
977.2543978663
 31
0.0
  0
LINE
  5
76
330
1F
100
AcDbEntity
  8
0
  6
Continuous
 62
     7
370
    25
100
AcDbLine
 10
2253.4454585654
 20
1498.2543978663
 30
0.0
 11
2253.4454585654
 21
977.2543978663
 31
0.0
  0
LINE
  5
77
330
1F
100
AcDbEntity
  8
0
  6
Continuous
 62
     7
370
    25
100
AcDbLine
 10
2651.9454585654
 20
976.7543978663
 30
0.0
 11
2651.9454585654
 21
1498.2543978663
 31
0.0
  0
LINE
  5
78
330
1F
100
AcDbEntity
  8
0
  6
Continuous
 62
     7
370
    25
100
AcDbLine
 10
2634.4454585654
 20
976.7543978663
 30
0.0
 11
2651.9454585654
 21
976.7543978663
 31
0.0
  0
LINE
  5
79
330
1F
100
AcDbEntity
  8
0
  6
Continuous
 62
     7
370
    25
100
AcDbLine
 10
2634.4454585654
 20
986.2543978663
 30
0.0
 11
2634.4454585654
 21
976.7543978663
 31
0.0
  0
LINE
  5
7A
330
1F
100
AcDbEntity
  8
0
  6
Continuous
 62
     7
370
    25
100
AcDbLine
 10
2634.4454585654
 20
977.7543978663
 30
0.0
 11
2382.9454585654
 21
977.7543978663
 31
0.0
  0
LINE
  5
7B
330
1F
100
AcDbEntity
  8
0
  6
Continuous
 62
     7
370
    25
100
AcDbLine
 10
2382.9454585654
 20
976.7543978663
 30
0.0
 11
2382.9454585654
 21
986.2543978663
 31
0.0
  0
LINE
  5
7C
330
1F
100
AcDbEntity
  8
0
  6
Continuous
 62
     7
370
    25
100
AcDbLine
 10
2365.4454585654
 20
986.2543978663
 30
0.0
 11
2365.4454585654
 21
976.7543978663
 31
0.0
  0
LINE
  5
7D
330
1F
100
AcDbEntity
  8
0
  6
Continuous
 62
     7
370
    25
100
AcDbLine
 10
2365.4454585654
 20
976.7543978663
 30
0.0
 11
2382.9454585654
 21
976.7543978663
 31
0.0
  0
LINE
  5
7E
330
1F
100
AcDbEntity
  8
0
  6
Continuous
 62
     7
370
    25
100
AcDbLine
 10
2650.4454585654
 20
1516.7543978663
 30
0.0
 11
2254.4454585654
 21
1516.7543978663
 31
0.0
  0
LINE
  5
7F
330
1F
100
AcDbEntity
  8
0
  6
Continuous
 62
     7
370
    25
100
AcDbLine
 10
2650.4454585654
 20
986.7543978663
 30
0.0
 11
2650.4454585654
 21
1516.7543978663
 31
0.0
  0
LINE
  5
80
330
1F
100
AcDbEntity
  8
0
  6
Continuous
 62
     7
370
    25
100
AcDbLine
 10
2254.4454585654
 20
986.7543978663
 30
0.0
 11
2650.4454585654
 21
986.7543978663
 31
0.0
  0
LINE
  5
81
330
1F
100
AcDbEntity
  8
0
  6
Continuous
 62
     7
370
    25
100
AcDbLine
 10
2254.4454585654
 20
1516.7543978663
 30
0.0
 11
2254.4454585654
 21
986.7543978663
 31
0.0
  0
LINE
  5
82
330
1F
100
AcDbEntity
  8
0
  6
Continuous
 62
     7
370
    25
100
AcDbLine
 10
2252.4454585654
 20
1526.7543978663
 30
0.0
 11
2252.4454585654
 21
1498.2543978663
 31
0.0
  0
LINE
  5
83
330
1F
100
AcDbEntity
  8
0
  6
Continuous
 62
     7
370
    25
100
AcDbLine
 10
2652.9454585654
 20
1498.2543978663
 30
0.0
 11
2650.4454585654
 21
1498.2543978663
 31
0.0
  0
LINE
  5
84
330
1F
100
AcDbEntity
  8
0
  6
Continuous
 62
     7
370
    25
100
AcDbLine
 10
2254.4454585654
 20
1498.2543978663
 30
0.0
 11
2252.4454585654
 21
1498.2543978663
 31
0.0
  0
LINE
  5
85
330
1F
100
AcDbEntity
  8
0
  6
Continuous
 62
     7
370
    25
100
AcDbLine
 10
2652.9454585654
 20
1526.7543978663
 30
0.0
 11
2652.9454585654
 21
1498.2543978663
 31
0.0
  0
LINE
  5
86
330
1F
100
AcDbEntity
  8
0
  6
Continuous
 62
     7
370
    25
100
AcDbLine
 10
2652.9454585654
 20
1526.7543978663
 30
0.0
 11
2252.4454585654
 21
1526.7543978663
 31
0.0
  0
LINE
  5
87
330
1F
100
AcDbEntity
  8
0
  6
Continuous
 62
     7
370
    25
100
AcDbLine
 10
2254.4454585654
 20
986.4655465881
 30
0.0
 11
2254.4454585654
 21
986.5543978663
 31
0.0
  0
LINE
  5
88
330
1F
100
AcDbEntity
  8
0
  6
Continuous
 62
     7
370
    25
100
AcDbLine
 10
2254.6454585654
 20
986.7543978663
 30
0.0
 11
2254.6454585654
 21
986.2683337685
 31
0.0
  0
ARC
  5
89
330
1F
100
AcDbEntity
  8
0
  6
Continuous
 62
     7
370
    25
100
AcDbCircle
 10
2254.6440746856
 20
986.466950026
 30
0.0
 40
0.1986210785921764
100
AcDbArc
 50
180.4048499762
 51
270.3992079347
  0
SPLINE
  5
8A
330
1F
100
AcDbEntity
  8
0
  6
Continuous
 62
     7
370
    25
100
AcDbSpline
210
0.0
220
0.0
230
1.0
 70
     8
 71
     3
 72
    13
 73
     9
 74
     0
 42
0.00000001
 43
0.00000001
 40
0.0
 40
0.0
 40
0.0
 40
0.0
 40
0.007502997411327
 40
0.3818974549663107
 40
0.6070018873272067
 40
0.7653769096344393
 40
0.8824605049809991
 40
1.0
 40
1.0
 40
1.0
 40
1.0
 10
2254.445458565354
 20
986.5543978663154
 30
0.0
 10
2254.445459520958
 20
986.5548358642106
 30
0.0
 10
2254.445508160574
 20
986.5771296585799
 30
0.0
 10
2254.451630265312
 20
986.6240140467954
 30
0.0
 10
2254.493646370786
 20
986.690298483832
 30
0.0
 10
2254.542457172752
 20
986.7285600430044
 30
0.0
 10
2254.593187820067
 20
986.7503158187396
 30
0.0
 10
2254.628012427518
 20
986.7530354222893
 30
0.0
 10
2254.645458565353
 20
986.7543978663153
 30
0.0
  0
LINE
  5
8B
330
1F
100
AcDbEntity
  8
0
  6
Continuous
 62
     7
370
    25
100
AcDbLine
 10
2256.4454585654
 20
986.2683337685
 30
0.0
 11
2256.4454585654
 21
986.7543978663
 31
0.0
  0
LINE
  5
8C
330
1F
100
AcDbEntity
  8
0
  6
Continuous
 62
     7
370
    25
100
AcDbLine
 10
2254.6454585654
 20
986.2683337685
 30
0.0
 11
2256.4454585654
 21
986.2683337685
 31
0.0
  0
LINE
  5
8D
330
1F
100
AcDbEntity
  8
0
  6
Continuous
 62
     7
370
    25
100
AcDbLine
 10
2256.4454585654
 20
986.2543978663
 30
0.0
 11
2256.4454585654
 21
986.2683337685
 31
0.0
  0
LINE
  5
8E
330
1F
100
AcDbEntity
  8
0
  6
Continuous
 62
     7
370
    25
100
AcDbLine
 10
2254.4454585654
 20
986.4543978663
 30
0.0
 11
2254.4454585654
 21
986.4655465881
 31
0.0
  0
LINE
  5
8F
330
1F
100
AcDbEntity
  8
0
  6
Continuous
 62
     7
370
    25
100
AcDbLine
 10
2254.4454585654
 20
986.5543978663
 30
0.0
 11
2254.4454585654
 21
986.7543978663
 31
0.0
  0
LINE
  5
90
330
1F
100
AcDbEntity
  8
0
  6
Continuous
 62
     7
370
    25
100
AcDbLine
 10
2256.4454585654
 20
986.2683337685
 30
0.0
 11
2648.4454585654
 21
986.2683337685
 31
0.0
  0
LINE
  5
91
330
1F
100
AcDbEntity
  8
0
  6
Continuous
 62
     7
370
    25
100
AcDbLine
 10
2648.4454585654
 20
986.7543978663
 30
0.0
 11
2648.4454585654
 21
986.2683337685
 31
0.0
  0
LINE
  5
92
330
1F
100
AcDbEntity
  8
0
  6
Continuous
 62
     7
370
    25
100
AcDbLine
 10
2648.4454585654
 20
986.2683337685
 30
0.0
 11
2648.4454585654
 21
986.2543978663
 31
0.0
  0
LINE
  5
93
330
1F
100
AcDbEntity
  8
0
  6
Continuous
 62
     7
370
    25
100
AcDbLine
 10
2650.4454585654
 20
986.5543978663
 30
0.0
 11
2650.4454585654
 21
986.4655465881
 31
0.0
  0
ARC
  5
94
330
1F
100
AcDbEntity
  8
0
  6
Continuous
 62
     7
370
    25
100
AcDbCircle
 10
2650.2468424451
 20
986.466950026
 30
0.0
 40
0.1986210785926328
100
AcDbArc
 50
269.6007920655
 51
359.5951500237
  0
LINE
  5
95
330
1F
100
AcDbEntity
  8
0
  6
Continuous
 62
     7
370
    25
100
AcDbLine
 10
2650.2454585654
 20
986.2683337685
 30
0.0
 11
2650.2454585654
 21
986.7543978663
 31
0.0
  0
SPLINE
  5
96
330
1F
100
AcDbEntity
  8
0
  6
Continuous
 62
     7
370
    25
100
AcDbSpline
210
0.0
220
0.0
230
1.0
 70
     8
 71
     3
 72
    13
 73
     9
 74
     0
 42
0.00000001
 43
0.00000001
 40
0.0
 40
0.0
 40
0.0
 40
0.0
 40
0.0075029974113257
 40
0.3818974549657835
 40
0.6070018873269287
 40
0.7653769096342831
 40
0.8824605049807405
 40
1.0
 40
1.0
 40
1.0
 40
1.0
 10
2650.445458565361
 20
986.5543978663125
 30
0.0
 10
2650.445457609757
 20
986.5548358642076
 30
0.0
 10
2650.445408970143
 20
986.5771296585768
 30
0.0
 10
2650.439286865403
 20
986.6240140467926
 30
0.0
 10
2650.397270759928
 20
986.6902984838289
 30
0.0
 10
2650.348459957963
 20
986.7285600430016
 30
0.0
 10
2650.297729310647
 20
986.7503158187366
 30
0.0
 10
2650.262904703197
 20
986.7530354222862
 30
0.0
 10
2650.245458565362
 20
986.7543978663125
 30
0.0
  0
LINE
  5
97
330
1F
100
AcDbEntity
  8
0
  6
Continuous
 62
     7
370
    25
100
AcDbLine
 10
2648.4454585654
 20
986.2683337685
 30
0.0
 11
2650.2454585654
 21
986.2683337685
 31
0.0
  0
LINE
  5
98
330
1F
100
AcDbEntity
  8
0
  6
Continuous
 62
     7
370
    25
100
AcDbLine
 10
2650.4454585654
 20
986.4655465881
 30
0.0
 11
2650.4454585654
 21
986.4543978663
 31
0.0
  0
LINE
  5
99
330
1F
100
AcDbEntity
  8
0
  6
Continuous
 62
     7
370
    25
100
AcDbLine
 10
2650.4454585654
 20
986.7543978663
 30
0.0
 11
2650.4454585654
 21
986.5543978663
 31
0.0
  0
LINE
  5
9A
330
1F
100
AcDbEntity
  8
0
  6
Continuous
 62
     7
370
    25
100
AcDbLine
 10
2254.6454585654
 20
986.2683337685
 30
0.0
 11
2254.6454585654
 21
986.2543978663
 31
0.0
  0
LINE
  5
9B
330
1F
100
AcDbEntity
  8
0
  6
Continuous
 62
     7
370
    25
100
AcDbLine
 10
2650.2454585654
 20
986.2543978663
 30
0.0
 11
2650.2454585654
 21
986.2683337685
 31
0.0
  0
LINE
  5
9C
330
1F
100
AcDbEntity
  8
0
  6
Continuous
 62
     7
370
    25
100
AcDbLine
 10
755.7831445376
 20
1429.5267567878
 30
0.0
 11
757.7608646997
 21
1429.4749683628
 31
0.0
  0
LINE
  5
9D
330
1F
100
AcDbEntity
  8
0
  6
Continuous
 62
     7
370
    25
100
AcDbLine
 10
757.7608646997
 20
1434.9768537215
 30
0.0
 11
755.9271177533
 21
1435.0248720752
 31
0.0
  0
ARC
  5
9E
330
1F
100
AcDbEntity
  8
0
  6
Continuous
 62
     7
370
    25
100
AcDbCircle
 10
755.7909976221
 20
1429.8266539853
 30
0.0
 40
0.3000000000001063
100
AcDbArc
 50
178.5
 51
268.5000000001
  0
ARC
  5
9F
330
1F
100
AcDbEntity
  8
0
  6
Continuous
 62
     7
370
    25
100
AcDbCircle
 10
755.9192646688
 20
1434.7249748777
 30
0.0
 40
0.2999999999999956
100
AcDbArc
 50
88.5000000001
 51
178.5
  0
ARC
  5
A0
330
1F
100
AcDbEntity
  8
0
  6
Continuous
 62
     7
370
    25
100
AcDbCircle
 10
754.280819647
 20
1458.1258832752
 30
0.0
 40
1.199999999999974
100
AcDbArc
 50
88.5000000001
 51
173.5000000035
  0
ARC
  5
A1
330
1F
100
AcDbEntity
  8
0
  6
Continuous
 62
     7
370
    25
100
AcDbCircle
 10
753.8201053568
 20
1440.5319143556
 30
0.0
 40
1.200000000000106
100
AcDbArc
 50
183.4999999966
 51
268.5000000001
  0
LINE
  5
A2
330
1F
100
AcDbEntity
  8
0
  6
Continuous
 62
     7
370
    25
100
AcDbLine
 10
755.0624227623
 20
1459.3058276283
 30
0.0
 11
754.312231985
 21
1459.3254720652
 31
0.0
  0
LINE
  5
A3
330
1F
100
AcDbEntity
  8
0
  6
Continuous
 62
     7
370
    25
100
AcDbLine
 10
753.7886930188
 20
1439.3323255656
 30
0.0
 11
754.5388837961
 21
1439.3126811288
 31
0.0
  0
ARC
  5
A4
330
1F
100
AcDbEntity
  8
0
  6
Continuous
 62
     7
370
    25
100
AcDbCircle
 10
755.0571873726
 20
1459.1058961633
 30
0.0
 40
0.2000000000000718
100
AcDbArc
 50
358.5000000001
 51
88.5000000001
  0
ARC
  5
A5
330
1F
100
AcDbEntity
  8
0
  6
Continuous
 62
     7
370
    25
100
AcDbCircle
 10
754.5441191858
 20
1439.5126125938
 30
0.0
 40
0.2000000000000689
100
AcDbArc
 50
268.5000000001
 51
358.5000000001
  0
LINE
  5
A6
330
1F
100
AcDbEntity
  8
0
  6
Continuous
 62
     7
370
    25
100
AcDbLine
 10
753.0885334202
 20
1458.2617271317
 30
0.0
 11
752.9067456257
 21
1456.6661961367
 31
0.0
  0
LINE
  5
A7
330
1F
100
AcDbEntity
  8
0
  6
Continuous
 62
     7
370
    25
100
AcDbLine
 10
752.5243085784
 20
1442.0615145215
 30
0.0
 11
752.6223435987
 21
1440.4586561082
 31
0.0
  0
ARC
  5
A8
330
1F
100
AcDbEntity
  8
0
  6
Continuous
 62
     7
370
    25
100
AcDbCircle
 10
782.713901296
 20
1453.2700997237
 30
0.0
 40
30.00000000000207
100
AcDbArc
 50
173.5000000001
 51
178.5000000001
  0
ARC
  5
A9
330
1F
100
AcDbEntity
  8
0
  6
Continuous
 62
     7
370
    25
100
AcDbCircle
 10
782.4683525311
 20
1443.8929707076
 30
0.0
 40
30.00000000000222
100
AcDbArc
 50
178.5000000001
 51
183.5
  0
SPLINE
  5
AA
330
1F
100
AcDbEntity
  8
0
  6
Continuous
 62
     7
370
    25
100
AcDbSpline
210
0.0
220
0.0
230
1.0
 70
     8
 71
     3
 72
    11
 73
     7
 74
     0
 42
0.00000001
 43
0.00000001
 40
0.0
 40
0.0
 40
0.0
 40
0.0
 40
0.2702614548231553
 40
0.5624296257308643
 40
0.78973662261848
 40
1.0
 40
1.0
 40
1.0
 40
1.0
 10
755.6182096740708
 20
1453.789388477125
 30
0.0
 10
755.5476116687485
 20
1453.800054879803
 30
0.0
 10
755.4006931607546
 20
1453.822252277024
 30
0.0
 10
755.236579676903
 20
1453.961846171704
 30
0.0
 10
755.1434028119118
 20
1454.132546467505
 30
0.0
 10
755.135342648331
 20
1454.247209356092
 30
0.0
 10
755.1314695405604
 20
1454.302307707426
 30
0.0
  0
SPLINE
  5
AB
330
1F
100
AcDbEntity
  8
0
  6
Continuous
 62
     7
370
    25
100
AcDbSpline
210
0.0
220
0.0
230
1.0
 70
     8
 71
     3
 72
    11
 73
     7
 74
     0
 42
0.00000001
 43
0.00000001
 40
0.0
 40
0.0
 40
0.0
 40
0.0
 40
0.2695105035984149
 40
0.5617364405775727
 40
0.7894224931280074
 40
1.0
 40
1.0
 40
1.0
 40
1.0
 10
754.8695149036921
 20
1444.298663719287
 30
0.0
 10
754.879319453073
 20
1444.369837570834
 30
0.0
 10
754.8997549188421
 20
1444.518184093497
 30
0.0
 10
755.039076267274
 20
1444.685140957515
 30
0.0
 10
755.2110587288959
 20
1444.780232716839
 30
0.0
 10
755.3269388781381
 20
1444.788500186577
 30
0.0
 10
755.3826171393094
 20
1444.792472552356
 30
0.0
  0
LINE
  5
AC
330
1F
100
AcDbEntity
  8
0
  6
Continuous
 62
     7
370
    25
100
AcDbLine
 10
757.7608646997
 20
1453.7332810807
 30
0.0
 11
755.6182096741
 21
1453.7893884771
 31
0.0
  0
LINE
  5
AD
330
1F
100
AcDbEntity
  8
0
  6
Continuous
 62
     7
370
    25
100
AcDbLine
 10
755.3826171393
 20
1444.7924725523
 30
0.0
 11
757.7608646997
 21
1444.7301959483
 31
0.0
  0
LINE
  5
AE
330
1F
100
AcDbEntity
  8
0
  6
Continuous
 62
     7
370
    25
100
AcDbLine
 10
775.7608646997
 20
977.2543978663
 30
0.0
 11
758.2608646997
 21
977.2543978663
 31
0.0
  0
LINE
  5
AF
330
1F
100
AcDbEntity
  8
0
  6
Continuous
 62
     7
370
    25
100
AcDbLine
 10
758.2608646997
 20
977.2543978663
 30
0.0
 11
758.2608646997
 21
1498.2543978663
 31
0.0
  0
LINE
  5
B0
330
1F
100
AcDbEntity
  8
0
  6
Continuous
 62
     7
370
    25
100
AcDbLine
 10
775.7608646997
 20
1498.2543978663
 30
0.0
 11
775.7608646997
 21
977.2543978663
 31
0.0
  0
LINE
  5
B1
330
1F
100
AcDbEntity
  8
0
  6
Continuous
 62
     7
370
    25
100
AcDbLine
 10
1133.2608646997
 20
977.2543978663
 30
0.0
 11
1115.7608646997
 21
977.2543978663
 31
0.0
  0
LINE
  5
B2
330
1F
100
AcDbEntity
  8
0
  6
Continuous
 62
     7
370
    25
100
AcDbLine
 10
1115.7608646997
 20
977.2543978663
 30
0.0
 11
1115.7608646997
 21
1498.2543978663
 31
0.0
  0
LINE
  5
B3
330
1F
100
AcDbEntity
  8
0
  6
Continuous
 62
     7
370
    25
100
AcDbLine
 10
1133.2608646997
 20
1498.2543978663
 30
0.0
 11
1133.2608646997
 21
977.2543978663
 31
0.0
  0
LINE
  5
B4
330
1F
100
AcDbEntity
  8
0
  6
Continuous
 62
     7
370
    25
100
AcDbLine
 10
1115.5108646997
 20
1293.7543978663
 30
0.0
 11
776.0108646997
 21
1293.7543978663
 31
0.0
  0
LINE
  5
B5
330
1F
100
AcDbEntity
  8
0
  6
Continuous
 62
     7
370
    25
100
AcDbLine
 10
1115.5108646997
 20
1276.7543978663
 30
0.0
 11
1115.5108646997
 21
1293.7543978663
 31
0.0
  0
LINE
  5
B6
330
1F
100
AcDbEntity
  8
0
  6
Continuous
 62
     7
370
    25
100
AcDbLine
 10
776.0108646997
 20
1276.7543978663
 30
0.0
 11
1115.5108646997
 21
1276.7543978663
 31
0.0
  0
LINE
  5
B7
330
1F
100
AcDbEntity
  8
0
  6
Continuous
 62
     7
370
    25
100
AcDbLine
 10
776.0108646997
 20
1293.7543978663
 30
0.0
 11
776.0108646997
 21
1276.7543978663
 31
0.0
  0
LINE
  5
B8
330
1F
100
AcDbEntity
  8
0
  6
Continuous
 62
     7
370
    25
100
AcDbLine
 10
1115.5108646997
 20
988.7543978663
 30
0.0
 11
1115.5108646997
 21
1005.7543978663
 31
0.0
  0
LINE
  5
B9
330
1F
100
AcDbEntity
  8
0
  6
Continuous
 62
     7
370
    25
100
AcDbLine
 10
776.0108646997
 20
988.7543978663
 30
0.0
 11
1115.5108646997
 21
988.7543978663
 31
0.0
  0
LINE
  5
BA
330
1F
100
AcDbEntity
  8
0
  6
Continuous
 62
     7
370
    25
100
AcDbLine
 10
776.0108646997
 20
1005.7543978663
 30
0.0
 11
776.0108646997
 21
988.7543978663
 31
0.0
  0
LINE
  5
BB
330
1F
100
AcDbEntity
  8
0
  6
Continuous
 62
     7
370
    25
100
AcDbLine
 10
1115.5108646997
 20
1005.7543978663
 30
0.0
 11
776.0108646997
 21
1005.7543978663
 31
0.0
  0
SPLINE
  5
BC
330
1F
100
AcDbEntity
  8
0
  6
Continuous
 62
     7
370
    25
100
AcDbSpline
210
0.0
220
0.0
230
1.0
 70
     8
 71
     3
 72
    11
 73
     7
 74
     0
 42
0.00000001
 43
0.00000001
 40
0.0
 40
0.0
 40
0.0
 40
0.0
 40
0.2382247349847728
 40
0.4921376904589499
 40
0.7460575595470215
 40
1.0
 40
1.0
 40
1.0
 40
1.0
 10
755.4913742188824
 20
1429.844962851252
 30
0.0
 10
755.4920466031288
 20
1429.870640170767
 30
0.0
 10
755.4934356512902
 20
1429.923685782191
 30
0.0
 10
755.5069732494529
 20
1430.440665780912
 30
0.0
 10
755.5270738372186
 20
1431.208276326871
 30
0.0
 10
755.5434574874971
 20
1431.833942518897
 30
0.0
 10
755.5516496767127
 20
1432.146789518423
 30
0.0
  0
LINE
  5
BD
330
1F
100
AcDbEntity
  8
0
  6
Continuous
 62
     7
370
    25
100
AcDbLine
 10
755.5516496767
 20
1432.1467895184
 30
0.0
 11
755.555233948
 21
1432.283667516
 31
0.0
  0
SPLINE
  5
BE
330
1F
100
AcDbEntity
  8
0
  6
Continuous
 62
     7
370
    25
100
AcDbSpline
210
0.0
220
0.0
230
1.0
 70
    24
 71
     3
 72
    12
 73
     8
 74
     0
 42
0.00000001
 43
0.00000001
 40
0.0
 40
0.0
 40
0.0
 40
0.0
 40
0.2460973337381454
 40
0.4921955654190074
 40
0.7383025770438693
 40
0.984416004048368
 40
1.0
 40
1.0
 40
1.0
 40
1.0
 10
755.5552339479614
 20
1432.283667515999
 30
0.0
 10
755.5634634249623
 20
1432.597938563495
 30
0.0
 10
755.579922408991
 20
1433.226481805178
 30
0.0
 10
755.6012384121008
 20
1434.040507122338
 30
0.0
 10
755.6147786748463
 20
1434.557588895087
 30
0.0
 10
755.6206981519293
 20
1434.78364460474
 30
0.0
 10
755.6191779215906
 20
1434.725589350328
 30
0.0
 10
755.6190873923712
 20
1434.722132178914
 30
0.0
  0
SPLINE
  5
BF
330
1F
100
AcDbEntity
  8
0
  6
Continuous
 62
     7
370
    25
100
AcDbSpline
210
0.0
220
0.0
230
1.0
 70
    24
 71
     3
 72
    13
 73
     9
 74
     0
 42
0.00000001
 43
0.00000001
 40
0.0
 40
0.0
 40
0.0
 40
0.0
 40
0.1538581583651716
 40
0.3079676862452847
 40
0.4535077802385422
 40
0.5878340078346339
 40
0.8177872163814724
 40
0.9999999999999999
 40
0.9999999999999999
 40
0.9999999999999999
 40
0.9999999999999999
 10
755.2568851491633
 20
1459.091736571927
 30
0.0
 10
755.2555656725199
 20
1459.041347791834
 30
0.0
 10
755.2529245635059
 20
1458.940487907753
 30
0.0
 10
755.2306977780936
 20
1458.091681217698
 30
0.0
 10
755.1985297677973
 20
1456.863234465783
 30
0.0
 10
755.1492668362093
 20
1454.98195900791
 30
0.0
 10
755.0834475074698
 20
1452.46842025128
 30
0.0
 10
755.0287224443226
 20
1450.378554404691
 30
0.0
 10
755.0045292641978
 20
1449.454654130203
 30
0.0
  0
SPLINE
  5
C0
330
1F
100
AcDbEntity
  8
0
  6
Continuous
 62
     7
370
    25
100
AcDbSpline
210
0.0
220
0.0
230
1.0
 70
    24
 71
     3
 72
    13
 73
     9
 74
     0
 42
0.00000001
 43
0.00000001
 40
0.0
 40
0.0
 40
0.0
 40
0.0
 40
0.1813201537907993
 40
0.4101468448380632
 40
0.5438150184965159
 40
0.6886421238875833
 40
0.8419966874126954
 40
1.0
 40
1.0
 40
1.0
 40
1.0
 10
755.0005847442021
 20
1449.304018988889
 30
0.0
 10
754.9763578705594
 20
1448.378832010848
 30
0.0
 10
754.9215565946001
 20
1446.286055714361
 30
0.0
 10
754.8551963635776
 20
1443.751860732925
 30
0.0
 10
754.8052253470247
 20
1441.843544601183
 30
0.0
 10
754.7723032583091
 20
1440.586300756251
 30
0.0
 10
754.7490210995827
 20
1439.697190985345
 30
0.0
 10
754.7457289061739
 20
1439.571467191347
 30
0.0
 10
754.7440582323153
 20
1439.507666730697
 30
0.0
  0
LINE
  5
C1
330
1F
100
AcDbEntity
  8
0
  6
Continuous
 62
     7
370
    25
100
AcDbLine
 10
752.4786327818
 20
1444.6782791568
 30
0.0
 11
752.7241815467
 21
1454.0554081729
 31
0.0
  0
SPLINE
  5
C2
330
1F
100
AcDbEntity
  8
0
  6
Continuous
 62
     7
370
    25
100
AcDbSpline
210
0.0
220
0.0
230
1.0
 70
     8
 71
     3
 72
    11
 73
     7
 74
     0
 42
0.00000001
 43
0.00000001
 40
0.0
 40
0.0
 40
0.0
 40
0.0
 40
0.2702619356881021
 40
0.5624305486181054
 40
0.789737407372124
 40
1.0
 40
1.0
 40
1.0
 40
1.0
 10
755.4965437889349
 20
1449.143155774587
 30
0.0
 10
755.4257065946473
 20
1449.144721041431
 30
0.0
 10
755.2782903410621
 20
1449.147978451275
 30
0.0
 10
755.1105191259057
 20
1449.147927095684
 30
0.0
 10
755.0127956958064
 20
1449.144958610163
 30
0.0
 10
755.0016438762449
 20
1449.141490841408
 30
0.0
 10
754.9962851600776
 20
1449.139824495536
 30
0.0
  0
LINE
  5
C3
330
1F
100
AcDbEntity
  8
0
  6
Continuous
 62
     7
370
    25
100
AcDbLine
 10
1136.2608646997
 20
1498.2543978663
 30
0.0
 11
1136.2608646997
 21
976.7543978663
 31
0.0
  0
LINE
  5
C4
330
1F
100
AcDbEntity
  8
0
  6
Continuous
 62
     7
370
    25
100
AcDbLine
 10
1136.2608646997
 20
976.7543978663
 30
0.0
 11
757.7608646997
 21
976.7543978663
 31
0.0
  0
LINE
  5
C5
330
1F
100
AcDbEntity
  8
0
  6
Continuous
 62
     7
370
    25
100
AcDbLine
 10
757.7608646997
 20
1498.2543978663
 30
0.0
 11
757.7608646997
 21
976.7543978663
 31
0.0
  0
LINE
  5
C6
330
1F
100
AcDbEntity
  8
0
  6
Continuous
 62
     7
370
    25
100
AcDbLine
 10
1156.2608646997
 20
1516.7543978663
 30
0.0
 11
1156.2608646997
 21
986.7543978663
 31
0.0
  0
LINE
  5
C7
330
1F
100
AcDbEntity
  8
0
  6
Continuous
 62
     7
370
    25
100
AcDbLine
 10
1156.2608646997
 20
986.7543978663
 30
0.0
 11
1152.2608646997
 21
986.7543978663
 31
0.0
  0
LINE
  5
C8
330
1F
100
AcDbEntity
  8
0
  6
Continuous
 62
     7
370
    25
100
AcDbLine
 10
1152.2608646997
 20
986.7543978663
 30
0.0
 11
1152.2608646997
 21
999.7543978663
 31
0.0
  0
LINE
  5
C9
330
1F
100
AcDbEntity
  8
0
  6
Continuous
 62
     7
370
    25
100
AcDbLine
 10
1152.2608646997
 20
999.7543978663
 30
0.0
 11
1139.7608646997
 21
999.7543978663
 31
0.0
  0
LINE
  5
CA
330
1F
100
AcDbEntity
  8
0
  6
Continuous
 62
     7
370
    25
100
AcDbLine
 10
1139.7608646997
 20
999.7543978663
 30
0.0
 11
1139.7608646997
 21
1020.2543978663
 31
0.0
  0
LINE
  5
CB
330
1F
100
AcDbEntity
  8
0
  6
Continuous
 62
     7
370
    25
100
AcDbLine
 10
1139.7608646997
 20
1020.2543978663
 30
0.0
 11
1138.2608646997
 21
1020.2543978663
 31
0.0
  0
LINE
  5
CC
330
1F
100
AcDbEntity
  8
0
  6
Continuous
 62
     7
370
    25
100
AcDbLine
 10
1156.2608646997
 20
1516.7543978663
 30
0.0
 11
1138.2608646997
 21
1516.7543978663
 31
0.0
  0
LINE
  5
CD
330
1F
100
AcDbEntity
  8
0
  6
Continuous
 62
     7
370
    25
100
AcDbLine
 10
1138.2608646997
 20
1516.7543978663
 30
0.0
 11
1138.2608646997
 21
1020.2543978663
 31
0.0
  0
LINE
  5
CE
330
1F
100
AcDbEntity
  8
0
  6
Continuous
 62
     7
370
    25
100
AcDbLine
 10
1136.7608646997
 20
1526.7543978663
 30
0.0
 11
1136.7608646997
 21
1498.2543978663
 31
0.0
  0
LINE
  5
CF
330
1F
100
AcDbEntity
  8
0
  6
Continuous
 62
     7
370
    25
100
AcDbLine
 10
757.7608646997
 20
1498.2543978663
 30
0.0
 11
757.7608646997
 21
1526.7543978663
 31
0.0
  0
LINE
  5
D0
330
1F
100
AcDbEntity
  8
0
  6
Continuous
 62
     7
370
    25
100
AcDbLine
 10
1136.7608646997
 20
1498.2543978663
 30
0.0
 11
757.7608646997
 21
1498.2543978663
 31
0.0
  0
LINE
  5
D1
330
1F
100
AcDbEntity
  8
0
  6
Continuous
 62
     7
370
    25
100
AcDbLine
 10
757.7608646997
 20
1526.7543978663
 30
0.0
 11
1136.7608646997
 21
1526.7543978663
 31
0.0
  0
ARC
  5
D2
330
1F
100
AcDbEntity
  8
0
  6
Continuous
 62
     7
370
    25
100
AcDbCircle
 10
1152.1777201022
 20
987.2543978663
 30
0.0
 40
0.8000000000002069
100
AcDbArc
 50
184.9699465947
 51
279.576588481
  0
LINE
  5
D3
330
1F
100
AcDbEntity
  8
0
  6
Continuous
 62
     7
370
    25
100
AcDbLine
 10
1152.3108127797
 20
986.4655465881
 30
0.0
 11
1152.3440859491
 21
986.2683337685
 31
0.0
  0
ARC
  5
D4
330
1F
100
AcDbEntity
  8
0
  6
Continuous
 62
     7
370
    25
100
AcDbCircle
 10
1152.1777201022
 20
987.2543978663
 30
0.0
 40
1.000000000000197
100
AcDbArc
 50
184.9699465947
 51
279.576588481
  0
LINE
  5
D5
330
1F
100
AcDbEntity
  8
0
  6
Continuous
 62
     7
370
    25
100
AcDbLine
 10
1151.3807278807
 20
987.1850913096
 30
0.0
 11
1151.1814798253
 21
987.1677646704
 31
0.0
  0
LINE
  5
D6
330
1F
100
AcDbEntity
  8
0
  6
Continuous
 62
     7
370
    25
100
AcDbLine
 10
1152.0608646997
 20
986.5543978663
 30
0.0
 11
1152.0608646997
 21
999.5543978663
 31
0.0
  0
LINE
  5
D7
330
1F
100
AcDbEntity
  8
0
  6
Continuous
 62
     7
370
    25
100
AcDbLine
 10
1152.4780763832
 20
986.5543978663
 30
0.0
 11
1152.0608646997
 21
986.5543978663
 31
0.0
  0
ARC
  5
D8
330
1F
100
AcDbEntity
  8
0
  6
Continuous
 62
     7
370
    25
100
AcDbCircle
 10
1152.2609030256
 20
986.7613658174
 30
0.0
 40
0.3000000000002718
100
AcDbArc
 50
279.576588481
 51
316.3783470327
  0
LINE
  5
D9
330
1F
100
AcDbEntity
  8
0
  6
Continuous
 62
     7
370
    25
100
AcDbLine
 10
1150.539539262
 20
996.8583577014
 30
0.0
 11
1151.3807278807
 21
987.1850913096
 31
0.0
  0
ARC
  5
DA
330
1F
100
AcDbEntity
  8
0
  6
Continuous
 62
     7
370
    25
100
AcDbCircle
 10
1149.3440509297
 20
996.7543978663
 30
0.0
 40
1.200000000000045
100
AcDbArc
 50
4.9699465947
 51
90.0
  0
LINE
  5
DB
330
1F
100
AcDbEntity
  8
0
  6
Continuous
 62
     7
370
    25
100
AcDbLine
 10
1138.9608646997
 20
997.9543978663
 30
0.0
 11
1149.3440509297
 21
997.9543978663
 31
0.0
  0
ARC
  5
DC
330
1F
100
AcDbEntity
  8
0
  6
Continuous
 62
     7
370
    25
100
AcDbCircle
 10
1138.9608646997
 20
998.7543978663
 30
0.0
 40
0.8000000000001819
100
AcDbArc
 50
180.0
 51
270.0
  0
LINE
  5
DD
330
1F
100
AcDbEntity
  8
0
  6
Continuous
 62
     7
370
    25
100
AcDbLine
 10
1138.1608646997
 20
1019.5543978663
 30
0.0
 11
1138.1608646997
 21
998.7543978663
 31
0.0
  0
LINE
  5
DE
330
1F
100
AcDbEntity
  8
0
  6
Continuous
 62
     7
370
    25
100
AcDbLine
 10
1139.5608646997
 20
1019.5543978663
 30
0.0
 11
1138.1608646997
 21
1019.5543978663
 31
0.0
  0
LINE
  5
DF
330
1F
100
AcDbEntity
  8
0
  6
Continuous
 62
     7
370
    25
100
AcDbLine
 10
1139.5608646997
 20
999.5543978663
 30
0.0
 11
1139.5608646997
 21
1019.5543978663
 31
0.0
  0
LINE
  5
E0
330
1F
100
AcDbEntity
  8
0
  6
Continuous
 62
     7
370
    25
100
AcDbLine
 10
1152.0608646997
 20
999.5543978663
 30
0.0
 11
1139.5608646997
 21
999.5543978663
 31
0.0
  0
LINE
  5
E1
330
1F
100
AcDbEntity
  8
0
  6
Continuous
 62
     7
370
    25
100
AcDbLine
 10
1151.1814798253
 20
987.1677646704
 30
0.0
 11
1150.3402912066
 21
996.8410310622
 31
0.0
  0
LINE
  5
E2
330
1F
100
AcDbEntity
  8
0
  6
Continuous
 62
     7
370
    25
100
AcDbLine
 10
1150.3402912066
 20
996.8410310622
 30
0.0
 11
1150.539539262
 21
996.8583577014
 31
0.0
  0
SPLINE
  5
E3
330
1F
100
AcDbEntity
  8
0
  6
Continuous
 62
     7
370
    25
100
AcDbSpline
210
0.0
220
0.0
230
1.0
 70
     8
 71
     3
 72
    13
 73
     9
 74
     0
 42
0.00000001
 43
0.00000001
 40
0.0
 40
0.0
 40
0.0
 40
0.0
 40
0.007502997411327
 40
0.3818974549663112
 40
0.6070018873272075
 40
0.7653769096344384
 40
0.8824605049809984
 40
1.0
 40
1.0
 40
1.0
 40
1.0
 10
1152.47807638316
 20
986.5543978663154
 30
0.0
 10
1152.479094159776
 20
986.5548358642106
 30
0.0
 10
1152.530898295914
 20
986.5771296585799
 30
0.0
 10
1152.609483661283
 20
986.6240140467954
 30
0.0
 10
1152.692123125314
 20
986.690298483832
 30
0.0
 10
1152.734219243413
 20
986.7285600430044
 30
0.0
 10
1152.756742670248
 20
986.7503158187396
 30
0.0
 10
1152.759482096363
 20
986.7530354222893
 30
0.0
 10
1152.76085447093
 20
986.7543978663153
 30
0.0
  0
ARC
  5
E4
330
1F
100
AcDbEntity
  8
0
  6
Continuous
 62
     7
370
    25
100
AcDbCircle
 10
1152.2609030256
 20
986.7613658174
 30
0.0
 40
0.500000000000194
100
AcDbArc
 50
279.576588481
 51
359.2015057739
  0
LINE
  5
E5
330
1F
100
AcDbEntity
  8
0
  6
Continuous
 62
     7
370
    25
100
AcDbLine
 10
1152.0608646997
 20
999.5543978663
 30
0.0
 11
1152.2608646997
 21
999.7543978663
 31
0.0
  0
LINE
  5
E6
330
1F
100
AcDbEntity
  8
0
  6
Continuous
 62
     7
370
    25
100
AcDbLine
 10
1152.0608646997
 20
986.5543978663
 30
0.0
 11
1152.2608646997
 21
986.7543978663
 31
0.0
  0
LINE
  5
E7
330
1F
100
AcDbEntity
  8
0
  6
Continuous
 62
     7
370
    25
100
AcDbLine
 10
1139.7608646997
 20
1019.7543978663
 30
0.0
 11
1139.5608646997
 21
1019.5543978663
 31
0.0
  0
LINE
  5
E8
330
1F
100
AcDbEntity
  8
0
  6
Continuous
 62
     7
370
    25
100
AcDbLine
 10
1139.5608646997
 20
999.5543978663
 30
0.0
 11
1139.7608646997
 21
999.7543978663
 31
0.0
  0
LINE
  5
E9
330
1F
100
AcDbEntity
  8
0
  6
Continuous
 62
     7
370
    25
100
AcDbLine
 10
1149.3440509297
 20
997.7543978663
 30
0.0
 11
1138.9608646997
 21
997.7543978663
 31
0.0
  0
LINE
  5
EA
330
1F
100
AcDbEntity
  8
0
  6
Continuous
 62
     7
370
    25
100
AcDbLine
 10
1138.9608646997
 20
997.7543978663
 30
0.0
 11
1138.9608646997
 21
997.9543978663
 31
0.0
  0
LINE
  5
EB
330
1F
100
AcDbEntity
  8
0
  6
Continuous
 62
     7
370
    25
100
AcDbLine
 10
1149.3440509297
 20
997.7543978663
 30
0.0
 11
1149.3440509297
 21
997.9543978663
 31
0.0
  0
ARC
  5
EC
330
1F
100
AcDbEntity
  8
0
  6
Continuous
 62
     7
370
    25
100
AcDbCircle
 10
1138.9608646997
 20
998.7543978663
 30
0.0
 40
1.000000000000227
100
AcDbArc
 50
180.0
 51
270.0
  0
LINE
  5
ED
330
1F
100
AcDbEntity
  8
0
  6
Continuous
 62
     7
370
    25
100
AcDbLine
 10
1137.9608646997
 20
998.7543978663
 30
0.0
 11
1138.1608646997
 21
998.7543978663
 31
0.0
  0
ARC
  5
EE
330
1F
100
AcDbEntity
  8
0
  6
Continuous
 62
     7
370
    25
100
AcDbCircle
 10
1149.3440509297
 20
996.7543978663
 30
0.0
 40
1.000000000000114
100
AcDbArc
 50
4.9699465947
 51
90.0
  0
LINE
  5
EF
330
1F
100
AcDbEntity
  8
0
  6
Continuous
 62
     7
370
    25
100
AcDbLine
 10
1137.9608646997
 20
998.7543978663
 30
0.0
 11
1137.9608646997
 21
1019.5543978663
 31
0.0
  0
LINE
  5
F0
330
1F
100
AcDbEntity
  8
0
  6
Continuous
 62
     7
370
    25
100
AcDbLine
 10
1137.9608646997
 20
1019.5543978663
 30
0.0
 11
1138.1608646997
 21
1019.5543978663
 31
0.0
  0
LINE
  5
F1
330
1F
100
AcDbEntity
  8
0
  6
Continuous
 62
     7
370
    25
100
AcDbLine
 10
1138.1608646997
 20
1019.7543978663
 30
0.0
 11
1138.1608646997
 21
1019.5543978663
 31
0.0
  0
ARC
  5
F2
330
1F
100
AcDbEntity
  8
0
  6
Continuous
 62
     7
370
    25
100
AcDbCircle
 10
1138.1608646997
 20
1019.5543978663
 30
0.0
 40
0.2000000000000455
100
AcDbArc
 50
90.0
 51
180.0
  0
LINE
  5
F3
330
1F
100
AcDbEntity
  8
0
  6
Continuous
 62
     7
370
    25
100
AcDbLine
 10
1138.1608646997
 20
1019.7543978663
 30
0.0
 11
1139.7608646997
 21
1019.7543978663
 31
0.0
  0
LINE
  5
F4
330
1F
100
AcDbEntity
  8
0
  6
Continuous
 62
     7
370
    25
100
AcDbLine
 10
1137.0608646997
 20
1484.0543978663
 30
0.0
 11
1137.0608646997
 21
1485.2543978663
 31
0.0
  0
LINE
  5
F5
330
1F
100
AcDbEntity
  8
0
  6
Continuous
 62
     7
370
    25
100
AcDbLine
 10
1136.2608646997
 20
1485.2543978663
 30
0.0
 11
1137.0608646997
 21
1485.2543978663
 31
0.0
  0
LINE
  5
F6
330
1F
100
AcDbEntity
  8
0
  6
Continuous
 62
     7
370
    25
100
AcDbLine
 10
1136.2608646997
 20
1484.0543978663
 30
0.0
 11
1137.0608646997
 21
1484.0543978663
 31
0.0
  0
LINE
  5
F7
330
1F
100
AcDbEntity
  8
0
  6
Continuous
 62
     7
370
    25
100
AcDbLine
 10
1137.0608646997
 20
1485.2543978663
 30
0.0
 11
1138.2608646997
 21
1485.2543978663
 31
0.0
  0
LINE
  5
F8
330
1F
100
AcDbEntity
  8
0
  6
Continuous
 62
     7
370
    25
100
AcDbLine
 10
1137.0608646997
 20
1484.0543978663
 30
0.0
 11
1138.2608646997
 21
1484.0543978663
 31
0.0
  0
LINE
  5
F9
330
1F
100
AcDbEntity
  8
0
  6
Continuous
 62
     7
370
    25
100
AcDbLine
 10
1137.0608646997
 20
1466.2543978663
 30
0.0
 11
1138.2608646997
 21
1466.2543978663
 31
0.0
  0
LINE
  5
FA
330
1F
100
AcDbEntity
  8
0
  6
Continuous
 62
     7
370
    25
100
AcDbLine
 10
1137.0608646997
 20
1466.2543978663
 30
0.0
 11
1137.0608646997
 21
1484.0543978663
 31
0.0
  0
LINE
  5
FB
330
1F
100
AcDbEntity
  8
0
  6
Continuous
 62
     7
370
    25
100
AcDbLine
 10
1138.2608646997
 20
1463.2543978663
 30
0.0
 11
1137.0608646997
 21
1463.2543978663
 31
0.0
  0
LINE
  5
FC
330
1F
100
AcDbEntity
  8
0
  6
Continuous
 62
     7
370
    25
100
AcDbLine
 10
1137.0608646997
 20
1463.2543978663
 30
0.0
 11
1137.0608646997
 21
1466.2543978663
 31
0.0
  0
SPLINE
  5
FD
330
1F
100
AcDbEntity
  8
0
  6
Continuous
 62
     7
370
    25
100
AcDbSpline
210
0.0
220
0.0
230
1.0
 70
    24
 71
     3
 72
    11
 73
     7
 74
     0
 42
0.00000001
 43
0.00000001
 40
0.0
 40
0.0
 40
0.0
 40
0.0
 40
0.230791068360707
 40
0.5695709634403324
 40
0.9079062644158732
 40
1.0
 40
1.0
 40
1.0
 40
1.0
 10
1136.260864699702
 20
1465.254397866317
 30
0.0
 10
1136.300516430174
 20
1465.254397866317
 30
0.0
 10
1136.398373225445
 20
1465.254397866317
 30
0.0
 10
1136.640735642003
 20
1465.254397866317
 30
0.0
 10
1136.872379655311
 20
1465.254397866316
 30
0.0
 10
1137.02764453636
 20
1465.254397866317
 30
0.0
 10
1137.060864699699
 20
1465.254397866317
 30
0.0
  0
LINE
  5
FE
330
1F
100
AcDbEntity
  8
0
  6
Continuous
 62
     7
370
    25
100
AcDbLine
 10
1138.0608646997
 20
1408.2543978663
 30
0.0
 11
1138.0608646997
 21
1409.2543978663
 31
0.0
  0
SPLINE
  5
FF
330
1F
100
AcDbEntity
  8
0
  6
Continuous
 62
     7
370
    25
100
AcDbSpline
210
0.0
220
0.0
230
1.0
 70
    24
 71
     3
 72
    12
 73
     8
 74
     0
 42
0.00000001
 43
0.00000001
 40
0.0
 40
0.0
 40
0.0
 40
0.0
 40
0.3329369653764191
 40
0.5139656098168768
 40
0.6952322446478507
 40
0.8762609961861747
 40
1.0
 40
1.0
 40
1.0
 40
1.0
 10
1138.060864699708
 20
1408.254397866317
 30
0.0
 10
1137.809467286564
 20
1408.254397866318
 30
0.0
 10
1137.421376932564
 20
1408.254397866318
 30
0.0
 10
1136.95444766289
 20
1408.254397866318
 30
0.0
 10
1136.638928773869
 20
1408.254397866318
 30
0.0
 10
1136.398804555356
 20
1408.254397866318
 30
0.0
 10
1136.300697304346
 20
1408.254397866318
 30
0.0
 10
1136.260864699702
 20
1408.254397866318
 30
0.0
  0
LINE
  5
100
330
1F
100
AcDbEntity
  8
0
  6
Continuous
 62
     7
370
    25
100
AcDbLine
 10
1138.2608646997
 20
1409.2543978663
 30
0.0
 11
1138.0608646997
 21
1409.2543978663
 31
0.0
  0
LINE
  5
101
330
1F
100
AcDbEntity
  8
0
  6
Continuous
 62
     7
370
    25
100
AcDbLine
 10
1138.0608646997
 20
1408.2543978663
 30
0.0
 11
1138.2608646997
 21
1408.2543978663
 31
0.0
  0
SPLINE
  5
102
330
1F
100
AcDbEntity
  8
0
  6
Continuous
 62
     7
370
    25
100
AcDbSpline
210
0.0
220
0.0
230
1.0
 70
    24
 71
     3
 72
    12
 73
     8
 74
     0
 42
0.00000001
 43
0.00000001
 40
0.0
 40
0.0
 40
0.0
 40
0.0
 40
0.123488218962583
 40
0.3047574776079333
 40
0.4857888495167444
 40
0.6670582153987543
 40
1.0
 40
1.0
 40
1.0
 40
1.0
 10
1136.260864699702
 20
1095.254397866317
 30
0.0
 10
1136.300611268739
 20
1095.254397866317
 30
0.0
 10
1136.398702116798
 20
1095.254397866317
 30
0.0
 10
1136.638675405159
 20
1095.254397866317
 30
0.0
 10
1136.954289593654
 20
1095.254397866317
 30
0.0
 10
1137.421199682756
 20
1095.254397866317
 30
0.0
 10
1137.809468282994
 20
1095.254397866316
 30
0.0
 10
1138.060864699712
 20
1095.254397866316
 30
0.0
  0
LINE
  5
103
330
1F
100
AcDbEntity
  8
0
  6
Continuous
 62
     7
370
    25
100
AcDbLine
 10
1138.0608646997
 20
1094.2543978663
 30
0.0
 11
1138.0608646997
 21
1095.2543978663
 31
0.0
  0
LINE
  5
104
330
1F
100
AcDbEntity
  8
0
  6
Continuous
 62
     7
370
    25
100
AcDbLine
 10
1138.0608646997
 20
1038.2543978663
 30
0.0
 11
1138.0608646997
 21
1039.2543978663
 31
0.0
  0
SPLINE
  5
105
330
1F
100
AcDbEntity
  8
0
  6
Continuous
 62
     7
370
    25
100
AcDbSpline
210
0.0
220
0.0
230
1.0
 70
    24
 71
     3
 72
    12
 73
     8
 74
     0
 42
0.00000001
 43
0.00000001
 40
0.0
 40
0.0
 40
0.0
 40
0.0
 40
0.3329369653764191
 40
0.5139656098168768
 40
0.6952322446478507
 40
0.8762609961861747
 40
1.0
 40
1.0
 40
1.0
 40
1.0
 10
1138.060864699708
 20
1038.254397866317
 30
0.0
 10
1137.809467286564
 20
1038.254397866318
 30
0.0
 10
1137.421376932564
 20
1038.254397866318
 30
0.0
 10
1136.95444766289
 20
1038.254397866318
 30
0.0
 10
1136.638928773869
 20
1038.254397866318
 30
0.0
 10
1136.398804555356
 20
1038.254397866318
 30
0.0
 10
1136.300697304346
 20
1038.254397866318
 30
0.0
 10
1136.260864699702
 20
1038.254397866318
 30
0.0
  0
LINE
  5
106
330
1F
100
AcDbEntity
  8
0
  6
Continuous
 62
     7
370
    25
100
AcDbLine
 10
1138.0608646997
 20
1094.2543978663
 30
0.0
 11
1138.0608646997
 21
1039.2543978663
 31
0.0
  0
LINE
  5
107
330
1F
100
AcDbEntity
  8
0
  6
Continuous
 62
     7
370
    25
100
AcDbLine
 10
1138.2608646997
 20
1039.2543978663
 30
0.0
 11
1138.0608646997
 21
1039.2543978663
 31
0.0
  0
LINE
  5
108
330
1F
100
AcDbEntity
  8
0
  6
Continuous
 62
     7
370
    25
100
AcDbLine
 10
1138.2608646997
 20
1094.2543978663
 30
0.0
 11
1138.0608646997
 21
1094.2543978663
 31
0.0
  0
LINE
  5
109
330
1F
100
AcDbEntity
  8
0
  6
Continuous
 62
     7
370
    25
100
AcDbLine
 10
1138.2608646997
 20
1095.2543978663
 30
0.0
 11
1138.0608646997
 21
1095.2543978663
 31
0.0
  0
LINE
  5
10A
330
1F
100
AcDbEntity
  8
0
  6
Continuous
 62
     7
370
    25
100
AcDbLine
 10
1138.0608646997
 20
1038.2543978663
 30
0.0
 11
1138.2608646997
 21
1038.2543978663
 31
0.0
  0
LINE
  5
10B
330
1F
100
AcDbEntity
  8
0
  6
Continuous
 62
     7
370
    25
100
AcDbLine
 10
755.9271177533
 20
1435.0248720752
 30
0.0
 11
755.7831445376
 21
1429.5267567878
 31
0.0
  0
LINE
  5
10C
330
1F
100
AcDbEntity
  8
0
  6
Continuous
 62
     7
370
    25
100
AcDbLine
 10
754.312231985
 20
1459.3254720652
 30
0.0
 11
753.7886930188
 21
1439.3323255656
 31
0.0
  0
LINE
  5
10D
330
1F
100
AcDbEntity
  8
0
  6
Continuous
 62
     7
370
    25
100
AcDbLine
 10
752.6223435987
 20
1440.4586561082
 30
0.0
 11
753.0885334202
 21
1458.2617271317
 31
0.0
  0
LINE
  5
10E
330
1F
100
AcDbEntity
  8
0
  6
Continuous
 62
     7
370
    25
100
AcDbLine
 10
754.8081328374
 20
1449.5948871838
 30
0.0
 11
755.0624227623
 21
1459.3058276283
 31
0.0
  0
LINE
  5
10F
330
1F
100
AcDbEntity
  8
0
  6
Continuous
 62
     7
370
    25
100
AcDbLine
 10
752.9067456257
 20
1456.6661961367
 30
0.0
 11
752.5243085784
 21
1442.0615145215
 31
0.0
  0
LINE
  5
110
330
1F
100
AcDbEntity
  8
0
  6
Continuous
 62
     7
370
    25
100
AcDbLine
 10
755.6182096288
 20
1453.7893867491
 30
0.0
 11
755.4965437888
 21
1449.1431557708
 31
0.0
  0
LINE
  5
111
330
1F
100
AcDbEntity
  8
0
  6
Continuous
 62
     7
370
    25
100
AcDbLine
 10
755.4965437888
 20
1449.1431557708
 30
0.0
 11
755.382617177
 21
1444.7924739934
 31
0.0
  0
LINE
  5
112
330
1F
100
AcDbEntity
  8
0
  6
Continuous
 62
     7
370
    25
100
AcDbLine
 10
1137.0608646997
 20
1464.2543978663
 30
0.0
 11
1136.2608646997
 21
1464.2543978663
 31
0.0
  0
LINE
  5
113
330
1F
100
AcDbEntity
  8
0
  6
Continuous
 62
     7
370
    25
100
AcDbLine
 10
1136.2608646997
 20
1409.2543978663
 30
0.0
 11
1138.0608646997
 21
1409.2543978663
 31
0.0
  0
LINE
  5
114
330
1F
100
AcDbEntity
  8
0
  6
Continuous
 62
     7
370
    25
100
AcDbLine
 10
1138.0608646997
 20
1463.2543978663
 30
0.0
 11
1138.0608646997
 21
1409.2543978663
 31
0.0
  0
LINE
  5
115
330
1F
100
AcDbEntity
  8
0
  6
Continuous
 62
     7
370
    25
100
AcDbLine
 10
1138.0608646997
 20
1094.2543978663
 30
0.0
 11
1136.2608646997
 21
1094.2543978663
 31
0.0
  0
LINE
  5
116
330
1F
100
AcDbEntity
  8
0
  6
Continuous
 62
     7
370
    25
100
AcDbLine
 10
1136.2608646997
 20
1039.2543978663
 30
0.0
 11
1138.0608646997
 21
1039.2543978663
 31
0.0
  0
LINE
  5
117
330
1F
100
AcDbEntity
  8
0
  6
Continuous
 62
     7
370
    25
100
AcDbLine
 10
4220.4562626188
 20
1435.0248720752
 30
0.0
 11
4218.6225156724
 21
1434.9768537215
 31
0.0
  0
LINE
  5
118
330
1F
100
AcDbEntity
  8
0
  6
Continuous
 62
     7
370
    25
100
AcDbLine
 10
4218.6225156724
 20
1429.4749683628
 30
0.0
 11
4220.6002358345
 21
1429.5267567878
 31
0.0
  0
ARC
  5
119
330
1F
100
AcDbEntity
  8
0
  6
Continuous
 62
     7
370
    25
100
AcDbCircle
 10
4220.4641157033
 20
1434.7249748777
 30
0.0
 40
0.3000000000003366
100
AcDbArc
 50
1.5
 51
91.5
  0
ARC
  5
11A
330
1F
100
AcDbEntity
  8
0
  6
Continuous
 62
     7
370
    25
100
AcDbCircle
 10
4220.59238275
 20
1429.8266539853
 30
0.0
 40
0.2999999999998582
100
AcDbArc
 50
271.4999999998
 51
1.5
  0
ARC
  5
11B
330
1F
100
AcDbEntity
  8
0
  6
Continuous
 62
     7
370
    25
100
AcDbCircle
 10
4221.8392611863
 20
1439.5126125938
 30
0.0
 40
0.2000000000000808
100
AcDbArc
 50
181.5
 51
271.5
  0
ARC
  5
11C
330
1F
100
AcDbEntity
  8
0
  6
Continuous
 62
     7
370
    25
100
AcDbCircle
 10
4221.3261929994
 20
1459.1058961633
 30
0.0
 40
0.2000000000000808
100
AcDbArc
 50
91.5
 51
181.4999999999
  0
LINE
  5
11D
330
1F
100
AcDbEntity
  8
0
  6
Continuous
 62
     7
370
    25
100
AcDbLine
 10
4221.8444965759
 20
1439.3126811288
 30
0.0
 11
4222.5946873532
 21
1439.3323255656
 31
0.0
  0
LINE
  5
11E
330
1F
100
AcDbEntity
  8
0
  6
Continuous
 62
     7
370
    25
100
AcDbLine
 10
4222.0711483871
 20
1459.3254720652
 30
0.0
 11
4221.3209576098
 21
1459.3058276283
 31
0.0
  0
ARC
  5
11F
330
1F
100
AcDbEntity
  8
0
  6
Continuous
 62
     7
370
    25
100
AcDbCircle
 10
4222.5632750153
 20
1440.5319143556
 30
0.0
 40
1.2000000000009
100
AcDbArc
 50
271.5
 51
356.5000000034
  0
ARC
  5
120
330
1F
100
AcDbEntity
  8
0
  6
Continuous
 62
     7
370
    25
100
AcDbCircle
 10
4222.1025607251
 20
1458.1258832752
 30
0.0
 40
1.199999999999988
100
AcDbArc
 50
6.4999999965
 51
91.4999999999
  0
LINE
  5
121
330
1F
100
AcDbEntity
  8
0
  6
Continuous
 62
     7
370
    25
100
AcDbLine
 10
4223.7610367734
 20
1440.4586561082
 30
0.0
 11
4223.8590717937
 21
1442.0615145215
 31
0.0
  0
LINE
  5
122
330
1F
100
AcDbEntity
  8
0
  6
Continuous
 62
     7
370
    25
100
AcDbLine
 10
4223.4766347464
 20
1456.6661961367
 30
0.0
 11
4223.2948469519
 21
1458.2617271316
 31
0.0
  0
ARC
  5
123
330
1F
100
AcDbEntity
  8
0
  6
Continuous
 62
     7
370
    25
100
AcDbCircle
 10
4193.915027841
 20
1443.8929707076
 30
0.0
 40
30.00000000000256
100
AcDbArc
 50
356.5
 51
1.4999999999
  0
ARC
  5
124
330
1F
100
AcDbEntity
  8
0
  6
Continuous
 62
     7
370
    25
100
AcDbCircle
 10
4193.6694790761
 20
1453.2700997237
 30
0.0
 40
30.00000000000272
100
AcDbArc
 50
1.4999999999
 51
6.4999999999
  0
LINE
  5
125
330
1F
100
AcDbEntity
  8
0
  6
Continuous
 62
     7
370
    25
100
AcDbLine
 10
4223.7844466987
 20
1449.2723848583
 30
0.0
 11
4223.7819732078
 21
1449.3668436648
 31
0.0
  0
SPLINE
  5
126
330
1F
100
AcDbEntity
  8
0
  6
Continuous
 62
     7
370
    25
100
AcDbSpline
210
0.0
220
0.0
230
1.0
 70
     8
 71
     3
 72
    11
 73
     7
 74
     0
 42
0.00000001
 43
0.00000001
 40
0.0
 40
0.0
 40
0.0
 40
0.0
 40
0.270671270904345
 40
0.5632120728001137
 40
0.7903891635245421
 40
0.9999999999999999
 40
0.9999999999999999
 40
0.9999999999999999
 40
0.9999999999999999
 10
4221.000763232753
 20
1444.792472552355
 30
0.0
 10
4221.072575941264
 20
1444.785344805514
 30
0.0
 10
4221.222003637369
 20
1444.770513408523
 30
0.0
 10
4221.394114863082
 20
1444.63709392635
 30
0.0
 10
4221.495165828707
 20
1444.468965531411
 30
0.0
 10
4221.507801646266
 20
1444.353888307108
 30
0.0
 10
4221.513865468371
 20
1444.298663719286
 30
0.0
  0
SPLINE
  5
127
330
1F
100
AcDbEntity
  8
0
  6
Continuous
 62
     7
370
    25
100
AcDbSpline
210
0.0
220
0.0
230
1.0
 70
     8
 71
     3
 72
    11
 73
     7
 74
     0
 42
0.00000001
 43
0.00000001
 40
0.0
 40
0.0
 40
0.0
 40
0.0
 40
0.2702611354452012
 40
0.5624292112300541
 40
0.7897363411318276
 40
1.0
 40
1.0
 40
1.0
 40
1.0
 10
4221.251910839419
 20
1454.302307405115
 30
0.0
 10
4221.244954148406
 20
1454.231248003406
 30
0.0
 10
4221.230476868007
 20
1454.083369237236
 30
0.0
 10
4221.099664185389
 20
1453.912174445675
 30
0.0
 10
4220.934074778837
 20
1453.810190748556
 30
0.0
 10
4220.819990861022
 20
1453.796140142954
 30
0.0
 10
4220.765170697993
 20
1453.789388477123
 30
0.0
  0
LINE
  5
128
330
1F
100
AcDbEntity
  8
0
  6
Continuous
 62
     7
370
    25
100
AcDbLine
 10
4218.6225156724
 20
1444.7301959483
 30
0.0
 11
4221.0007632328
 21
1444.7924725523
 31
0.0
  0
LINE
  5
129
330
1F
100
AcDbEntity
  8
0
  6
Continuous
 62
     7
370
    25
100
AcDbLine
 10
4220.765170698
 20
1453.7893884771
 30
0.0
 11
4218.6225156724
 21
1453.7332810807
 31
0.0
  0
LINE
  5
12A
330
1F
100
AcDbEntity
  8
0
  6
Continuous
 62
     7
370
    25
100
AcDbLine
 10
3840.1225156724
 20
976.7543978663
 30
0.0
 11
3840.1225156724
 21
1498.2543978663
 31
0.0
  0
LINE
  5
12B
330
1F
100
AcDbEntity
  8
0
  6
Continuous
 62
     7
370
    25
100
AcDbLine
 10
3840.1225156724
 20
976.7543978663
 30
0.0
 11
4218.6225156724
 21
976.7543978663
 31
0.0
  0
LINE
  5
12C
330
1F
100
AcDbEntity
  8
0
  6
Continuous
 62
     7
370
    25
100
AcDbLine
 10
4218.6225156724
 20
976.7543978663
 30
0.0
 11
4218.6225156724
 21
1498.2543978663
 31
0.0
  0
SPLINE
  5
12D
330
1F
100
AcDbEntity
  8
0
  6
Continuous
 62
     7
370
    25
100
AcDbSpline
210
0.0
220
0.0
230
1.0
 70
    24
 71
     3
 72
    12
 73
     8
 74
     0
 42
0.00000001
 43
0.00000001
 40
0.0
 40
0.0
 40
0.0
 40
0.0
 40
0.2460973337398927
 40
0.4921955654200928
 40
0.7383025770442733
 40
0.9844160040480733
 40
1.0
 40
1.0
 40
1.0
 40
1.0
 10
4220.828146424102
 20
1432.283667515998
 30
0.0
 10
4220.836375901103
 20
1431.969396468498
 30
0.0
 10
4220.852834885132
 20
1431.340853226812
 30
0.0
 10
4220.874150888241
 20
1430.526827909649
 30
0.0
 10
4220.887691150987
 20
1430.009746136901
 30
0.0
 10
4220.893610628069
 20
1429.783690427247
 30
0.0
 10
4220.892090397732
 20
1429.84174568166
 30
0.0
 10
4220.891999868512
 20
1429.845202853074
 30
0.0
  0
SPLINE
  5
12E
330
1F
100
AcDbEntity
  8
0
  6
Continuous
 62
     7
370
    25
100
AcDbSpline
210
0.0
220
0.0
230
1.0
 70
     8
 71
     3
 72
    11
 73
     7
 74
     0
 42
0.00000001
 43
0.00000001
 40
0.0
 40
0.0
 40
0.0
 40
0.0
 40
0.238224734985727
 40
0.4921376904604199
 40
0.7460575595488851
 40
1.0
 40
1.0
 40
1.0
 40
1.0
 10
4220.764286695023
 20
1434.722372180736
 30
0.0
 10
4220.764959079326
 20
1434.696694861222
 30
0.0
 10
4220.766348127605
 20
1434.643649249801
 30
0.0
 10
4220.779885724841
 20
1434.126669251055
 30
0.0
 10
4220.799986316175
 20
1433.359058705192
 30
0.0
 10
4220.816369957567
 20
1432.733392512937
 30
0.0
 10
4220.82456214234
 20
1432.420545513299
 30
0.0
  0
LINE
  5
12F
330
1F
100
AcDbEntity
  8
0
  6
Continuous
 62
     7
370
    25
100
AcDbLine
 10
4220.8245621423
 20
1432.4205455133
 30
0.0
 11
4220.8281464241
 21
1432.283667516
 31
0.0
  0
SPLINE
  5
130
330
1F
100
AcDbEntity
  8
0
  6
Continuous
 62
     7
370
    25
100
AcDbSpline
210
0.0
220
0.0
230
1.0
 70
    24
 71
     3
 72
    13
 73
     9
 74
     0
 42
0.00000001
 43
0.00000001
 40
0.0
 40
0.0
 40
0.0
 40
0.0
 40
0.181320153790798
 40
0.4101468448380607
 40
0.5438150184965165
 40
0.6886421238875815
 40
0.841996687412693
 40
1.0
 40
1.0
 40
1.0
 40
1.0
 10
4221.38279562786
 20
1449.304018988888
 30
0.0
 10
4221.358568754217
 20
1450.229205966929
 30
0.0
 10
4221.303767478257
 20
1452.321982263417
 30
0.0
 10
4221.237407247236
 20
1454.856177244853
 30
0.0
 10
4221.187436230683
 20
1456.764493376595
 30
0.0
 10
4221.154514141967
 20
1458.021737221527
 30
0.0
 10
4221.131231983241
 20
1458.910846992433
 30
0.0
 10
4221.127939789832
 20
1459.036570786431
 30
0.0
 10
4221.126269115973
 20
1459.10037124708
 30
0.0
  0
SPLINE
  5
131
330
1F
100
AcDbEntity
  8
0
  6
Continuous
 62
     7
370
    25
100
AcDbSpline
210
0.0
220
0.0
230
1.0
 70
    24
 71
     3
 72
    13
 73
     9
 74
     0
 42
0.00000001
 43
0.00000001
 40
0.0
 40
0.0
 40
0.0
 40
0.0
 40
0.1538581583653104
 40
0.3079676862453736
 40
0.4535077802385879
 40
0.5878340078346354
 40
0.817787216381397
 40
1.0
 40
1.0
 40
1.0
 40
1.0
 10
4221.639096032821
 20
1439.516301405851
 30
0.0
 10
4221.637776556179
 20
1439.566690185943
 30
0.0
 10
4221.635135447164
 20
1439.667550070024
 30
0.0
 10
4221.612908661751
 20
1440.516356760079
 30
0.0
 10
4221.580740651455
 20
1441.744803511995
 30
0.0
 10
4221.531477719868
 20
1443.626078969868
 30
0.0
 10
4221.465658391128
 20
1446.139617726498
 30
0.0
 10
4221.410933327981
 20
1448.229483573088
 30
0.0
 10
4221.386740147856
 20
1449.153383847577
 30
0.0
  0
LINE
  5
132
330
1F
100
AcDbEntity
  8
0
  6
Continuous
 62
     7
370
    25
100
AcDbLine
 10
4223.7844466987
 20
1449.2723848582
 30
0.0
 11
4223.9047475903
 21
1444.6782791568
 31
0.0
  0
LINE
  5
133
330
1F
100
AcDbEntity
  8
0
  6
Continuous
 62
     7
370
    25
100
AcDbLine
 10
4223.6591988253
 20
1454.0554081729
 30
0.0
 11
4223.7819732078
 21
1449.3668436648
 31
0.0
  0
SPLINE
  5
134
330
1F
100
AcDbEntity
  8
0
  6
Continuous
 62
     7
370
    25
100
AcDbSpline
210
0.0
220
0.0
230
1.0
 70
     8
 71
     3
 72
    11
 73
     7
 74
     0
 42
0.00000001
 43
0.00000001
 40
0.0
 40
0.0
 40
0.0
 40
0.0
 40
0.270260205168422
 40
0.5624283659899043
 40
0.7897359586727938
 40
0.9999999999999999
 40
0.9999999999999999
 40
0.9999999999999999
 40
0.9999999999999999
 10
4221.378496043735
 20
1449.468213482244
 30
0.0
 10
4221.369746636024
 20
1449.465656025559
 30
0.0
 10
4221.351538572131
 20
1449.460333798473
 30
0.0
 10
4221.216480299726
 20
1449.451285824092
 30
0.0
 10
4221.048418110193
 20
1449.443677152427
 30
0.0
 10
4220.934052746301
 20
1449.440318953098
 30
0.0
 10
4220.879097347617
 20
1449.438705254887
 30
0.0
  0
SPLINE
  5
135
330
1F
100
AcDbEntity
  8
0
  6
Continuous
 62
     7
370
    25
100
AcDbSpline
210
0.0
220
0.0
230
1.0
 70
     8
 71
     3
 72
    10
 73
     6
 74
     0
 42
0.00000001
 43
0.00000001
 40
0.0
 40
0.0
 40
0.0
 40
0.0
 40
0.3698682463933706
 40
0.7394183665211167
 40
1.0
 40
1.0
 40
1.0
 40
1.0
 10
4221.106375995107
 20
1448.781609380492
 30
0.0
 10
4221.103156272138
 20
1448.905185441904
 30
0.0
 10
4221.096719595507
 20
1449.152231276092
 30
0.0
 10
4221.087227043606
 20
1449.518343236764
 30
0.0
 10
4221.081699744656
 20
1449.725556144413
 30
0.0
 10
4221.079414012218
 20
1449.811245966652
 30
0.0
  0
LINE
  5
136
330
1F
100
AcDbEntity
  8
0
  6
Continuous
 62
     7
370
    25
100
AcDbLine
 10
3824.1225156724
 20
999.7543978663
 30
0.0
 11
3824.1225156724
 21
986.7543978663
 31
0.0
  0
LINE
  5
137
330
1F
100
AcDbEntity
  8
0
  6
Continuous
 62
     7
370
    25
100
AcDbLine
 10
3820.1225156724
 20
986.7543978663
 30
0.0
 11
3824.1225156724
 21
986.7543978663
 31
0.0
  0
LINE
  5
138
330
1F
100
AcDbEntity
  8
0
  6
Continuous
 62
     7
370
    25
100
AcDbLine
 10
3820.1225156724
 20
986.7543978663
 30
0.0
 11
3820.1225156724
 21
1516.7543978663
 31
0.0
  0
LINE
  5
139
330
1F
100
AcDbEntity
  8
0
  6
Continuous
 62
     7
370
    25
100
AcDbLine
 10
3838.1225156724
 20
1020.2543978663
 30
0.0
 11
3836.6225156724
 21
1020.2543978663
 31
0.0
  0
LINE
  5
13A
330
1F
100
AcDbEntity
  8
0
  6
Continuous
 62
     7
370
    25
100
AcDbLine
 10
3836.6225156724
 20
999.7543978663
 30
0.0
 11
3824.1225156724
 21
999.7543978663
 31
0.0
  0
LINE
  5
13B
330
1F
100
AcDbEntity
  8
0
  6
Continuous
 62
     7
370
    25
100
AcDbLine
 10
3836.6225156724
 20
1020.2543978663
 30
0.0
 11
3836.6225156724
 21
999.7543978663
 31
0.0
  0
LINE
  5
13C
330
1F
100
AcDbEntity
  8
0
  6
Continuous
 62
     7
370
    25
100
AcDbLine
 10
3838.1225156724
 20
1020.2543978663
 30
0.0
 11
3838.1225156724
 21
1516.7543978663
 31
0.0
  0
LINE
  5
13D
330
1F
100
AcDbEntity
  8
0
  6
Continuous
 62
     7
370
    25
100
AcDbLine
 10
3820.1225156724
 20
1516.7543978663
 30
0.0
 11
3838.1225156724
 21
1516.7543978663
 31
0.0
  0
LINE
  5
13E
330
1F
100
AcDbEntity
  8
0
  6
Continuous
 62
     7
370
    25
100
AcDbLine
 10
3839.6225156724
 20
1526.7543978663
 30
0.0
 11
3839.6225156724
 21
1498.2543978663
 31
0.0
  0
LINE
  5
13F
330
1F
100
AcDbEntity
  8
0
  6
Continuous
 62
     7
370
    25
100
AcDbLine
 10
4218.6225156724
 20
1498.2543978663
 30
0.0
 11
4218.6225156724
 21
1526.7543978663
 31
0.0
  0
LINE
  5
140
330
1F
100
AcDbEntity
  8
0
  6
Continuous
 62
     7
370
    25
100
AcDbLine
 10
3839.6225156724
 20
1498.2543978663
 30
0.0
 11
4218.6225156724
 21
1498.2543978663
 31
0.0
  0
LINE
  5
141
330
1F
100
AcDbEntity
  8
0
  6
Continuous
 62
     7
370
    25
100
AcDbLine
 10
4218.6225156724
 20
1526.7543978663
 30
0.0
 11
3839.6225156724
 21
1526.7543978663
 31
0.0
  0
LINE
  5
142
330
1F
100
AcDbEntity
  8
0
  6
Continuous
 62
     7
370
    25
100
AcDbLine
 10
3838.4225156724
 20
1019.5543978663
 30
0.0
 11
3838.2225156724
 21
1019.5543978663
 31
0.0
  0
LINE
  5
143
330
1F
100
AcDbEntity
  8
0
  6
Continuous
 62
     7
370
    25
100
AcDbLine
 10
3838.2225156724
 20
1019.7543978663
 30
0.0
 11
3838.2225156724
 21
1019.5543978663
 31
0.0
  0
ARC
  5
144
330
1F
100
AcDbEntity
  8
0
  6
Continuous
 62
     7
370
    25
100
AcDbCircle
 10
3838.2225156724
 20
1019.5543978663
 30
0.0
 40
0.2000000000002728
100
AcDbArc
 50
0.0
 51
90.0
  0
LINE
  5
145
330
1F
100
AcDbEntity
  8
0
  6
Continuous
 62
     7
370
    25
100
AcDbLine
 10
3836.6225156724
 20
1019.7543978663
 30
0.0
 11
3838.2225156724
 21
1019.7543978663
 31
0.0
  0
LINE
  5
146
330
1F
100
AcDbEntity
  8
0
  6
Continuous
 62
     7
370
    25
100
AcDbLine
 10
3838.2225156724
 20
1019.5543978663
 30
0.0
 11
3836.8225156724
 21
1019.5543978663
 31
0.0
  0
LINE
  5
147
330
1F
100
AcDbEntity
  8
0
  6
Continuous
 62
     7
370
    25
100
AcDbLine
 10
3836.6225156724
 20
1019.7543978663
 30
0.0
 11
3836.8225156724
 21
1019.5543978663
 31
0.0
  0
ARC
  5
148
330
1F
100
AcDbEntity
  8
0
  6
Continuous
 62
     7
370
    25
100
AcDbCircle
 10
3827.0393294423
 20
996.7543978663
 30
0.0
 40
1.199999999999961
100
AcDbArc
 50
90.0
 51
175.0300534053
  0
LINE
  5
149
330
1F
100
AcDbEntity
  8
0
  6
Continuous
 62
     7
370
    25
100
AcDbLine
 10
3825.0026524914
 20
987.1850913096
 30
0.0
 11
3825.84384111
 21
996.8583577014
 31
0.0
  0
ARC
  5
14A
330
1F
100
AcDbEntity
  8
0
  6
Continuous
 62
     7
370
    25
100
AcDbCircle
 10
3824.2056602699
 20
987.2543978663
 30
0.0
 40
0.8000000000000178
100
AcDbArc
 50
260.423411519
 51
355.0300534053
  0
ARC
  5
14B
330
1F
100
AcDbEntity
  8
0
  6
Continuous
 62
     7
370
    25
100
AcDbCircle
 10
3824.1224773464
 20
986.7613658174
 30
0.0
 40
0.3000000000004442
100
AcDbArc
 50
223.6216529672
 51
260.4234115189
  0
LINE
  5
14C
330
1F
100
AcDbEntity
  8
0
  6
Continuous
 62
     7
370
    25
100
AcDbLine
 10
3824.3225156724
 20
986.5543978663
 30
0.0
 11
3823.9053039889
 21
986.5543978663
 31
0.0
  0
LINE
  5
14D
330
1F
100
AcDbEntity
  8
0
  6
Continuous
 62
     7
370
    25
100
AcDbLine
 10
3824.3225156724
 20
999.5543978663
 30
0.0
 11
3824.3225156724
 21
986.5543978663
 31
0.0
  0
LINE
  5
14E
330
1F
100
AcDbEntity
  8
0
  6
Continuous
 62
     7
370
    25
100
AcDbLine
 10
3836.8225156724
 20
999.5543978663
 30
0.0
 11
3824.3225156724
 21
999.5543978663
 31
0.0
  0
LINE
  5
14F
330
1F
100
AcDbEntity
  8
0
  6
Continuous
 62
     7
370
    25
100
AcDbLine
 10
3836.8225156724
 20
1019.5543978663
 30
0.0
 11
3836.8225156724
 21
999.5543978663
 31
0.0
  0
LINE
  5
150
330
1F
100
AcDbEntity
  8
0
  6
Continuous
 62
     7
370
    25
100
AcDbLine
 10
3838.2225156724
 20
998.7543978663
 30
0.0
 11
3838.2225156724
 21
1019.5543978663
 31
0.0
  0
ARC
  5
151
330
1F
100
AcDbEntity
  8
0
  6
Continuous
 62
     7
370
    25
100
AcDbCircle
 10
3837.4225156724
 20
998.7543978663
 30
0.0
 40
0.8000000000001819
100
AcDbArc
 50
270.0
 51
0.0
  0
LINE
  5
152
330
1F
100
AcDbEntity
  8
0
  6
Continuous
 62
     7
370
    25
100
AcDbLine
 10
3827.0393294423
 20
997.9543978663
 30
0.0
 11
3837.4225156724
 21
997.9543978663
 31
0.0
  0
LINE
  5
153
330
1F
100
AcDbEntity
  8
0
  6
Continuous
 62
     7
370
    25
100
AcDbLine
 10
3836.6225156724
 20
999.7543978663
 30
0.0
 11
3836.8225156724
 21
999.5543978663
 31
0.0
  0
LINE
  5
154
330
1F
100
AcDbEntity
  8
0
  6
Continuous
 62
     7
370
    25
100
AcDbLine
 10
3838.4225156724
 20
1019.5543978663
 30
0.0
 11
3838.4225156724
 21
998.7543978663
 31
0.0
  0
LINE
  5
155
330
1F
100
AcDbEntity
  8
0
  6
Continuous
 62
     7
370
    25
100
AcDbLine
 10
3838.4225156724
 20
998.7543978663
 30
0.0
 11
3838.2225156724
 21
998.7543978663
 31
0.0
  0
ARC
  5
156
330
1F
100
AcDbEntity
  8
0
  6
Continuous
 62
     7
370
    25
100
AcDbCircle
 10
3837.4225156724
 20
998.7543978663
 30
0.0
 40
1.000000000000455
100
AcDbArc
 50
270.0
 51
0.0
  0
LINE
  5
157
330
1F
100
AcDbEntity
  8
0
  6
Continuous
 62
     7
370
    25
100
AcDbLine
 10
3837.4225156724
 20
997.9543978663
 30
0.0
 11
3837.4225156724
 21
997.7543978663
 31
0.0
  0
LINE
  5
158
330
1F
100
AcDbEntity
  8
0
  6
Continuous
 62
     7
370
    25
100
AcDbLine
 10
3824.1225156724
 20
999.7543978663
 30
0.0
 11
3824.3225156724
 21
999.5543978663
 31
0.0
  0
LINE
  5
159
330
1F
100
AcDbEntity
  8
0
  6
Continuous
 62
     7
370
    25
100
AcDbLine
 10
3824.1225156724
 20
986.7543978663
 30
0.0
 11
3824.3225156724
 21
986.5543978663
 31
0.0
  0
LINE
  5
15A
330
1F
100
AcDbEntity
  8
0
  6
Continuous
 62
     7
370
    25
100
AcDbLine
 10
3837.4225156724
 20
997.7543978663
 30
0.0
 11
3827.0393294423
 21
997.7543978663
 31
0.0
  0
LINE
  5
15B
330
1F
100
AcDbEntity
  8
0
  6
Continuous
 62
     7
370
    25
100
AcDbLine
 10
3827.0393294423
 20
997.9543978663
 30
0.0
 11
3827.0393294423
 21
997.7543978663
 31
0.0
  0
LINE
  5
15C
330
1F
100
AcDbEntity
  8
0
  6
Continuous
 62
     7
370
    25
100
AcDbLine
 10
3825.84384111
 20
996.8583577014
 30
0.0
 11
3826.0430891654
 21
996.8410310622
 31
0.0
  0
LINE
  5
15D
330
1F
100
AcDbEntity
  8
0
  6
Continuous
 62
     7
370
    25
100
AcDbLine
 10
3826.0430891654
 20
996.8410310622
 30
0.0
 11
3825.2019005468
 21
987.1677646704
 31
0.0
  0
LINE
  5
15E
330
1F
100
AcDbEntity
  8
0
  6
Continuous
 62
     7
370
    25
100
AcDbLine
 10
3825.0026524914
 20
987.1850913096
 30
0.0
 11
3825.2019005468
 21
987.1677646704
 31
0.0
  0
ARC
  5
15F
330
1F
100
AcDbEntity
  8
0
  6
Continuous
 62
     7
370
    25
100
AcDbCircle
 10
3827.0393294423
 20
996.7543978663
 30
0.0
 40
1.0
100
AcDbArc
 50
90.0
 51
175.0300534053
  0
SPLINE
  5
160
330
1F
100
AcDbEntity
  8
0
  6
Continuous
 62
     7
370
    25
100
AcDbSpline
210
0.0
220
0.0
230
1.0
 70
     8
 71
     3
 72
    13
 73
     9
 74
     0
 42
0.00000001
 43
0.00000001
 40
0.0
 40
0.0
 40
0.0
 40
0.0
 40
0.0075029974113257
 40
0.3818974549657835
 40
0.6070018873269287
 40
0.7653769096342831
 40
0.8824605049807405
 40
1.0
 40
1.0
 40
1.0
 40
1.0
 10
3823.905303988902
 20
986.5543978663125
 30
0.0
 10
3823.904286212287
 20
986.5548358642076
 30
0.0
 10
3823.852482076148
 20
986.5771296585768
 30
0.0
 10
3823.77389671078
 20
986.6240140467926
 30
0.0
 10
3823.691257246748
 20
986.6902984838289
 30
0.0
 10
3823.649161128649
 20
986.7285600430016
 30
0.0
 10
3823.626637701814
 20
986.7503158187366
 30
0.0
 10
3823.6238982757
 20
986.7530354222862
 30
0.0
 10
3823.622525901132
 20
986.7543978663125
 30
0.0
  0
LINE
  5
161
330
1F
100
AcDbEntity
  8
0
  6
Continuous
 62
     7
370
    25
100
AcDbLine
 10
3824.0725675924
 20
986.4655465881
 30
0.0
 11
3824.039294423
 21
986.2683337685
 31
0.0
  0
ARC
  5
162
330
1F
100
AcDbEntity
  8
0
  6
Continuous
 62
     7
370
    25
100
AcDbCircle
 10
3824.1224773464
 20
986.7613658174
 30
0.0
 40
0.5000000000006438
100
AcDbArc
 50
180.7984942261
 51
260.4234115189
  0
ARC
  5
163
330
1F
100
AcDbEntity
  8
0
  6
Continuous
 62
     7
370
    25
100
AcDbCircle
 10
3824.2056602699
 20
987.2543978663
 30
0.0
 40
0.9999999999999706
100
AcDbArc
 50
260.4234115189
 51
355.0300534053
  0
LINE
  5
164
330
1F
100
AcDbEntity
  8
0
  6
Continuous
 62
     7
370
    25
100
AcDbLine
 10
3839.3225156724
 20
1484.0543978663
 30
0.0
 11
3839.3225156724
 21
1485.2543978663
 31
0.0
  0
LINE
  5
165
330
1F
100
AcDbEntity
  8
0
  6
Continuous
 62
     7
370
    25
100
AcDbLine
 10
3839.3225156724
 20
1484.0543978663
 30
0.0
 11
3840.1225156724
 21
1484.0543978663
 31
0.0
  0
LINE
  5
166
330
1F
100
AcDbEntity
  8
0
  6
Continuous
 62
     7
370
    25
100
AcDbLine
 10
3839.3225156724
 20
1485.2543978663
 30
0.0
 11
3840.1225156724
 21
1485.2543978663
 31
0.0
  0
LINE
  5
167
330
1F
100
AcDbEntity
  8
0
  6
Continuous
 62
     7
370
    25
100
AcDbLine
 10
3838.1225156724
 20
1484.0543978663
 30
0.0
 11
3839.3225156724
 21
1484.0543978663
 31
0.0
  0
LINE
  5
168
330
1F
100
AcDbEntity
  8
0
  6
Continuous
 62
     7
370
    25
100
AcDbLine
 10
3838.1225156724
 20
1485.2543978663
 30
0.0
 11
3839.3225156724
 21
1485.2543978663
 31
0.0
  0
LINE
  5
169
330
1F
100
AcDbEntity
  8
0
  6
Continuous
 62
     7
370
    25
100
AcDbLine
 10
3839.3225156724
 20
1466.2543978663
 30
0.0
 11
3839.3225156724
 21
1484.0543978663
 31
0.0
  0
LINE
  5
16A
330
1F
100
AcDbEntity
  8
0
  6
Continuous
 62
     7
370
    25
100
AcDbLine
 10
3838.1225156724
 20
1466.2543978663
 30
0.0
 11
3839.3225156724
 21
1466.2543978663
 31
0.0
  0
LINE
  5
16B
330
1F
100
AcDbEntity
  8
0
  6
Continuous
 62
     7
370
    25
100
AcDbLine
 10
3839.3225156724
 20
1466.2543978663
 30
0.0
 11
3839.3225156724
 21
1465.2470896858
 31
0.0
  0
LINE
  5
16C
330
1F
100
AcDbEntity
  8
0
  6
Continuous
 62
     7
370
    25
100
AcDbLine
 10
3838.6225156724
 20
1427.7984397273
 30
0.0
 11
3838.1225156724
 21
1427.7984397273
 31
0.0
  0
LINE
  5
16D
330
1F
100
AcDbEntity
  8
0
  6
Continuous
 62
     7
370
    25
100
AcDbLine
 10
3838.6225156724
 20
1429.3543978665
 30
0.0
 11
3838.1225156724
 21
1429.3543978665
 31
0.0
  0
LINE
  5
16E
330
1F
100
AcDbEntity
  8
0
  6
Continuous
 62
     7
370
    25
100
AcDbLine
 10
3838.6225156724
 20
1429.3543978665
 30
0.0
 11
3838.6225156724
 21
1427.7984397273
 31
0.0
  0
LINE
  5
16F
330
1F
100
AcDbEntity
  8
0
  6
Continuous
 62
     7
370
    25
100
AcDbLine
 10
3838.1225156724
 20
1445.7103560054
 30
0.0
 11
3838.6225156724
 21
1445.7103560054
 31
0.0
  0
LINE
  5
170
330
1F
100
AcDbEntity
  8
0
  6
Continuous
 62
     7
370
    25
100
AcDbLine
 10
3838.6225156724
 20
1445.7103560054
 30
0.0
 11
3838.6225156724
 21
1444.1543978661
 31
0.0
  0
LINE
  5
171
330
1F
100
AcDbEntity
  8
0
  6
Continuous
 62
     7
370
    25
100
AcDbLine
 10
3838.1225156724
 20
1444.1543978661
 30
0.0
 11
3838.6225156724
 21
1444.1543978661
 31
0.0
  0
LINE
  5
172
330
1F
100
AcDbEntity
  8
0
  6
Continuous
 62
     7
370
    25
100
AcDbLine
 10
3838.3225156724
 20
1418.3628237086
 30
0.0
 11
3838.6225156724
 21
1418.3628237086
 31
0.0
  0
LINE
  5
173
330
1F
100
AcDbEntity
  8
0
  6
Continuous
 62
     7
370
    25
100
AcDbLine
 10
3838.1225156724
 20
1418.3628237086
 30
0.0
 11
3838.3225156724
 21
1418.3628237086
 31
0.0
  0
LINE
  5
174
330
1F
100
AcDbEntity
  8
0
  6
Continuous
 62
     7
370
    25
100
AcDbLine
 10
3838.6225156724
 20
1418.3628237086
 30
0.0
 11
3838.6225156724
 21
1427.7984397273
 31
0.0
  0
LINE
  5
175
330
1F
100
AcDbEntity
  8
0
  6
Continuous
 62
     7
370
    25
100
AcDbLine
 10
3838.3225156724
 20
1455.1459720241
 30
0.0
 11
3838.1225156724
 21
1455.1459720241
 31
0.0
  0
LINE
  5
176
330
1F
100
AcDbEntity
  8
0
  6
Continuous
 62
     7
370
    25
100
AcDbLine
 10
3838.6225156724
 20
1455.1459720241
 30
0.0
 11
3838.3225156724
 21
1455.1459720241
 31
0.0
  0
LINE
  5
177
330
1F
100
AcDbEntity
  8
0
  6
Continuous
 62
     7
370
    25
100
AcDbLine
 10
3838.6225156724
 20
1445.7103560054
 30
0.0
 11
3838.6225156724
 21
1455.1459720241
 31
0.0
  0
SPLINE
  5
178
330
1F
100
AcDbEntity
  8
0
  6
Continuous
 62
     7
370
    25
100
AcDbSpline
210
0.0
220
0.0
230
1.0
 70
    24
 71
     3
 72
    12
 73
     8
 74
     0
 42
0.00000001
 43
0.00000001
 40
0.0
 40
0.0
 40
0.0
 40
0.0
 40
0.1234882189614397
 40
0.3047574776073359
 40
0.4857888495162774
 40
0.667058215399805
 40
1.0
 40
1.0
 40
1.0
 40
1.0
 10
3840.122515672363
 20
1408.254397866317
 30
0.0
 10
3840.082769103327
 20
1408.254397866317
 30
0.0
 10
3839.984678255269
 20
1408.254397866318
 30
0.0
 10
3839.744704966908
 20
1408.254397866317
 30
0.0
 10
3839.429090778414
 20
1408.254397866317
 30
0.0
 10
3838.962180689314
 20
1408.254397866318
 30
0.0
 10
3838.573912089077
 20
1408.254397866316
 30
0.0
 10
3838.322515672361
 20
1408.254397866315
 30
0.0
  0
LINE
  5
179
330
1F
100
AcDbEntity
  8
0
  6
Continuous
 62
     7
370
    25
100
AcDbLine
 10
3838.3225156724
 20
1409.2543978663
 30
0.0
 11
3838.3225156724
 21
1408.2543978663
 31
0.0
  0
SPLINE
  5
17A
330
1F
100
AcDbEntity
  8
0
  6
Continuous
 62
     7
370
    25
100
AcDbSpline
210
0.0
220
0.0
230
1.0
 70
    24
 71
     3
 72
    12
 73
     8
 74
     0
 42
0.00000001
 43
0.00000001
 40
0.0
 40
0.0
 40
0.0
 40
0.0
 40
0.3329369653740689
 40
0.5139656098125831
 40
0.6952322446441193
 40
0.8762609961846118
 40
1.0
 40
1.0
 40
1.0
 40
1.0
 10
3838.322515672355
 20
1465.254397866314
 30
0.0
 10
3838.573913085497
 20
1465.254397866315
 30
0.0
 10
3838.962003439495
 20
1465.254397866317
 30
0.0
 10
3839.42893270917
 20
1465.254397866317
 30
0.0
 10
3839.744451598192
 20
1465.254397866317
 30
0.0
 10
3839.984575816709
 20
1465.254397866317
 30
0.0
 10
3840.08268306772
 20
1465.254397866317
 30
0.0
 10
3840.122515672363
 20
1465.254397866317
 30
0.0
  0
LINE
  5
17B
330
1F
100
AcDbEntity
  8
0
  6
Continuous
 62
     7
370
    25
100
AcDbLine
 10
3838.3225156724
 20
1464.2543978663
 30
0.0
 11
3838.3225156724
 21
1465.2543978663
 31
0.0
  0
LINE
  5
17C
330
1F
100
AcDbEntity
  8
0
  6
Continuous
 62
     7
370
    25
100
AcDbLine
 10
3838.1225156724
 20
1409.2543978663
 30
0.0
 11
3838.3225156724
 21
1409.2543978663
 31
0.0
  0
LINE
  5
17D
330
1F
100
AcDbEntity
  8
0
  6
Continuous
 62
     7
370
    25
100
AcDbLine
 10
3838.3225156724
 20
1409.2543978663
 30
0.0
 11
3838.3225156724
 21
1418.3628237086
 31
0.0
  0
SPLINE
  5
17E
330
1F
100
AcDbEntity
  8
0
  6
Continuous
 62
     7
370
    25
100
AcDbSpline
210
0.0
220
0.0
230
1.0
 70
     8
 71
     3
 72
    10
 73
     6
 74
     0
 42
0.00000001
 43
0.00000001
 40
0.0
 40
0.0
 40
0.0
 40
0.0
 40
0.0371311943392859
 40
0.5486628195573338
 40
1.0
 40
1.0
 40
1.0
 40
1.0
 10
3840.122515672363
 20
1426.508633526145
 30
0.0
 10
3840.11689282015
 20
1426.51535187357
 30
0.0
 10
3840.033807694444
 20
1426.614624399192
 30
0.0
 10
3839.812251721859
 20
1426.715053312386
 30
0.0
 10
3839.580940832613
 20
1426.741841237216
 30
0.0
 10
3839.472515672359
 20
1426.754397866314
 30
0.0
  0
LINE
  5
17F
330
1F
100
AcDbEntity
  8
0
  6
Continuous
 62
     7
370
    25
100
AcDbLine
 10
3838.6225156724
 20
1426.7543978663
 30
0.0
 11
3839.4725156724
 21
1426.7543978663
 31
0.0
  0
LINE
  5
180
330
1F
100
AcDbEntity
  8
0
  6
Continuous
 62
     7
370
    25
100
AcDbLine
 10
3838.1225156724
 20
1464.2543978663
 30
0.0
 11
3838.3225156724
 21
1464.2543978663
 31
0.0
  0
LINE
  5
181
330
1F
100
AcDbEntity
  8
0
  6
Continuous
 62
     7
370
    25
100
AcDbLine
 10
3838.3225156724
 20
1455.1459720241
 30
0.0
 11
3838.3225156724
 21
1464.2543978663
 31
0.0
  0
SPLINE
  5
182
330
1F
100
AcDbEntity
  8
0
  6
Continuous
 62
     7
370
    25
100
AcDbSpline
210
0.0
220
0.0
230
1.0
 70
     8
 71
     3
 72
     9
 73
     5
 74
     0
 42
0.00000001
 43
0.00000001
 40
0.0
 40
0.0
 40
0.0
 40
0.0
 40
0.505008126893512
 40
1.0
 40
1.0
 40
1.0
 40
1.0
 10
3839.472515672357
 20
1446.754397866314
 30
0.0
 10
3839.595811944224
 20
1446.766617725698
 30
0.0
 10
3839.8399590486
 20
1446.790815077648
 30
0.0
 10
3840.028961162154
 20
1446.927891150911
 30
0.0
 10
3840.122515672363
 20
1446.995742693173
 30
0.0
  0
LINE
  5
183
330
1F
100
AcDbEntity
  8
0
  6
Continuous
 62
     7
370
    25
100
AcDbLine
 10
3839.4725156724
 20
1446.7543978663
 30
0.0
 11
3838.6225156724
 21
1446.7543978663
 31
0.0
  0
LINE
  5
184
330
1F
100
AcDbEntity
  8
0
  6
Continuous
 62
     7
370
    25
100
AcDbLine
 10
3838.1225156724
 20
1408.2543978663
 30
0.0
 11
3838.3225156724
 21
1408.2543978663
 31
0.0
  0
LINE
  5
185
330
1F
100
AcDbEntity
  8
0
  6
Continuous
 62
     7
370
    25
100
AcDbLine
 10
3838.1225156724
 20
1465.2543978663
 30
0.0
 11
3838.3225156724
 21
1465.2543978663
 31
0.0
  0
LINE
  5
186
330
1F
100
AcDbEntity
  8
0
  6
Continuous
 62
     7
370
    25
100
AcDbLine
 10
3838.6225156724
 20
1057.7984397273
 30
0.0
 11
3838.1225156724
 21
1057.7984397273
 31
0.0
  0
LINE
  5
187
330
1F
100
AcDbEntity
  8
0
  6
Continuous
 62
     7
370
    25
100
AcDbLine
 10
3838.6225156724
 20
1059.3543978665
 30
0.0
 11
3838.1225156724
 21
1059.3543978665
 31
0.0
  0
LINE
  5
188
330
1F
100
AcDbEntity
  8
0
  6
Continuous
 62
     7
370
    25
100
AcDbLine
 10
3838.6225156724
 20
1059.3543978665
 30
0.0
 11
3838.6225156724
 21
1057.7984397273
 31
0.0
  0
LINE
  5
189
330
1F
100
AcDbEntity
  8
0
  6
Continuous
 62
     7
370
    25
100
AcDbLine
 10
3838.1225156724
 20
1075.7103560054
 30
0.0
 11
3838.6225156724
 21
1075.7103560054
 31
0.0
  0
LINE
  5
18A
330
1F
100
AcDbEntity
  8
0
  6
Continuous
 62
     7
370
    25
100
AcDbLine
 10
3838.6225156724
 20
1075.7103560054
 30
0.0
 11
3838.6225156724
 21
1074.1543978661
 31
0.0
  0
LINE
  5
18B
330
1F
100
AcDbEntity
  8
0
  6
Continuous
 62
     7
370
    25
100
AcDbLine
 10
3838.1225156724
 20
1074.1543978661
 30
0.0
 11
3838.6225156724
 21
1074.1543978661
 31
0.0
  0
LINE
  5
18C
330
1F
100
AcDbEntity
  8
0
  6
Continuous
 62
     7
370
    25
100
AcDbLine
 10
3838.3225156724
 20
1048.3628237086
 30
0.0
 11
3838.6225156724
 21
1048.3628237086
 31
0.0
  0
LINE
  5
18D
330
1F
100
AcDbEntity
  8
0
  6
Continuous
 62
     7
370
    25
100
AcDbLine
 10
3838.1225156724
 20
1048.3628237086
 30
0.0
 11
3838.3225156724
 21
1048.3628237086
 31
0.0
  0
LINE
  5
18E
330
1F
100
AcDbEntity
  8
0
  6
Continuous
 62
     7
370
    25
100
AcDbLine
 10
3838.6225156724
 20
1048.3628237086
 30
0.0
 11
3838.6225156724
 21
1057.7984397273
 31
0.0
  0
LINE
  5
18F
330
1F
100
AcDbEntity
  8
0
  6
Continuous
 62
     7
370
    25
100
AcDbLine
 10
3838.3225156724
 20
1085.1459720241
 30
0.0
 11
3838.1225156724
 21
1085.1459720241
 31
0.0
  0
LINE
  5
190
330
1F
100
AcDbEntity
  8
0
  6
Continuous
 62
     7
370
    25
100
AcDbLine
 10
3838.6225156724
 20
1085.1459720241
 30
0.0
 11
3838.3225156724
 21
1085.1459720241
 31
0.0
  0
LINE
  5
191
330
1F
100
AcDbEntity
  8
0
  6
Continuous
 62
     7
370
    25
100
AcDbLine
 10
3838.6225156724
 20
1075.7103560054
 30
0.0
 11
3838.6225156724
 21
1085.1459720241
 31
0.0
  0
SPLINE
  5
192
330
1F
100
AcDbEntity
  8
0
  6
Continuous
 62
     7
370
    25
100
AcDbSpline
210
0.0
220
0.0
230
1.0
 70
    24
 71
     3
 72
    12
 73
     8
 74
     0
 42
0.00000001
 43
0.00000001
 40
0.0
 40
0.0
 40
0.0
 40
0.0
 40
0.1234882189614397
 40
0.3047574776073359
 40
0.4857888495162774
 40
0.667058215399805
 40
1.0
 40
1.0
 40
1.0
 40
1.0
 10
3840.122515672363
 20
1038.254397866318
 30
0.0
 10
3840.082769103327
 20
1038.254397866318
 30
0.0
 10
3839.984678255269
 20
1038.254397866318
 30
0.0
 10
3839.744704966908
 20
1038.254397866318
 30
0.0
 10
3839.429090778414
 20
1038.254397866318
 30
0.0
 10
3838.962180689314
 20
1038.254397866318
 30
0.0
 10
3838.573912089077
 20
1038.254397866316
 30
0.0
 10
3838.322515672361
 20
1038.254397866314
 30
0.0
  0
LINE
  5
193
330
1F
100
AcDbEntity
  8
0
  6
Continuous
 62
     7
370
    25
100
AcDbLine
 10
3838.3225156724
 20
1039.2543978663
 30
0.0
 11
3838.3225156724
 21
1038.2543978663
 31
0.0
  0
SPLINE
  5
194
330
1F
100
AcDbEntity
  8
0
  6
Continuous
 62
     7
370
    25
100
AcDbSpline
210
0.0
220
0.0
230
1.0
 70
    24
 71
     3
 72
    12
 73
     8
 74
     0
 42
0.00000001
 43
0.00000001
 40
0.0
 40
0.0
 40
0.0
 40
0.0
 40
0.3329369653740689
 40
0.5139656098125831
 40
0.6952322446441193
 40
0.8762609961846118
 40
1.0
 40
1.0
 40
1.0
 40
1.0
 10
3838.322515672355
 20
1095.254397866313
 30
0.0
 10
3838.573913085497
 20
1095.254397866315
 30
0.0
 10
3838.962003439495
 20
1095.254397866317
 30
0.0
 10
3839.42893270917
 20
1095.254397866317
 30
0.0
 10
3839.744451598192
 20
1095.254397866317
 30
0.0
 10
3839.984575816709
 20
1095.254397866317
 30
0.0
 10
3840.08268306772
 20
1095.254397866317
 30
0.0
 10
3840.122515672363
 20
1095.254397866317
 30
0.0
  0
LINE
  5
195
330
1F
100
AcDbEntity
  8
0
  6
Continuous
 62
     7
370
    25
100
AcDbLine
 10
3838.3225156724
 20
1094.2543978663
 30
0.0
 11
3838.3225156724
 21
1095.2543978663
 31
0.0
  0
SPLINE
  5
196
330
1F
100
AcDbEntity
  8
0
  6
Continuous
 62
     7
370
    25
100
AcDbSpline
210
0.0
220
0.0
230
1.0
 70
     8
 71
     3
 72
    10
 73
     6
 74
     0
 42
0.00000001
 43
0.00000001
 40
0.0
 40
0.0
 40
0.0
 40
0.0
 40
0.0371311943392971
 40
0.548662819557339
 40
1.0
 40
1.0
 40
1.0
 40
1.0
 10
3840.122515672363
 20
1056.508633526144
 30
0.0
 10
3840.11689282015
 20
1056.51535187357
 30
0.0
 10
3840.033807694444
 20
1056.614624399192
 30
0.0
 10
3839.812251721859
 20
1056.715053312386
 30
0.0
 10
3839.580940832613
 20
1056.741841237216
 30
0.0
 10
3839.472515672359
 20
1056.754397866314
 30
0.0
  0
LINE
  5
197
330
1F
100
AcDbEntity
  8
0
  6
Continuous
 62
     7
370
    25
100
AcDbLine
 10
3838.3225156724
 20
1039.2543978663
 30
0.0
 11
3838.3225156724
 21
1048.3628237086
 31
0.0
  0
LINE
  5
198
330
1F
100
AcDbEntity
  8
0
  6
Continuous
 62
     7
370
    25
100
AcDbLine
 10
3838.6225156724
 20
1056.7543978663
 30
0.0
 11
3839.4725156724
 21
1056.7543978663
 31
0.0
  0
LINE
  5
199
330
1F
100
AcDbEntity
  8
0
  6
Continuous
 62
     7
370
    25
100
AcDbLine
 10
3838.1225156724
 20
1039.2543978663
 30
0.0
 11
3838.3225156724
 21
1039.2543978663
 31
0.0
  0
SPLINE
  5
19A
330
1F
100
AcDbEntity
  8
0
  6
Continuous
 62
     7
370
    25
100
AcDbSpline
210
0.0
220
0.0
230
1.0
 70
     8
 71
     3
 72
     9
 73
     5
 74
     0
 42
0.00000001
 43
0.00000001
 40
0.0
 40
0.0
 40
0.0
 40
0.0
 40
0.5050081268935159
 40
0.9999999999999999
 40
0.9999999999999999
 40
0.9999999999999999
 40
0.9999999999999999
 10
3839.472515672357
 20
1076.754397866314
 30
0.0
 10
3839.595811944225
 20
1076.766617725698
 30
0.0
 10
3839.839959048601
 20
1076.790815077648
 30
0.0
 10
3840.028961162154
 20
1076.927891150911
 30
0.0
 10
3840.122515672363
 20
1076.995742693173
 30
0.0
  0
LINE
  5
19B
330
1F
100
AcDbEntity
  8
0
  6
Continuous
 62
     7
370
    25
100
AcDbLine
 10
3838.3225156724
 20
1085.1459720241
 30
0.0
 11
3838.3225156724
 21
1094.2543978663
 31
0.0
  0
LINE
  5
19C
330
1F
100
AcDbEntity
  8
0
  6
Continuous
 62
     7
370
    25
100
AcDbLine
 10
3839.4725156724
 20
1076.7543978663
 30
0.0
 11
3838.6225156724
 21
1076.7543978663
 31
0.0
  0
LINE
  5
19D
330
1F
100
AcDbEntity
  8
0
  6
Continuous
 62
     7
370
    25
100
AcDbLine
 10
3838.1225156724
 20
1094.2543978663
 30
0.0
 11
3838.3225156724
 21
1094.2543978663
 31
0.0
  0
LINE
  5
19E
330
1F
100
AcDbEntity
  8
0
  6
Continuous
 62
     7
370
    25
100
AcDbLine
 10
3838.1225156724
 20
1038.2543978663
 30
0.0
 11
3838.3225156724
 21
1038.2543978663
 31
0.0
  0
LINE
  5
19F
330
1F
100
AcDbEntity
  8
0
  6
Continuous
 62
     7
370
    25
100
AcDbLine
 10
3838.1225156724
 20
1095.2543978663
 30
0.0
 11
3838.3225156724
 21
1095.2543978663
 31
0.0
  0
LINE
  5
1A0
330
1F
100
AcDbEntity
  8
0
  6
Continuous
 62
     7
370
    25
100
AcDbLine
 10
3839.9877005974
 20
1428.3793978663
 30
0.0
 11
3839.9877005974
 21
1429.3043978663
 31
0.0
  0
LINE
  5
1A1
330
1F
100
AcDbEntity
  8
0
  6
Continuous
 62
     7
370
    25
100
AcDbLine
 10
3839.9877005974
 20
1444.2043978663
 30
0.0
 11
3839.9877005974
 21
1445.1293978663
 31
0.0
  0
LINE
  5
1A2
330
1F
100
AcDbEntity
  8
0
  6
Continuous
 62
     7
370
    25
100
AcDbLine
 10
3839.9877005974
 20
1445.1293978663
 30
0.0
 11
3840.1225156724
 21
1445.1293978663
 31
0.0
  0
LINE
  5
1A3
330
1F
100
AcDbEntity
  8
0
  6
Continuous
 62
     7
370
    25
100
AcDbLine
 10
3840.1225156724
 20
1428.3793978663
 30
0.0
 11
3839.9877005974
 21
1428.3793978663
 31
0.0
  0
LINE
  5
1A4
330
1F
100
AcDbEntity
  8
0
  6
Continuous
 62
     7
370
    25
100
AcDbLine
 10
3838.6225156724
 20
1445.1293978663
 30
0.0
 11
3839.9877005974
 21
1445.1293978663
 31
0.0
  0
LINE
  5
1A5
330
1F
100
AcDbEntity
  8
0
  6
Continuous
 62
     7
370
    25
100
AcDbLine
 10
3839.9877005974
 20
1428.3793978663
 30
0.0
 11
3838.6225156724
 21
1428.3793978663
 31
0.0
  0
LINE
  5
1A6
330
1F
100
AcDbEntity
  8
0
  6
Continuous
 62
     7
370
    25
100
AcDbLine
 10
3839.9877005974
 20
1058.3793978663
 30
0.0
 11
3839.9877005974
 21
1059.3043978663
 31
0.0
  0
LINE
  5
1A7
330
1F
100
AcDbEntity
  8
0
  6
Continuous
 62
     7
370
    25
100
AcDbLine
 10
3839.9877005974
 20
1074.2043978663
 30
0.0
 11
3839.9877005974
 21
1075.1293978663
 31
0.0
  0
LINE
  5
1A8
330
1F
100
AcDbEntity
  8
0
  6
Continuous
 62
     7
370
    25
100
AcDbLine
 10
3839.9877005974
 20
1075.1293978663
 30
0.0
 11
3840.1225156724
 21
1075.1293978663
 31
0.0
  0
LINE
  5
1A9
330
1F
100
AcDbEntity
  8
0
  6
Continuous
 62
     7
370
    25
100
AcDbLine
 10
3840.1225156724
 20
1058.3793978663
 30
0.0
 11
3839.9877005974
 21
1058.3793978663
 31
0.0
  0
LINE
  5
1AA
330
1F
100
AcDbEntity
  8
0
  6
Continuous
 62
     7
370
    25
100
AcDbLine
 10
3838.6225156724
 20
1075.1293978663
 30
0.0
 11
3839.9877005974
 21
1075.1293978663
 31
0.0
  0
LINE
  5
1AB
330
1F
100
AcDbEntity
  8
0
  6
Continuous
 62
     7
370
    25
100
AcDbLine
 10
3839.9877005974
 20
1058.3793978663
 30
0.0
 11
3838.6225156724
 21
1058.3793978663
 31
0.0
  0
LINE
  5
1AC
330
1F
100
AcDbEntity
  8
0
  6
Continuous
 62
     7
370
    25
100
AcDbLine
 10
3840.1225156724
 20
1060.2543978663
 30
0.0
 11
3838.1225156724
 21
1060.2543978663
 31
0.0
  0
LINE
  5
1AD
330
1F
100
AcDbEntity
  8
0
  6
Continuous
 62
     7
370
    25
100
AcDbLine
 10
3838.1225156724
 20
1073.2543978663
 30
0.0
 11
3840.1225156724
 21
1073.2543978663
 31
0.0
  0
LINE
  5
1AE
330
1F
100
AcDbEntity
  8
0
  6
Continuous
 62
     7
370
    25
100
AcDbLine
 10
3839.3937982176
 20
1074.2043978663
 30
0.0
 11
3839.3937982176
 21
1073.2543978663
 31
0.0
  0
LINE
  5
1AF
330
1F
100
AcDbEntity
  8
0
  6
Continuous
 62
     7
370
    25
100
AcDbLine
 10
3839.3937982176
 20
1060.2543978663
 30
0.0
 11
3839.3937982176
 21
1059.3043978663
 31
0.0
  0
LINE
  5
1B0
330
1F
100
AcDbEntity
  8
0
  6
Continuous
 62
     7
370
    25
100
AcDbLine
 10
3839.3937982176
 20
1074.2043978663
 30
0.0
 11
3840.1225156724
 21
1074.2043978663
 31
0.0
  0
LINE
  5
1B1
330
1F
100
AcDbEntity
  8
0
  6
Continuous
 62
     7
370
    25
100
AcDbLine
 10
3839.3937982176
 20
1059.3043978663
 30
0.0
 11
3840.1225156724
 21
1059.3043978663
 31
0.0
  0
LINE
  5
1B2
330
1F
100
AcDbEntity
  8
0
  6
Continuous
 62
     7
370
    25
100
AcDbLine
 10
3839.332428722
 20
1074.2043978663
 30
0.0
 11
3839.332428722
 21
1073.2543978663
 31
0.0
  0
LINE
  5
1B3
330
1F
100
AcDbEntity
  8
0
  6
Continuous
 62
     7
370
    25
100
AcDbLine
 10
3839.332428722
 20
1060.2543978663
 30
0.0
 11
3839.332428722
 21
1059.3043978663
 31
0.0
  0
LINE
  5
1B4
330
1F
100
AcDbEntity
  8
0
  6
Continuous
 62
     7
370
    25
100
AcDbLine
 10
3839.332428722
 20
1074.2043978663
 30
0.0
 11
3839.3937982176
 21
1074.2043978663
 31
0.0
  0
LINE
  5
1B5
330
1F
100
AcDbEntity
  8
0
  6
Continuous
 62
     7
370
    25
100
AcDbLine
 10
3839.332428722
 20
1059.3043978663
 30
0.0
 11
3839.3937982176
 21
1059.3043978663
 31
0.0
  0
LINE
  5
1B6
330
1F
100
AcDbEntity
  8
0
  6
Continuous
 62
     7
370
    25
100
AcDbLine
 10
3840.1225156724
 20
1430.2543978663
 30
0.0
 11
3838.1225156724
 21
1430.2543978663
 31
0.0
  0
LINE
  5
1B7
330
1F
100
AcDbEntity
  8
0
  6
Continuous
 62
     7
370
    25
100
AcDbLine
 10
3838.1225156724
 20
1443.2543978663
 30
0.0
 11
3840.1225156724
 21
1443.2543978663
 31
0.0
  0
LINE
  5
1B8
330
1F
100
AcDbEntity
  8
0
  6
Continuous
 62
     7
370
    25
100
AcDbLine
 10
3839.3937982176
 20
1444.2043978663
 30
0.0
 11
3839.3937982176
 21
1443.2543978663
 31
0.0
  0
LINE
  5
1B9
330
1F
100
AcDbEntity
  8
0
  6
Continuous
 62
     7
370
    25
100
AcDbLine
 10
3839.3937982176
 20
1430.2543978663
 30
0.0
 11
3839.3937982176
 21
1429.3043978663
 31
0.0
  0
LINE
  5
1BA
330
1F
100
AcDbEntity
  8
0
  6
Continuous
 62
     7
370
    25
100
AcDbLine
 10
3839.3937982176
 20
1444.2043978663
 30
0.0
 11
3840.1225156724
 21
1444.2043978663
 31
0.0
  0
LINE
  5
1BB
330
1F
100
AcDbEntity
  8
0
  6
Continuous
 62
     7
370
    25
100
AcDbLine
 10
3839.3937982176
 20
1429.3043978663
 30
0.0
 11
3840.1225156724
 21
1429.3043978663
 31
0.0
  0
LINE
  5
1BC
330
1F
100
AcDbEntity
  8
0
  6
Continuous
 62
     7
370
    25
100
AcDbLine
 10
3839.332428722
 20
1444.2043978663
 30
0.0
 11
3839.332428722
 21
1443.2543978663
 31
0.0
  0
LINE
  5
1BD
330
1F
100
AcDbEntity
  8
0
  6
Continuous
 62
     7
370
    25
100
AcDbLine
 10
3839.332428722
 20
1430.2543978663
 30
0.0
 11
3839.332428722
 21
1429.3043978663
 31
0.0
  0
LINE
  5
1BE
330
1F
100
AcDbEntity
  8
0
  6
Continuous
 62
     7
370
    25
100
AcDbLine
 10
3839.332428722
 20
1444.2043978663
 30
0.0
 11
3839.3937982176
 21
1444.2043978663
 31
0.0
  0
LINE
  5
1BF
330
1F
100
AcDbEntity
  8
0
  6
Continuous
 62
     7
370
    25
100
AcDbLine
 10
3839.332428722
 20
1429.3043978663
 30
0.0
 11
3839.3937982176
 21
1429.3043978663
 31
0.0
  0
LINE
  5
1C0
330
1F
100
AcDbEntity
  8
0
  6
Continuous
 62
     7
370
    25
100
AcDbLine
 10
3838.6225156724
 20
1444.2293978663
 30
0.0
 11
3838.9340814752
 21
1444.2293978663
 31
0.0
  0
LINE
  5
1C1
330
1F
100
AcDbEntity
  8
0
  6
Continuous
 62
     7
370
    25
100
AcDbLine
 10
3838.9340814752
 20
1429.2793978663
 30
0.0
 11
3838.9340814752
 21
1430.2543978663
 31
0.0
  0
LINE
  5
1C2
330
1F
100
AcDbEntity
  8
0
  6
Continuous
 62
     7
370
    25
100
AcDbLine
 10
3838.9340814752
 20
1443.2543978663
 30
0.0
 11
3838.9340814752
 21
1444.2293978663
 31
0.0
  0
LINE
  5
1C3
330
1F
100
AcDbEntity
  8
0
  6
Continuous
 62
     7
370
    25
100
AcDbLine
 10
3838.6225156724
 20
1429.2793978663
 30
0.0
 11
3838.9340814752
 21
1429.2793978663
 31
0.0
  0
LINE
  5
1C4
330
1F
100
AcDbEntity
  8
0
  6
Continuous
 62
     7
370
    25
100
AcDbLine
 10
3838.9340814752
 20
1444.2293978663
 30
0.0
 11
3838.9732240696
 21
1444.2293978663
 31
0.0
  0
LINE
  5
1C5
330
1F
100
AcDbEntity
  8
0
  6
Continuous
 62
     7
370
    25
100
AcDbLine
 10
3838.9340814752
 20
1429.2793978663
 30
0.0
 11
3838.9732240696
 21
1429.2793978663
 31
0.0
  0
LINE
  5
1C6
330
1F
100
AcDbEntity
  8
0
  6
Continuous
 62
     7
370
    25
100
AcDbLine
 10
3838.6225156724
 20
1074.2293978663
 30
0.0
 11
3838.9340814752
 21
1074.2293978663
 31
0.0
  0
LINE
  5
1C7
330
1F
100
AcDbEntity
  8
0
  6
Continuous
 62
     7
370
    25
100
AcDbLine
 10
3838.9340814752
 20
1059.2793978663
 30
0.0
 11
3838.9340814752
 21
1060.2543978663
 31
0.0
  0
LINE
  5
1C8
330
1F
100
AcDbEntity
  8
0
  6
Continuous
 62
     7
370
    25
100
AcDbLine
 10
3838.9340814752
 20
1073.2543978663
 30
0.0
 11
3838.9340814752
 21
1074.2293978663
 31
0.0
  0
LINE
  5
1C9
330
1F
100
AcDbEntity
  8
0
  6
Continuous
 62
     7
370
    25
100
AcDbLine
 10
3838.6225156724
 20
1059.2793978663
 30
0.0
 11
3838.9340814752
 21
1059.2793978663
 31
0.0
  0
LINE
  5
1CA
330
1F
100
AcDbEntity
  8
0
  6
Continuous
 62
     7
370
    25
100
AcDbLine
 10
3838.9340814752
 20
1074.2293978663
 30
0.0
 11
3838.9732240696
 21
1074.2293978663
 31
0.0
  0
LINE
  5
1CB
330
1F
100
AcDbEntity
  8
0
  6
Continuous
 62
     7
370
    25
100
AcDbLine
 10
3838.9340814752
 20
1059.2793978663
 30
0.0
 11
3838.9732240696
 21
1059.2793978663
 31
0.0
  0
LINE
  5
1CC
330
1F
100
AcDbEntity
  8
0
  6
Continuous
 62
     7
370
    25
100
AcDbLine
 10
4220.6002358345
 20
1429.5267567878
 30
0.0
 11
4220.4562626188
 21
1435.0248720752
 31
0.0
  0
LINE
  5
1CD
330
1F
100
AcDbEntity
  8
0
  6
Continuous
 62
     7
370
    25
100
AcDbLine
 10
4221.590560553
 20
1449.0101066029
 30
0.0
 11
4221.8444965759
 21
1439.3126811288
 31
0.0
  0
LINE
  5
1CE
330
1F
100
AcDbEntity
  8
0
  6
Continuous
 62
     7
370
    25
100
AcDbLine
 10
4222.5946873532
 20
1439.3323255656
 30
0.0
 11
4222.0711483871
 21
1459.3254720652
 31
0.0
  0
LINE
  5
1CF
330
1F
100
AcDbEntity
  8
0
  6
Continuous
 62
     7
370
    25
100
AcDbLine
 10
4223.2948469519
 20
1458.2617271316
 30
0.0
 11
4223.7610367734
 21
1440.4586561082
 31
0.0
  0
LINE
  5
1D0
330
1F
100
AcDbEntity
  8
0
  6
Continuous
 62
     7
370
    25
100
AcDbLine
 10
4223.8590717937
 20
1442.0615145215
 30
0.0
 11
4223.4766347464
 21
1456.6661961367
 31
0.0
  0
LINE
  5
1D1
330
1F
100
AcDbEntity
  8
0
  6
Continuous
 62
     7
370
    25
100
AcDbLine
 10
4221.0007631869
 20
1444.7924743019
 30
0.0
 11
4220.8790973475
 21
1449.4387052587
 31
0.0
  0
LINE
  5
1D2
330
1F
100
AcDbEntity
  8
0
  6
Continuous
 62
     7
370
    25
100
AcDbLine
 10
4220.8790973475
 20
1449.4387052587
 30
0.0
 11
4220.7651707354
 21
1453.7893870498
 31
0.0
  0
LINE
  5
1D3
330
1F
100
AcDbEntity
  8
0
  6
Continuous
 62
     7
370
    25
100
AcDbLine
 10
3838.3225156724
 20
1409.2543978663
 30
0.0
 11
3840.1225156724
 21
1409.2543978663
 31
0.0
  0
LINE
  5
1D4
330
1F
100
AcDbEntity
  8
0
  6
Continuous
 62
     7
370
    25
100
AcDbLine
 10
3838.3225156724
 20
1464.2543978663
 30
0.0
 11
3840.1225156724
 21
1464.2543978663
 31
0.0
  0
LINE
  5
1D5
330
1F
100
AcDbEntity
  8
0
  6
Continuous
 62
     7
370
    25
100
AcDbLine
 10
3839.4725156724
 20
1428.3793978663
 30
0.0
 11
3839.4725156724
 21
1426.7543978663
 31
0.0
  0
LINE
  5
1D6
330
1F
100
AcDbEntity
  8
0
  6
Continuous
 62
     7
370
    25
100
AcDbLine
 10
3839.4725156724
 20
1446.7543978663
 30
0.0
 11
3839.4725156724
 21
1445.1293978663
 31
0.0
  0
LINE
  5
1D7
330
1F
100
AcDbEntity
  8
0
  6
Continuous
 62
     7
370
    25
100
AcDbLine
 10
3838.3225156724
 20
1039.2543978663
 30
0.0
 11
3840.1225156724
 21
1039.2543978663
 31
0.0
  0
LINE
  5
1D8
330
1F
100
AcDbEntity
  8
0
  6
Continuous
 62
     7
370
    25
100
AcDbLine
 10
3838.3225156724
 20
1094.2543978663
 30
0.0
 11
3840.1225156724
 21
1094.2543978663
 31
0.0
  0
LINE
  5
1D9
330
1F
100
AcDbEntity
  8
0
  6
Continuous
 62
     7
370
    25
100
AcDbLine
 10
3839.4725156724
 20
1058.3793978663
 30
0.0
 11
3839.4725156724
 21
1056.7543978663
 31
0.0
  0
LINE
  5
1DA
330
1F
100
AcDbEntity
  8
0
  6
Continuous
 62
     7
370
    25
100
AcDbLine
 10
3839.4725156724
 20
1076.7543978663
 30
0.0
 11
3839.4725156724
 21
1075.1293978663
 31
0.0
  0
SPLINE
  5
1DB
330
1F
100
AcDbEntity
  8
0
  6
Continuous
 62
     7
370
    25
100
AcDbSpline
210
0.0
220
0.0
230
1.0
 70
     8
 71
     3
 72
    16
 73
    12
 74
     0
 42
0.00000001
 43
0.00000001
 40
0.0
 40
0.0
 40
0.0
 40
0.0
 40
0.0490847390190336
 40
0.1518473045647995
 40
0.2358684990992185
 40
0.3090519161653644
 40
0.3734786142108397
 40
0.4370328180325357
 40
0.5258016248248792
 40
0.7068629655466853
 40
1.0
 40
1.0
 40
1.0
 40
1.0
 10
2625.925074168668
 20
2737.982522916329
 30
0.0
 10
2625.929765765403
 20
2738.04871330855
 30
0.0
 10
2625.944279570151
 20
2738.253478228315
 30
0.0
 10
2625.81710181878
 20
2738.557694887961
 30
0.0
 10
2625.612885409254
 20
2738.833758526983
 30
0.0
 10
2625.391873803388
 20
2739.007097001621
 30
0.0
 10
2625.200107235645
 20
2739.104101014124
 30
0.0
 10
2625.042893347462
 20
2739.158174379481
 30
0.0
 10
2624.877542172409
 20
2739.196807200852
 30
0.0
 10
2624.681828237483
 20
2739.226544086372
 30
0.0
 10
2624.454213845376
 20
2739.243759755644
 30
0.0
 10
2624.313508580671
 20
2739.25440203217
 30
0.0
  0
SPLINE
  5
1DC
330
1F
100
AcDbEntity
  8
0
  6
Continuous
 62
     7
370
    25
100
AcDbSpline
210
0.0
220
0.0
230
1.0
 70
     8
 71
     3
 72
    14
 73
    10
 74
     0
 42
0.00000001
 43
0.00000001
 40
0.0
 40
0.0
 40
0.0
 40
0.0
 40
0.4380448777707929
 40
0.5889072021156586
 40
0.6648524542795147
 40
0.7505291071918022
 40
0.851703055668168
 40
0.9620267314756851
 40
1.0
 40
1.0
 40
1.0
 40
1.0
 10
2607.529691039078
 20
2739.253278350242
 30
0.0
 10
2607.357587419199
 20
2739.238587326924
 30
0.0
 10
2607.1262114429
 20
2739.218836726295
 30
0.0
 10
2606.826901395447
 20
2739.158689060104
 30
0.0
 10
2606.553382146903
 20
2739.042171355413
 30
0.0
 10
2606.289180317119
 20
2738.852245027236
 30
0.0
 10
2606.060956382525
 20
2738.539748892959
 30
0.0
 10
2605.936910392495
 20
2738.217783907779
 30
0.0
 10
2605.958389890534
 20
2738.022470086407
 30
0.0
 10
2605.963889981924
 20
2737.972457564443
 30
0.0
  0
LINE
  5
1DD
330
1F
100
AcDbEntity
  8
0
  6
Continuous
 62
     7
370
    25
100
AcDbLine
 10
2625.9454585654
 20
2737.2318663251
 30
0.0
 11
2625.9454585654
 21
2737.9820571024
 31
0.0
  0
LINE
  5
1DE
330
1F
100
AcDbEntity
  8
0
  6
Continuous
 62
     7
370
    25
100
AcDbLine
 10
2605.9454585654
 20
2737.9820571024
 30
0.0
 11
2605.9454585654
 21
2737.2318663251
 31
0.0
  0
LINE
  5
1DF
330
1F
100
AcDbEntity
  8
0
  6
Continuous
 62
     7
370
    25
100
AcDbLine
 10
2624.4418327899
 20
2739.2468479058
 30
0.0
 11
2622.9154268517
 21
2739.3742254403
 31
0.0
  0
LINE
  5
1E0
330
1F
100
AcDbEntity
  8
0
  6
Continuous
 62
     7
370
    25
100
AcDbLine
 10
2608.975490279
 20
2739.3742254403
 30
0.0
 11
2607.4490843408
 21
2739.2468479058
 31
0.0
  0
SPLINE
  5
1E1
330
1F
100
AcDbEntity
  8
0
  6
Continuous
 62
     7
370
    25
100
AcDbSpline
210
0.0
220
0.0
230
1.0
 70
     8
 71
     3
 72
    14
 73
    10
 74
     0
 42
0.00000001
 43
0.00000001
 40
0.0
 40
0.0
 40
0.0
 40
0.0
 40
0.0907475556429947
 40
0.228856383900401
 40
0.4128530542466991
 40
0.6071420004333563
 40
0.787828231839309
 40
0.9626611221743224
 40
1.0
 40
1.0
 40
1.0
 40
1.0
 10
2622.825460923725
 20
2739.379327213118
 30
0.0
 10
2622.613909756876
 20
2739.396159746667
 30
0.0
 10
2622.080398581707
 20
2739.438609735897
 30
0.0
 10
2621.219912941157
 20
2739.480570026109
 30
0.0
 10
2620.170112580975
 20
2739.517502171327
 30
0.0
 10
2618.935496063452
 20
2739.543227737949
 30
0.0
 10
2617.598989846249
 20
2739.559073656583
 30
0.0
 10
2616.588959722662
 20
2739.563885326822
 30
0.0
 10
2616.041757506827
 20
2739.564124910318
 30
0.0
 10
2615.945458565359
 20
2739.564167073227
 30
0.0
  0
SPLINE
  5
1E2
330
1F
100
AcDbEntity
  8
0
  6
Continuous
 62
     7
370
    25
100
AcDbSpline
210
0.0
220
0.0
230
1.0
 70
     8
 71
     3
 72
    13
 73
     9
 74
     0
 42
0.00000001
 43
0.00000001
 40
0.0
 40
0.0
 40
0.0
 40
0.0
 40
0.0971790056423672
 40
0.2845710337028919
 40
0.4775192778486768
 40
0.6890792027695339
 40
0.8771625243236233
 40
0.9999999999999999
 40
0.9999999999999999
 40
0.9999999999999999
 40
0.9999999999999999
 10
2615.945458565359
 20
2739.564167073227
 30
0.0
 10
2615.69843749365
 20
2739.56390530435
 30
0.0
 10
2614.975081237244
 20
2739.563138761832
 30
0.0
 10
2613.782482825116
 20
2739.554264289767
 30
0.0
 10
2612.412409207461
 20
2739.534024945498
 30
0.0
 10
2611.178104082201
 20
2739.500007999575
 30
0.0
 10
2610.148335398508
 20
2739.46050478633
 30
0.0
 10
2609.441932094412
 20
2739.406884625925
 30
0.0
 10
2609.162848805493
 20
2739.385700564877
 30
0.0
  0
LINE
  5
1E3
330
1F
100
AcDbEntity
  8
0
  6
Continuous
 62
     7
370
    25
100
AcDbLine
 10
2620.4454585654
 20
2734.2716549046
 30
0.0
 11
2620.4454585654
 21
2736.5321061976
 31
0.0
  0
LINE
  5
1E4
330
1F
100
AcDbEntity
  8
0
  6
Continuous
 62
     7
370
    25
100
AcDbLine
 10
2611.4454585654
 20
2736.5321061976
 30
0.0
 11
2611.4454585654
 21
2734.2716549046
 31
0.0
  0
SPLINE
  5
1E5
330
1F
100
AcDbEntity
  8
0
  6
Continuous
 62
     7
370
    25
100
AcDbSpline
210
0.0
220
0.0
230
1.0
 70
     8
 71
     3
 72
    16
 73
    12
 74
     0
 42
0.00000001
 43
0.00000001
 40
0.0
 40
0.0
 40
0.0
 40
0.0
 40
0.0490847390189877
 40
0.151847304564781
 40
0.2358684990992176
 40
0.3090519161653809
 40
0.3734786142108661
 40
0.4370328180325608
 40
0.5258016248249158
 40
0.7068629655466933
 40
1.0
 40
1.0
 40
1.0
 40
1.0
 10
2411.425074168669
 20
2737.98252291633
 30
0.0
 10
2411.429765765404
 20
2738.048713308551
 30
0.0
 10
2411.444279570152
 20
2738.253478228316
 30
0.0
 10
2411.317101818781
 20
2738.557694887962
 30
0.0
 10
2411.112885409255
 20
2738.833758526984
 30
0.0
 10
2410.891873803389
 20
2739.007097001622
 30
0.0
 10
2410.700107235646
 20
2739.104101014125
 30
0.0
 10
2410.542893347463
 20
2739.158174379482
 30
0.0
 10
2410.37754217241
 20
2739.196807200853
 30
0.0
 10
2410.181828237484
 20
2739.226544086374
 30
0.0
 10
2409.954213845376
 20
2739.243759755645
 30
0.0
 10
2409.813508580672
 20
2739.25440203217
 30
0.0
  0
SPLINE
  5
1E6
330
1F
100
AcDbEntity
  8
0
  6
Continuous
 62
     7
370
    25
100
AcDbSpline
210
0.0
220
0.0
230
1.0
 70
     8
 71
     3
 72
    15
 73
    11
 74
     0
 42
0.00000001
 43
0.00000001
 40
0.0
 40
0.0
 40
0.0
 40
0.0
 40
0.0366146332908925
 40
0.4586206584971542
 40
0.6039592141587199
 40
0.6771237587644121
 40
0.7596633924487224
 40
0.857132893903037
 40
0.9634171087775497
 40
1.0
 40
1.0
 40
1.0
 40
1.0
 10
2393.095706343174
 20
2739.257096001318
 30
0.0
 10
2393.073357319796
 20
2739.255823552648
 30
0.0
 10
2392.793422143684
 20
2739.239885355413
 30
0.0
 10
2392.637947923125
 20
2739.218833256152
 30
0.0
 10
2392.326115586821
 20
2739.158689292446
 30
0.0
 10
2392.053551866983
 20
2739.042171305233
 30
0.0
 10
2391.789122930545
 20
2738.852245044205
 30
0.0
 10
2391.560974971918
 20
2738.539748887463
 30
0.0
 10
2391.436909000214
 20
2738.217783908192
 30
0.0
 10
2391.458389606702
 20
2738.022470086492
 30
0.0
 10
2391.463889981925
 20
2737.972457564444
 30
0.0
  0
LINE
  5
1E7
330
1F
100
AcDbEntity
  8
0
  6
Continuous
 62
     7
370
    25
100
AcDbLine
 10
2411.4454585654
 20
2737.2318663251
 30
0.0
 11
2411.4454585654
 21
2737.9820571024
 31
0.0
  0
LINE
  5
1E8
330
1F
100
AcDbEntity
  8
0
  6
Continuous
 62
     7
370
    25
100
AcDbLine
 10
2391.4454585654
 20
2737.9820571024
 30
0.0
 11
2391.4454585654
 21
2737.2318663251
 31
0.0
  0
LINE
  5
1E9
330
1F
100
AcDbEntity
  8
0
  6
Continuous
 62
     7
370
    25
100
AcDbLine
 10
2409.9418327899
 20
2739.2468479058
 30
0.0
 11
2408.4154268517
 21
2739.3742254403
 31
0.0
  0
LINE
  5
1EA
330
1F
100
AcDbEntity
  8
0
  6
Continuous
 62
     7
370
    25
100
AcDbLine
 10
2394.475490279
 20
2739.3742254403
 30
0.0
 11
2392.9490843408
 21
2739.2468479058
 31
0.0
  0
SPLINE
  5
1EB
330
1F
100
AcDbEntity
  8
0
  6
Continuous
 62
     7
370
    25
100
AcDbSpline
210
0.0
220
0.0
230
1.0
 70
     8
 71
     3
 72
    14
 73
    10
 74
     0
 42
0.00000001
 43
0.00000001
 40
0.0
 40
0.0
 40
0.0
 40
0.0
 40
0.0907475556430066
 40
0.228856383900415
 40
0.4128530542467214
 40
0.607142000433374
 40
0.7878282318393263
 40
0.9626611221743376
 40
0.9999999999999999
 40
0.9999999999999999
 40
0.9999999999999999
 40
0.9999999999999999
 10
2408.325460923726
 20
2739.379327213119
 30
0.0
 10
2408.113909756877
 20
2739.396159746668
 30
0.0
 10
2407.580398581708
 20
2739.438609735898
 30
0.0
 10
2406.719912941157
 20
2739.48057002611
 30
0.0
 10
2405.670112580976
 20
2739.517502171328
 30
0.0
 10
2404.435496063453
 20
2739.54322773795
 30
0.0
 10
2403.09898984625
 20
2739.559073656584
 30
0.0
 10
2402.088959722663
 20
2739.563885326823
 30
0.0
 10
2401.541757506827
 20
2739.564124910319
 30
0.0
 10
2401.44545856536
 20
2739.564167073228
 30
0.0
  0
SPLINE
  5
1EC
330
1F
100
AcDbEntity
  8
0
  6
Continuous
 62
     7
370
    25
100
AcDbSpline
210
0.0
220
0.0
230
1.0
 70
     8
 71
     3
 72
    13
 73
     9
 74
     0
 42
0.00000001
 43
0.00000001
 40
0.0
 40
0.0
 40
0.0
 40
0.0
 40
0.0971790056423683
 40
0.2845710337028917
 40
0.4775192778486776
 40
0.6890792027695312
 40
0.8771625243236282
 40
1.0
 40
1.0
 40
1.0
 40
1.0
 10
2401.44545856536
 20
2739.564167073228
 30
0.0
 10
2401.198437493651
 20
2739.563905304352
 30
0.0
 10
2400.475081237244
 20
2739.563138761833
 30
0.0
 10
2399.282482825118
 20
2739.554264289769
 30
0.0
 10
2397.912409207462
 20
2739.534024945499
 30
0.0
 10
2396.678104082202
 20
2739.500007999576
 30
0.0
 10
2395.648335398509
 20
2739.460504786331
 30
0.0
 10
2394.941932094413
 20
2739.406884625926
 30
0.0
 10
2394.662848805494
 20
2739.385700564878
 30
0.0
  0
LINE
  5
1ED
330
1F
100
AcDbEntity
  8
0
  6
Continuous
 62
     7
370
    25
100
AcDbLine
 10
2405.9454585654
 20
2734.2716549046
 30
0.0
 11
2405.9454585654
 21
2736.5321061976
 31
0.0
  0
LINE
  5
1EE
330
1F
100
AcDbEntity
  8
0
  6
Continuous
 62
     7
370
    25
100
AcDbLine
 10
2396.9454585654
 20
2736.5321061976
 30
0.0
 11
2396.9454585654
 21
2734.2716549046
 31
0.0
  0
ARC
  5
1EF
330
1F
100
AcDbEntity
  8
0
  6
Continuous
 62
     7
370
    25
100
AcDbCircle
 10
2616.9487994325
 20
2929.2477776124
 30
0.0
 40
190.3064363726582
100
AcDbArc
 50
269.697921602
 51
271.989829998
  0
ARC
  5
1F0
330
1F
100
AcDbEntity
  8
0
  6
Continuous
 62
     7
370
    25
100
AcDbCircle
 10
2615.3807674913
 20
2973.5241370762
 30
0.0
 40
234.5808305650135
100
AcDbArc
 50
268.5008299501
 51
270.1379245117
  0
ARC
  5
1F1
330
1F
100
AcDbEntity
  8
0
  6
Continuous
 62
     7
370
    25
100
AcDbCircle
 10
2618.7883976532
 20
2819.504051905
 30
0.0
 40
82.58290404795416
100
AcDbArc
 50
268.0271873052
 51
274.971785139
  0
ARC
  5
1F2
330
1F
100
AcDbEntity
  8
0
  6
Continuous
 62
     7
370
    25
100
AcDbCircle
 10
2613.3258447337
 20
2828.0354228507
 30
0.0
 40
91.10299653521224
100
AcDbArc
 50
265.3532935281
 51
271.6477340277
  0
SPLINE
  5
1F3
330
1F
100
AcDbEntity
  8
0
  6
Continuous
 62
     7
370
    25
100
AcDbSpline
210
0.0
220
0.0
230
1.0
 70
     8
 71
     3
 72
    19
 73
    15
 74
     0
 42
0.00000001
 43
0.00000001
 40
0.0
 40
0.0
 40
0.0
 40
0.0
 40
0.0906600731280743
 40
0.2050734138973281
 40
0.2719074979493059
 40
0.344321047635737
 40
0.4209983262120146
 40
0.499999979222802
 40
0.5790016347260201
 40
0.6556789199260035
 40
0.7280924783130921
 40
0.7949265709542412
 40
0.9093399235674142
 40
1.0
 40
1.0
 40
1.0
 40
1.0
 10
2625.745458565359
 20
2737.031934860079
 30
0.0
 10
2625.668604520693
 20
2737.007709314843
 30
0.0
 10
2625.494760393196
 20
2736.952911043744
 30
0.0
 10
2624.174903170722
 20
2736.886527760363
 30
0.0
 10
2622.418984010525
 20
2736.836615149716
 30
0.0
 10
2620.595890405642
 20
2736.803484284437
 30
0.0
 10
2618.414524317419
 20
2736.781051426673
 30
0.0
 10
2616.021572113832
 20
2736.772789316641
 30
0.0
 10
2613.624049624949
 20
2736.780087282525
 30
0.0
 10
2611.429764294534
 20
2736.801639484266
 30
0.0
 10
2609.587425031511
 20
2736.834032633699
 30
0.0
 10
2607.802394606035
 20
2736.883232581898
 30
0.0
 10
2606.443699588434
 20
2736.949076769692
 30
0.0
 10
2606.237687244342
 20
2737.003798592478
 30
0.0
 10
2606.146612086784
 20
2737.027990340084
 30
0.0
  0
LINE
  5
1F4
330
1F
100
AcDbEntity
  8
0
  6
Continuous
 62
     7
370
    25
100
AcDbLine
 10
2608.975490279
 20
2739.3742254403
 30
0.0
 11
2609.0274519143
 21
2739.3783936567
 31
0.0
  0
LINE
  5
1F5
330
1F
100
AcDbEntity
  8
0
  6
Continuous
 62
     7
370
    25
100
AcDbLine
 10
2620.6356302781
 20
2739.43111244
 30
0.0
 11
2620.6346783417
 21
2739.4335859309
 31
0.0
  0
LWPOLYLINE
  5
1F6
330
1F
100
AcDbEntity
  8
0
  6
Continuous
 62
     7
370
    25
100
AcDbPolyline
 90
       23
 70
   128
 43
0.0
 10
2620.6346783417
 20
2739.4335859309
 10
2620.4194017973
 20
2739.4679610176
 10
2619.8439780751
 20
2739.499369837
 10
2618.9547281093
 20
2739.5252840161
 10
2617.8232354781
 20
2739.5436174939
 10
2616.54058401
 20
2739.5528944469
 10
2615.2100256422
 20
2739.5523680914
 10
2613.9386687613
 20
2739.5420807983
 10
2612.8288561037
 20
2739.5228606826
 10
2611.9699262854
 20
2739.4962549411
 10
2611.4310221483
 20
2739.4644053047
 10
2611.2555248428
 20
2739.4298756318
 10
2611.4575616959
 20
2739.3954455205
 10
2612.0208689783
 20
2739.3638865544
 10
2612.9001011149
 20
2739.3377391931
 10
2614.0244809511
 20
2739.3191082686
 10
2615.3034972299
 20
2739.3094935484
 10
2616.6341906426
 20
2739.3096690062
 10
2617.9094419316
 20
2739.3196205179
 10
2619.0265948654
 20
2739.3385469983
 10
2619.8957199443
 20
2739.3649248882
 10
2620.4468536198
 20
2739.3966307983
 10
2620.6356302781
 20
2739.43111244
  0
LINE
  5
1F7
330
1F
100
AcDbEntity
  8
0
  6
Continuous
 62
     7
370
    25
100
AcDbLine
 10
2613.4996091614
 20
2739.4176313116
 30
0.0
 11
2615.4304585654
 21
2739.4176313116
 31
0.0
  0
LINE
  5
1F8
330
1F
100
AcDbEntity
  8
0
  6
Continuous
 62
     7
370
    25
100
AcDbLine
 10
2615.4304585654
 20
2739.4176313116
 30
0.0
 11
2615.4304585654
 21
2739.3670875666
 31
0.0
  0
ARC
  5
1F9
330
1F
100
AcDbEntity
  8
0
  6
Continuous
 62
     7
370
    25
100
AcDbCircle
 10
2615.9454585654
 20
2833.6549486411
 30
0.0
 40
94.28926752820536
100
AcDbArc
 50
269.6870537449
 51
270.312946255
  0
LINE
  5
1FA
330
1F
100
AcDbEntity
  8
0
  6
Continuous
 62
     7
370
    25
100
AcDbLine
 10
2616.4604585654
 20
2739.3670875666
 30
0.0
 11
2616.4604585654
 21
2739.4176313116
 31
0.0
  0
LINE
  5
1FB
330
1F
100
AcDbEntity
  8
0
  6
Continuous
 62
     7
370
    25
100
AcDbLine
 10
2616.4604585654
 20
2739.4176313116
 30
0.0
 11
2618.3913079693
 21
2739.4176313116
 31
0.0
  0
LWPOLYLINE
  5
1FC
330
1F
100
AcDbEntity
  8
0
  6
Continuous
 62
     7
370
    25
100
AcDbPolyline
 90
        9
 70
   128
 43
0.0
 10
2618.3913079693
 20
2739.4445935684
 10
2618.4147242752
 20
2739.44125516
 10
2618.4314953661
 20
2739.4378894559
 10
2618.4415761084
 20
2739.4345055136
 10
2618.4449393728
 20
2739.43111244
 10
2618.4415761084
 20
2739.4277193664
 10
2618.4314953661
 20
2739.4243354241
 10
2618.4147242752
 20
2739.42096972
 10
2618.3913079693
 20
2739.4176313116
  0
LINE
  5
1FD
330
1F
100
AcDbEntity
  8
0
  6
Continuous
 62
     7
370
    25
100
AcDbLine
 10
2618.3913079693
 20
2739.4445935684
 30
0.0
 11
2616.4604585654
 21
2739.4445935684
 31
0.0
  0
LINE
  5
1FE
330
1F
100
AcDbEntity
  8
0
  6
Continuous
 62
     7
370
    25
100
AcDbLine
 10
2616.4604585654
 20
2739.4445935684
 30
0.0
 11
2616.4604585654
 21
2739.4951373134
 31
0.0
  0
ARC
  5
1FF
330
1F
100
AcDbEntity
  8
0
  6
Continuous
 62
     7
370
    25
100
AcDbCircle
 10
2615.9454585654
 20
2645.2072761831
 30
0.0
 40
94.28926758397951
100
AcDbArc
 50
89.6870537451
 51
90.3129462549
  0
LINE
  5
200
330
1F
100
AcDbEntity
  8
0
  6
Continuous
 62
     7
370
    25
100
AcDbLine
 10
2615.4304585654
 20
2739.4951373134
 30
0.0
 11
2615.4304585654
 21
2739.4445935684
 31
0.0
  0
LINE
  5
201
330
1F
100
AcDbEntity
  8
0
  6
Continuous
 62
     7
370
    25
100
AcDbLine
 10
2615.4304585654
 20
2739.4445935684
 30
0.0
 11
2613.4996091614
 21
2739.4445935684
 31
0.0
  0
LWPOLYLINE
  5
202
330
1F
100
AcDbEntity
  8
0
  6
Continuous
 62
     7
370
    25
100
AcDbPolyline
 90
        9
 70
   128
 43
0.0
 10
2613.4996091614
 20
2739.4176313116
 10
2613.4761928555
 20
2739.42096972
 10
2613.4594217646
 20
2739.4243354241
 10
2613.4493410224
 20
2739.4277193664
 10
2613.4459777579
 20
2739.43111244
 10
2613.4493410224
 20
2739.4345055136
 10
2613.4594217646
 20
2739.4378894559
 10
2613.4761928555
 20
2739.44125516
 10
2613.4996091614
 20
2739.4445935684
  0
LINE
  5
203
330
1F
100
AcDbEntity
  8
0
  6
Continuous
 62
     7
370
    25
100
AcDbLine
 10
2613.5133329309
 20
2739.4176313116
 30
0.0
 11
2613.4996091614
 21
2739.4445935684
 31
0.0
  0
LINE
  5
204
330
1F
100
AcDbEntity
  8
0
  6
Continuous
 62
     7
370
    25
100
AcDbLine
 10
2616.4604585654
 20
2739.4445935684
 30
0.0
 11
2616.4604585654
 21
2739.4176313116
 31
0.0
  0
LINE
  5
205
330
1F
100
AcDbEntity
  8
0
  6
Continuous
 62
     7
370
    25
100
AcDbLine
 10
2615.4304585654
 20
2739.4445935684
 30
0.0
 11
2615.4304585654
 21
2739.4176313116
 31
0.0
  0
ARC
  5
206
330
1F
100
AcDbEntity
  8
0
  6
Continuous
 62
     7
370
    25
100
AcDbCircle
 10
2402.4487994325
 20
2929.2477776129
 30
0.0
 40
190.3064363732353
100
AcDbArc
 50
269.697921602
 51
271.989829998
  0
ARC
  5
207
330
1F
100
AcDbEntity
  8
0
  6
Continuous
 62
     7
370
    25
100
AcDbCircle
 10
2400.8807674913
 20
2973.5241370762
 30
0.0
 40
234.580830565014
100
AcDbArc
 50
268.5008299501
 51
270.1379245117
  0
ARC
  5
208
330
1F
100
AcDbEntity
  8
0
  6
Continuous
 62
     7
370
    25
100
AcDbCircle
 10
2404.2883976532
 20
2819.5040519047
 30
0.0
 40
82.58290404771861
100
AcDbArc
 50
268.0271873052
 51
274.9717851391
  0
ARC
  5
209
330
1F
100
AcDbEntity
  8
0
  6
Continuous
 62
     7
370
    25
100
AcDbCircle
 10
2398.8258447337
 20
2828.0354228505
 30
0.0
 40
91.10299653501478
100
AcDbArc
 50
265.3532935281
 51
271.6477340277
  0
SPLINE
  5
20A
330
1F
100
AcDbEntity
  8
0
  6
Continuous
 62
     7
370
    25
100
AcDbSpline
210
0.0
220
0.0
230
1.0
 70
     8
 71
     3
 72
    19
 73
    15
 74
     0
 42
0.00000001
 43
0.00000001
 40
0.0
 40
0.0
 40
0.0
 40
0.0
 40
0.0906600731280745
 40
0.2050734138973279
 40
0.2719074979493057
 40
0.3443210476357373
 40
0.4209983262120154
 40
0.499999979222802
 40
0.5790016347260207
 40
0.6556789199260032
 40
0.7280924783130918
 40
0.7949265709542411
 40
0.9093399235674141
 40
1.0
 40
1.0
 40
1.0
 40
1.0
 10
2411.24545856536
 20
2737.03193486008
 30
0.0
 10
2411.168604520693
 20
2737.007709314844
 30
0.0
 10
2410.994760393197
 20
2736.952911043745
 30
0.0
 10
2409.674903170722
 20
2736.886527760364
 30
0.0
 10
2407.918984010526
 20
2736.836615149717
 30
0.0
 10
2406.095890405643
 20
2736.803484284438
 30
0.0
 10
2403.91452431742
 20
2736.781051426675
 30
0.0
 10
2401.521572113833
 20
2736.772789316642
 30
0.0
 10
2399.12404962495
 20
2736.780087282526
 30
0.0
 10
2396.929764294535
 20
2736.801639484267
 30
0.0
 10
2395.087425031511
 20
2736.8340326337
 30
0.0
 10
2393.302394606036
 20
2736.8832325819
 30
0.0
 10
2391.943699588435
 20
2736.949076769693
 30
0.0
 10
2391.737687244343
 20
2737.003798592478
 30
0.0
 10
2391.646612086785
 20
2737.027990340085
 30
0.0
  0
LINE
  5
20B
330
1F
100
AcDbEntity
  8
0
  6
Continuous
 62
     7
370
    25
100
AcDbLine
 10
2394.475490279
 20
2739.3742254403
 30
0.0
 11
2394.5274519143
 21
2739.3783936567
 31
0.0
  0
LINE
  5
20C
330
1F
100
AcDbEntity
  8
0
  6
Continuous
 62
     7
370
    25
100
AcDbLine
 10
2406.1356302781
 20
2739.43111244
 30
0.0
 11
2406.1346783417
 21
2739.4335859309
 31
0.0
  0
LWPOLYLINE
  5
20D
330
1F
100
AcDbEntity
  8
0
  6
Continuous
 62
     7
370
    25
100
AcDbPolyline
 90
       23
 70
   128
 43
0.0
 10
2406.1346783417
 20
2739.4335859309
 10
2405.9194017973
 20
2739.4679610176
 10
2405.3439780751
 20
2739.499369837
 10
2404.4547281093
 20
2739.5252840161
 10
2403.3232354781
 20
2739.5436174939
 10
2402.04058401
 20
2739.5528944469
 10
2400.7100256422
 20
2739.5523680914
 10
2399.4386687613
 20
2739.5420807983
 10
2398.3288561037
 20
2739.5228606826
 10
2397.4699262854
 20
2739.4962549411
 10
2396.9310221483
 20
2739.4644053047
 10
2396.7555248428
 20
2739.4298756318
 10
2396.9575616959
 20
2739.3954455205
 10
2397.5208689783
 20
2739.3638865544
 10
2398.4001011149
 20
2739.3377391931
 10
2399.5244809511
 20
2739.3191082686
 10
2400.8034972299
 20
2739.3094935484
 10
2402.1341906426
 20
2739.3096690062
 10
2403.4094419316
 20
2739.3196205179
 10
2404.5265948654
 20
2739.3385469983
 10
2405.3957199443
 20
2739.3649248882
 10
2405.9468536198
 20
2739.3966307983
 10
2406.1356302781
 20
2739.43111244
  0
LINE
  5
20E
330
1F
100
AcDbEntity
  8
0
  6
Continuous
 62
     7
370
    25
100
AcDbLine
 10
2398.9996091614
 20
2739.4176313116
 30
0.0
 11
2400.9304585654
 21
2739.4176313116
 31
0.0
  0
LINE
  5
20F
330
1F
100
AcDbEntity
  8
0
  6
Continuous
 62
     7
370
    25
100
AcDbLine
 10
2400.9304585654
 20
2739.4176313116
 30
0.0
 11
2400.9304585654
 21
2739.3670875666
 31
0.0
  0
ARC
  5
210
330
1F
100
AcDbEntity
  8
0
  6
Continuous
 62
     7
370
    25
100
AcDbCircle
 10
2401.4454585654
 20
2833.6549486225
 30
0.0
 40
94.2892675096199
100
AcDbArc
 50
269.6870537449
 51
270.3129462551
  0
LINE
  5
211
330
1F
100
AcDbEntity
  8
0
  6
Continuous
 62
     7
370
    25
100
AcDbLine
 10
2401.9604585654
 20
2739.3670875666
 30
0.0
 11
2401.9604585654
 21
2739.4176313116
 31
0.0
  0
LINE
  5
212
330
1F
100
AcDbEntity
  8
0
  6
Continuous
 62
     7
370
    25
100
AcDbLine
 10
2401.9604585654
 20
2739.4176313116
 30
0.0
 11
2403.8913079693
 21
2739.4176313116
 31
0.0
  0
LWPOLYLINE
  5
213
330
1F
100
AcDbEntity
  8
0
  6
Continuous
 62
     7
370
    25
100
AcDbPolyline
 90
        9
 70
   128
 43
0.0
 10
2403.8913079693
 20
2739.4445935684
 10
2403.9147242752
 20
2739.44125516
 10
2403.9314953661
 20
2739.4378894559
 10
2403.9415761084
 20
2739.4345055136
 10
2403.9449393728
 20
2739.43111244
 10
2403.9415761084
 20
2739.4277193664
 10
2403.9314953661
 20
2739.4243354242
 10
2403.9147242752
 20
2739.42096972
 10
2403.8913079693
 20
2739.4176313116
  0
LINE
  5
214
330
1F
100
AcDbEntity
  8
0
  6
Continuous
 62
     7
370
    25
100
AcDbLine
 10
2403.8913079693
 20
2739.4445935684
 30
0.0
 11
2401.9604585654
 21
2739.4445935684
 31
0.0
  0
LINE
  5
215
330
1F
100
AcDbEntity
  8
0
  6
Continuous
 62
     7
370
    25
100
AcDbLine
 10
2401.9604585654
 20
2739.4445935684
 30
0.0
 11
2401.9604585654
 21
2739.4951373134
 31
0.0
  0
ARC
  5
216
330
1F
100
AcDbEntity
  8
0
  6
Continuous
 62
     7
370
    25
100
AcDbCircle
 10
2401.4454585654
 20
2645.2072761831
 30
0.0
 40
94.28926758397951
100
AcDbArc
 50
89.6870537451
 51
90.3129462549
  0
LINE
  5
217
330
1F
100
AcDbEntity
  8
0
  6
Continuous
 62
     7
370
    25
100
AcDbLine
 10
2400.9304585654
 20
2739.4951373134
 30
0.0
 11
2400.9304585654
 21
2739.4445935684
 31
0.0
  0
LINE
  5
218
330
1F
100
AcDbEntity
  8
0
  6
Continuous
 62
     7
370
    25
100
AcDbLine
 10
2400.9304585654
 20
2739.4445935684
 30
0.0
 11
2398.9996091614
 21
2739.4445935684
 31
0.0
  0
LWPOLYLINE
  5
219
330
1F
100
AcDbEntity
  8
0
  6
Continuous
 62
     7
370
    25
100
AcDbPolyline
 90
        9
 70
   128
 43
0.0
 10
2398.9996091614
 20
2739.4176313116
 10
2398.9761928556
 20
2739.42096972
 10
2398.9594217646
 20
2739.4243354242
 10
2398.9493410224
 20
2739.4277193664
 10
2398.9459777579
 20
2739.43111244
 10
2398.9493410224
 20
2739.4345055136
 10
2398.9594217646
 20
2739.4378894559
 10
2398.9761928556
 20
2739.44125516
 10
2398.9996091614
 20
2739.4445935684
  0
LINE
  5
21A
330
1F
100
AcDbEntity
  8
0
  6
Continuous
 62
     7
370
    25
100
AcDbLine
 10
2399.0133329309
 20
2739.4176313116
 30
0.0
 11
2398.9996091614
 21
2739.4445935684
 31
0.0
  0
LINE
  5
21B
330
1F
100
AcDbEntity
  8
0
  6
Continuous
 62
     7
370
    25
100
AcDbLine
 10
2401.9604585654
 20
2739.4445935684
 30
0.0
 11
2401.9604585654
 21
2739.4176313116
 31
0.0
  0
LINE
  5
21C
330
1F
100
AcDbEntity
  8
0
  6
Continuous
 62
     7
370
    25
100
AcDbLine
 10
2400.9304585654
 20
2739.4445935684
 30
0.0
 11
2400.9304585654
 21
2739.4176313116
 31
0.0
  0
LINE
  5
21D
330
1F
100
AcDbEntity
  8
0
  6
Continuous
 62
     7
370
    25
100
AcDbLine
 10
2650.4454585654
 20
2335.7716549046
 30
0.0
 11
2650.4454585654
 21
2353.7716549046
 31
0.0
  0
LINE
  5
21E
330
1F
100
AcDbEntity
  8
0
  6
Continuous
 62
     7
370
    25
100
AcDbLine
 10
2650.4454585654
 20
2335.7716549046
 30
0.0
 11
2254.4454585654
 21
2335.7716549046
 31
0.0
  0
LINE
  5
21F
330
1F
100
AcDbEntity
  8
0
  6
Continuous
 62
     7
370
    25
100
AcDbLine
 10
2650.4454585654
 20
2353.7716549046
 30
0.0
 11
2254.4454585654
 21
2353.7716549046
 31
0.0
  0
LINE
  5
220
330
1F
100
AcDbEntity
  8
0
  6
Continuous
 62
     7
370
    25
100
AcDbLine
 10
2254.4454585654
 20
2335.7716549046
 30
0.0
 11
2254.4454585654
 21
2353.7716549046
 31
0.0
  0
LINE
  5
221
330
1F
100
AcDbEntity
  8
0
  6
Continuous
 62
     7
370
    25
100
AcDbLine
 10
2652.9454585654
 20
2734.2716549046
 30
0.0
 11
2652.9454585654
 21
2355.2716549046
 31
0.0
  0
LINE
  5
222
330
1F
100
AcDbEntity
  8
0
  6
Continuous
 62
     7
370
    25
100
AcDbLine
 10
2652.9454585654
 20
2355.2716549046
 30
0.0
 11
2252.4454585654
 21
2355.2716549046
 31
0.0
  0
LINE
  5
223
330
1F
100
AcDbEntity
  8
0
  6
Continuous
 62
     7
370
    25
100
AcDbLine
 10
2652.9454585654
 20
2734.2716549046
 30
0.0
 11
2252.4454585654
 21
2734.2716549046
 31
0.0
  0
LINE
  5
224
330
1F
100
AcDbEntity
  8
0
  6
Continuous
 62
     7
370
    25
100
AcDbLine
 10
2252.4454585654
 20
2734.2716549046
 30
0.0
 11
2252.4454585654
 21
2355.2716549046
 31
0.0
  0
LINE
  5
225
330
1F
100
AcDbEntity
  8
0
  6
Continuous
 62
     7
370
    25
100
AcDbLine
 10
2256.4454585654
 20
2353.8716549046
 30
0.0
 11
2254.6454585654
 21
2353.8716549046
 31
0.0
  0
LINE
  5
226
330
1F
100
AcDbEntity
  8
0
  6
Continuous
 62
     7
370
    25
100
AcDbLine
 10
2256.4454585654
 20
2353.7716549046
 30
0.0
 11
2256.4454585654
 21
2353.8716549046
 31
0.0
  0
LINE
  5
227
330
1F
100
AcDbEntity
  8
0
  6
Continuous
 62
     7
370
    25
100
AcDbLine
 10
2254.4454585654
 20
2353.7716549046
 30
0.0
 11
2254.4454585654
 21
2353.8716549046
 31
0.0
  0
LINE
  5
228
330
1F
100
AcDbEntity
  8
0
  6
Continuous
 62
     7
370
    25
100
AcDbLine
 10
2254.6454585654
 20
2353.8716549046
 30
0.0
 11
2254.4454585654
 21
2353.8716549046
 31
0.0
  0
LINE
  5
229
330
1F
100
AcDbEntity
  8
0
  6
Continuous
 62
     7
370
    25
100
AcDbLine
 10
2254.6454585654
 20
2354.0716549046
 30
0.0
 11
2254.6454585654
 21
2353.8716549046
 31
0.0
  0
LINE
  5
22A
330
1F
100
AcDbEntity
  8
0
  6
Continuous
 62
     7
370
    25
100
AcDbLine
 10
2254.6454585654
 20
2354.0716549046
 30
0.0
 11
2256.4454585654
 21
2354.0716549046
 31
0.0
  0
LINE
  5
22B
330
1F
100
AcDbEntity
  8
0
  6
Continuous
 62
     7
370
    25
100
AcDbLine
 10
2256.4454585654
 20
2354.0716549046
 30
0.0
 11
2256.4454585654
 21
2353.8716549046
 31
0.0
  0
ARC
  5
22C
330
1F
100
AcDbEntity
  8
0
  6
Continuous
 62
     7
370
    25
100
AcDbCircle
 10
2254.6454585654
 20
2353.8716549046
 30
0.0
 40
0.1999999999998181
100
AcDbArc
 50
90.0
 51
180.0
  0
LINE
  5
22D
330
1F
100
AcDbEntity
  8
0
  6
Continuous
 62
     7
370
    25
100
AcDbLine
 10
2648.4454585654
 20
2353.8716549046
 30
0.0
 11
2648.4454585654
 21
2353.7716549046
 31
0.0
  0
LINE
  5
22E
330
1F
100
AcDbEntity
  8
0
  6
Continuous
 62
     7
370
    25
100
AcDbLine
 10
2256.4454585654
 20
2354.0716549046
 30
0.0
 11
2437.4454585654
 21
2354.0716549046
 31
0.0
  0
LINE
  5
22F
330
1F
100
AcDbEntity
  8
0
  6
Continuous
 62
     7
370
    25
100
AcDbLine
 10
2467.4454585654
 20
2354.0716549046
 30
0.0
 11
2609.9471256909
 21
2354.0716549046
 31
0.0
  0
LINE
  5
230
330
1F
100
AcDbEntity
  8
0
  6
Continuous
 62
     7
370
    25
100
AcDbLine
 10
2646.1331333148
 20
2354.0716549046
 30
0.0
 11
2648.4454585654
 21
2354.0716549046
 31
0.0
  0
LINE
  5
231
330
1F
100
AcDbEntity
  8
0
  6
Continuous
 62
     7
370
    25
100
AcDbLine
 10
2648.4454585654
 20
2353.8716549046
 30
0.0
 11
2648.4454585654
 21
2354.0716549046
 31
0.0
  0
LINE
  5
232
330
1F
100
AcDbEntity
  8
0
  6
Continuous
 62
     7
370
    25
100
AcDbLine
 10
2650.2454585654
 20
2353.8716549046
 30
0.0
 11
2650.4454585654
 21
2353.8716549046
 31
0.0
  0
LINE
  5
233
330
1F
100
AcDbEntity
  8
0
  6
Continuous
 62
     7
370
    25
100
AcDbLine
 10
2650.4454585654
 20
2353.8716549046
 30
0.0
 11
2650.4454585654
 21
2353.7716549046
 31
0.0
  0
LINE
  5
234
330
1F
100
AcDbEntity
  8
0
  6
Continuous
 62
     7
370
    25
100
AcDbLine
 10
2650.2454585654
 20
2353.8716549046
 30
0.0
 11
2648.4454585654
 21
2353.8716549046
 31
0.0
  0
LINE
  5
235
330
1F
100
AcDbEntity
  8
0
  6
Continuous
 62
     7
370
    25
100
AcDbLine
 10
2648.4454585654
 20
2354.0716549046
 30
0.0
 11
2650.2454585654
 21
2354.0716549046
 31
0.0
  0
LINE
  5
236
330
1F
100
AcDbEntity
  8
0
  6
Continuous
 62
     7
370
    25
100
AcDbLine
 10
2650.2454585654
 20
2353.8716549046
 30
0.0
 11
2650.2454585654
 21
2354.0716549046
 31
0.0
  0
ARC
  5
237
330
1F
100
AcDbEntity
  8
0
  6
Continuous
 62
     7
370
    25
100
AcDbCircle
 10
2650.2454585654
 20
2353.8716549046
 30
0.0
 40
0.2000000000002728
100
AcDbArc
 50
0.0000000001
 51
90.0
  0
LINE
  5
238
330
1F
100
AcDbEntity
  8
0
  6
Continuous
 62
     7
370
    25
100
AcDbLine
 10
2467.4454585654
 20
2354.9716549046
 30
0.0
 11
2467.4245088447
 21
2355.2716549046
 31
0.0
  0
LINE
  5
239
330
1F
100
AcDbEntity
  8
0
  6
Continuous
 62
     7
370
    25
100
AcDbLine
 10
2467.4454585654
 20
2353.7716549046
 30
0.0
 11
2467.4454585654
 21
2354.9716549046
 31
0.0
  0
LINE
  5
23A
330
1F
100
AcDbEntity
  8
0
  6
Continuous
 62
     7
370
    25
100
AcDbLine
 10
2437.4454585654
 20
2354.9716549046
 30
0.0
 11
2437.4454585654
 21
2353.7716549046
 31
0.0
  0
LINE
  5
23B
330
1F
100
AcDbEntity
  8
0
  6
Continuous
 62
     7
370
    25
100
AcDbLine
 10
2437.466408286
 20
2355.2716549046
 30
0.0
 11
2437.4454585654
 21
2354.9716549046
 31
0.0
  0
LINE
  5
23C
330
1F
100
AcDbEntity
  8
0
  6
Continuous
 62
     7
370
    25
100
AcDbLine
 10
2442.0670931167
 20
2355.2716549046
 30
0.0
 11
2442.0468228464
 21
2354.9716549046
 31
0.0
  0
LINE
  5
23D
330
1F
100
AcDbEntity
  8
0
  6
Continuous
 62
     7
370
    25
100
AcDbLine
 10
2442.0468228464
 20
2354.9716549046
 30
0.0
 11
2462.8440942843
 21
2354.9716549046
 31
0.0
  0
LINE
  5
23E
330
1F
100
AcDbEntity
  8
0
  6
Continuous
 62
     7
370
    25
100
AcDbLine
 10
2462.8440942843
 20
2354.9716549046
 30
0.0
 11
2462.823824014
 21
2355.2716549046
 31
0.0
  0
LINE
  5
23F
330
1F
100
AcDbEntity
  8
0
  6
Continuous
 62
     7
370
    25
100
AcDbLine
 10
2630.945458561
 20
2353.7716549046
 30
0.0
 11
2630.945458561
 21
2353.9716549046
 31
0.0
  0
LINE
  5
240
330
1F
100
AcDbEntity
  8
0
  6
Continuous
 62
     7
370
    25
100
AcDbLine
 10
2610.945458561
 20
2353.7716549046
 30
0.0
 11
2610.945458561
 21
2353.9716549046
 31
0.0
  0
LINE
  5
241
330
1F
100
AcDbEntity
  8
0
  6
Continuous
 62
     7
370
    25
100
AcDbLine
 10
2609.945458561
 20
2353.7716549046
 30
0.0
 11
2609.945458561
 21
2353.9716549046
 31
0.0
  0
LINE
  5
242
330
1F
100
AcDbEntity
  8
0
  6
Continuous
 62
     7
370
    25
100
AcDbLine
 10
2609.945458561
 20
2353.9716549046
 30
0.0
 11
2610.945458561
 21
2353.9716549046
 31
0.0
  0
LINE
  5
243
330
1F
100
AcDbEntity
  8
0
  6
Continuous
 62
     7
370
    25
100
AcDbLine
 10
2631.945458561
 20
2353.9716549046
 30
0.0
 11
2630.945458561
 21
2353.9716549046
 31
0.0
  0
LINE
  5
244
330
1F
100
AcDbEntity
  8
0
  6
Continuous
 62
     7
370
    25
100
AcDbLine
 10
2631.945458561
 20
2353.7716549046
 30
0.0
 11
2631.945458561
 21
2353.9716549046
 31
0.0
  0
ARC
  5
245
330
1F
100
AcDbEntity
  8
0
  6
Continuous
 62
     7
370
    25
100
AcDbCircle
 10
2612.945458561
 20
2353.9716549046
 30
0.0
 40
3.0
100
AcDbArc
 50
154.3207113803
 51
180.0
  0
ARC
  5
246
330
1F
100
AcDbEntity
  8
0
  6
Continuous
 62
     7
370
    25
100
AcDbCircle
 10
2628.945458561
 20
2353.9716549046
 30
0.0
 40
3.000000000000011
100
AcDbArc
 50
0.0
 51
25.6792886196
  0
LINE
  5
247
330
1F
100
AcDbEntity
  8
0
  6
Continuous
 62
     7
370
    25
100
AcDbLine
 10
2631.945458561
 20
2354.2716549046
 30
0.0
 11
2631.945458561
 21
2353.9716549046
 31
0.0
  0
LINE
  5
248
330
1F
100
AcDbEntity
  8
0
  6
Continuous
 62
     7
370
    25
100
AcDbLine
 10
2646.1331333148
 20
2354.2716549046
 30
0.0
 11
2631.945458561
 21
2354.2716549046
 31
0.0
  0
LINE
  5
249
330
1F
100
AcDbEntity
  8
0
  6
Continuous
 62
     7
370
    25
100
AcDbLine
 10
2646.1331333148
 20
2353.7716549046
 30
0.0
 11
2646.1331333148
 21
2354.2716549046
 31
0.0
  0
LINE
  5
24A
330
1F
100
AcDbEntity
  8
0
  6
Continuous
 62
     7
370
    25
100
AcDbLine
 10
2632.7046611463
 20
2355.2716549046
 30
0.0
 11
2632.7277135022
 21
2354.2716549046
 31
0.0
  0
LINE
  5
24B
330
1F
100
AcDbEntity
  8
0
  6
Continuous
 62
     7
370
    25
100
AcDbLine
 10
2634.0280588736
 20
2354.2716549046
 30
0.0
 11
2634.0050065176
 21
2355.2716549046
 31
0.0
  0
ARC
  5
24C
330
1F
100
AcDbEntity
  8
0
  6
Continuous
 62
     7
370
    25
100
AcDbCircle
 10
2615.9448257767
 20
2884.6497996168
 30
0.0
 40
147.0082502472301
100
AcDbArc
 50
266.0997819288
 51
273.9007124515
  0
LWPOLYLINE
  5
24D
330
1F
100
AcDbEntity
  8
0
  6
Continuous
 62
     7
370
    25
100
AcDbPolyline
 90
        6
 70
   128
 43
0.0
 10
2623.5566393581
 20
2739.056094891
 10
2624.2957539085
 20
2739.0961260079
 10
2624.7473606486
 20
2739.1417840506
 10
2624.8386164832
 20
2739.1888871583
 10
2624.5657853877
 20
2739.2355069245
 10
2624.4418327899
 20
2739.2468479058
  0
LWPOLYLINE
  5
24E
330
1F
100
AcDbEntity
  8
0
  6
Continuous
 62
     7
370
    25
100
AcDbPolyline
 90
        7
 70
   128
 43
0.0
 10
2607.4490843408
 20
2739.2468479058
 10
2607.325131743
 20
2739.2355069245
 10
2607.0523006475
 20
2739.1888871583
 10
2607.1435564821
 20
2739.1417840506
 10
2607.5951632222
 20
2739.0961260079
 10
2608.3886320348
 20
2739.0537822761
 10
2609.2435540402
 20
2739.0236025787
  0
LWPOLYLINE
  5
24F
330
1F
100
AcDbEntity
  8
0
  6
Continuous
 62
     7
370
    25
100
AcDbPolyline
 90
       19
 70
   128
 43
0.0
 10
2622.9154268517
 20
2739.3742254403
 10
2623.0671548704
 20
2739.3595426267
 10
2623.2503025605
 20
2739.3169925022
 10
2623.0671548704
 20
2739.2744423778
 10
2622.5268955899
 20
2739.2340258942
 10
2621.6566155753
 20
2739.1977697028
 10
2620.4999543005
 20
2739.1674918404
 10
2619.1149115917
 20
2739.1447105655
 10
2617.5709392736
 20
2739.1305682262
 10
2615.9454585654
 20
2739.1257739786
 10
2614.3199778571
 20
2739.1305682262
 10
2612.7760055391
 20
2739.1447105655
 10
2611.3909628302
 20
2739.1674918404
 10
2610.2343015554
 20
2739.1977697028
 10
2609.3640215408
 20
2739.2340258942
 10
2608.8237622603
 20
2739.2744423778
 10
2608.6406145702
 20
2739.3169925022
 10
2608.8237622603
 20
2739.3595426267
 10
2608.975490279
 20
2739.3742254403
  0
SPLINE
  5
250
330
1F
100
AcDbEntity
  8
0
  6
Continuous
 62
     7
370
    25
100
AcDbSpline
210
0.0
220
0.0
230
1.0
 70
     8
 71
     3
 72
    10
 73
     6
 74
     0
 42
0.00000001
 43
0.00000001
 40
0.0
 40
0.0
 40
0.0
 40
0.0
 40
0.0219459922308381
 40
0.530020750145174
 40
1.0
 40
1.0
 40
1.0
 40
1.0
 10
2620.562172969179
 20
2736.849442565995
 30
0.0
 10
2620.560135481752
 20
2736.847904260408
 30
0.0
 10
2620.510927835854
 20
2736.810752425466
 30
0.0
 10
2620.462555166662
 20
2736.693681089495
 30
0.0
 10
2620.449367076363
 20
2736.581933886948
 30
0.0
 10
2620.443029871324
 20
2736.528236579836
 30
0.0
  0
ARC
  5
251
330
1F
100
AcDbEntity
  8
0
  6
Continuous
 62
     7
370
    25
100
AcDbCircle
 10
2615.9727661044
 20
2802.848788241
 30
0.0
 40
66.47103753364865
100
AcDbArc
 50
266.0945910319
 51
273.8561261672
  0
LINE
  5
252
330
1F
100
AcDbEntity
  8
0
  6
Continuous
 62
     7
370
    25
100
AcDbLine
 10
2620.4454585654
 20
2736.5321061976
 30
0.0
 11
2620.4430298712
 21
2736.5282365797
 31
0.0
  0
ARC
  5
253
330
1F
100
AcDbEntity
  8
0
  6
Continuous
 62
     7
370
    25
100
AcDbCircle
 10
2401.4448257767
 20
2884.6497996171
 30
0.0
 40
147.0082502475107
100
AcDbArc
 50
266.0997819289
 51
273.9007124515
  0
LWPOLYLINE
  5
254
330
1F
100
AcDbEntity
  8
0
  6
Continuous
 62
     7
370
    25
100
AcDbPolyline
 90
        6
 70
   128
 43
0.0
 10
2409.0566393581
 20
2739.056094891
 10
2409.7957539085
 20
2739.0961260079
 10
2410.2473606486
 20
2739.1417840506
 10
2410.3386164832
 20
2739.1888871583
 10
2410.0657853877
 20
2739.2355069245
 10
2409.9418327899
 20
2739.2468479058
  0
LWPOLYLINE
  5
255
330
1F
100
AcDbEntity
  8
0
  6
Continuous
 62
     7
370
    25
100
AcDbPolyline
 90
        7
 70
   128
 43
0.0
 10
2392.9490843408
 20
2739.2468479058
 10
2392.825131743
 20
2739.2355069245
 10
2392.5523006475
 20
2739.1888871583
 10
2392.6435564822
 20
2739.1417840506
 10
2393.0951632222
 20
2739.0961260079
 10
2393.8886320348
 20
2739.0537822761
 10
2394.7435540402
 20
2739.0236025787
  0
LWPOLYLINE
  5
256
330
1F
100
AcDbEntity
  8
0
  6
Continuous
 62
     7
370
    25
100
AcDbPolyline
 90
       19
 70
   128
 43
0.0
 10
2408.4154268517
 20
2739.3742254403
 10
2408.5671548704
 20
2739.3595426267
 10
2408.7503025605
 20
2739.3169925022
 10
2408.5671548704
 20
2739.2744423778
 10
2408.0268955899
 20
2739.2340258942
 10
2407.1566155753
 20
2739.1977697028
 10
2405.9999543005
 20
2739.1674918404
 10
2404.6149115917
 20
2739.1447105655
 10
2403.0709392736
 20
2739.1305682262
 10
2401.4454585654
 20
2739.1257739786
 10
2399.8199778571
 20
2739.1305682262
 10
2398.2760055391
 20
2739.1447105655
 10
2396.8909628302
 20
2739.1674918404
 10
2395.7343015554
 20
2739.1977697028
 10
2394.8640215408
 20
2739.2340258942
 10
2394.3237622603
 20
2739.2744423778
 10
2394.1406145702
 20
2739.3169925022
 10
2394.3237622603
 20
2739.3595426267
 10
2394.475490279
 20
2739.3742254403
  0
SPLINE
  5
257
330
1F
100
AcDbEntity
  8
0
  6
Continuous
 62
     7
370
    25
100
AcDbSpline
210
0.0
220
0.0
230
1.0
 70
     8
 71
     3
 72
    10
 73
     6
 74
     0
 42
0.00000001
 43
0.00000001
 40
0.0
 40
0.0
 40
0.0
 40
0.0
 40
0.0219459922312173
 40
0.5300207501453365
 40
0.9999999999999999
 40
0.9999999999999999
 40
0.9999999999999999
 40
0.9999999999999999
 10
2406.06217296918
 20
2736.849442565996
 30
0.0
 10
2406.060135481752
 20
2736.847904260409
 30
0.0
 10
2406.010927835855
 20
2736.810752425468
 30
0.0
 10
2405.962555166663
 20
2736.693681089496
 30
0.0
 10
2405.949367076363
 20
2736.581933886949
 30
0.0
 10
2405.943029871325
 20
2736.528236579838
 30
0.0
  0
ARC
  5
258
330
1F
100
AcDbEntity
  8
0
  6
Continuous
 62
     7
370
    25
100
AcDbCircle
 10
2401.4727661044
 20
2802.8487882409
 30
0.0
 40
66.471037533515
100
AcDbArc
 50
266.0945910318
 51
273.8561261672
  0
LINE
  5
259
330
1F
100
AcDbEntity
  8
0
  6
Continuous
 62
     7
370
    25
100
AcDbLine
 10
2405.9454585654
 20
2736.5321061976
 30
0.0
 11
2405.9430298712
 21
2736.5282365797
 31
0.0
  0
LINE
  5
25A
330
1F
100
AcDbEntity
  8
0
  6
Continuous
 62
     7
370
    25
100
AcDbLine
 10
2254.6454585654
 20
2353.8716549046
 30
0.0
 11
2254.6454585654
 21
2353.7716549046
 31
0.0
  0
LINE
  5
25B
330
1F
100
AcDbEntity
  8
0
  6
Continuous
 62
     7
370
    25
100
AcDbLine
 10
2648.4454585654
 20
2353.8716549046
 30
0.0
 11
2646.1331333148
 21
2353.8716549046
 31
0.0
  0
LINE
  5
25C
330
1F
100
AcDbEntity
  8
0
  6
Continuous
 62
     7
370
    25
100
AcDbLine
 10
2609.945458561
 20
2353.8716549046
 30
0.0
 11
2467.4454585654
 21
2353.8716549046
 31
0.0
  0
LINE
  5
25D
330
1F
100
AcDbEntity
  8
0
  6
Continuous
 62
     7
370
    25
100
AcDbLine
 10
2437.4454585654
 20
2353.8716549046
 30
0.0
 11
2256.4454585654
 21
2353.8716549046
 31
0.0
  0
LINE
  5
25E
330
1F
100
AcDbEntity
  8
0
  6
Continuous
 62
     7
370
    25
100
AcDbLine
 10
2650.2454585654
 20
2353.7716549046
 30
0.0
 11
2650.2454585654
 21
2353.8716549046
 31
0.0
  0
SPLINE
  5
25F
330
1F
100
AcDbEntity
  8
0
  6
Continuous
 62
     7
370
    25
100
AcDbSpline
210
0.0
220
0.0
230
1.0
 70
     8
 71
     3
 72
    10
 73
     6
 74
     0
 42
0.00000001
 43
0.00000001
 40
0.0
 40
0.0
 40
0.0
 40
0.0
 40
0.5286786081596364
 40
0.8161383429813607
 40
1.0
 40
1.0
 40
1.0
 40
1.0
 10
2630.945458561016
 20
2353.971654904574
 30
0.0
 10
2630.917467925171
 20
2354.22216941155
 30
0.0
 10
2630.874257871265
 20
2354.608896794615
 30
0.0
 10
2630.656475964282
 20
2355.037913361007
 30
0.0
 10
2630.509989972174
 20
2355.206060857863
 30
0.0
 10
2630.452846040867
 20
2355.271654904581
 30
0.0
  0
SPLINE
  5
260
330
1F
100
AcDbEntity
  8
0
  6
Continuous
 62
     7
370
    25
100
AcDbSpline
210
0.0
220
0.0
230
1.0
 70
     8
 71
     3
 72
    10
 73
     6
 74
     0
 42
0.00000001
 43
0.00000001
 40
0.0
 40
0.0
 40
0.0
 40
0.0
 40
0.1834740337178566
 40
0.4713152133481673
 40
1.0
 40
1.0
 40
1.0
 40
1.0
 10
2611.438044111854
 20
2355.271654904581
 30
0.0
 10
2611.381017368601
 20
2355.206204370568
 30
0.0
 10
2611.234524858906
 20
2355.038072500476
 30
0.0
 10
2611.01668522479
 20
2354.609072556932
 30
0.0
 10
2610.973451537923
 20
2354.222168078668
 30
0.0
 10
2610.945458561016
 20
2353.971654904571
 30
0.0
  0
ENDSEC
  0
SECTION
  2
OBJECTS
  0
DICTIONARY
  5
C
330
0
100
AcDbDictionary
281
     1
  3
ACAD_GROUP
350
D
  3
ACAD_LAYOUT
350
1A
  3
ACAD_MLINESTYLE
350
17
  3
ACAD_PLOTSETTINGS
350
19
  3
ACAD_PLOTSTYLENAME
350
E
  3
ACAD_SCALELIST
350
47
  3
DWGPROPS
350
261
  0
DICTIONARY
  5
D
102
{ACAD_REACTORS
330
C
102
}
330
C
100
AcDbDictionary
281
     1
  0
DICTIONARY
  5
1A
102
{ACAD_REACTORS
330
C
102
}
330
C
100
AcDbDictionary
281
     1
  3
Layout1
350
1E
  3
Layout2
350
26
  3
Model
350
22
  0
DICTIONARY
  5
17
102
{ACAD_REACTORS
330
C
102
}
330
C
100
AcDbDictionary
281
     1
  3
Standard
350
18
  0
DICTIONARY
  5
19
102
{ACAD_REACTORS
330
C
102
}
330
C
100
AcDbDictionary
281
     1
  0
ACDBDICTIONARYWDFLT
  5
E
102
{ACAD_REACTORS
330
C
102
}
330
C
100
AcDbDictionary
281
     1
  3
Normal
350
F
100
AcDbDictionaryWithDefault
340
F
  0
DICTIONARY
  5
47
102
{ACAD_REACTORS
330
C
102
}
330
C
100
AcDbDictionary
281
     1
  3
A0
350
48
  3
A1
350
49
  3
A2
350
4A
  3
A3
350
4B
  3
A4
350
4C
  3
A5
350
4D
  3
A6
350
4E
  3
A7
350
4F
  3
A8
350
50
  3
A9
350
51
  3
B0
350
52
  3
B1
350
53
  3
B2
350
54
  3
B3
350
55
  3
B4
350
56
  3
B5
350
57
  3
B6
350
58
  0
XRECORD
  5
261
102
{ACAD_REACTORS
330
C
102
}
330
C
100
AcDbXrecord
280
     1
  1
DWGPROPS COOKIE
  2

  3

  4

  6

  7

  8
b
  9

300
=
301
=
302
=
303
=
304
=
305
=
306
=
307
=
308
=
309
=
 40
0.0
 41
2460384.258709017
 42
2460384.258709283
  1

 90
        0
  0
LAYOUT
  5
1E
102
{ACAD_REACTORS
330
1A
102
}
330
1A
100
AcDbPlotSettings
  1

  2
none_device
  4

  6

 40
0.0
 41
0.0
 42
0.0
 43
0.0
 44
0.0
 45
0.0
 46
0.0
 47
0.0
 48
0.0
 49
0.0
140
0.0
141
0.0
142
1.0
143
1.0
 70
   688
 72
     1
 73
     0
 74
     5
  7

 75
    16
147
1.0
148
0.0
149
0.0
100
AcDbLayout
  1
Layout1
 70
     1
 71
     1
 10
0.0
 20
0.0
 11
420.0
 21
297.0
 12
0.0
 22
0.0
 32
0.0
 14
1.0000000000E+20
 24
1.0000000000E+20
 34
1.0000000000E+20
 15
-1.0000000000E+20
 25
-1.0000000000E+20
 35
-1.0000000000E+20
146
0.0
 13
0.0
 23
0.0
 33
0.0
 16
1.0
 26
0.0
 36
0.0
 17
0.0
 27
1.0
 37
0.0
 76
     0
330
1B
  0
LAYOUT
  5
26
102
{ACAD_REACTORS
330
1A
102
}
330
1A
100
AcDbPlotSettings
  1

  2
none_device
  4

  6

 40
0.0
 41
0.0
 42
0.0
 43
0.0
 44
0.0
 45
0.0
 46
0.0
 47
0.0
 48
0.0
 49
0.0
140
0.0
141
0.0
142
1.0
143
1.0
 70
   688
 72
     1
 73
     0
 74
     5
  7

 75
    16
147
1.0
148
0.0
149
0.0
100
AcDbLayout
  1
Layout2
 70
     1
 71
     2
 10
0.0
 20
0.0
 11
0.0
 21
0.0
 12
0.0
 22
0.0
 32
0.0
 14
0.0
 24
0.0
 34
0.0
 15
0.0
 25
0.0
 35
0.0
146
0.0
 13
0.0
 23
0.0
 33
0.0
 16
1.0
 26
0.0
 36
0.0
 17
0.0
 27
1.0
 37
0.0
 76
     0
330
23
  0
LAYOUT
  5
22
102
{ACAD_REACTORS
330
1A
102
}
330
1A
100
AcDbPlotSettings
  1

  2
none_device
  4
Letter_(8.50_x_11.00_Inches)
  6

 40
6.35
 41
6.35
 42
6.35000508
 43
6.35000508
 44
215.9
 45
279.4
 46
0.0
 47
0.0
 48
0.0
 49
0.0
140
0.0
141
0.0
142
1.0
143
1.0
 70
  1712
 72
     1
 73
     0
 74
     0
  7

 75
     0
147
1.0
148
0.0
149
0.0
100
AcDbLayout
  1
Model
 70
     1
 71
     0
 10
0.0
 20
0.0
 11
5000.0
 21
3500.0
 12
0.0
 22
0.0
 32
0.0
 14
0.0
 24
0.0
 34
0.0
 15
5000.0
 25
3500.0
 35
0.0
146
0.0
 13
0.0
 23
0.0
 33
0.0
 16
1.0
 26
0.0
 36
0.0
 17
0.0
 27
1.0
 37
0.0
 76
     0
330
1F
331
29
  0
MLINESTYLE
  5
18
102
{ACAD_REACTORS
330
17
102
}
330
17
100
AcDbMlineStyle
  2
Standard
 70
     0
  3

 62
   256
 51
90.0
 52
90.0
 71
     2
 49
0.5
 62
   256
  6
BYLAYER
 49
-0.5
 62
   256
  6
BYLAYER
  0
ACDBPLACEHOLDER
  5
F
102
{ACAD_REACTORS
330
E
102
}
330
E
  0
SCALE
  5
48
102
{ACAD_REACTORS
330
47
102
}
330
47
100
AcDbScale
 70
     0
300
1:1
140
1.0
141
1.0
290
     1
  0
SCALE
  5
49
102
{ACAD_REACTORS
330
47
102
}
330
47
100
AcDbScale
 70
     0
300
1:2
140
1.0
141
2.0
290
     0
  0
SCALE
  5
4A
102
{ACAD_REACTORS
330
47
102
}
330
47
100
AcDbScale
 70
     0
300
1:4
140
1.0
141
4.0
290
     0
  0
SCALE
  5
4B
102
{ACAD_REACTORS
330
47
102
}
330
47
100
AcDbScale
 70
     0
300
1:5
140
1.0
141
5.0
290
     0
  0
SCALE
  5
4C
102
{ACAD_REACTORS
330
47
102
}
330
47
100
AcDbScale
 70
     0
300
1:8
140
1.0
141
8.0
290
     0
  0
SCALE
  5
4D
102
{ACAD_REACTORS
330
47
102
}
330
47
100
AcDbScale
 70
     0
300
1:10
140
1.0
141
10.0
290
     0
  0
SCALE
  5
4E
102
{ACAD_REACTORS
330
47
102
}
330
47
100
AcDbScale
 70
     0
300
1:16
140
1.0
141
16.0
290
     0
  0
SCALE
  5
4F
102
{ACAD_REACTORS
330
47
102
}
330
47
100
AcDbScale
 70
     0
300
1:20
140
1.0
141
20.0
290
     0
  0
SCALE
  5
50
102
{ACAD_REACTORS
330
47
102
}
330
47
100
AcDbScale
 70
     0
300
1:30
140
1.0
141
30.0
290
     0
  0
SCALE
  5
51
102
{ACAD_REACTORS
330
47
102
}
330
47
100
AcDbScale
 70
     0
300
1:40
140
1.0
141
40.0
290
     0
  0
SCALE
  5
52
102
{ACAD_REACTORS
330
47
102
}
330
47
100
AcDbScale
 70
     0
300
1:50
140
1.0
141
50.0
290
     0
  0
SCALE
  5
53
102
{ACAD_REACTORS
330
47
102
}
330
47
100
AcDbScale
 70
     0
300
1:100
140
1.0
141
100.0
290
     0
  0
SCALE
  5
54
102
{ACAD_REACTORS
330
47
102
}
330
47
100
AcDbScale
 70
     0
300
2:1
140
2.0
141
1.0
290
     0
  0
SCALE
  5
55
102
{ACAD_REACTORS
330
47
102
}
330
47
100
AcDbScale
 70
     0
300
4:1
140
4.0
141
1.0
290
     0
  0
SCALE
  5
56
102
{ACAD_REACTORS
330
47
102
}
330
47
100
AcDbScale
 70
     0
300
8:1
140
8.0
141
1.0
290
     0
  0
SCALE
  5
57
102
{ACAD_REACTORS
330
47
102
}
330
47
100
AcDbScale
 70
     0
300
10:1
140
10.0
141
1.0
290
     0
  0
SCALE
  5
58
102
{ACAD_REACTORS
330
47
102
}
330
47
100
AcDbScale
 70
     0
300
100:1
140
100.0
141
1.0
290
     0
  0
ENDSEC
  0
EOF
