  0
SECTION
  2
HEADER
  9
$ACADVER
  1
AC1015
  9
$ACADMAINTVER
 70
     6
  9
$DWGCODEPAGE
  3
DOS932
  9
$INSBASE
 10
0.0
 20
0.0
 30
0.0
  9
$EXTMIN
 10
0.0
 20
0.0
 30
0.0
  9
$EXTMAX
 10
5000.0
 20
3500.0
 30
0.0
  9
$LIMMIN
 10
0.0
 20
0.0
  9
$LIMMAX
 10
5000.0
 20
3500.0
  9
$ORTHOMODE
 70
     0
  9
$REGENMODE
 70
     1
  9
$FILLMODE
 70
     1
  9
$QTEXTMODE
 70
     0
  9
$MIRRTEXT
 70
     1
  9
$LTSCALE
 40
1.0
  9
$ATTMODE
 70
     1
  9
$TEXTSIZE
 40
3.5
  9
$TRACEWID
 40
1.0
  9
$TEXTSTYLE
  7
Standard
  9
$CLAYER
  8
0
  9
$CELTYPE
  6
ByLayer
  9
$CECOLOR
 62
   256
  9
$CELTSCALE
 40
1.0
  9
$DISPSILH
 70
     0
  9
$DIMSCALE
 40
1.0
  9
$DIMASZ
 40
3.302
  9
$DIMEXO
 40
1.0
  9
$DIMDLI
 40
3.75
  9
$DIMRND
 40
0.0
  9
$DIMDLE
 40
0.0
  9
$DIMEXE
 40
1.0
  9
$DIMTP
 40
0.0
  9
$DIMTM
 40
0.0
  9
$DIMTXT
 40
3.5
  9
$DIMCEN
 40
2.5
  9
$DIMTSZ
 40
0.0
  9
$DIMTOL
 70
     0
  9
$DIMLIM
 70
     0
  9
$DIMTIH
 70
     1
  9
$DIMTOH
 70
     1
  9
$DIMSE1
 70
     0
  9
$DIMSE2
 70
     0
  9
$DIMTAD
 70
     1
  9
$DIMZIN
 70
     0
  9
$DIMBLK
  1

  9
$DIMASO
 70
     1
  9
$DIMSHO
 70
     1
  9
$DIMPOST
  1

  9
$DIMAPOST
  1

  9
$DIMALT
 70
     0
  9
$DIMALTD
 70
     3
  9
$DIMALTF
 40
0.0393700787
  9
$DIMLFAC
 40
1.0
  9
$DIMTOFL
 70
     1
  9
$DIMTVP
 40
0.0
  9
$DIMTIX
 70
     0
  9
$DIMSOXD
 70
     0
  9
$DIMSAH
 70
     0
  9
$DIMBLK1
  1

  9
$DIMBLK2
  1

  9
$DIMSTYLE
  2
ISO-25
  9
$DIMCLRD
 70
     0
  9
$DIMCLRE
 70
     0
  9
$DIMCLRT
 70
     0
  9
$DIMTFAC
 40
1.0
  9
$DIMGAP
 40
1.524
  9
$DIMJUST
 70
     0
  9
$DIMSD1
 70
     0
  9
$DIMSD2
 70
     0
  9
$DIMTOLJ
 70
     0
  9
$DIMTZIN
 70
     0
  9
$DIMALTZ
 70
     0
  9
$DIMALTTZ
 70
     0
  9
$DIMUPT
 70
     0
  9
$DIMDEC
 70
     2
  9
$DIMTDEC
 70
     2
  9
$DIMALTU
 70
     2
  9
$DIMALTTD
 70
     3
  9
$DIMTXSTY
  7
Standard
  9
$DIMAUNIT
 70
     0
  9
$DIMADEC
 70
     2
  9
$DIMALTRND
 40
0.0
  9
$DIMAZIN
 70
     0
  9
$DIMDSEP
 70
    44
  9
$DIMATFIT
 70
     3
  9
$DIMFRAC
 70
     0
  9
$DIMLDRBLK
  1

  9
$DIMLUNIT
 70
     2
  9
$DIMLWD
 70
    -2
  9
$DIMLWE
 70
    -2
  9
$DIMTMOVE
 70
     0
  9
$LUNITS
 70
     2
  9
$LUPREC
 70
     3
  9
$SKETCHINC
 40
1.0
  9
$FILLETRAD
 40
0.0
  9
$AUNITS
 70
     0
  9
$AUPREC
 70
     2
  9
$MENU
  1
.
  9
$ELEVATION
 40
0.0
  9
$PELEVATION
 40
0.0
  9
$THICKNESS
 40
0.0
  9
$LIMCHECK
 70
     0
  9
$CHAMFERA
 40
0.0
  9
$CHAMFERB
 40
0.0
  9
$CHAMFERC
 40
0.0
  9
$CHAMFERD
 40
0.0
  9
$SKPOLY
 70
     0
  9
$TDCREATE
 40
2460384.70682529
  9
$TDUCREATE
 40
2460384.33182529
  9
$TDUPDATE
 40
2460384.706825556
  9
$TDUUPDATE
 40
2460384.331825556
  9
$TDINDWG
 40
0.0000000116
  9
$TDUSRTIMER
 40
0.0000000116
  9
$USRTIMER
 70
     1
  9
$ANGBASE
 50
0.0
  9
$ANGDIR
 70
     0
  9
$PDMODE
 70
     0
  9
$PDSIZE
 40
-1.0
  9
$PLINEWID
 40
0.0
  9
$SPLFRAME
 70
     0
  9
$SPLINETYPE
 70
     6
  9
$SPLINESEGS
 70
     8
  9
$HANDSEED
  5
1A9
  9
$SURFTAB1
 70
     6
  9
$SURFTAB2
 70
     6
  9
$SURFTYPE
 70
     6
  9
$SURFU
 70
     6
  9
$SURFV
 70
     6
  9
$UCSBASE
  2

  9
$UCSNAME
  2

  9
$UCSORG
 10
0.0
 20
0.0
 30
0.0
  9
$UCSXDIR
 10
1.0
 20
0.0
 30
0.0
  9
$UCSYDIR
 10
0.0
 20
1.0
 30
0.0
  9
$UCSORTHOREF
  2

  9
$UCSORTHOVIEW
 70
     0
  9
$UCSORGTOP
 10
0.0
 20
0.0
 30
0.0
  9
$UCSORGBOTTOM
 10
0.0
 20
0.0
 30
0.0
  9
$UCSORGLEFT
 10
0.0
 20
0.0
 30
0.0
  9
$UCSORGRIGHT
 10
0.0
 20
0.0
 30
0.0
  9
$UCSORGFRONT
 10
0.0
 20
0.0
 30
0.0
  9
$UCSORGBACK
 10
0.0
 20
0.0
 30
0.0
  9
$PUCSBASE
  2

  9
$PUCSNAME
  2

  9
$PUCSORG
 10
0.0
 20
0.0
 30
0.0
  9
$PUCSXDIR
 10
1.0
 20
0.0
 30
0.0
  9
$PUCSYDIR
 10
0.0
 20
1.0
 30
0.0
  9
$PUCSORTHOREF
  2

  9
$PUCSORTHOVIEW
 70
     0
  9
$PUCSORGTOP
 10
0.0
 20
0.0
 30
0.0
  9
$PUCSORGBOTTOM
 10
0.0
 20
0.0
 30
0.0
  9
$PUCSORGLEFT
 10
0.0
 20
0.0
 30
0.0
  9
$PUCSORGRIGHT
 10
0.0
 20
0.0
 30
0.0
  9
$PUCSORGFRONT
 10
0.0
 20
0.0
 30
0.0
  9
$PUCSORGBACK
 10
0.0
 20
0.0
 30
0.0
  9
$USERI1
 70
     0
  9
$USERI2
 70
     0
  9
$USERI3
 70
     0
  9
$USERI4
 70
     0
  9
$USERI5
 70
     0
  9
$USERR1
 40
0.0
  9
$USERR2
 40
0.0
  9
$USERR3
 40
0.0
  9
$USERR4
 40
0.0
  9
$USERR5
 40
0.0
  9
$WORLDVIEW
 70
     1
  9
$SHADEDGE
 70
     3
  9
$SHADEDIF
 70
    70
  9
$TILEMODE
 70
     1
  9
$MAXACTVP
 70
    64
  9
$PINSBASE
 10
0.0
 20
0.0
 30
0.0
  9
$PLIMCHECK
 70
     0
  9
$PEXTMIN
 10
1.0000000000E+20
 20
1.0000000000E+20
 30
1.0000000000E+20
  9
$PEXTMAX
 10
-1.0000000000E+20
 20
-1.0000000000E+20
 30
-1.0000000000E+20
  9
$PLIMMIN
 10
0.0
 20
0.0
  9
$PLIMMAX
 10
420.0
 20
297.0
  9
$UNITMODE
 70
     0
  9
$VISRETAIN
 70
     1
  9
$PLINEGEN
 70
     0
  9
$PSLTSCALE
 70
     1
  9
$TREEDEPTH
 70
  3020
  9
$CMLSTYLE
  2
Standard
  9
$CMLJUST
 70
     0
  9
$CMLSCALE
 40
20.0
  9
$PROXYGRAPHICS
 70
     1
  9
$MEASUREMENT
 70
     1
  9
$CELWEIGHT
370
    -1
  9
$ENDCAPS
280
     0
  9
$JOINSTYLE
280
     0
  9
$LWDISPLAY
290
     1
  9
$INSUNITS
 70
     4
  9
$HYPERLINKBASE
  1

  9
$STYLESHEET
  1

  9
$XEDIT
290
     1
  9
$CEPSNTYPE
380
     0
  9
$PSTYLEMODE
290
     1
  9
$FINGERPRINTGUID
  2
{4a4fabf4-c259-4446-86a8-42b83992db8c}
  9
$VERSIONGUID
  2
{FAEB1C32-E019-11D5-929B-00C0DF256EC4}
  9
$EXTNAMES
290
     1
  9
$PSVPSCALE
 40
0.0
  9
$OLESTARTUP
290
     0
  0
ENDSEC
  0
SECTION
  2
CLASSES
  0
CLASS
  1
ACDBDICTIONARYWDFLT
  2
AcDbDictionaryWithDefault
  3
ObjectDBX Classes
 90
        0
280
     0
281
     0
  0
CLASS
  1
VISUALSTYLE
  2
AcDbVisualStyle
  3
ObjectDBX Classes
 90
     4095
280
     0
281
     0
  0
CLASS
  1
MATERIAL
  2
AcDbMaterial
  3
ObjectDBX Classes
 90
     1153
280
     0
281
     0
  0
CLASS
  1
SCALE
  2
AcDbScale
  3
ObjectDBX Classes
 90
     1153
280
     0
281
     0
  0
CLASS
  1
TABLESTYLE
  2
AcDbTableStyle
  3
ObjectDBX Classes
 90
     4095
280
     0
281
     0
  0
CLASS
  1
MLEADERSTYLE
  2
AcDbMLeaderStyle
  3
ACDB_MLEADERSTYLE_CLASS
 90
     4095
280
     0
281
     0
  0
CLASS
  1
SUN
  2
AcDbSun
  3
SCENEOE
 90
     1153
280
     0
281
     0
  0
CLASS
  1
ACDBPLACEHOLDER
  2
AcDbPlaceHolder
  3
ObjectDBX Classes
 90
        0
280
     0
281
     0
  0
CLASS
  1
LAYOUT
  2
AcDbLayout
  3
ObjectDBX Classes
 90
        0
280
     0
281
     0
  0
ENDSEC
  0
SECTION
  2
TABLES
  0
TABLE
  2
VPORT
  5
8
330
0
100
AcDbSymbolTable
 70
     1
  0
VPORT
  5
29
330
8
100
AcDbSymbolTableRecord
100
AcDbViewportTableRecord
  2
*Active
 70
     0
 10
0.0
 20
0.0
 11
1.0
 21
1.0
 12
2500.0
 22
1750.0
 13
0.0
 23
0.0
 14
10.0
 24
10.0
 15
10.0
 25
10.0
 16
0.0
 26
0.0
 36
1.0
 17
0.0
 27
0.0
 37
0.0
 40
3500.0
 41
1.4285714286
 42
50.0
 43
0.0
 44
0.0
 50
0.0
 51
0.0
 71
     0
 72
  2000
 73
     1
 74
     3
 75
     0
 76
     0
 77
     0
 78
     0
281
     0
 65
     1
110
0.0
120
0.0
130
0.0
111
1.0
121
0.0
131
0.0
112
0.0
122
1.0
132
0.0
 79
     0
146
0.0
  0
ENDTAB
  0
TABLE
  2
LTYPE
  5
5
330
0
100
AcDbSymbolTable
 70
     6
  0
LTYPE
  5
14
330
5
100
AcDbSymbolTableRecord
100
AcDbLinetypeTableRecord
  2
ByBlock
 70
     0
  3

 72
    65
 73
     0
 40
0.0
  0
LTYPE
  5
15
330
5
100
AcDbSymbolTableRecord
100
AcDbLinetypeTableRecord
  2
ByLayer
 70
     0
  3

 72
    65
 73
     0
 40
0.0
  0
LTYPE
  5
16
330
5
100
AcDbSymbolTableRecord
100
AcDbLinetypeTableRecord
  2
Continuous
 70
     0
  3
Solid line
 72
    65
 73
     0
 40
0.0
  0
LTYPE
  5
5E
330
5
100
AcDbSymbolTableRecord
100
AcDbLinetypeTableRecord
  2
HIDDEN
 70
     0
  3
Hidden __ __ __ __ __ __ __ __ __ __ __ __ __ __
 72
    65
 73
     2
 40
1.905
 49
1.27
 74
     0
 49
-0.635
 74
     0
  0
LTYPE
  5
5F
330
5
100
AcDbSymbolTableRecord
100
AcDbLinetypeTableRecord
  2
PHANTOM
 70
     0
  3
Phantom ______  __  __  ______  __  __  ______
 72
    65
 73
     6
 40
12.7
 49
6.35
 74
     0
 49
-1.27
 74
     0
 49
1.27
 74
     0
 49
-1.27
 74
     0
 49
1.27
 74
     0
 49
-1.27
 74
     0
  0
LTYPE
  5
60
330
5
100
AcDbSymbolTableRecord
100
AcDbLinetypeTableRecord
  2
CENTER
 70
     0
  3
Center ____ _ ____ _ ____ _ ____ _ ____ _ ____
 72
    65
 73
     4
 40
10.16
 49
6.35
 74
     0
 49
-1.27
 74
     0
 49
1.27
 74
     0
 49
-1.27
 74
     0
  0
LTYPE
  5
61
330
5
100
AcDbSymbolTableRecord
100
AcDbLinetypeTableRecord
  2
CENTERX2
 70
     0
  3
Center (2x) ________  __  ________  __  _____
 72
    65
 73
     4
 40
20.32
 49
12.7
 74
     0
 49
-2.54
 74
     0
 49
2.54
 74
     0
 49
-2.54
 74
     0
  0
LTYPE
  5
62
330
5
100
AcDbSymbolTableRecord
100
AcDbLinetypeTableRecord
  2
DOT2
 70
     0
  3
Dot (.5x) ........................................
 72
    65
 73
     2
 40
0.635
 49
0.0
 74
     0
 49
-0.635
 74
     0
  0
ENDTAB
  0
TABLE
  2
LAYER
  5
2
330
0
100
AcDbSymbolTable
 70
     3
  0
LAYER
  5
10
330
2
100
AcDbSymbolTableRecord
100
AcDbLayerTableRecord
  2
0
 70
     0
 62
     7
  6
Continuous
370
    -3
390
F
  0
LAYER
  5
63
330
2
100
AcDbSymbolTableRecord
100
AcDbLayerTableRecord
  2
SLD-0
 70
     0
 62
   179
  6
Continuous
370
    -3
390
F
  0
LAYER
  5
64
330
2
100
AcDbSymbolTableRecord
100
AcDbLayerTableRecord
  2
寸法
 70
     0
 62
   179
  6
Continuous
370
    -3
390
F
  0
ENDTAB
  0
TABLE
  2
STYLE
  5
3
330
0
100
AcDbSymbolTable
 70
     2
  0
STYLE
  5
11
330
3
100
AcDbSymbolTableRecord
100
AcDbTextStyleTableRecord
  2
Standard
 70
     0
 40
0.0
 41
1.0
 50
0.0
 71
     0
 42
3.5
  3
txt
  4
bigfont
  0
STYLE
  5
66
330
3
100
AcDbSymbolTableRecord
100
AcDbTextStyleTableRecord
  2
SLDTEXTSTYLE0
 70
     0
 40
0.0
 41
0.75
 50
0.0
 71
     0
 42
3.5
  3
TXT
  4
bigfont
  0
ENDTAB
  0
TABLE
  2
VIEW
  5
6
330
0
100
AcDbSymbolTable
 70
     0
  0
ENDTAB
  0
TABLE
  2
UCS
  5
7
330
0
100
AcDbSymbolTable
 70
     0
  0
ENDTAB
  0
TABLE
  2
APPID
  5
9
330
0
100
AcDbSymbolTable
 70
     1
  0
APPID
  5
12
330
9
100
AcDbSymbolTableRecord
100
AcDbRegAppTableRecord
  2
ACAD
 70
     0
  0
ENDTAB
  0
TABLE
  2
DIMSTYLE
  5
A
330
0
100
AcDbSymbolTable
 70
     1
100
AcDbDimStyleTable
  0
DIMSTYLE
105
27
330
A
100
AcDbSymbolTableRecord
100
AcDbDimStyleTableRecord
  2
ISO-25
 70
     0
 41
2.5
 42
0.625
 43
3.75
 44
1.25
 73
     0
 74
     0
 77
     1
 78
     8
140
2.5
141
2.5
143
0.0393700787
147
0.625
171
     3
172
     1
178
     0
271
     2
272
     2
274
     3
278
    44
283
     0
284
     8
340
11
  0
ENDTAB
  0
TABLE
  2
BLOCK_RECORD
  5
1
330
0
100
AcDbSymbolTable
 70
     1
  0
BLOCK_RECORD
  5
1F
330
1
100
AcDbSymbolTableRecord
100
AcDbBlockTableRecord
  2
*Model_Space
340
22
  0
BLOCK_RECORD
  5
1B
330
1
100
AcDbSymbolTableRecord
100
AcDbBlockTableRecord
  2
*Paper_Space
340
1E
  0
BLOCK_RECORD
  5
23
330
1
100
AcDbSymbolTableRecord
100
AcDbBlockTableRecord
  2
*Paper_Space0
340
26
  0
ENDTAB
  0
ENDSEC
  0
SECTION
  2
BLOCKS
  0
BLOCK
  5
20
330
1F
100
AcDbEntity
  8
0
100
AcDbBlockBegin
  2
*Model_Space
 70
     0
 10
0.0
 20
0.0
 30
0.0
  3
*Model_Space
  1

  0
ENDBLK
  5
21
330
1F
100
AcDbEntity
  8
0
100
AcDbBlockEnd
  0
BLOCK
  5
1C
330
1B
100
AcDbEntity
 67
     1
  8
0
100
AcDbBlockBegin
  2
*Paper_Space
 70
     0
 10
0.0
 20
0.0
 30
0.0
  3
*Paper_Space
  1

  0
ENDBLK
  5
1D
330
1B
100
AcDbEntity
 67
     1
  8
0
100
AcDbBlockEnd
  0
BLOCK
  5
24
330
23
100
AcDbEntity
  8
0
100
AcDbBlockBegin
  2
*Paper_Space0
 70
     0
 10
0.0
 20
0.0
 30
0.0
  3
*Paper_Space0
  1

  0
ENDBLK
  5
25
330
23
100
AcDbEntity
  8
0
100
AcDbBlockEnd
  0
ENDSEC
  0
SECTION
  2
ENTITIES
  0
LINE
  5
65
330
1F
100
AcDbEntity
  8
0
  6
Continuous
 62
     7
370
    18
100
AcDbLine
 10
4801.663086451
 20
279.1403827252
 30
0.0
 11
3345.9062220501
 21
279.1403827252
 31
0.0
  0
MTEXT
  5
67
330
1F
100
AcDbEntity
  8
0
  6
Continuous
 62
     7
370
     0
100
AcDbMText
 10
1882.8324799637
 20
1705.1460221879
 30
0.0
 40
52.9166666667
 41
0.0
 71
     1
 72
     1
  1
＜正面＞
  7
SLDTEXTSTYLE0
 73
     1
 44
1.0
  0
MTEXT
  5
68
330
1F
100
AcDbEntity
  8
0
  6
Continuous
 62
     7
370
     0
100
AcDbMText
 10
3377.8142431891
 20
379.4057208634
 30
0.0
 40
52.9166666667
 41
0.0
 71
     1
 72
     1
  1
品名：
  7
SLDTEXTSTYLE0
 73
     1
 44
1.0
  0
MTEXT
  5
69
330
1F
100
AcDbEntity
  8
0
  6
Continuous
 62
     7
370
     0
100
AcDbMText
 10
4446.6634374817
 20
385.2343854145
 30
0.0
 40
52.9166666667
 41
0.0
 71
     1
 72
     1
  1
Pamouna
  7
SLDTEXTSTYLE0
 73
     1
 44
1.0
  0
MTEXT
  5
6A
330
1F
100
AcDbEntity
  8
寸法
 62
     7
100
AcDbMText
 10
4688.0073048854
 20
218.6255182943
 30
0.0
 40
52.9166666667
 41
0.0
 71
     1
 72
     1
  1
1/1
  7
SLDTEXTSTYLE0
 73
     1
 44
1.0
  0
MTEXT
  5
6B
330
1F
100
AcDbEntity
  8
寸法
 62
     7
100
AcDbMText
 10
3611.2831293492
 20
398.3924235142
 30
0.0
 40
66.1458333333
 41
0.0
 71
     1
 72
     1
  1
MAGN80C
  7
SLDTEXTSTYLE0
 73
     1
 44
1.0
  0
MTEXT
  5
6C
330
1F
100
AcDbEntity
  8
寸法
 62
     7
100
AcDbMText
 10
4198.7969392118
 20
218.6255210883
 30
0.0
 40
52.9166666667
 41
0.0
 71
     1
 72
     1
  1
2024/03/14
  7
SLDTEXTSTYLE0
 73
     1
 44
1.0
  0
MTEXT
  5
6D
330
1F
100
AcDbEntity
  8
寸法
 62
     7
100
AcDbMText
 10
3662.4665930518
 20
1700.6575766403
 30
0.0
 40
52.9166666667
 41
0.0
 71
     1
 72
     1
  1
＜右側面＞
  7
SLDTEXTSTYLE0
 73
     1
 44
1.0
  0
MTEXT
  5
6E
330
1F
100
AcDbEntity
  8
0
  6
Continuous
 62
     7
370
     0
100
AcDbMText
 10
1882.8017261557
 20
2765.5678091759
 30
0.0
 40
52.9166666667
 41
0.0
 71
     1
 72
     1
  1
＜上面＞
  7
SLDTEXTSTYLE0
 73
     1
 44
1.0
  0
MTEXT
  5
6F
330
1F
100
AcDbEntity
  8
0
  6
Continuous
 62
     7
370
     0
100
AcDbMText
 10
599.5723251208
 20
1700.5928474105
 30
0.0
 40
52.9166666667
 41
0.0
 71
     1
 72
     1
  1
＜左側面＞
  7
SLDTEXTSTYLE0
 73
     1
 44
1.0
  0
ARC
  5
70
330
1F
100
AcDbEntity
  8
0
  6
Continuous
 62
     7
370
    25
100
AcDbCircle
 10
2078.8954585654
 20
1366.4543978663
 30
0.0
 40
0.2000000000002728
100
AcDbArc
 50
180.0
 51
270.0
  0
LINE
  5
71
330
1F
100
AcDbEntity
  8
0
  6
Continuous
 62
     7
370
    25
100
AcDbLine
 10
2078.8954585654
 20
1366.2543978663
 30
0.0
 11
2080.6954585654
 21
1366.2543978663
 31
0.0
  0
LINE
  5
72
330
1F
100
AcDbEntity
  8
0
  6
Continuous
 62
     7
370
    25
100
AcDbLine
 10
2080.6954585654
 20
1366.2543978663
 30
0.0
 11
2868.6954585654
 21
1366.2543978663
 31
0.0
  0
LINE
  5
73
330
1F
100
AcDbEntity
  8
0
  6
Continuous
 62
     7
370
    25
100
AcDbLine
 10
2868.6954585654
 20
1366.2543978663
 30
0.0
 11
2870.4954585654
 21
1366.2543978663
 31
0.0
  0
ARC
  5
74
330
1F
100
AcDbEntity
  8
0
  6
Continuous
 62
     7
370
    25
100
AcDbCircle
 10
2870.4954585654
 20
1366.4543978663
 30
0.0
 40
0.2000000000000455
100
AcDbArc
 50
270.0
 51
0.0
  0
LINE
  5
75
330
1F
100
AcDbEntity
  8
0
  6
Continuous
 62
     7
370
    25
100
AcDbLine
 10
2574.6954585654
 20
1512.0043978663
 30
0.0
 11
2574.6954585654
 21
1512.2543978663
 31
0.0
  0
LINE
  5
76
330
1F
100
AcDbEntity
  8
0
  6
Continuous
 62
     7
370
    25
100
AcDbLine
 10
2566.6954585654
 20
1512.2543978663
 30
0.0
 11
2566.6954585654
 21
1512.0043978663
 31
0.0
  0
LINE
  5
77
330
1F
100
AcDbEntity
  8
0
  6
Continuous
 62
     7
370
    25
100
AcDbLine
 10
2190.6954585654
 20
1512.0043978663
 30
0.0
 11
2190.6954585654
 21
1512.2543978663
 31
0.0
  0
LINE
  5
78
330
1F
100
AcDbEntity
  8
0
  6
Continuous
 62
     7
370
    25
100
AcDbLine
 10
2182.6954585654
 20
1512.2543978663
 30
0.0
 11
2182.6954585654
 21
1512.0043978663
 31
0.0
  0
LINE
  5
79
330
1F
100
AcDbEntity
  8
0
  6
Continuous
 62
     7
370
    25
100
AcDbLine
 10
2766.6954585654
 20
1512.0043978663
 30
0.0
 11
2766.6954585654
 21
1512.2543978663
 31
0.0
  0
LINE
  5
7A
330
1F
100
AcDbEntity
  8
0
  6
Continuous
 62
     7
370
    25
100
AcDbLine
 10
2758.6954585654
 20
1512.2543978663
 30
0.0
 11
2758.6954585654
 21
1512.0043978663
 31
0.0
  0
LINE
  5
7B
330
1F
100
AcDbEntity
  8
0
  6
Continuous
 62
     7
370
    25
100
AcDbLine
 10
2382.6954585654
 20
1512.0043978663
 30
0.0
 11
2382.6954585654
 21
1512.2543978663
 31
0.0
  0
LINE
  5
7C
330
1F
100
AcDbEntity
  8
0
  6
Continuous
 62
     7
370
    25
100
AcDbLine
 10
2374.6954585654
 20
1512.2543978663
 30
0.0
 11
2374.6954585654
 21
1512.0043978663
 31
0.0
  0
LINE
  5
7D
330
1F
100
AcDbEntity
  8
0
  6
Continuous
 62
     7
370
    25
100
AcDbLine
 10
2856.4454585654
 20
1357.7543978663
 30
0.0
 11
2092.9454585654
 21
1357.7543978663
 31
0.0
  0
LINE
  5
7E
330
1F
100
AcDbEntity
  8
0
  6
Continuous
 62
     7
370
    25
100
AcDbLine
 10
2078.6954585654
 20
1366.4655465881
 30
0.0
 11
2078.6954585654
 21
1366.5543978663
 31
0.0
  0
SPLINE
  5
7F
330
1F
100
AcDbEntity
  8
0
  6
Continuous
 62
     7
370
    25
100
AcDbSpline
210
0.0
220
0.0
230
1.0
 70
     8
 71
     3
 72
    13
 73
     9
 74
     0
 42
0.00000001
 43
0.00000001
 40
0.0
 40
0.0
 40
0.0
 40
0.0
 40
0.0075029974113224
 40
0.3818974549667551
 40
0.6070018873275027
 40
0.7653769096344524
 40
0.8824605049809779
 40
0.9999999999999999
 40
0.9999999999999999
 40
0.9999999999999999
 40
0.9999999999999999
 10
2078.695458565366
 20
1366.554397866315
 30
0.0
 10
2078.695459520971
 20
1366.55483586421
 30
0.0
 10
2078.695508160586
 20
1366.57712965858
 30
0.0
 10
2078.701630265324
 20
1366.624014046795
 30
0.0
 10
2078.743646370799
 20
1366.690298483831
 30
0.0
 10
2078.792457172765
 20
1366.728560043004
 30
0.0
 10
2078.84318782008
 20
1366.750315818739
 30
0.0
 10
2078.87801242753
 20
1366.753035422289
 30
0.0
 10
2078.895458565366
 20
1366.754397866315
 30
0.0
  0
LINE
  5
80
330
1F
100
AcDbEntity
  8
0
  6
Continuous
 62
     7
370
    25
100
AcDbLine
 10
2078.8954585654
 20
1366.7543978663
 30
0.0
 11
2078.8954585654
 21
1366.2683337685
 31
0.0
  0
ARC
  5
81
330
1F
100
AcDbEntity
  8
0
  6
Continuous
 62
     7
370
    25
100
AcDbCircle
 10
2078.8940746856
 20
1366.466950026
 30
0.0
 40
0.1986210785930939
100
AcDbArc
 50
180.4048499765
 51
270.3992079345
  0
LINE
  5
82
330
1F
100
AcDbEntity
  8
0
  6
Continuous
 62
     7
370
    25
100
AcDbLine
 10
2078.8954585654
 20
1366.2683337685
 30
0.0
 11
2080.6954585654
 21
1366.2683337685
 31
0.0
  0
LINE
  5
83
330
1F
100
AcDbEntity
  8
0
  6
Continuous
 62
     7
370
    25
100
AcDbLine
 10
2080.6954585654
 20
1366.2683337685
 30
0.0
 11
2080.6954585654
 21
1366.7543978663
 31
0.0
  0
LINE
  5
84
330
1F
100
AcDbEntity
  8
0
  6
Continuous
 62
     7
370
    25
100
AcDbLine
 10
2078.6954585654
 20
1366.4543978663
 30
0.0
 11
2078.6954585654
 21
1366.4655465881
 31
0.0
  0
LINE
  5
85
330
1F
100
AcDbEntity
  8
0
  6
Continuous
 62
     7
370
    25
100
AcDbLine
 10
2080.6954585654
 20
1366.2543978663
 30
0.0
 11
2080.6954585654
 21
1366.2683337685
 31
0.0
  0
LINE
  5
86
330
1F
100
AcDbEntity
  8
0
  6
Continuous
 62
     7
370
    25
100
AcDbLine
 10
2078.6954585654
 20
1366.5543978663
 30
0.0
 11
2078.6954585654
 21
1366.7543978663
 31
0.0
  0
LINE
  5
87
330
1F
100
AcDbEntity
  8
0
  6
Continuous
 62
     7
370
    25
100
AcDbLine
 10
2080.6954585654
 20
1366.2683337685
 30
0.0
 11
2868.6954585654
 21
1366.2683337685
 31
0.0
  0
LINE
  5
88
330
1F
100
AcDbEntity
  8
0
  6
Continuous
 62
     7
370
    25
100
AcDbLine
 10
2868.6954585654
 20
1366.7543978663
 30
0.0
 11
2868.6954585654
 21
1366.2683337685
 31
0.0
  0
LINE
  5
89
330
1F
100
AcDbEntity
  8
0
  6
Continuous
 62
     7
370
    25
100
AcDbLine
 10
2868.6954585654
 20
1366.2683337685
 30
0.0
 11
2868.6954585654
 21
1366.2543978663
 31
0.0
  0
LINE
  5
8A
330
1F
100
AcDbEntity
  8
0
  6
Continuous
 62
     7
370
    25
100
AcDbLine
 10
2870.6954585654
 20
1366.5543978663
 30
0.0
 11
2870.6954585654
 21
1366.4655465881
 31
0.0
  0
ARC
  5
8B
330
1F
100
AcDbEntity
  8
0
  6
Continuous
 62
     7
370
    25
100
AcDbCircle
 10
2870.4968424451
 20
1366.466950026
 30
0.0
 40
0.1986210785916795
100
AcDbArc
 50
269.6007920653
 51
359.5951500239
  0
LINE
  5
8C
330
1F
100
AcDbEntity
  8
0
  6
Continuous
 62
     7
370
    25
100
AcDbLine
 10
2870.4954585654
 20
1366.2683337685
 30
0.0
 11
2870.4954585654
 21
1366.7543978663
 31
0.0
  0
SPLINE
  5
8D
330
1F
100
AcDbEntity
  8
0
  6
Continuous
 62
     7
370
    25
100
AcDbSpline
210
0.0
220
0.0
230
1.0
 70
     8
 71
     3
 72
    13
 73
     9
 74
     0
 42
0.00000001
 43
0.00000001
 40
0.0
 40
0.0
 40
0.0
 40
0.0
 40
0.0075029974113223
 40
0.3818974549658312
 40
0.6070018873268317
 40
0.7653769096342229
 40
0.882460504980979
 40
1.0
 40
1.0
 40
1.0
 40
1.0
 10
2870.695458565366
 20
1366.554397866315
 30
0.0
 10
2870.695457609761
 20
1366.55483586421
 30
0.0
 10
2870.695408970149
 20
1366.57712965858
 30
0.0
 10
2870.689286865407
 20
1366.624014046795
 30
0.0
 10
2870.647270759934
 20
1366.690298483831
 30
0.0
 10
2870.598459957967
 20
1366.728560043004
 30
0.0
 10
2870.547729310652
 20
1366.750315818739
 30
0.0
 10
2870.512904703202
 20
1366.753035422289
 30
0.0
 10
2870.495458565367
 20
1366.754397866315
 30
0.0
  0
LINE
  5
8E
330
1F
100
AcDbEntity
  8
0
  6
Continuous
 62
     7
370
    25
100
AcDbLine
 10
2868.6954585654
 20
1366.2683337685
 30
0.0
 11
2870.4954585654
 21
1366.2683337685
 31
0.0
  0
LINE
  5
8F
330
1F
100
AcDbEntity
  8
0
  6
Continuous
 62
     7
370
    25
100
AcDbLine
 10
2870.6954585654
 20
1366.4655465881
 30
0.0
 11
2870.6954585654
 21
1366.4543978663
 31
0.0
  0
LINE
  5
90
330
1F
100
AcDbEntity
  8
0
  6
Continuous
 62
     7
370
    25
100
AcDbLine
 10
2870.6954585654
 20
1366.7543978663
 30
0.0
 11
2870.6954585654
 21
1366.5543978663
 31
0.0
  0
LINE
  5
91
330
1F
100
AcDbEntity
  8
0
  6
Continuous
 62
     7
370
    25
100
AcDbLine
 10
2870.6954585654
 20
1366.7543978663
 30
0.0
 11
2870.6954585654
 21
1507.7543978663
 31
0.0
  0
LINE
  5
92
330
1F
100
AcDbEntity
  8
0
  6
Continuous
 62
     7
370
    25
100
AcDbLine
 10
2870.6954585654
 20
1507.7543978663
 30
0.0
 11
2078.6954585654
 21
1507.7543978663
 31
0.0
  0
LINE
  5
93
330
1F
100
AcDbEntity
  8
0
  6
Continuous
 62
     7
370
    25
100
AcDbLine
 10
2078.6954585654
 20
1366.7543978663
 30
0.0
 11
2870.6954585654
 21
1366.7543978663
 31
0.0
  0
LINE
  5
94
330
1F
100
AcDbEntity
  8
0
  6
Continuous
 62
     7
370
    25
100
AcDbLine
 10
2078.6954585654
 20
1507.7543978663
 30
0.0
 11
2078.6954585654
 21
1366.7543978663
 31
0.0
  0
LINE
  5
95
330
1F
100
AcDbEntity
  8
0
  6
Continuous
 62
     7
370
    25
100
AcDbLine
 10
2856.4454585654
 20
1512.0043978663
 30
0.0
 11
2092.9454585654
 21
1512.0043978663
 31
0.0
  0
LINE
  5
96
330
1F
100
AcDbEntity
  8
0
  6
Continuous
 62
     7
370
    25
100
AcDbLine
 10
2856.4454585654
 20
1512.2543978663
 30
0.0
 11
2856.4454585654
 21
1507.7543978663
 31
0.0
  0
LINE
  5
97
330
1F
100
AcDbEntity
  8
0
  6
Continuous
 62
     7
370
    25
100
AcDbLine
 10
2856.4454585654
 20
1366.2543978663
 30
0.0
 11
2856.4454585654
 21
1356.7543978663
 31
0.0
  0
LINE
  5
98
330
1F
100
AcDbEntity
  8
0
  6
Continuous
 62
     7
370
    25
100
AcDbLine
 10
2856.4454585654
 20
1356.7543978663
 30
0.0
 11
2873.9454585654
 21
1356.7543978663
 31
0.0
  0
LINE
  5
99
330
1F
100
AcDbEntity
  8
0
  6
Continuous
 62
     7
370
    25
100
AcDbLine
 10
2873.9454585654
 20
1356.7543978663
 30
0.0
 11
2873.9454585654
 21
1512.2543978663
 31
0.0
  0
LINE
  5
9A
330
1F
100
AcDbEntity
  8
0
  6
Continuous
 62
     7
370
    25
100
AcDbLine
 10
2092.9454585654
 20
1356.7543978663
 30
0.0
 11
2092.9454585654
 21
1366.2543978663
 31
0.0
  0
LINE
  5
9B
330
1F
100
AcDbEntity
  8
0
  6
Continuous
 62
     7
370
    25
100
AcDbLine
 10
2092.9454585654
 20
1507.7543978663
 30
0.0
 11
2092.9454585654
 21
1512.2543978663
 31
0.0
  0
LINE
  5
9C
330
1F
100
AcDbEntity
  8
0
  6
Continuous
 62
     7
370
    25
100
AcDbLine
 10
2075.4454585654
 20
1356.7543978663
 30
0.0
 11
2092.9454585654
 21
1356.7543978663
 31
0.0
  0
LINE
  5
9D
330
1F
100
AcDbEntity
  8
0
  6
Continuous
 62
     7
370
    25
100
AcDbLine
 10
2075.4454585654
 20
1512.2543978663
 30
0.0
 11
2075.4454585654
 21
1356.7543978663
 31
0.0
  0
LINE
  5
9E
330
1F
100
AcDbEntity
  8
0
  6
Continuous
 62
     7
370
    25
100
AcDbLine
 10
2092.9454585654
 20
1511.7543978663
 30
0.0
 11
2092.9454585654
 21
1507.7543978663
 31
0.0
  0
LINE
  5
9F
330
1F
100
AcDbEntity
  8
0
  6
Continuous
 62
     7
370
    25
100
AcDbLine
 10
2856.4454585654
 20
1511.7543978663
 30
0.0
 11
2856.4454585654
 21
1507.7543978663
 31
0.0
  0
LINE
  5
A0
330
1F
100
AcDbEntity
  8
0
  6
Continuous
 62
     7
370
    25
100
AcDbLine
 10
2856.4454585654
 20
1511.7543978663
 30
0.0
 11
2092.9454585654
 21
1511.7543978663
 31
0.0
  0
LINE
  5
A1
330
1F
100
AcDbEntity
  8
0
  6
Continuous
 62
     7
370
    25
100
AcDbLine
 10
2874.9454585654
 20
1533.7543978663
 30
0.0
 11
2074.4454585654
 21
1533.7543978663
 31
0.0
  0
LINE
  5
A2
330
1F
100
AcDbEntity
  8
0
  6
Continuous
 62
     7
370
    25
100
AcDbLine
 10
2874.9454585654
 20
1533.7543978663
 30
0.0
 11
2874.9454585654
 21
1515.2543978663
 31
0.0
  0
LINE
  5
A3
330
1F
100
AcDbEntity
  8
0
  6
Continuous
 62
     7
370
    25
100
AcDbLine
 10
2074.4454585654
 20
1515.2543978663
 30
0.0
 11
2874.9454585654
 21
1515.2543978663
 31
0.0
  0
LINE
  5
A4
330
1F
100
AcDbEntity
  8
0
  6
Continuous
 62
     7
370
    25
100
AcDbLine
 10
2074.4454585654
 20
1533.7543978663
 30
0.0
 11
2074.4454585654
 21
1515.2543978663
 31
0.0
  0
LINE
  5
A5
330
1F
100
AcDbEntity
  8
0
  6
Continuous
 62
     7
370
    25
100
AcDbLine
 10
2874.9454585654
 20
1512.2543978663
 30
0.0
 11
2074.4454585654
 21
1512.2543978663
 31
0.0
  0
LINE
  5
A6
330
1F
100
AcDbEntity
  8
0
  6
Continuous
 62
     7
370
    25
100
AcDbLine
 10
2074.4454585654
 20
1512.2543978663
 30
0.0
 11
2074.4454585654
 21
1515.2543978663
 31
0.0
  0
LINE
  5
A7
330
1F
100
AcDbEntity
  8
0
  6
Continuous
 62
     7
370
    25
100
AcDbLine
 10
2874.9454585654
 20
1515.2543978663
 30
0.0
 11
2874.9454585654
 21
1512.2543978663
 31
0.0
  0
LINE
  5
A8
330
1F
100
AcDbEntity
  8
0
  6
Continuous
 62
     7
370
    25
100
AcDbLine
 10
2074.4454585654
 20
1536.7543978663
 30
0.0
 11
2874.9454585654
 21
1536.7543978663
 31
0.0
  0
LINE
  5
A9
330
1F
100
AcDbEntity
  8
0
  6
Continuous
 62
     7
370
    25
100
AcDbLine
 10
2074.4454585654
 20
1533.7543978663
 30
0.0
 11
2074.4454585654
 21
1536.7543978663
 31
0.0
  0
LINE
  5
AA
330
1F
100
AcDbEntity
  8
0
  6
Continuous
 62
     7
370
    25
100
AcDbLine
 10
2874.9454585654
 20
1536.7543978663
 30
0.0
 11
2874.9454585654
 21
1533.7543978663
 31
0.0
  0
LINE
  5
AB
330
1F
100
AcDbEntity
  8
0
  6
Continuous
 62
     7
370
    25
100
AcDbLine
 10
2193.1954585654
 20
1512.2543978663
 30
0.0
 11
2193.1954585654
 21
1512.0043978663
 31
0.0
  0
LINE
  5
AC
330
1F
100
AcDbEntity
  8
0
  6
Continuous
 62
     7
370
    25
100
AcDbLine
 10
2756.1954585654
 20
1512.0043978663
 30
0.0
 11
2756.1954585654
 21
1512.2543978663
 31
0.0
  0
LWPOLYLINE
  5
AD
330
1F
100
AcDbEntity
  8
0
  6
Continuous
 62
     7
370
    25
100
AcDbPolyline
 90
        3
 70
   128
 43
0.0
 10
2826.4454585654
 20
1512.1530052151
 10
2827.4021671463
 20
1512.0438529489
 10
2827.5537536149
 20
1512.0043978663
  0
LWPOLYLINE
  5
AE
330
1F
100
AcDbEntity
  8
0
  6
Continuous
 62
     7
370
    25
100
AcDbPolyline
 90
        3
 70
   128
 43
0.0
 10
2825.3371635158
 20
1512.0043978663
 10
2825.4887499845
 20
1512.0438529489
 10
2826.4454585654
 20
1512.1530052151
  0
ARC
  5
AF
330
1F
100
AcDbEntity
  8
0
  6
Continuous
 62
     7
370
    25
100
AcDbCircle
 10
2849.4454585654
 20
1508.0201477324
 30
0.0
 40
4.135525002482076
100
AcDbArc
 50
74.4550790845
 51
105.5449209155
  0
LWPOLYLINE
  5
B0
330
1F
100
AcDbEntity
  8
0
  6
Continuous
 62
     7
370
    25
100
AcDbPolyline
 90
        3
 70
   128
 43
0.0
 10
2099.9454585654
 20
1512.1530052151
 10
2100.9021671463
 20
1512.0438529489
 10
2101.0537536149
 20
1512.0043978663
  0
LWPOLYLINE
  5
B1
330
1F
100
AcDbEntity
  8
0
  6
Continuous
 62
     7
370
    25
100
AcDbPolyline
 90
        3
 70
   128
 43
0.0
 10
2098.8371635158
 20
1512.0043978663
 10
2098.9887499845
 20
1512.0438529489
 10
2099.9454585654
 20
1512.1530052151
  0
ARC
  5
B2
330
1F
100
AcDbEntity
  8
0
  6
Continuous
 62
     7
370
    25
100
AcDbCircle
 10
2122.9454585654
 20
1508.0201477325
 30
0.0
 40
4.135525002472765
100
AcDbArc
 50
74.4550790841
 51
105.5449209159
  0
LINE
  5
B3
330
1F
100
AcDbEntity
  8
0
  6
Continuous
 62
     7
370
    25
100
AcDbLine
 10
2078.8954585654
 20
1366.2683337685
 30
0.0
 11
2078.8954585654
 21
1366.2543978663
 31
0.0
  0
LINE
  5
B4
330
1F
100
AcDbEntity
  8
0
  6
Continuous
 62
     7
370
    25
100
AcDbLine
 10
2870.4954585654
 20
1366.2543978663
 30
0.0
 11
2870.4954585654
 21
1366.2683337685
 31
0.0
  0
LINE
  5
B5
330
1F
100
AcDbEntity
  8
0
  6
Continuous
 62
     7
370
    25
100
AcDbLine
 10
755.7831445376
 20
1443.2767567878
 30
0.0
 11
757.7608646997
 21
1443.2249683628
 31
0.0
  0
LINE
  5
B6
330
1F
100
AcDbEntity
  8
0
  6
Continuous
 62
     7
370
    25
100
AcDbLine
 10
757.7608646997
 20
1448.7268537215
 30
0.0
 11
755.9271177533
 21
1448.7748720752
 31
0.0
  0
ARC
  5
B7
330
1F
100
AcDbEntity
  8
0
  6
Continuous
 62
     7
370
    25
100
AcDbCircle
 10
755.7909976221
 20
1443.5766539853
 30
0.0
 40
0.3000000000001063
100
AcDbArc
 50
178.5000000001
 51
268.5000000001
  0
ARC
  5
B8
330
1F
100
AcDbEntity
  8
0
  6
Continuous
 62
     7
370
    25
100
AcDbCircle
 10
755.9192646688
 20
1448.4749748777
 30
0.0
 40
0.2999999999999956
100
AcDbArc
 50
88.5000000001
 51
178.5
  0
ARC
  5
B9
330
1F
100
AcDbEntity
  8
0
  6
Continuous
 62
     7
370
    25
100
AcDbCircle
 10
754.280819647
 20
1471.8758832752
 30
0.0
 40
1.199999999999968
100
AcDbArc
 50
88.5000000001
 51
173.500000003
  0
ARC
  5
BA
330
1F
100
AcDbEntity
  8
0
  6
Continuous
 62
     7
370
    25
100
AcDbCircle
 10
753.8201053568
 20
1454.2819143556
 30
0.0
 40
1.200000000000091
100
AcDbArc
 50
183.4999999971
 51
268.5000000001
  0
LINE
  5
BB
330
1F
100
AcDbEntity
  8
0
  6
Continuous
 62
     7
370
    25
100
AcDbLine
 10
755.0624227623
 20
1473.0558276283
 30
0.0
 11
754.312231985
 21
1473.0754720652
 31
0.0
  0
LINE
  5
BC
330
1F
100
AcDbEntity
  8
0
  6
Continuous
 62
     7
370
    25
100
AcDbLine
 10
753.7886930188
 20
1453.0823255657
 30
0.0
 11
754.5388837961
 21
1453.0626811288
 31
0.0
  0
ARC
  5
BD
330
1F
100
AcDbEntity
  8
0
  6
Continuous
 62
     7
370
    25
100
AcDbCircle
 10
755.0571873726
 20
1472.8558961633
 30
0.0
 40
0.2000000000000689
100
AcDbArc
 50
358.5000000001
 51
88.5000000001
  0
ARC
  5
BE
330
1F
100
AcDbEntity
  8
0
  6
Continuous
 62
     7
370
    25
100
AcDbCircle
 10
754.5441191858
 20
1453.2626125938
 30
0.0
 40
0.2000000000000689
100
AcDbArc
 50
268.5000000001
 51
358.5000000001
  0
LINE
  5
BF
330
1F
100
AcDbEntity
  8
0
  6
Continuous
 62
     7
370
    25
100
AcDbLine
 10
753.0885334202
 20
1472.0117271317
 30
0.0
 11
752.9067456257
 21
1470.4161961367
 31
0.0
  0
LINE
  5
C0
330
1F
100
AcDbEntity
  8
0
  6
Continuous
 62
     7
370
    25
100
AcDbLine
 10
752.5243085784
 20
1455.8115145215
 30
0.0
 11
752.6223435987
 21
1454.2086561083
 31
0.0
  0
ARC
  5
C1
330
1F
100
AcDbEntity
  8
0
  6
Continuous
 62
     7
370
    25
100
AcDbCircle
 10
782.713901296
 20
1467.0200997237
 30
0.0
 40
30.00000000000201
100
AcDbArc
 50
173.5
 51
178.5000000001
  0
ARC
  5
C2
330
1F
100
AcDbEntity
  8
0
  6
Continuous
 62
     7
370
    25
100
AcDbCircle
 10
782.4683525311
 20
1457.6429707076
 30
0.0
 40
30.00000000000214
100
AcDbArc
 50
178.5000000001
 51
183.5000000001
  0
SPLINE
  5
C3
330
1F
100
AcDbEntity
  8
0
  6
Continuous
 62
     7
370
    25
100
AcDbSpline
210
0.0
220
0.0
230
1.0
 70
     8
 71
     3
 72
    13
 73
     9
 74
     0
 42
0.00000001
 43
0.00000001
 40
0.0
 40
0.0
 40
0.0
 40
0.0
 40
0.23973741676864
 40
0.3685398007312493
 40
0.5000035787038563
 40
0.6314571620062118
 40
0.7602371999079403
 40
1.0
 40
1.0
 40
1.0
 40
1.0
 10
755.6182095108197
 20
1467.539382242841
 30
0.0
 10
755.5551483398773
 20
1467.547732001868
 30
0.0
 10
755.458206645559
 20
1467.56056778933
 30
0.0
 10
755.3427620111768
 20
1467.626504447249
 30
0.0
 10
755.2641552458663
 20
1467.693613842776
 30
0.0
 10
755.2018152157525
 20
1467.775852176286
 30
0.0
 10
755.1429820569545
 20
1467.894464357312
 30
0.0
 10
755.1360317651807
 20
1467.991032751232
 30
0.0
 10
755.1315101160119
 20
1468.053857221387
 30
0.0
  0
SPLINE
  5
C4
330
1F
100
AcDbEntity
  8
0
  6
Continuous
 62
     7
370
    25
100
AcDbSpline
210
0.0
220
0.0
230
1.0
 70
     8
 71
     3
 72
    13
 73
     9
 74
     0
 42
0.00000001
 43
0.00000001
 40
0.0
 40
0.0
 40
0.0
 40
0.0
 40
0.2397628000982173
 40
0.368542838002756
 40
0.4999964213063145
 40
0.6314601992779308
 40
0.760262583237685
 40
1.0
 40
1.0
 40
1.0
 40
1.0
 10
754.8696593723927
 20
1458.054180756408
 30
0.0
 10
754.8774628035195
 20
1458.11668248298
 30
0.0
 10
754.8894575693985
 20
1458.212754783109
 30
0.0
 10
754.9544177813127
 20
1458.328125320645
 30
0.0
 10
755.0209763984055
 20
1458.406988324293
 30
0.0
 10
755.1029876702637
 20
1458.469891788499
 30
0.0
 10
755.2217249498306
 20
1458.529696177187
 30
0.0
 10
755.3192055621372
 20
1458.537440837371
 30
0.0
 10
755.3826173025598
 20
1458.542478786658
 30
0.0
  0
LINE
  5
C5
330
1F
100
AcDbEntity
  8
0
  6
Continuous
 62
     7
370
    25
100
AcDbLine
 10
757.7608646997
 20
1467.4832810807
 30
0.0
 11
755.6182096741
 21
1467.5393884771
 31
0.0
  0
LINE
  5
C6
330
1F
100
AcDbEntity
  8
0
  6
Continuous
 62
     7
370
    25
100
AcDbLine
 10
755.3826171393
 20
1458.5424725524
 30
0.0
 11
757.7608646997
 21
1458.4801959483
 31
0.0
  0
ARC
  5
C7
330
1F
100
AcDbEntity
  8
0
  6
Continuous
 62
     7
370
    25
100
AcDbCircle
 10
1136.9608646997
 20
1378.7543978663
 30
0.0
 40
1.000000000000002
100
AcDbArc
 50
225.5729959992
 51
270.0
  0
LINE
  5
C8
330
1F
100
AcDbEntity
  8
0
  6
Continuous
 62
     7
370
    25
100
AcDbLine
 10
1136.9608646997
 20
1377.7543978663
 30
0.0
 11
1136.9608646997
 21
1377.9543978663
 31
0.0
  0
LINE
  5
C9
330
1F
100
AcDbEntity
  8
0
  6
Continuous
 62
     7
370
    25
100
AcDbLine
 10
1136.2608646997
 20
1399.7543978663
 30
0.0
 11
1137.7608646997
 21
1399.7543978663
 31
0.0
  0
LINE
  5
CA
330
1F
100
AcDbEntity
  8
0
  6
Continuous
 62
     7
370
    25
100
AcDbLine
 10
1137.7608646997
 20
1399.7543978663
 30
0.0
 11
1137.5608646997
 21
1399.5543978663
 31
0.0
  0
LINE
  5
CB
330
1F
100
AcDbEntity
  8
0
  6
Continuous
 62
     7
370
    25
100
AcDbLine
 10
1150.0608646997
 20
1366.5543978663
 30
0.0
 11
1150.0608646997
 21
1379.5543978663
 31
0.0
  0
LINE
  5
CC
330
1F
100
AcDbEntity
  8
0
  6
Continuous
 62
     7
370
    25
100
AcDbLine
 10
1150.4780763832
 20
1366.5543978663
 30
0.0
 11
1150.0608646997
 21
1366.5543978663
 31
0.0
  0
ARC
  5
CD
330
1F
100
AcDbEntity
  8
0
  6
Continuous
 62
     7
370
    25
100
AcDbCircle
 10
1150.2609030256
 20
1366.7613658174
 30
0.0
 40
0.3000000000000483
100
AcDbArc
 50
279.576588481
 51
316.3783470327
  0
ARC
  5
CE
330
1F
100
AcDbEntity
  8
0
  6
Continuous
 62
     7
370
    25
100
AcDbCircle
 10
1150.1777201022
 20
1367.2543978663
 30
0.0
 40
0.8000000000001298
100
AcDbArc
 50
184.9699465947
 51
279.576588481
  0
LINE
  5
CF
330
1F
100
AcDbEntity
  8
0
  6
Continuous
 62
     7
370
    25
100
AcDbLine
 10
1148.539539262
 20
1376.8583577014
 30
0.0
 11
1149.3807278807
 21
1367.1850913096
 31
0.0
  0
ARC
  5
D0
330
1F
100
AcDbEntity
  8
0
  6
Continuous
 62
     7
370
    25
100
AcDbCircle
 10
1147.3440509297
 20
1376.7543978663
 30
0.0
 40
1.200000000000045
100
AcDbArc
 50
4.9699465947
 51
90.0
  0
LINE
  5
D1
330
1F
100
AcDbEntity
  8
0
  6
Continuous
 62
     7
370
    25
100
AcDbLine
 10
1136.9608646997
 20
1377.9543978663
 30
0.0
 11
1147.3440509297
 21
1377.9543978663
 31
0.0
  0
LINE
  5
D2
330
1F
100
AcDbEntity
  8
0
  6
Continuous
 62
     7
370
    25
100
AcDbLine
 10
1137.5608646997
 20
1379.5543978663
 30
0.0
 11
1137.5608646997
 21
1399.5543978663
 31
0.0
  0
LINE
  5
D3
330
1F
100
AcDbEntity
  8
0
  6
Continuous
 62
     7
370
    25
100
AcDbLine
 10
1150.0608646997
 20
1379.5543978663
 30
0.0
 11
1137.5608646997
 21
1379.5543978663
 31
0.0
  0
LINE
  5
D4
330
1F
100
AcDbEntity
  8
0
  6
Continuous
 62
     7
370
    25
100
AcDbLine
 10
1147.3440509297
 20
1377.7543978663
 30
0.0
 11
1136.9608646997
 21
1377.7543978663
 31
0.0
  0
LINE
  5
D5
330
1F
100
AcDbEntity
  8
0
  6
Continuous
 62
     7
370
    25
100
AcDbLine
 10
1147.3440509297
 20
1377.7543978663
 30
0.0
 11
1147.3440509297
 21
1377.9543978663
 31
0.0
  0
LINE
  5
D6
330
1F
100
AcDbEntity
  8
0
  6
Continuous
 62
     7
370
    25
100
AcDbLine
 10
1137.5608646997
 20
1379.5543978663
 30
0.0
 11
1137.7608646997
 21
1379.7543978663
 31
0.0
  0
LINE
  5
D7
330
1F
100
AcDbEntity
  8
0
  6
Continuous
 62
     7
370
    25
100
AcDbLine
 10
1150.0608646997
 20
1379.5543978663
 30
0.0
 11
1150.2608646997
 21
1379.7543978663
 31
0.0
  0
ARC
  5
D8
330
1F
100
AcDbEntity
  8
0
  6
Continuous
 62
     7
370
    25
100
AcDbCircle
 10
1147.3440509297
 20
1376.7543978663
 30
0.0
 40
1.000000000000227
100
AcDbArc
 50
4.9699465947
 51
90.0
  0
LINE
  5
D9
330
1F
100
AcDbEntity
  8
0
  6
Continuous
 62
     7
370
    25
100
AcDbLine
 10
1148.3402912066
 20
1376.8410310622
 30
0.0
 11
1148.539539262
 21
1376.8583577014
 31
0.0
  0
LINE
  5
DA
330
1F
100
AcDbEntity
  8
0
  6
Continuous
 62
     7
370
    25
100
AcDbLine
 10
1149.1814798253
 20
1367.1677646704
 30
0.0
 11
1148.3402912066
 21
1376.8410310622
 31
0.0
  0
LINE
  5
DB
330
1F
100
AcDbEntity
  8
0
  6
Continuous
 62
     7
370
    25
100
AcDbLine
 10
1149.3807278807
 20
1367.1850913096
 30
0.0
 11
1149.1814798253
 21
1367.1677646704
 31
0.0
  0
LINE
  5
DC
330
1F
100
AcDbEntity
  8
0
  6
Continuous
 62
     7
370
    25
100
AcDbLine
 10
1150.3108127797
 20
1366.4655465881
 30
0.0
 11
1150.3440859491
 21
1366.2683337685
 31
0.0
  0
ARC
  5
DD
330
1F
100
AcDbEntity
  8
0
  6
Continuous
 62
     7
370
    25
100
AcDbCircle
 10
1150.1777201022
 20
1367.2543978663
 30
0.0
 40
0.9999999999999706
100
AcDbArc
 50
184.9699465947
 51
279.5765884811
  0
LINE
  5
DE
330
1F
100
AcDbEntity
  8
0
  6
Continuous
 62
     7
370
    25
100
AcDbLine
 10
1150.0608646997
 20
1366.5543978663
 30
0.0
 11
1150.2608646997
 21
1366.7543978663
 31
0.0
  0
SPLINE
  5
DF
330
1F
100
AcDbEntity
  8
0
  6
Continuous
 62
     7
370
    25
100
AcDbSpline
210
0.0
220
0.0
230
1.0
 70
     8
 71
     3
 72
    13
 73
     9
 74
     0
 42
0.00000001
 43
0.00000001
 40
0.0
 40
0.0
 40
0.0
 40
0.0
 40
0.0075029974113224
 40
0.3818974549667551
 40
0.6070018873275027
 40
0.7653769096344524
 40
0.8824605049809779
 40
0.9999999999999999
 40
0.9999999999999999
 40
0.9999999999999999
 40
0.9999999999999999
 10
1150.478076383159
 20
1366.554397866315
 30
0.0
 10
1150.479094159775
 20
1366.55483586421
 30
0.0
 10
1150.530898295916
 20
1366.57712965858
 30
0.0
 10
1150.609483661281
 20
1366.624014046795
 30
0.0
 10
1150.692123125314
 20
1366.690298483831
 30
0.0
 10
1150.734219243413
 20
1366.728560043004
 30
0.0
 10
1150.756742670248
 20
1366.750315818739
 30
0.0
 10
1150.759482096362
 20
1366.753035422289
 30
0.0
 10
1150.76085447093
 20
1366.754397866315
 30
0.0
  0
ARC
  5
E0
330
1F
100
AcDbEntity
  8
0
  6
Continuous
 62
     7
370
    25
100
AcDbCircle
 10
1150.2609030256
 20
1366.7613658174
 30
0.0
 40
0.4999999999999618
100
AcDbArc
 50
279.576588481
 51
359.2015057739
  0
LINE
  5
E1
330
1F
100
AcDbEntity
  8
0
  6
Continuous
 62
     7
370
    25
100
AcDbLine
 10
1154.2608646997
 20
1507.7543978663
 30
0.0
 11
1136.2608646997
 21
1507.7543978663
 31
0.0
  0
LINE
  5
E2
330
1F
100
AcDbEntity
  8
0
  6
Continuous
 62
     7
370
    25
100
AcDbLine
 10
1154.2608646997
 20
1507.7543978663
 30
0.0
 11
1154.2608646997
 21
1366.7543978663
 31
0.0
  0
LINE
  5
E3
330
1F
100
AcDbEntity
  8
0
  6
Continuous
 62
     7
370
    25
100
AcDbLine
 10
1154.2608646997
 20
1366.7543978663
 30
0.0
 11
1150.2608646997
 21
1366.7543978663
 31
0.0
  0
LINE
  5
E4
330
1F
100
AcDbEntity
  8
0
  6
Continuous
 62
     7
370
    25
100
AcDbLine
 10
1150.2608646997
 20
1366.7543978663
 30
0.0
 11
1150.2608646997
 21
1379.7543978663
 31
0.0
  0
LINE
  5
E5
330
1F
100
AcDbEntity
  8
0
  6
Continuous
 62
     7
370
    25
100
AcDbLine
 10
1150.2608646997
 20
1379.7543978663
 30
0.0
 11
1137.7608646997
 21
1379.7543978663
 31
0.0
  0
LINE
  5
E6
330
1F
100
AcDbEntity
  8
0
  6
Continuous
 62
     7
370
    25
100
AcDbLine
 10
1137.7608646997
 20
1379.7543978663
 30
0.0
 11
1137.7608646997
 21
1400.2543978663
 31
0.0
  0
LINE
  5
E7
330
1F
100
AcDbEntity
  8
0
  6
Continuous
 62
     7
370
    25
100
AcDbLine
 10
1137.7608646997
 20
1400.2543978663
 30
0.0
 11
1136.2608646997
 21
1400.2543978663
 31
0.0
  0
LINE
  5
E8
330
1F
100
AcDbEntity
  8
0
  6
Continuous
 62
     7
370
    25
100
AcDbLine
 10
1136.2608646997
 20
1512.2543978663
 30
0.0
 11
1136.2608646997
 21
1356.7543978663
 31
0.0
  0
LINE
  5
E9
330
1F
100
AcDbEntity
  8
0
  6
Continuous
 62
     7
370
    25
100
AcDbLine
 10
1136.2608646997
 20
1356.7543978663
 30
0.0
 11
757.7608646997
 21
1356.7543978663
 31
0.0
  0
LINE
  5
EA
330
1F
100
AcDbEntity
  8
0
  6
Continuous
 62
     7
370
    25
100
AcDbLine
 10
757.7608646997
 20
1512.2543978663
 30
0.0
 11
757.7608646997
 21
1356.7543978663
 31
0.0
  0
LINE
  5
EB
330
1F
100
AcDbEntity
  8
0
  6
Continuous
 62
     7
370
    25
100
AcDbLine
 10
757.7608646997
 20
1512.2543978663
 30
0.0
 11
757.7608646997
 21
1536.7543978663
 31
0.0
  0
LINE
  5
EC
330
1F
100
AcDbEntity
  8
0
  6
Continuous
 62
     7
370
    25
100
AcDbLine
 10
757.7608646997
 20
1536.7543978663
 30
0.0
 11
1154.7608646997
 21
1536.7543978663
 31
0.0
  0
ARC
  5
ED
330
1F
100
AcDbEntity
  8
0
  6
Continuous
 62
     7
370
    25
100
AcDbCircle
 10
1154.7608646997
 20
1533.7543978663
 30
0.0
 40
3.000000000000227
100
AcDbArc
 50
0.0
 51
90.0
  0
LINE
  5
EE
330
1F
100
AcDbEntity
  8
0
  6
Continuous
 62
     7
370
    25
100
AcDbLine
 10
1157.7608646997
 20
1533.7543978663
 30
0.0
 11
1157.7608646997
 21
1515.2543978663
 31
0.0
  0
ARC
  5
EF
330
1F
100
AcDbEntity
  8
0
  6
Continuous
 62
     7
370
    25
100
AcDbCircle
 10
1154.7608646997
 20
1515.2543978663
 30
0.0
 40
3.0
100
AcDbArc
 50
270.0
 51
0.0
  0
LINE
  5
F0
330
1F
100
AcDbEntity
  8
0
  6
Continuous
 62
     7
370
    25
100
AcDbLine
 10
1154.7608646997
 20
1512.2543978663
 30
0.0
 11
757.7608646997
 21
1512.2543978663
 31
0.0
  0
SPLINE
  5
F1
330
1F
100
AcDbEntity
  8
0
  6
Continuous
 62
     7
370
    25
100
AcDbSpline
210
0.0
220
0.0
230
1.0
 70
     8
 71
     3
 72
    11
 73
     7
 74
     0
 42
0.00000001
 43
0.00000001
 40
0.0
 40
0.0
 40
0.0
 40
0.0
 40
0.2382247349847756
 40
0.4921376904587534
 40
0.7460575595466405
 40
0.9999999999999999
 40
0.9999999999999999
 40
0.9999999999999999
 40
0.9999999999999999
 10
755.4913742188819
 20
1443.594962851274
 30
0.0
 10
755.4920466031283
 20
1443.620640170789
 30
0.0
 10
755.4934356512897
 20
1443.673685782213
 30
0.0
 10
755.5069732494525
 20
1444.190665780935
 30
0.0
 10
755.5270738372182
 20
1444.958276326895
 30
0.0
 10
755.543457487497
 20
1445.583942518921
 30
0.0
 10
755.5516496767127
 20
1445.896789518447
 30
0.0
  0
LINE
  5
F2
330
1F
100
AcDbEntity
  8
0
  6
Continuous
 62
     7
370
    25
100
AcDbLine
 10
755.5516496767
 20
1445.8967895184
 30
0.0
 11
755.555233948
 21
1446.033667516
 31
0.0
  0
SPLINE
  5
F3
330
1F
100
AcDbEntity
  8
0
  6
Continuous
 62
     7
370
    25
100
AcDbSpline
210
0.0
220
0.0
230
1.0
 70
    24
 71
     3
 72
    12
 73
     8
 74
     0
 42
0.00000001
 43
0.00000001
 40
0.0
 40
0.0
 40
0.0
 40
0.0
 40
0.2460973337377094
 40
0.4921955654186578
 40
0.7383025770436007
 40
0.9844160040481866
 40
1.0
 40
1.0
 40
1.0
 40
1.0
 10
755.5552339479614
 20
1446.033667516023
 30
0.0
 10
755.563463424962
 20
1446.347938563519
 30
0.0
 10
755.5799224089907
 20
1446.976481805201
 30
0.0
 10
755.6012384121003
 20
1447.790507122361
 30
0.0
 10
755.6147786748459
 20
1448.307588895109
 30
0.0
 10
755.6206981519289
 20
1448.533644604763
 30
0.0
 10
755.6191779215902
 20
1448.47558935035
 30
0.0
 10
755.6190873923707
 20
1448.472132178936
 30
0.0
  0
SPLINE
  5
F4
330
1F
100
AcDbEntity
  8
0
  6
Continuous
 62
     7
370
    25
100
AcDbSpline
210
0.0
220
0.0
230
1.0
 70
    24
 71
     3
 72
    13
 73
     9
 74
     0
 42
0.00000001
 43
0.00000001
 40
0.0
 40
0.0
 40
0.0
 40
0.0
 40
0.1538581583651822
 40
0.3079676862452412
 40
0.4535077802384475
 40
0.5878340078344917
 40
0.8177872163812467
 40
1.0
 40
1.0
 40
1.0
 40
1.0
 10
755.2568851491629
 20
1472.841736571941
 30
0.0
 10
755.2555656725195
 20
1472.791347791849
 30
0.0
 10
755.2529245635055
 20
1472.690487907767
 30
0.0
 10
755.2306977780933
 20
1471.841681217713
 30
0.0
 10
755.198529767797
 20
1470.613234465797
 30
0.0
 10
755.149266836209
 20
1468.731959007925
 30
0.0
 10
755.0834475074697
 20
1466.218420251294
 30
0.0
 10
755.0287224443222
 20
1464.128554404703
 30
0.0
 10
755.0045292641972
 20
1463.204654130214
 30
0.0
  0
SPLINE
  5
F5
330
1F
100
AcDbEntity
  8
0
  6
Continuous
 62
     7
370
    25
100
AcDbSpline
210
0.0
220
0.0
230
1.0
 70
    24
 71
     3
 72
    13
 73
     9
 74
     0
 42
0.00000001
 43
0.00000001
 40
0.0
 40
0.0
 40
0.0
 40
0.0
 40
0.1813201537905616
 40
0.410146844837891
 40
0.5438150184963836
 40
0.6886421238874928
 40
0.8419966874126488
 40
0.9999999999999999
 40
0.9999999999999999
 40
0.9999999999999999
 40
0.9999999999999999
 10
755.0005847442014
 20
1463.054018988899
 30
0.0
 10
754.9763578705589
 20
1462.12883201086
 30
0.0
 10
754.9215565946001
 20
1460.036055714375
 30
0.0
 10
754.8551963635775
 20
1457.50186073294
 30
0.0
 10
754.8052253470246
 20
1455.593544601198
 30
0.0
 10
754.772303258309
 20
1454.336300756266
 30
0.0
 10
754.7490210995826
 20
1453.44719098536
 30
0.0
 10
754.7457289061737
 20
1453.321467191362
 30
0.0
 10
754.7440582323151
 20
1453.257666730712
 30
0.0
  0
LINE
  5
F6
330
1F
100
AcDbEntity
  8
0
  6
Continuous
 62
     7
370
    25
100
AcDbLine
 10
752.4786327818
 20
1458.4282791568
 30
0.0
 11
752.7241815467
 21
1467.8054081729
 31
0.0
  0
SPLINE
  5
F7
330
1F
100
AcDbEntity
  8
0
  6
Continuous
 62
     7
370
    25
100
AcDbSpline
210
0.0
220
0.0
230
1.0
 70
     8
 71
     3
 72
    11
 73
     7
 74
     0
 42
0.00000001
 43
0.00000001
 40
0.0
 40
0.0
 40
0.0
 40
0.0
 40
0.2702619356887773
 40
0.5624305486188729
 40
0.7897374073727604
 40
1.0
 40
1.0
 40
1.0
 40
1.0
 10
755.4965437889348
 20
1462.893155774597
 30
0.0
 10
755.4257065946471
 20
1462.894721041443
 30
0.0
 10
755.278290341062
 20
1462.897978451293
 30
0.0
 10
755.1105191259055
 20
1462.897927095701
 30
0.0
 10
755.0127956958064
 20
1462.89495861019
 30
0.0
 10
755.0016438762447
 20
1462.891490841424
 30
0.0
 10
754.9962851600772
 20
1462.889824495546
 30
0.0
  0
ARC
  5
F8
330
1F
100
AcDbEntity
  8
0
  6
Continuous
 62
     7
370
    25
100
AcDbCircle
 10
1136.9608646997
 20
1378.7543978663
 30
0.0
 40
0.8000000000001342
100
AcDbArc
 50
208.9550243719
 51
270.0
  0
LINE
  5
F9
330
1F
100
AcDbEntity
  8
0
  6
Continuous
 62
     7
370
    25
100
AcDbLine
 10
1137.5608646997
 20
1399.5543978663
 30
0.0
 11
1136.2608646997
 21
1399.5543978663
 31
0.0
  0
LINE
  5
FA
330
1F
100
AcDbEntity
  8
0
  6
Continuous
 62
     7
370
    25
100
AcDbLine
 10
755.9271177533
 20
1448.7748720752
 30
0.0
 11
755.7831445376
 21
1443.2767567878
 31
0.0
  0
LINE
  5
FB
330
1F
100
AcDbEntity
  8
0
  6
Continuous
 62
     7
370
    25
100
AcDbLine
 10
754.312231985
 20
1473.0754720652
 30
0.0
 11
753.7886930188
 21
1453.0823255657
 31
0.0
  0
LINE
  5
FC
330
1F
100
AcDbEntity
  8
0
  6
Continuous
 62
     7
370
    25
100
AcDbLine
 10
752.6223435987
 20
1454.2086561083
 30
0.0
 11
753.0885334202
 21
1472.0117271317
 31
0.0
  0
LINE
  5
FD
330
1F
100
AcDbEntity
  8
0
  6
Continuous
 62
     7
370
    25
100
AcDbLine
 10
754.8081328374
 20
1463.3448871838
 30
0.0
 11
755.0624227623
 21
1473.0558276283
 31
0.0
  0
LINE
  5
FE
330
1F
100
AcDbEntity
  8
0
  6
Continuous
 62
     7
370
    25
100
AcDbLine
 10
752.9067456257
 20
1470.4161961367
 30
0.0
 11
752.5243085784
 21
1455.8115145215
 31
0.0
  0
LINE
  5
FF
330
1F
100
AcDbEntity
  8
0
  6
Continuous
 62
     7
370
    25
100
AcDbLine
 10
755.6182085764
 20
1467.5393465579
 30
0.0
 11
755.4965437888
 21
1462.8931557708
 31
0.0
  0
LINE
  5
100
330
1F
100
AcDbEntity
  8
0
  6
Continuous
 62
     7
370
    25
100
AcDbLine
 10
755.4965437888
 20
1462.8931557708
 30
0.0
 11
755.382618237
 21
1458.5425144716
 31
0.0
  0
LINE
  5
101
330
1F
100
AcDbEntity
  8
0
  6
Continuous
 62
     7
370
    25
100
AcDbLine
 10
4220.4562626188
 20
1448.7748720752
 30
0.0
 11
4218.6225156724
 21
1448.7268537215
 31
0.0
  0
LINE
  5
102
330
1F
100
AcDbEntity
  8
0
  6
Continuous
 62
     7
370
    25
100
AcDbLine
 10
4218.6225156724
 20
1443.2249683628
 30
0.0
 11
4220.6002358344
 21
1443.2767567878
 31
0.0
  0
ARC
  5
103
330
1F
100
AcDbEntity
  8
0
  6
Continuous
 62
     7
370
    25
100
AcDbCircle
 10
4220.4641157032
 20
1448.4749748777
 30
0.0
 40
0.3000000000001092
100
AcDbArc
 50
1.5
 51
91.5
  0
ARC
  5
104
330
1F
100
AcDbEntity
  8
0
  6
Continuous
 62
     7
370
    25
100
AcDbCircle
 10
4220.59238275
 20
1443.5766539853
 30
0.0
 40
0.3000000000003366
100
AcDbArc
 50
271.5
 51
1.5
  0
LINE
  5
105
330
1F
100
AcDbEntity
  8
0
  6
Continuous
 62
     7
370
    25
100
AcDbLine
 10
4221.8444965759
 20
1453.0626811288
 30
0.0
 11
4222.5946873532
 21
1453.0823255657
 31
0.0
  0
LINE
  5
106
330
1F
100
AcDbEntity
  8
0
  6
Continuous
 62
     7
370
    25
100
AcDbLine
 10
4222.0711483871
 20
1473.0754720652
 30
0.0
 11
4221.3209576098
 21
1473.0558276283
 31
0.0
  0
ARC
  5
107
330
1F
100
AcDbEntity
  8
0
  6
Continuous
 62
     7
370
    25
100
AcDbCircle
 10
4221.8392611863
 20
1453.2626125938
 30
0.0
 40
0.2000000000000808
100
AcDbArc
 50
181.4999999999
 51
271.5
  0
ARC
  5
108
330
1F
100
AcDbEntity
  8
0
  6
Continuous
 62
     7
370
    25
100
AcDbCircle
 10
4221.3261929994
 20
1472.8558961633
 30
0.0
 40
0.1999999999998297
100
AcDbArc
 50
91.4999999998
 51
181.4999999999
  0
ARC
  5
109
330
1F
100
AcDbEntity
  8
0
  6
Continuous
 62
     7
370
    25
100
AcDbCircle
 10
4222.5632750153
 20
1454.2819143556
 30
0.0
 40
1.20000000000021
100
AcDbArc
 50
271.5
 51
356.5000000029
  0
ARC
  5
10A
330
1F
100
AcDbEntity
  8
0
  6
Continuous
 62
     7
370
    25
100
AcDbCircle
 10
4222.1025607251
 20
1471.8758832752
 30
0.0
 40
1.200000000001198
100
AcDbArc
 50
6.499999997
 51
91.4999999999
  0
LINE
  5
10B
330
1F
100
AcDbEntity
  8
0
  6
Continuous
 62
     7
370
    25
100
AcDbLine
 10
4223.7610367734
 20
1454.2086561083
 30
0.0
 11
4223.8590717937
 21
1455.8115145215
 31
0.0
  0
LINE
  5
10C
330
1F
100
AcDbEntity
  8
0
  6
Continuous
 62
     7
370
    25
100
AcDbLine
 10
4223.4766347464
 20
1470.4161961367
 30
0.0
 11
4223.2948469519
 21
1472.0117271316
 31
0.0
  0
ARC
  5
10D
330
1F
100
AcDbEntity
  8
0
  6
Continuous
 62
     7
370
    25
100
AcDbCircle
 10
4193.915027841
 20
1457.6429707076
 30
0.0
 40
30.0000000000023
100
AcDbArc
 50
356.4999999999
 51
1.4999999999
  0
ARC
  5
10E
330
1F
100
AcDbEntity
  8
0
  6
Continuous
 62
     7
370
    25
100
AcDbCircle
 10
4193.669479076
 20
1467.0200997237
 30
0.0
 40
30.00000000000164
100
AcDbArc
 50
1.4999999999
 51
6.5
  0
LINE
  5
10F
330
1F
100
AcDbEntity
  8
0
  6
Continuous
 62
     7
370
    25
100
AcDbLine
 10
4223.7844466987
 20
1463.0223848583
 30
0.0
 11
4223.7819732078
 21
1463.1168436648
 31
0.0
  0
SPLINE
  5
110
330
1F
100
AcDbEntity
  8
0
  6
Continuous
 62
     7
370
    25
100
AcDbSpline
210
0.0
220
0.0
230
1.0
 70
     8
 71
     3
 72
    13
 73
     9
 74
     0
 42
0.00000001
 43
0.00000001
 40
0.0
 40
0.0
 40
0.0
 40
0.0
 40
0.2397374167623162
 40
0.3685398007220693
 40
0.500003578693687
 40
0.6314571619972291
 40
0.7602371999017673
 40
1.0
 40
1.0
 40
1.0
 40
1.0
 10
4221.000763069494
 20
1458.542478786649
 30
0.0
 10
4221.064174809917
 20
1458.537440837362
 30
0.0
 10
4221.161655422224
 20
1458.529696177178
 30
0.0
 10
4221.280392701791
 20
1458.46989178849
 30
0.0
 10
4221.362403973649
 20
1458.406988324284
 30
0.0
 10
4221.428962590741
 20
1458.328125320635
 30
0.0
 10
4221.493922802655
 20
1458.2127547831
 30
0.0
 10
4221.505917568535
 20
1458.11668248297
 30
0.0
 10
4221.513720999662
 20
1458.054180756398
 30
0.0
  0
SPLINE
  5
111
330
1F
100
AcDbEntity
  8
0
  6
Continuous
 62
     7
370
    25
100
AcDbSpline
210
0.0
220
0.0
230
1.0
 70
     8
 71
     3
 72
    13
 73
     9
 74
     0
 42
0.00000001
 43
0.00000001
 40
0.0
 40
0.0
 40
0.0
 40
0.0
 40
0.2397628000920743
 40
0.3685428379937709
 40
0.4999964212961572
 40
0.6314601992687451
 40
0.7602625832313542
 40
1.0
 40
1.0
 40
1.0
 40
1.0
 10
4221.251870256042
 20
1468.053857221377
 30
0.0
 10
4221.247348606873
 20
1467.991032751222
 30
0.0
 10
4221.2403983151
 20
1467.894464357303
 30
0.0
 10
4221.181565156302
 20
1467.775852176277
 30
0.0
 10
4221.119225126188
 20
1467.693613842767
 30
0.0
 10
4221.040618360878
 20
1467.626504447239
 30
0.0
 10
4220.925173726495
 20
1467.560567789321
 30
0.0
 10
4220.828232032177
 20
1467.547732001859
 30
0.0
 10
4220.765170861235
 20
1467.539382242831
 30
0.0
  0
LINE
  5
112
330
1F
100
AcDbEntity
  8
0
  6
Continuous
 62
     7
370
    25
100
AcDbLine
 10
4218.6225156724
 20
1458.4801959483
 30
0.0
 11
4221.0007632327
 21
1458.5424725523
 31
0.0
  0
LINE
  5
113
330
1F
100
AcDbEntity
  8
0
  6
Continuous
 62
     7
370
    25
100
AcDbLine
 10
4220.765170698
 20
1467.5393884771
 30
0.0
 11
4218.6225156724
 21
1467.4832810807
 31
0.0
  0
LINE
  5
114
330
1F
100
AcDbEntity
  8
0
  6
Continuous
 62
     7
370
    25
100
AcDbLine
 10
3838.6225156724
 20
1399.7543978663
 30
0.0
 11
3840.1225156724
 21
1399.7543978663
 31
0.0
  0
LINE
  5
115
330
1F
100
AcDbEntity
  8
0
  6
Continuous
 62
     7
370
    25
100
AcDbLine
 10
3838.6225156724
 20
1399.7543978663
 30
0.0
 11
3838.8225156724
 21
1399.5543978663
 31
0.0
  0
ARC
  5
116
330
1F
100
AcDbEntity
  8
0
  6
Continuous
 62
     7
370
    25
100
AcDbCircle
 10
3829.0393294423
 20
1376.7543978663
 30
0.0
 40
1.199999999999961
100
AcDbArc
 50
90.0
 51
175.0300534053
  0
LINE
  5
117
330
1F
100
AcDbEntity
  8
0
  6
Continuous
 62
     7
370
    25
100
AcDbLine
 10
3829.0393294423
 20
1377.9543978663
 30
0.0
 11
3829.0393294423
 21
1377.7543978663
 31
0.0
  0
ARC
  5
118
330
1F
100
AcDbEntity
  8
0
  6
Continuous
 62
     7
370
    25
100
AcDbCircle
 10
3829.0393294423
 20
1376.7543978663
 30
0.0
 40
1.0
100
AcDbArc
 50
90.0
 51
175.0300534053
  0
LINE
  5
119
330
1F
100
AcDbEntity
  8
0
  6
Continuous
 62
     7
370
    25
100
AcDbLine
 10
3827.84384111
 20
1376.8583577014
 30
0.0
 11
3828.0430891654
 21
1376.8410310622
 31
0.0
  0
ARC
  5
11A
330
1F
100
AcDbEntity
  8
0
  6
Continuous
 62
     7
370
    25
100
AcDbCircle
 10
3839.4225156724
 20
1378.7543978663
 30
0.0
 40
1.000000000000162
100
AcDbArc
 50
270.0
 51
314.4270040008
  0
LINE
  5
11B
330
1F
100
AcDbEntity
  8
0
  6
Continuous
 62
     7
370
    25
100
AcDbLine
 10
3839.4225156724
 20
1377.9543978663
 30
0.0
 11
3839.4225156724
 21
1377.7543978663
 31
0.0
  0
LINE
  5
11C
330
1F
100
AcDbEntity
  8
0
  6
Continuous
 62
     7
370
    25
100
AcDbLine
 10
3827.0026524914
 20
1367.1850913096
 30
0.0
 11
3827.84384111
 21
1376.8583577014
 31
0.0
  0
LINE
  5
11D
330
1F
100
AcDbEntity
  8
0
  6
Continuous
 62
     7
370
    25
100
AcDbLine
 10
3828.0430891654
 20
1376.8410310622
 30
0.0
 11
3827.2019005468
 21
1367.1677646704
 31
0.0
  0
LINE
  5
11E
330
1F
100
AcDbEntity
  8
0
  6
Continuous
 62
     7
370
    25
100
AcDbLine
 10
3827.0026524914
 20
1367.1850913096
 30
0.0
 11
3827.2019005468
 21
1367.1677646704
 31
0.0
  0
LINE
  5
11F
330
1F
100
AcDbEntity
  8
0
  6
Continuous
 62
     7
370
    25
100
AcDbLine
 10
3829.0393294423
 20
1377.9543978663
 30
0.0
 11
3839.4225156724
 21
1377.9543978663
 31
0.0
  0
LINE
  5
120
330
1F
100
AcDbEntity
  8
0
  6
Continuous
 62
     7
370
    25
100
AcDbLine
 10
3839.4225156724
 20
1377.7543978663
 30
0.0
 11
3829.0393294423
 21
1377.7543978663
 31
0.0
  0
LINE
  5
121
330
1F
100
AcDbEntity
  8
0
  6
Continuous
 62
     7
370
    25
100
AcDbLine
 10
3838.6225156724
 20
1379.7543978663
 30
0.0
 11
3838.8225156724
 21
1379.5543978663
 31
0.0
  0
LINE
  5
122
330
1F
100
AcDbEntity
  8
0
  6
Continuous
 62
     7
370
    25
100
AcDbLine
 10
3838.8225156724
 20
1379.5543978663
 30
0.0
 11
3826.3225156724
 21
1379.5543978663
 31
0.0
  0
LINE
  5
123
330
1F
100
AcDbEntity
  8
0
  6
Continuous
 62
     7
370
    25
100
AcDbLine
 10
3826.1225156724
 20
1379.7543978663
 30
0.0
 11
3826.3225156724
 21
1379.5543978663
 31
0.0
  0
ARC
  5
124
330
1F
100
AcDbEntity
  8
0
  6
Continuous
 62
     7
370
    25
100
AcDbCircle
 10
3826.2056602699
 20
1367.2543978663
 30
0.0
 40
0.8000000000001298
100
AcDbArc
 50
260.423411519
 51
355.0300534053
  0
ARC
  5
125
330
1F
100
AcDbEntity
  8
0
  6
Continuous
 62
     7
370
    25
100
AcDbCircle
 10
3826.2056602699
 20
1367.2543978663
 30
0.0
 40
0.9999999999999706
100
AcDbArc
 50
260.423411519
 51
355.0300534053
  0
LINE
  5
126
330
1F
100
AcDbEntity
  8
0
  6
Continuous
 62
     7
370
    25
100
AcDbLine
 10
3826.0725675924
 20
1366.4655465881
 30
0.0
 11
3826.039294423
 21
1366.2683337685
 31
0.0
  0
ARC
  5
127
330
1F
100
AcDbEntity
  8
0
  6
Continuous
 62
     7
370
    25
100
AcDbCircle
 10
3826.1224773464
 20
1366.7613658174
 30
0.0
 40
0.300000000000124
100
AcDbArc
 50
223.6216529672
 51
260.4234115189
  0
ARC
  5
128
330
1F
100
AcDbEntity
  8
0
  6
Continuous
 62
     7
370
    25
100
AcDbCircle
 10
3826.1224773464
 20
1366.7613658174
 30
0.0
 40
0.4999999999998573
100
AcDbArc
 50
180.7984942261
 51
260.4234115189
  0
SPLINE
  5
129
330
1F
100
AcDbEntity
  8
0
  6
Continuous
 62
     7
370
    25
100
AcDbSpline
210
0.0
220
0.0
230
1.0
 70
     8
 71
     3
 72
    13
 73
     9
 74
     0
 42
0.00000001
 43
0.00000001
 40
0.0
 40
0.0
 40
0.0
 40
0.0
 40
0.0075029974113223
 40
0.3818974549658312
 40
0.6070018873268317
 40
0.7653769096342229
 40
0.882460504980979
 40
1.0
 40
1.0
 40
1.0
 40
1.0
 10
3825.905303988904
 20
1366.554397866315
 30
0.0
 10
3825.904286212288
 20
1366.55483586421
 30
0.0
 10
3825.852482076147
 20
1366.57712965858
 30
0.0
 10
3825.773896710783
 20
1366.624014046795
 30
0.0
 10
3825.691257246749
 20
1366.690298483831
 30
0.0
 10
3825.649161128651
 20
1366.728560043004
 30
0.0
 10
3825.626637701816
 20
1366.750315818739
 30
0.0
 10
3825.623898275702
 20
1366.753035422289
 30
0.0
 10
3825.622525901134
 20
1366.754397866315
 30
0.0
  0
LINE
  5
12A
330
1F
100
AcDbEntity
  8
0
  6
Continuous
 62
     7
370
    25
100
AcDbLine
 10
3826.1225156724
 20
1366.7543978663
 30
0.0
 11
3826.3225156724
 21
1366.5543978663
 31
0.0
  0
LINE
  5
12B
330
1F
100
AcDbEntity
  8
0
  6
Continuous
 62
     7
370
    25
100
AcDbLine
 10
3826.3225156724
 20
1366.5543978663
 30
0.0
 11
3825.9053039889
 21
1366.5543978663
 31
0.0
  0
LINE
  5
12C
330
1F
100
AcDbEntity
  8
0
  6
Continuous
 62
     7
370
    25
100
AcDbLine
 10
3826.3225156724
 20
1379.5543978663
 30
0.0
 11
3826.3225156724
 21
1366.5543978663
 31
0.0
  0
LINE
  5
12D
330
1F
100
AcDbEntity
  8
0
  6
Continuous
 62
     7
370
    25
100
AcDbLine
 10
3838.8225156724
 20
1399.5543978663
 30
0.0
 11
3838.8225156724
 21
1379.5543978663
 31
0.0
  0
LINE
  5
12E
330
1F
100
AcDbEntity
  8
0
  6
Continuous
 62
     7
370
    25
100
AcDbLine
 10
3822.1225156724
 20
1507.7543978663
 30
0.0
 11
3840.1225156724
 21
1507.7543978663
 31
0.0
  0
LINE
  5
12F
330
1F
100
AcDbEntity
  8
0
  6
Continuous
 62
     7
370
    25
100
AcDbLine
 10
3822.1225156724
 20
1366.7543978663
 30
0.0
 11
3822.1225156724
 21
1507.7543978663
 31
0.0
  0
LINE
  5
130
330
1F
100
AcDbEntity
  8
0
  6
Continuous
 62
     7
370
    25
100
AcDbLine
 10
3838.6225156724
 20
1400.2543978663
 30
0.0
 11
3840.1225156724
 21
1400.2543978663
 31
0.0
  0
LINE
  5
131
330
1F
100
AcDbEntity
  8
0
  6
Continuous
 62
     7
370
    25
100
AcDbLine
 10
3826.1225156724
 20
1379.7543978663
 30
0.0
 11
3838.6225156724
 21
1379.7543978663
 31
0.0
  0
LINE
  5
132
330
1F
100
AcDbEntity
  8
0
  6
Continuous
 62
     7
370
    25
100
AcDbLine
 10
3822.1225156724
 20
1366.7543978663
 30
0.0
 11
3826.1225156724
 21
1366.7543978663
 31
0.0
  0
LINE
  5
133
330
1F
100
AcDbEntity
  8
0
  6
Continuous
 62
     7
370
    25
100
AcDbLine
 10
3838.6225156724
 20
1379.7543978663
 30
0.0
 11
3838.6225156724
 21
1400.2543978663
 31
0.0
  0
LINE
  5
134
330
1F
100
AcDbEntity
  8
0
  6
Continuous
 62
     7
370
    25
100
AcDbLine
 10
3826.1225156724
 20
1366.7543978663
 30
0.0
 11
3826.1225156724
 21
1379.7543978663
 31
0.0
  0
LINE
  5
135
330
1F
100
AcDbEntity
  8
0
  6
Continuous
 62
     7
370
    25
100
AcDbLine
 10
3840.1225156724
 20
1356.7543978663
 30
0.0
 11
4218.6225156724
 21
1356.7543978663
 31
0.0
  0
LINE
  5
136
330
1F
100
AcDbEntity
  8
0
  6
Continuous
 62
     7
370
    25
100
AcDbLine
 10
3840.1225156724
 20
1356.7543978663
 30
0.0
 11
3840.1225156724
 21
1512.2543978663
 31
0.0
  0
LINE
  5
137
330
1F
100
AcDbEntity
  8
0
  6
Continuous
 62
     7
370
    25
100
AcDbLine
 10
4218.6225156724
 20
1356.7543978663
 30
0.0
 11
4218.6225156724
 21
1512.2543978663
 31
0.0
  0
ARC
  5
138
330
1F
100
AcDbEntity
  8
0
  6
Continuous
 62
     7
370
    25
100
AcDbCircle
 10
3821.6225156724
 20
1533.7543978663
 30
0.0
 40
3.000000000000227
100
AcDbArc
 50
90.0
 51
180.0
  0
LINE
  5
139
330
1F
100
AcDbEntity
  8
0
  6
Continuous
 62
     7
370
    25
100
AcDbLine
 10
4218.6225156724
 20
1536.7543978663
 30
0.0
 11
3821.6225156724
 21
1536.7543978663
 31
0.0
  0
LINE
  5
13A
330
1F
100
AcDbEntity
  8
0
  6
Continuous
 62
     7
370
    25
100
AcDbLine
 10
4218.6225156724
 20
1512.2543978663
 30
0.0
 11
4218.6225156724
 21
1536.7543978663
 31
0.0
  0
LINE
  5
13B
330
1F
100
AcDbEntity
  8
0
  6
Continuous
 62
     7
370
    25
100
AcDbLine
 10
3821.6225156724
 20
1512.2543978663
 30
0.0
 11
4218.6225156724
 21
1512.2543978663
 31
0.0
  0
ARC
  5
13C
330
1F
100
AcDbEntity
  8
0
  6
Continuous
 62
     7
370
    25
100
AcDbCircle
 10
3821.6225156724
 20
1515.2543978663
 30
0.0
 40
3.0
100
AcDbArc
 50
180.0
 51
270.0
  0
LINE
  5
13D
330
1F
100
AcDbEntity
  8
0
  6
Continuous
 62
     7
370
    25
100
AcDbLine
 10
3818.6225156724
 20
1533.7543978663
 30
0.0
 11
3818.6225156724
 21
1515.2543978663
 31
0.0
  0
SPLINE
  5
13E
330
1F
100
AcDbEntity
  8
0
  6
Continuous
 62
     7
370
    25
100
AcDbSpline
210
0.0
220
0.0
230
1.0
 70
    24
 71
     3
 72
    12
 73
     8
 74
     0
 42
0.00000001
 43
0.00000001
 40
0.0
 40
0.0
 40
0.0
 40
0.0
 40
0.2460973337403339
 40
0.4921955654204428
 40
0.7383025770445533
 40
0.9844160040482551
 40
1.0
 40
1.0
 40
1.0
 40
1.0
 10
4220.828146424093
 20
1446.033667516014
 30
0.0
 10
4220.836375901094
 20
1445.719396468514
 30
0.0
 10
4220.852834885123
 20
1445.090853226826
 30
0.0
 10
4220.874150888233
 20
1444.276827909663
 30
0.0
 10
4220.887691150979
 20
1443.759746136915
 30
0.0
 10
4220.893610628062
 20
1443.533690427261
 30
0.0
 10
4220.892090397723
 20
1443.591745681674
 30
0.0
 10
4220.891999868504
 20
1443.595202853088
 30
0.0
  0
SPLINE
  5
13F
330
1F
100
AcDbEntity
  8
0
  6
Continuous
 62
     7
370
    25
100
AcDbSpline
210
0.0
220
0.0
230
1.0
 70
     8
 71
     3
 72
    11
 73
     7
 74
     0
 42
0.00000001
 43
0.00000001
 40
0.0
 40
0.0
 40
0.0
 40
0.0
 40
0.2382247349857103
 40
0.4921376904605938
 40
0.7460575595492474
 40
1.0
 40
1.0
 40
1.0
 40
1.0
 10
4220.764286695015
 20
1448.47237218075
 30
0.0
 10
4220.764959079317
 20
1448.446694861236
 30
0.0
 10
4220.766348127597
 20
1448.393649249815
 30
0.0
 10
4220.779885724833
 20
1447.876669251069
 30
0.0
 10
4220.799986316167
 20
1447.109058705207
 30
0.0
 10
4220.816369957559
 20
1446.483392512953
 30
0.0
 10
4220.824562142331
 20
1446.170545513315
 30
0.0
  0
LINE
  5
140
330
1F
100
AcDbEntity
  8
0
  6
Continuous
 62
     7
370
    25
100
AcDbLine
 10
4220.8245621423
 20
1446.1705455133
 30
0.0
 11
4220.8281464241
 21
1446.033667516
 31
0.0
  0
SPLINE
  5
141
330
1F
100
AcDbEntity
  8
0
  6
Continuous
 62
     7
370
    25
100
AcDbSpline
210
0.0
220
0.0
230
1.0
 70
    24
 71
     3
 72
    13
 73
     9
 74
     0
 42
0.00000001
 43
0.00000001
 40
0.0
 40
0.0
 40
0.0
 40
0.0
 40
0.1813201537911984
 40
0.410146844838352
 40
0.5438150184967407
 40
0.6886421238877359
 40
0.8419966874127689
 40
1.0
 40
1.0
 40
1.0
 40
1.0
 10
4221.382795627852
 20
1463.054018988887
 30
0.0
 10
4221.358568754208
 20
1463.97920596693
 30
0.0
 10
4221.30376747825
 20
1466.071982263421
 30
0.0
 10
4221.237407247228
 20
1468.606177244859
 30
0.0
 10
4221.187436230675
 20
1470.514493376601
 30
0.0
 10
4221.154514141959
 20
1471.771737221533
 30
0.0
 10
4221.131231983233
 20
1472.660846992439
 30
0.0
 10
4221.127939789824
 20
1472.786570786437
 30
0.0
 10
4221.126269115966
 20
1472.850371247086
 30
0.0
  0
SPLINE
  5
142
330
1F
100
AcDbEntity
  8
0
  6
Continuous
 62
     7
370
    25
100
AcDbSpline
210
0.0
220
0.0
230
1.0
 70
    24
 71
     3
 72
    13
 73
     9
 74
     0
 42
0.00000001
 43
0.00000001
 40
0.0
 40
0.0
 40
0.0
 40
0.0
 40
0.1538581583653395
 40
0.3079676862454912
 40
0.4535077802387796
 40
0.5878340078348983
 40
0.8177872163817895
 40
1.0
 40
1.0
 40
1.0
 40
1.0
 10
4221.639096032813
 20
1453.266301405857
 30
0.0
 10
4221.637776556169
 20
1453.31669018595
 30
0.0
 10
4221.635135447155
 20
1453.417550070031
 30
0.0
 10
4221.612908661743
 20
1454.266356760086
 30
0.0
 10
4221.580740651446
 20
1455.494803512002
 30
0.0
 10
4221.531477719859
 20
1457.376078969874
 30
0.0
 10
4221.46565839112
 20
1459.889617726502
 30
0.0
 10
4221.410933327972
 20
1461.979483573089
 30
0.0
 10
4221.386740147848
 20
1462.903383847576
 30
0.0
  0
LINE
  5
143
330
1F
100
AcDbEntity
  8
0
  6
Continuous
 62
     7
370
    25
100
AcDbLine
 10
4223.7844466987
 20
1463.0223848582
 30
0.0
 11
4223.9047475903
 21
1458.4282791568
 31
0.0
  0
LINE
  5
144
330
1F
100
AcDbEntity
  8
0
  6
Continuous
 62
     7
370
    25
100
AcDbLine
 10
4223.6591988253
 20
1467.8054081729
 30
0.0
 11
4223.7819732078
 21
1463.1168436648
 31
0.0
  0
SPLINE
  5
145
330
1F
100
AcDbEntity
  8
0
  6
Continuous
 62
     7
370
    25
100
AcDbSpline
210
0.0
220
0.0
230
1.0
 70
     8
 71
     3
 72
    11
 73
     7
 74
     0
 42
0.00000001
 43
0.00000001
 40
0.0
 40
0.0
 40
0.0
 40
0.0
 40
0.27026020516755
 40
0.5624283659894851
 40
0.7897359586731728
 40
1.0
 40
1.0
 40
1.0
 40
1.0
 10
4221.378496043727
 20
1463.218213482245
 30
0.0
 10
4221.369746636015
 20
1463.215656025565
 30
0.0
 10
4221.351538572123
 20
1463.210333798487
 30
0.0
 10
4221.216480299718
 20
1463.201285824101
 30
0.0
 10
4221.048418110185
 20
1463.19367715243
 30
0.0
 10
4220.934052746294
 20
1463.1903189531
 30
0.0
 10
4220.879097347609
 20
1463.188705254889
 30
0.0
  0
LINE
  5
146
330
1F
100
AcDbEntity
  8
0
  6
Continuous
 62
     7
370
    25
100
AcDbLine
 10
3840.1225156724
 20
1399.5543978663
 30
0.0
 11
3838.8225156724
 21
1399.5543978663
 31
0.0
  0
ARC
  5
147
330
1F
100
AcDbEntity
  8
0
  6
Continuous
 62
     7
370
    25
100
AcDbCircle
 10
3839.4225156724
 20
1378.7543978663
 30
0.0
 40
0.800000000000223
100
AcDbArc
 50
270.0
 51
331.0449756282
  0
LINE
  5
148
330
1F
100
AcDbEntity
  8
0
  6
Continuous
 62
     7
370
    25
100
AcDbLine
 10
4220.6002358344
 20
1443.2767567878
 30
0.0
 11
4220.4562626188
 21
1448.7748720752
 31
0.0
  0
LINE
  5
149
330
1F
100
AcDbEntity
  8
0
  6
Continuous
 62
     7
370
    25
100
AcDbLine
 10
4221.590560553
 20
1462.7601066029
 30
0.0
 11
4221.8444965759
 21
1453.0626811288
 31
0.0
  0
LINE
  5
14A
330
1F
100
AcDbEntity
  8
0
  6
Continuous
 62
     7
370
    25
100
AcDbLine
 10
4222.5946873532
 20
1453.0823255657
 30
0.0
 11
4222.0711483871
 21
1473.0754720652
 31
0.0
  0
LINE
  5
14B
330
1F
100
AcDbEntity
  8
0
  6
Continuous
 62
     7
370
    25
100
AcDbLine
 10
4223.2948469519
 20
1472.0117271317
 30
0.0
 11
4223.7610367734
 21
1454.2086561082
 31
0.0
  0
LINE
  5
14C
330
1F
100
AcDbEntity
  8
0
  6
Continuous
 62
     7
370
    25
100
AcDbLine
 10
4223.8590717937
 20
1455.8115145215
 30
0.0
 11
4223.4766347464
 21
1470.4161961367
 31
0.0
  0
LINE
  5
14D
330
1F
100
AcDbEntity
  8
0
  6
Continuous
 62
     7
370
    25
100
AcDbLine
 10
4221.0007621351
 20
1458.5425144716
 30
0.0
 11
4220.8790973475
 21
1463.1887052587
 31
0.0
  0
LINE
  5
14E
330
1F
100
AcDbEntity
  8
0
  6
Continuous
 62
     7
370
    25
100
AcDbLine
 10
4220.8790973475
 20
1463.1887052587
 30
0.0
 11
4220.7651717957
 21
1467.5393465579
 31
0.0
  0
SPLINE
  5
14F
330
1F
100
AcDbEntity
  8
0
  6
Continuous
 62
     7
370
    25
100
AcDbSpline
210
0.0
220
0.0
230
1.0
 70
     8
 71
     3
 72
    16
 73
    12
 74
     0
 42
0.00000001
 43
0.00000001
 40
0.0
 40
0.0
 40
0.0
 40
0.0
 40
0.0490847390193385
 40
0.1518473045648986
 40
0.235868499099166
 40
0.3090519161651945
 40
0.3734786142105609
 40
0.4370328180321912
 40
0.5258016248245732
 40
0.7068629655464199
 40
1.0
 40
1.0
 40
1.0
 40
1.0
 10
2847.925074168672
 20
2597.982522916324
 30
0.0
 10
2847.929765765407
 20
2598.048713308546
 30
0.0
 10
2847.944279570155
 20
2598.25347822831
 30
0.0
 10
2847.817101818784
 20
2598.557694887957
 30
0.0
 10
2847.612885409258
 20
2598.833758526978
 30
0.0
 10
2847.391873803392
 20
2599.007097001616
 30
0.0
 10
2847.20010723565
 20
2599.104101014118
 30
0.0
 10
2847.042893347467
 20
2599.158174379475
 30
0.0
 10
2846.877542172413
 20
2599.196807200847
 30
0.0
 10
2846.681828237487
 20
2599.226544086367
 30
0.0
 10
2846.454213845379
 20
2599.243759755638
 30
0.0
 10
2846.313508580674
 20
2599.254402032164
 30
0.0
  0
SPLINE
  5
150
330
1F
100
AcDbEntity
  8
0
  6
Continuous
 62
     7
370
    25
100
AcDbSpline
210
0.0
220
0.0
230
1.0
 70
     8
 71
     3
 72
    14
 73
    10
 74
     0
 42
0.00000001
 43
0.00000001
 40
0.0
 40
0.0
 40
0.0
 40
0.0
 40
0.4380448777708174
 40
0.588907202115706
 40
0.6648524542795466
 40
0.7505291071918526
 40
0.8517030556682398
 40
0.9620267314757577
 40
1.0
 40
1.0
 40
1.0
 40
1.0
 10
2829.529691039084
 20
2599.253278350237
 30
0.0
 10
2829.357587419204
 20
2599.238587326918
 30
0.0
 10
2829.126211442905
 20
2599.218836726289
 30
0.0
 10
2828.826901395452
 20
2599.158689060098
 30
0.0
 10
2828.553382146908
 20
2599.042171355407
 30
0.0
 10
2828.289180317124
 20
2598.852245027231
 30
0.0
 10
2828.06095638253
 20
2598.539748892953
 30
0.0
 10
2827.9369103925
 20
2598.217783907773
 30
0.0
 10
2827.958389890539
 20
2598.022470086401
 30
0.0
 10
2827.96388998193
 20
2597.972457564438
 30
0.0
  0
LINE
  5
151
330
1F
100
AcDbEntity
  8
0
  6
Continuous
 62
     7
370
    25
100
AcDbLine
 10
2847.9454585654
 20
2597.2318663251
 30
0.0
 11
2847.9454585654
 21
2597.9820571024
 31
0.0
  0
LINE
  5
152
330
1F
100
AcDbEntity
  8
0
  6
Continuous
 62
     7
370
    25
100
AcDbLine
 10
2827.9454585654
 20
2597.9820571024
 30
0.0
 11
2827.9454585654
 21
2597.2318663251
 31
0.0
  0
LINE
  5
153
330
1F
100
AcDbEntity
  8
0
  6
Continuous
 62
     7
370
    25
100
AcDbLine
 10
2846.4418327899
 20
2599.2468479058
 30
0.0
 11
2844.9154268517
 21
2599.3742254403
 31
0.0
  0
LINE
  5
154
330
1F
100
AcDbEntity
  8
0
  6
Continuous
 62
     7
370
    25
100
AcDbLine
 10
2830.975490279
 20
2599.3742254403
 30
0.0
 11
2829.4490843408
 21
2599.2468479058
 31
0.0
  0
SPLINE
  5
155
330
1F
100
AcDbEntity
  8
0
  6
Continuous
 62
     7
370
    25
100
AcDbSpline
210
0.0
220
0.0
230
1.0
 70
     8
 71
     3
 72
    14
 73
    10
 74
     0
 42
0.00000001
 43
0.00000001
 40
0.0
 40
0.0
 40
0.0
 40
0.0
 40
0.090747555642835
 40
0.2288563839002875
 40
0.4128530542466791
 40
0.6071420004333822
 40
0.7878282318393789
 40
0.962661122174432
 40
0.9999999999999999
 40
0.9999999999999999
 40
0.9999999999999999
 40
0.9999999999999999
 10
2844.825460923728
 20
2599.379327213113
 30
0.0
 10
2844.61390975688
 20
2599.396159746661
 30
0.0
 10
2844.08039858171
 20
2599.438609735892
 30
0.0
 10
2843.219912941161
 20
2599.480570026104
 30
0.0
 10
2842.170112580978
 20
2599.517502171321
 30
0.0
 10
2840.935496063455
 20
2599.543227737943
 30
0.0
 10
2839.598989846253
 20
2599.559073656578
 30
0.0
 10
2838.588959722666
 20
2599.563885326816
 30
0.0
 10
2838.04175750683
 20
2599.564124910313
 30
0.0
 10
2837.945458565364
 20
2599.564167073222
 30
0.0
  0
SPLINE
  5
156
330
1F
100
AcDbEntity
  8
0
  6
Continuous
 62
     7
370
    25
100
AcDbSpline
210
0.0
220
0.0
230
1.0
 70
     8
 71
     3
 72
    13
 73
     9
 74
     0
 42
0.00000001
 43
0.00000001
 40
0.0
 40
0.0
 40
0.0
 40
0.0
 40
0.0971790056424307
 40
0.2845710337030768
 40
0.4775192778489915
 40
0.6890792027699895
 40
0.877162524324208
 40
1.0
 40
1.0
 40
1.0
 40
1.0
 10
2837.945458565364
 20
2599.564167073222
 30
0.0
 10
2837.698437493654
 20
2599.563905304345
 30
0.0
 10
2836.975081237248
 20
2599.563138761826
 30
0.0
 10
2835.782482825122
 20
2599.554264289762
 30
0.0
 10
2834.412409207466
 20
2599.534024945493
 30
0.0
 10
2833.178104082206
 20
2599.50000799957
 30
0.0
 10
2832.148335398515
 20
2599.460504786324
 30
0.0
 10
2831.441932094421
 20
2599.406884625919
 30
0.0
 10
2831.162848805502
 20
2599.385700564872
 30
0.0
  0
LINE
  5
157
330
1F
100
AcDbEntity
  8
0
  6
Continuous
 62
     7
370
    25
100
AcDbLine
 10
2842.4454585654
 20
2594.2716549046
 30
0.0
 11
2842.4454585654
 21
2596.5321061976
 31
0.0
  0
LINE
  5
158
330
1F
100
AcDbEntity
  8
0
  6
Continuous
 62
     7
370
    25
100
AcDbLine
 10
2833.4454585654
 20
2596.5321061976
 30
0.0
 11
2833.4454585654
 21
2594.2716549046
 31
0.0
  0
SPLINE
  5
159
330
1F
100
AcDbEntity
  8
0
  6
Continuous
 62
     7
370
    25
100
AcDbSpline
210
0.0
220
0.0
230
1.0
 70
     8
 71
     3
 72
    16
 73
    12
 74
     0
 42
0.00000001
 43
0.00000001
 40
0.0
 40
0.0
 40
0.0
 40
0.0
 40
0.04908473901932
 40
0.1518473045648912
 40
0.2358684990991706
 40
0.3090519161651996
 40
0.3734786142105789
 40
0.4370328180322135
 40
0.5258016248245866
 40
0.7068629655464339
 40
1.0
 40
1.0
 40
1.0
 40
1.0
 10
2121.425074168674
 20
2597.982522916334
 30
0.0
 10
2121.429765765409
 20
2598.048713308555
 30
0.0
 10
2121.444279570157
 20
2598.253478228319
 30
0.0
 10
2121.317101818786
 20
2598.557694887966
 30
0.0
 10
2121.11288540926
 20
2598.833758526987
 30
0.0
 10
2120.891873803394
 20
2599.007097001626
 30
0.0
 10
2120.700107235652
 20
2599.104101014128
 30
0.0
 10
2120.542893347468
 20
2599.158174379485
 30
0.0
 10
2120.377542172415
 20
2599.196807200857
 30
0.0
 10
2120.181828237489
 20
2599.226544086376
 30
0.0
 10
2119.95421384538
 20
2599.243759755648
 30
0.0
 10
2119.813508580676
 20
2599.254402032174
 30
0.0
  0
SPLINE
  5
15A
330
1F
100
AcDbEntity
  8
0
  6
Continuous
 62
     7
370
    25
100
AcDbSpline
210
0.0
220
0.0
230
1.0
 70
     8
 71
     3
 72
    15
 73
    11
 74
     0
 42
0.00000001
 43
0.00000001
 40
0.0
 40
0.0
 40
0.0
 40
0.0
 40
0.036614633290927
 40
0.4586206584971926
 40
0.6039592141587782
 40
0.6771237587644605
 40
0.7596633924487882
 40
0.8571328939031111
 40
0.9634171087776319
 40
1.0
 40
1.0
 40
1.0
 40
1.0
 10
2103.095706343181
 20
2599.257096001321
 30
0.0
 10
2103.073357319802
 20
2599.255823552651
 30
0.0
 10
2102.793422143691
 20
2599.239885355417
 30
0.0
 10
2102.637947923132
 20
2599.218833256155
 30
0.0
 10
2102.326115586827
 20
2599.158689292449
 30
0.0
 10
2102.05355186699
 20
2599.042171305235
 30
0.0
 10
2101.789122930551
 20
2598.852245044208
 30
0.0
 10
2101.560974971924
 20
2598.539748887466
 30
0.0
 10
2101.436909000221
 20
2598.217783908194
 30
0.0
 10
2101.458389606709
 20
2598.022470086494
 30
0.0
 10
2101.463889981932
 20
2597.972457564447
 30
0.0
  0
LINE
  5
15B
330
1F
100
AcDbEntity
  8
0
  6
Continuous
 62
     7
370
    25
100
AcDbLine
 10
2121.4454585654
 20
2597.2318663251
 30
0.0
 11
2121.4454585654
 21
2597.9820571024
 31
0.0
  0
LINE
  5
15C
330
1F
100
AcDbEntity
  8
0
  6
Continuous
 62
     7
370
    25
100
AcDbLine
 10
2101.4454585654
 20
2597.9820571024
 30
0.0
 11
2101.4454585654
 21
2597.2318663251
 31
0.0
  0
LINE
  5
15D
330
1F
100
AcDbEntity
  8
0
  6
Continuous
 62
     7
370
    25
100
AcDbLine
 10
2119.9418327899
 20
2599.2468479058
 30
0.0
 11
2118.4154268517
 21
2599.3742254403
 31
0.0
  0
LINE
  5
15E
330
1F
100
AcDbEntity
  8
0
  6
Continuous
 62
     7
370
    25
100
AcDbLine
 10
2104.475490279
 20
2599.3742254403
 30
0.0
 11
2102.9490843408
 21
2599.2468479058
 31
0.0
  0
SPLINE
  5
15F
330
1F
100
AcDbEntity
  8
0
  6
Continuous
 62
     7
370
    25
100
AcDbSpline
210
0.0
220
0.0
230
1.0
 70
     8
 71
     3
 72
    14
 73
    10
 74
     0
 42
0.00000001
 43
0.00000001
 40
0.0
 40
0.0
 40
0.0
 40
0.0
 40
0.0907475556428337
 40
0.2288563839002871
 40
0.4128530542466856
 40
0.6071420004333866
 40
0.7878282318393821
 40
0.9626611221744427
 40
1.0
 40
1.0
 40
1.0
 40
1.0
 10
2118.32546092373
 20
2599.379327213122
 30
0.0
 10
2118.113909756882
 20
2599.396159746671
 30
0.0
 10
2117.580398581713
 20
2599.438609735902
 30
0.0
 10
2116.719912941163
 20
2599.480570026113
 30
0.0
 10
2115.670112580981
 20
2599.517502171331
 30
0.0
 10
2114.435496063458
 20
2599.543227737953
 30
0.0
 10
2113.098989846255
 20
2599.559073656587
 30
0.0
 10
2112.088959722668
 20
2599.563885326826
 30
0.0
 10
2111.541757506833
 20
2599.564124910322
 30
0.0
 10
2111.445458565366
 20
2599.564167073231
 30
0.0
  0
SPLINE
  5
160
330
1F
100
AcDbEntity
  8
0
  6
Continuous
 62
     7
370
    25
100
AcDbSpline
210
0.0
220
0.0
230
1.0
 70
     8
 71
     3
 72
    13
 73
     9
 74
     0
 42
0.00000001
 43
0.00000001
 40
0.0
 40
0.0
 40
0.0
 40
0.0
 40
0.0971790056424308
 40
0.2845710337030806
 40
0.4775192778489969
 40
0.6890792027699911
 40
0.8771625243242094
 40
1.0
 40
1.0
 40
1.0
 40
1.0
 10
2111.445458565366
 20
2599.564167073231
 30
0.0
 10
2111.198437493657
 20
2599.563905304355
 30
0.0
 10
2110.475081237251
 20
2599.563138761835
 30
0.0
 10
2109.282482825123
 20
2599.554264289772
 30
0.0
 10
2107.912409207468
 20
2599.534024945503
 30
0.0
 10
2106.678104082209
 20
2599.50000799958
 30
0.0
 10
2105.648335398517
 20
2599.460504786334
 30
0.0
 10
2104.941932094423
 20
2599.40688462593
 30
0.0
 10
2104.662848805505
 20
2599.385700564882
 30
0.0
  0
LINE
  5
161
330
1F
100
AcDbEntity
  8
0
  6
Continuous
 62
     7
370
    25
100
AcDbLine
 10
2115.9454585654
 20
2594.2716549046
 30
0.0
 11
2115.9454585654
 21
2596.5321061976
 31
0.0
  0
LINE
  5
162
330
1F
100
AcDbEntity
  8
0
  6
Continuous
 62
     7
370
    25
100
AcDbLine
 10
2106.9454585654
 20
2596.5321061976
 30
0.0
 11
2106.9454585654
 21
2594.2716549046
 31
0.0
  0
LINE
  5
163
330
1F
100
AcDbEntity
  8
0
  6
Continuous
 62
     7
370
    25
100
AcDbLine
 10
2074.4454585654
 20
2197.2716549046
 30
0.0
 11
2874.9454585654
 21
2197.2716549046
 31
0.0
  0
LINE
  5
164
330
1F
100
AcDbEntity
  8
0
  6
Continuous
 62
     7
370
    25
100
AcDbLine
 10
2874.9454585654
 20
2594.2716549046
 30
0.0
 11
2874.9454585654
 21
2197.2716549046
 31
0.0
  0
LINE
  5
165
330
1F
100
AcDbEntity
  8
0
  6
Continuous
 62
     7
370
    25
100
AcDbLine
 10
2874.9454585654
 20
2594.2716549046
 30
0.0
 11
2074.4454585654
 21
2594.2716549046
 31
0.0
  0
LINE
  5
166
330
1F
100
AcDbEntity
  8
0
  6
Continuous
 62
     7
370
    25
100
AcDbLine
 10
2074.4454585654
 20
2594.2716549046
 30
0.0
 11
2074.4454585654
 21
2197.2716549046
 31
0.0
  0
LINE
  5
167
330
1F
100
AcDbEntity
  8
0
  6
Continuous
 62
     7
370
    25
100
AcDbLine
 10
2874.9454585654
 20
2194.2716549046
 30
0.0
 11
2074.4454585654
 21
2194.2716549046
 31
0.0
  0
LINE
  5
168
330
1F
100
AcDbEntity
  8
0
  6
Continuous
 62
     7
370
    25
100
AcDbLine
 10
2874.9454585654
 20
2197.2716549046
 30
0.0
 11
2874.9454585654
 21
2194.2716549046
 31
0.0
  0
LINE
  5
169
330
1F
100
AcDbEntity
  8
0
  6
Continuous
 62
     7
370
    25
100
AcDbLine
 10
2074.4454585654
 20
2194.2716549046
 30
0.0
 11
2074.4454585654
 21
2197.2716549046
 31
0.0
  0
ARC
  5
16A
330
1F
100
AcDbEntity
  8
0
  6
Continuous
 62
     7
370
    25
100
AcDbCircle
 10
2838.9487994323
 20
2789.2477776287
 30
0.0
 40
190.3064363890351
100
AcDbArc
 50
269.6979216021
 51
271.9898299979
  0
ARC
  5
16B
330
1F
100
AcDbEntity
  8
0
  6
Continuous
 62
     7
370
    25
100
AcDbCircle
 10
2837.3807674914
 20
2833.5241370814
 30
0.0
 40
234.5808305701666
100
AcDbArc
 50
268.5008299502
 51
270.1379245117
  0
ARC
  5
16C
330
1F
100
AcDbEntity
  8
0
  6
Continuous
 62
     7
370
    25
100
AcDbCircle
 10
2840.7883976532
 20
2679.5040519047
 30
0.0
 40
82.5829040476572
100
AcDbArc
 50
268.0271873052
 51
274.9717851391
  0
ARC
  5
16D
330
1F
100
AcDbEntity
  8
0
  6
Continuous
 62
     7
370
    25
100
AcDbCircle
 10
2835.3258447337
 20
2688.0354228505
 30
0.0
 40
91.10299653505113
100
AcDbArc
 50
265.3532935281
 51
271.6477340277
  0
SPLINE
  5
16E
330
1F
100
AcDbEntity
  8
0
  6
Continuous
 62
     7
370
    25
100
AcDbSpline
210
0.0
220
0.0
230
1.0
 70
     8
 71
     3
 72
    19
 73
    15
 74
     0
 42
0.00000001
 43
0.00000001
 40
0.0
 40
0.0
 40
0.0
 40
0.0
 40
0.0906600731282838
 40
0.2050734138974949
 40
0.271907497949446
 40
0.3443210476358496
 40
0.4209983262120958
 40
0.4999999792228534
 40
0.5790016347260418
 40
0.6556789199259931
 40
0.7280924783130563
 40
0.7949265709541787
 40
0.9093399235673061
 40
0.9999999999999999
 40
0.9999999999999999
 40
0.9999999999999999
 40
0.9999999999999999
 10
2847.745458565365
 20
2597.031934860074
 30
0.0
 10
2847.668604520698
 20
2597.007709314837
 30
0.0
 10
2847.494760393203
 20
2596.952911043739
 30
0.0
 10
2846.174903170727
 20
2596.886527760358
 30
0.0
 10
2844.41898401053
 20
2596.836615149711
 30
0.0
 10
2842.595890405647
 20
2596.803484284432
 30
0.0
 10
2840.414524317425
 20
2596.781051426668
 30
0.0
 10
2838.021572113838
 20
2596.772789316636
 30
0.0
 10
2835.624049624954
 20
2596.78008728252
 30
0.0
 10
2833.429764294541
 20
2596.801639484261
 30
0.0
 10
2831.587425031516
 20
2596.834032633693
 30
0.0
 10
2829.802394606041
 20
2596.883232581893
 30
0.0
 10
2828.44369958844
 20
2596.949076769686
 30
0.0
 10
2828.237687244349
 20
2597.003798592473
 30
0.0
 10
2828.14661208679
 20
2597.027990340079
 30
0.0
  0
LINE
  5
16F
330
1F
100
AcDbEntity
  8
0
  6
Continuous
 62
     7
370
    25
100
AcDbLine
 10
2830.975490279
 20
2599.3742254403
 30
0.0
 11
2831.0274519143
 21
2599.3783936567
 31
0.0
  0
LINE
  5
170
330
1F
100
AcDbEntity
  8
0
  6
Continuous
 62
     7
370
    25
100
AcDbLine
 10
2842.6356302781
 20
2599.43111244
 30
0.0
 11
2842.6346783417
 21
2599.4335859309
 31
0.0
  0
LWPOLYLINE
  5
171
330
1F
100
AcDbEntity
  8
0
  6
Continuous
 62
     7
370
    25
100
AcDbPolyline
 90
       23
 70
   128
 43
0.0
 10
2842.6346783417
 20
2599.4335859309
 10
2842.4194017973
 20
2599.4679610176
 10
2841.8439780752
 20
2599.499369837
 10
2840.9547281093
 20
2599.5252840161
 10
2839.8232354781
 20
2599.5436174939
 10
2838.54058401
 20
2599.5528944469
 10
2837.2100256422
 20
2599.5523680914
 10
2835.9386687613
 20
2599.5420807983
 10
2834.8288561037
 20
2599.5228606826
 10
2833.9699262854
 20
2599.4962549411
 10
2833.4310221483
 20
2599.4644053047
 10
2833.2555248428
 20
2599.4298756318
 10
2833.4575616959
 20
2599.3954455205
 10
2834.0208689783
 20
2599.3638865544
 10
2834.9001011149
 20
2599.3377391931
 10
2836.0244809511
 20
2599.3191082686
 10
2837.3034972299
 20
2599.3094935484
 10
2838.6341906426
 20
2599.3096690062
 10
2839.9094419316
 20
2599.3196205178
 10
2841.0265948654
 20
2599.3385469983
 10
2841.8957199443
 20
2599.3649248882
 10
2842.4468536198
 20
2599.3966307983
 10
2842.6356302781
 20
2599.43111244
  0
SPLINE
  5
172
330
1F
100
AcDbEntity
  8
0
  6
Continuous
 62
     7
370
    25
100
AcDbSpline
210
0.0
220
0.0
230
1.0
 70
     8
 71
     3
 72
     9
 73
     5
 74
     0
 42
0.00000001
 43
0.00000001
 40
0.0
 40
0.0
 40
0.0
 40
0.0
 40
0.6491278371834847
 40
1.0
 40
1.0
 40
1.0
 40
1.0
 10
2833.447887259403
 20
2596.535975815341
 30
0.0
 10
2833.442155501793
 20
2596.608858706485
 30
0.0
 10
2833.433325565249
 20
2596.721136884942
 30
0.0
 10
2833.35986955515
 20
2596.803542869038
 30
0.0
 10
2833.334095886015
 20
2596.832456834906
 30
0.0
  0
LINE
  5
173
330
1F
100
AcDbEntity
  8
0
  6
Continuous
 62
     7
370
    25
100
AcDbLine
 10
2835.4996091614
 20
2599.4176313116
 30
0.0
 11
2837.4304585654
 21
2599.4176313116
 31
0.0
  0
LINE
  5
174
330
1F
100
AcDbEntity
  8
0
  6
Continuous
 62
     7
370
    25
100
AcDbLine
 10
2837.4304585654
 20
2599.4176313116
 30
0.0
 11
2837.4304585654
 21
2599.3670875666
 31
0.0
  0
ARC
  5
175
330
1F
100
AcDbEntity
  8
0
  6
Continuous
 62
     7
370
    25
100
AcDbCircle
 10
2837.9454585654
 20
2693.6549486409
 30
0.0
 40
94.28926752803847
100
AcDbArc
 50
269.6870537449
 51
270.312946255
  0
LINE
  5
176
330
1F
100
AcDbEntity
  8
0
  6
Continuous
 62
     7
370
    25
100
AcDbLine
 10
2838.4604585654
 20
2599.3670875666
 30
0.0
 11
2838.4604585654
 21
2599.4176313116
 31
0.0
  0
LINE
  5
177
330
1F
100
AcDbEntity
  8
0
  6
Continuous
 62
     7
370
    25
100
AcDbLine
 10
2838.4604585654
 20
2599.4176313116
 30
0.0
 11
2840.3913079693
 21
2599.4176313116
 31
0.0
  0
LWPOLYLINE
  5
178
330
1F
100
AcDbEntity
  8
0
  6
Continuous
 62
     7
370
    25
100
AcDbPolyline
 90
        9
 70
   128
 43
0.0
 10
2840.3913079693
 20
2599.4445935684
 10
2840.4147242752
 20
2599.44125516
 10
2840.4314953662
 20
2599.4378894559
 10
2840.4415761084
 20
2599.4345055136
 10
2840.4449393728
 20
2599.43111244
 10
2840.4415761084
 20
2599.4277193664
 10
2840.4314953662
 20
2599.4243354241
 10
2840.4147242752
 20
2599.42096972
 10
2840.3913079693
 20
2599.4176313116
  0
LINE
  5
179
330
1F
100
AcDbEntity
  8
0
  6
Continuous
 62
     7
370
    25
100
AcDbLine
 10
2840.3913079693
 20
2599.4445935684
 30
0.0
 11
2838.4604585654
 21
2599.4445935684
 31
0.0
  0
LINE
  5
17A
330
1F
100
AcDbEntity
  8
0
  6
Continuous
 62
     7
370
    25
100
AcDbLine
 10
2838.4604585654
 20
2599.4445935684
 30
0.0
 11
2838.4604585654
 21
2599.4951373134
 31
0.0
  0
ARC
  5
17B
330
1F
100
AcDbEntity
  8
0
  6
Continuous
 62
     7
370
    25
100
AcDbCircle
 10
2837.9454585653
 20
2505.2072761917
 30
0.0
 40
94.2892675753897
100
AcDbArc
 50
89.6870537451
 51
90.3129462549
  0
LINE
  5
17C
330
1F
100
AcDbEntity
  8
0
  6
Continuous
 62
     7
370
    25
100
AcDbLine
 10
2837.4304585654
 20
2599.4951373134
 30
0.0
 11
2837.4304585654
 21
2599.4445935684
 31
0.0
  0
LINE
  5
17D
330
1F
100
AcDbEntity
  8
0
  6
Continuous
 62
     7
370
    25
100
AcDbLine
 10
2837.4304585654
 20
2599.4445935684
 30
0.0
 11
2835.4996091614
 21
2599.4445935684
 31
0.0
  0
LWPOLYLINE
  5
17E
330
1F
100
AcDbEntity
  8
0
  6
Continuous
 62
     7
370
    25
100
AcDbPolyline
 90
        9
 70
   128
 43
0.0
 10
2835.4996091614
 20
2599.4176313116
 10
2835.4761928556
 20
2599.42096972
 10
2835.4594217646
 20
2599.4243354241
 10
2835.4493410224
 20
2599.4277193664
 10
2835.4459777579
 20
2599.43111244
 10
2835.4493410224
 20
2599.4345055136
 10
2835.4594217646
 20
2599.4378894559
 10
2835.4761928556
 20
2599.44125516
 10
2835.4996091614
 20
2599.4445935684
  0
LINE
  5
17F
330
1F
100
AcDbEntity
  8
0
  6
Continuous
 62
     7
370
    25
100
AcDbLine
 10
2835.5133329309
 20
2599.4176313116
 30
0.0
 11
2835.4996091614
 21
2599.4445935684
 31
0.0
  0
LINE
  5
180
330
1F
100
AcDbEntity
  8
0
  6
Continuous
 62
     7
370
    25
100
AcDbLine
 10
2838.4604585654
 20
2599.4445935684
 30
0.0
 11
2838.4604585654
 21
2599.4176313116
 31
0.0
  0
LINE
  5
181
330
1F
100
AcDbEntity
  8
0
  6
Continuous
 62
     7
370
    25
100
AcDbLine
 10
2837.4304585654
 20
2599.4445935684
 30
0.0
 11
2837.4304585654
 21
2599.4176313116
 31
0.0
  0
ARC
  5
182
330
1F
100
AcDbEntity
  8
0
  6
Continuous
 62
     7
370
    25
100
AcDbCircle
 10
2112.4487994323
 20
2789.2477776281
 30
0.0
 40
190.306436388428
100
AcDbArc
 50
269.6979216021
 51
271.9898299979
  0
ARC
  5
183
330
1F
100
AcDbEntity
  8
0
  6
Continuous
 62
     7
370
    25
100
AcDbCircle
 10
2110.8807674914
 20
2833.5241370813
 30
0.0
 40
234.5808305701147
100
AcDbArc
 50
268.5008299502
 51
270.1379245117
  0
ARC
  5
184
330
1F
100
AcDbEntity
  8
0
  6
Continuous
 62
     7
370
    25
100
AcDbCircle
 10
2114.2883976532
 20
2679.5040519049
 30
0.0
 40
82.58290404783773
100
AcDbArc
 50
268.0271873052
 51
274.971785139
  0
ARC
  5
185
330
1F
100
AcDbEntity
  8
0
  6
Continuous
 62
     7
370
    25
100
AcDbCircle
 10
2108.8258447337
 20
2688.0354228507
 30
0.0
 40
91.10299653523114
100
AcDbArc
 50
265.3532935281
 51
271.6477340277
  0
SPLINE
  5
186
330
1F
100
AcDbEntity
  8
0
  6
Continuous
 62
     7
370
    25
100
AcDbSpline
210
0.0
220
0.0
230
1.0
 70
     8
 71
     3
 72
    19
 73
    15
 74
     0
 42
0.00000001
 43
0.00000001
 40
0.0
 40
0.0
 40
0.0
 40
0.0
 40
0.0906600731282842
 40
0.2050734138974941
 40
0.2719074979494451
 40
0.3443210476358493
 40
0.4209983262120977
 40
0.4999999792228535
 40
0.5790016347260416
 40
0.6556789199259945
 40
0.7280924783130555
 40
0.794926570954179
 40
0.9093399235673065
 40
1.0
 40
1.0
 40
1.0
 40
1.0
 10
2121.245458565367
 20
2597.031934860083
 30
0.0
 10
2121.1686045207
 20
2597.007709314847
 30
0.0
 10
2120.994760393205
 20
2596.952911043748
 30
0.0
 10
2119.674903170729
 20
2596.886527760367
 30
0.0
 10
2117.918984010532
 20
2596.836615149721
 30
0.0
 10
2116.09589040565
 20
2596.803484284442
 30
0.0
 10
2113.914524317427
 20
2596.781051426677
 30
0.0
 10
2111.521572113839
 20
2596.772789316646
 30
0.0
 10
2109.124049624957
 20
2596.780087282529
 30
0.0
 10
2106.929764294543
 20
2596.801639484271
 30
0.0
 10
2105.087425031518
 20
2596.834032633703
 30
0.0
 10
2103.302394606043
 20
2596.883232581902
 30
0.0
 10
2101.943699588441
 20
2596.949076769696
 30
0.0
 10
2101.73768724435
 20
2597.003798592482
 30
0.0
 10
2101.646612086792
 20
2597.027990340088
 30
0.0
  0
LINE
  5
187
330
1F
100
AcDbEntity
  8
0
  6
Continuous
 62
     7
370
    25
100
AcDbLine
 10
2104.475490279
 20
2599.3742254403
 30
0.0
 11
2104.5274519143
 21
2599.3783936567
 31
0.0
  0
LINE
  5
188
330
1F
100
AcDbEntity
  8
0
  6
Continuous
 62
     7
370
    25
100
AcDbLine
 10
2116.1356302781
 20
2599.43111244
 30
0.0
 11
2116.1346783417
 21
2599.4335859309
 31
0.0
  0
LWPOLYLINE
  5
189
330
1F
100
AcDbEntity
  8
0
  6
Continuous
 62
     7
370
    25
100
AcDbPolyline
 90
       23
 70
   128
 43
0.0
 10
2116.1346783417
 20
2599.4335859309
 10
2115.9194017973
 20
2599.4679610176
 10
2115.3439780752
 20
2599.499369837
 10
2114.4547281093
 20
2599.5252840161
 10
2113.3232354781
 20
2599.5436174939
 10
2112.04058401
 20
2599.552894447
 10
2110.7100256422
 20
2599.5523680914
 10
2109.4386687613
 20
2599.5420807983
 10
2108.3288561037
 20
2599.5228606826
 10
2107.4699262854
 20
2599.4962549411
 10
2106.9310221483
 20
2599.4644053047
 10
2106.7555248428
 20
2599.4298756318
 10
2106.9575616959
 20
2599.3954455205
 10
2107.5208689783
 20
2599.3638865544
 10
2108.4001011149
 20
2599.3377391931
 10
2109.5244809511
 20
2599.3191082686
 10
2110.8034972299
 20
2599.3094935484
 10
2112.1341906426
 20
2599.3096690062
 10
2113.4094419316
 20
2599.3196205179
 10
2114.5265948654
 20
2599.3385469983
 10
2115.3957199443
 20
2599.3649248882
 10
2115.9468536198
 20
2599.3966307983
 10
2116.1356302781
 20
2599.43111244
  0
SPLINE
  5
18A
330
1F
100
AcDbEntity
  8
0
  6
Continuous
 62
     7
370
    25
100
AcDbSpline
210
0.0
220
0.0
230
1.0
 70
     8
 71
     3
 72
     9
 73
     5
 74
     0
 42
0.00000001
 43
0.00000001
 40
0.0
 40
0.0
 40
0.0
 40
0.0
 40
0.7246937986493143
 40
1.0
 40
1.0
 40
1.0
 40
1.0
 10
2106.947887259406
 20
2596.535975815351
 30
0.0
 10
2106.943212180517
 20
2596.60934713648
 30
0.0
 10
2106.936761071238
 20
2596.710591719042
 30
0.0
 10
2106.872422639849
 20
2596.785078969124
 30
0.0
 10
2106.854709870703
 20
2596.805585770992
 30
0.0
  0
LINE
  5
18B
330
1F
100
AcDbEntity
  8
0
  6
Continuous
 62
     7
370
    25
100
AcDbLine
 10
2108.9996091614
 20
2599.4176313116
 30
0.0
 11
2110.9304585654
 21
2599.4176313116
 31
0.0
  0
LINE
  5
18C
330
1F
100
AcDbEntity
  8
0
  6
Continuous
 62
     7
370
    25
100
AcDbLine
 10
2110.9304585654
 20
2599.4176313116
 30
0.0
 11
2110.9304585654
 21
2599.3670875666
 31
0.0
  0
ARC
  5
18D
330
1F
100
AcDbEntity
  8
0
  6
Continuous
 62
     7
370
    25
100
AcDbCircle
 10
2111.4454585654
 20
2693.6549486596
 30
0.0
 40
94.28926754671217
100
AcDbArc
 50
269.687053745
 51
270.312946255
  0
LINE
  5
18E
330
1F
100
AcDbEntity
  8
0
  6
Continuous
 62
     7
370
    25
100
AcDbLine
 10
2111.9604585654
 20
2599.3670875666
 30
0.0
 11
2111.9604585654
 21
2599.4176313116
 31
0.0
  0
LINE
  5
18F
330
1F
100
AcDbEntity
  8
0
  6
Continuous
 62
     7
370
    25
100
AcDbLine
 10
2111.9604585654
 20
2599.4176313116
 30
0.0
 11
2113.8913079693
 21
2599.4176313116
 31
0.0
  0
LWPOLYLINE
  5
190
330
1F
100
AcDbEntity
  8
0
  6
Continuous
 62
     7
370
    25
100
AcDbPolyline
 90
        9
 70
   128
 43
0.0
 10
2113.8913079693
 20
2599.4445935684
 10
2113.9147242752
 20
2599.44125516
 10
2113.9314953662
 20
2599.4378894559
 10
2113.9415761084
 20
2599.4345055136
 10
2113.9449393728
 20
2599.43111244
 10
2113.9415761084
 20
2599.4277193664
 10
2113.9314953662
 20
2599.4243354242
 10
2113.9147242752
 20
2599.42096972
 10
2113.8913079693
 20
2599.4176313116
  0
LINE
  5
191
330
1F
100
AcDbEntity
  8
0
  6
Continuous
 62
     7
370
    25
100
AcDbLine
 10
2113.8913079693
 20
2599.4445935684
 30
0.0
 11
2111.9604585654
 21
2599.4445935684
 31
0.0
  0
LINE
  5
192
330
1F
100
AcDbEntity
  8
0
  6
Continuous
 62
     7
370
    25
100
AcDbLine
 10
2111.9604585654
 20
2599.4445935684
 30
0.0
 11
2111.9604585654
 21
2599.4951373134
 31
0.0
  0
ARC
  5
193
330
1F
100
AcDbEntity
  8
0
  6
Continuous
 62
     7
370
    25
100
AcDbCircle
 10
2111.4454585653
 20
2505.2072762019
 30
0.0
 40
94.28926756525625
100
AcDbArc
 50
89.6870537451
 51
90.3129462549
  0
LINE
  5
194
330
1F
100
AcDbEntity
  8
0
  6
Continuous
 62
     7
370
    25
100
AcDbLine
 10
2110.9304585654
 20
2599.4951373134
 30
0.0
 11
2110.9304585654
 21
2599.4445935684
 31
0.0
  0
LINE
  5
195
330
1F
100
AcDbEntity
  8
0
  6
Continuous
 62
     7
370
    25
100
AcDbLine
 10
2110.9304585654
 20
2599.4445935684
 30
0.0
 11
2108.9996091614
 21
2599.4445935684
 31
0.0
  0
LWPOLYLINE
  5
196
330
1F
100
AcDbEntity
  8
0
  6
Continuous
 62
     7
370
    25
100
AcDbPolyline
 90
        9
 70
   128
 43
0.0
 10
2108.9996091614
 20
2599.4176313116
 10
2108.9761928556
 20
2599.42096972
 10
2108.9594217646
 20
2599.4243354242
 10
2108.9493410224
 20
2599.4277193664
 10
2108.9459777579
 20
2599.43111244
 10
2108.9493410224
 20
2599.4345055136
 10
2108.9594217646
 20
2599.4378894559
 10
2108.9761928556
 20
2599.44125516
 10
2108.9996091614
 20
2599.4445935684
  0
LINE
  5
197
330
1F
100
AcDbEntity
  8
0
  6
Continuous
 62
     7
370
    25
100
AcDbLine
 10
2109.0133329309
 20
2599.4176313116
 30
0.0
 11
2108.9996091614
 21
2599.4445935684
 31
0.0
  0
LINE
  5
198
330
1F
100
AcDbEntity
  8
0
  6
Continuous
 62
     7
370
    25
100
AcDbLine
 10
2111.9604585654
 20
2599.4445935684
 30
0.0
 11
2111.9604585654
 21
2599.4176313116
 31
0.0
  0
LINE
  5
199
330
1F
100
AcDbEntity
  8
0
  6
Continuous
 62
     7
370
    25
100
AcDbLine
 10
2110.9304585654
 20
2599.4445935684
 30
0.0
 11
2110.9304585654
 21
2599.4176313116
 31
0.0
  0
ARC
  5
19A
330
1F
100
AcDbEntity
  8
0
  6
Continuous
 62
     7
370
    25
100
AcDbCircle
 10
2837.9448257767
 20
2744.6497996168
 30
0.0
 40
147.0082502472019
100
AcDbArc
 50
266.0997819288
 51
273.9007124515
  0
LWPOLYLINE
  5
19B
330
1F
100
AcDbEntity
  8
0
  6
Continuous
 62
     7
370
    25
100
AcDbPolyline
 90
        6
 70
   128
 43
0.0
 10
2845.556639358
 20
2599.056094891
 10
2846.2957539085
 20
2599.0961260079
 10
2846.7473606486
 20
2599.1417840506
 10
2846.8386164832
 20
2599.1888871583
 10
2846.5657853877
 20
2599.2355069245
 10
2846.4418327899
 20
2599.2468479058
  0
LWPOLYLINE
  5
19C
330
1F
100
AcDbEntity
  8
0
  6
Continuous
 62
     7
370
    25
100
AcDbPolyline
 90
        7
 70
   128
 43
0.0
 10
2829.4490843408
 20
2599.2468479058
 10
2829.325131743
 20
2599.2355069245
 10
2829.0523006476
 20
2599.1888871583
 10
2829.1435564822
 20
2599.1417840506
 10
2829.5951632222
 20
2599.0961260079
 10
2830.3886320348
 20
2599.0537822761
 10
2831.2435540402
 20
2599.0236025787
  0
LWPOLYLINE
  5
19D
330
1F
100
AcDbEntity
  8
0
  6
Continuous
 62
     7
370
    25
100
AcDbPolyline
 90
       19
 70
   128
 43
0.0
 10
2844.9154268517
 20
2599.3742254403
 10
2845.0671548704
 20
2599.3595426267
 10
2845.2503025605
 20
2599.3169925022
 10
2845.0671548704
 20
2599.2744423778
 10
2844.5268955899
 20
2599.2340258942
 10
2843.6566155753
 20
2599.1977697028
 10
2842.4999543005
 20
2599.1674918404
 10
2841.1149115917
 20
2599.1447105655
 10
2839.5709392736
 20
2599.1305682262
 10
2837.9454585654
 20
2599.1257739786
 10
2836.3199778572
 20
2599.1305682262
 10
2834.7760055391
 20
2599.1447105655
 10
2833.3909628302
 20
2599.1674918404
 10
2832.2343015554
 20
2599.1977697028
 10
2831.3640215408
 20
2599.2340258942
 10
2830.8237622603
 20
2599.2744423778
 10
2830.6406145702
 20
2599.3169925022
 10
2830.8237622603
 20
2599.3595426267
 10
2830.975490279
 20
2599.3742254403
  0
SPLINE
  5
19E
330
1F
100
AcDbEntity
  8
0
  6
Continuous
 62
     7
370
    25
100
AcDbSpline
210
0.0
220
0.0
230
1.0
 70
     8
 71
     3
 72
    10
 73
     6
 74
     0
 42
0.00000001
 43
0.00000001
 40
0.0
 40
0.0
 40
0.0
 40
0.0
 40
0.2348528608095022
 40
0.6323277900322296
 40
1.0
 40
1.0
 40
1.0
 40
1.0
 10
2842.639161340484
 20
2596.908496935366
 30
0.0
 10
2842.609898948586
 20
2596.888924055673
 30
0.0
 10
2842.531111645181
 20
2596.836225205343
 30
0.0
 10
2842.460702072935
 20
2596.69563869583
 30
0.0
 10
2842.44876562913
 20
2596.582569255194
 30
0.0
 10
2842.443029871329
 20
2596.528236579831
 30
0.0
  0
ARC
  5
19F
330
1F
100
AcDbEntity
  8
0
  6
Continuous
 62
     7
370
    25
100
AcDbCircle
 10
2837.9727661044
 20
2662.8487882408
 30
0.0
 40
66.47103753340406
100
AcDbArc
 50
266.0945910318
 51
273.8561261673
  0
LINE
  5
1A0
330
1F
100
AcDbEntity
  8
0
  6
Continuous
 62
     7
370
    25
100
AcDbLine
 10
2842.4454585654
 20
2596.5321061976
 30
0.0
 11
2842.4430298712
 21
2596.5282365797
 31
0.0
  0
ARC
  5
1A1
330
1F
100
AcDbEntity
  8
0
  6
Continuous
 62
     7
370
    25
100
AcDbCircle
 10
2111.4448257767
 20
2744.6497996171
 30
0.0
 40
147.008250247534
100
AcDbArc
 50
266.0997819289
 51
273.9007124515
  0
LWPOLYLINE
  5
1A2
330
1F
100
AcDbEntity
  8
0
  6
Continuous
 62
     7
370
    25
100
AcDbPolyline
 90
        6
 70
   128
 43
0.0
 10
2119.056639358
 20
2599.056094891
 10
2119.7957539085
 20
2599.0961260079
 10
2120.2473606486
 20
2599.1417840506
 10
2120.3386164832
 20
2599.1888871583
 10
2120.0657853877
 20
2599.2355069245
 10
2119.9418327899
 20
2599.2468479058
  0
LWPOLYLINE
  5
1A3
330
1F
100
AcDbEntity
  8
0
  6
Continuous
 62
     7
370
    25
100
AcDbPolyline
 90
        7
 70
   128
 43
0.0
 10
2102.9490843408
 20
2599.2468479058
 10
2102.825131743
 20
2599.2355069245
 10
2102.5523006476
 20
2599.1888871583
 10
2102.6435564822
 20
2599.1417840506
 10
2103.0951632222
 20
2599.0961260079
 10
2103.8886320348
 20
2599.0537822761
 10
2104.7435540403
 20
2599.0236025787
  0
LWPOLYLINE
  5
1A4
330
1F
100
AcDbEntity
  8
0
  6
Continuous
 62
     7
370
    25
100
AcDbPolyline
 90
       19
 70
   128
 43
0.0
 10
2118.4154268517
 20
2599.3742254403
 10
2118.5671548704
 20
2599.3595426267
 10
2118.7503025605
 20
2599.3169925022
 10
2118.5671548704
 20
2599.2744423778
 10
2118.0268955899
 20
2599.2340258942
 10
2117.1566155753
 20
2599.1977697028
 10
2115.9999543005
 20
2599.1674918404
 10
2114.6149115917
 20
2599.1447105655
 10
2113.0709392736
 20
2599.1305682262
 10
2111.4454585654
 20
2599.1257739786
 10
2109.8199778572
 20
2599.1305682262
 10
2108.2760055391
 20
2599.1447105655
 10
2106.8909628302
 20
2599.1674918404
 10
2105.7343015554
 20
2599.1977697028
 10
2104.8640215408
 20
2599.2340258942
 10
2104.3237622603
 20
2599.2744423778
 10
2104.1406145702
 20
2599.3169925022
 10
2104.3237622603
 20
2599.3595426267
 10
2104.475490279
 20
2599.3742254403
  0
SPLINE
  5
1A5
330
1F
100
AcDbEntity
  8
0
  6
Continuous
 62
     7
370
    25
100
AcDbSpline
210
0.0
220
0.0
230
1.0
 70
     8
 71
     3
 72
    10
 73
     6
 74
     0
 42
0.00000001
 43
0.00000001
 40
0.0
 40
0.0
 40
0.0
 40
0.0
 40
0.2348528608095761
 40
0.6323277900322564
 40
1.0
 40
1.0
 40
1.0
 40
1.0
 10
2116.139161340486
 20
2596.908496935376
 30
0.0
 10
2116.109898948588
 20
2596.888924055682
 30
0.0
 10
2116.031111645184
 20
2596.836225205352
 30
0.0
 10
2115.960702072936
 20
2596.695638695839
 30
0.0
 10
2115.948765629132
 20
2596.582569255204
 30
0.0
 10
2115.943029871331
 20
2596.528236579841
 30
0.0
  0
ARC
  5
1A6
330
1F
100
AcDbEntity
  8
0
  6
Continuous
 62
     7
370
    25
100
AcDbCircle
 10
2111.4727661044
 20
2662.8487882406
 30
0.0
 40
66.47103753329108
100
AcDbArc
 50
266.0945910318
 51
273.8561261673
  0
LINE
  5
1A7
330
1F
100
AcDbEntity
  8
0
  6
Continuous
 62
     7
370
    25
100
AcDbLine
 10
2115.9454585654
 20
2596.5321061976
 30
0.0
 11
2115.9430298712
 21
2596.5282365797
 31
0.0
  0
ENDSEC
  0
SECTION
  2
OBJECTS
  0
DICTIONARY
  5
C
330
0
100
AcDbDictionary
281
     1
  3
ACAD_GROUP
350
D
  3
ACAD_LAYOUT
350
1A
  3
ACAD_MLINESTYLE
350
17
  3
ACAD_PLOTSETTINGS
350
19
  3
ACAD_PLOTSTYLENAME
350
E
  3
ACAD_SCALELIST
350
47
  3
DWGPROPS
350
1A8
  0
DICTIONARY
  5
D
102
{ACAD_REACTORS
330
C
102
}
330
C
100
AcDbDictionary
281
     1
  0
DICTIONARY
  5
1A
102
{ACAD_REACTORS
330
C
102
}
330
C
100
AcDbDictionary
281
     1
  3
Layout1
350
1E
  3
Layout2
350
26
  3
Model
350
22
  0
DICTIONARY
  5
17
102
{ACAD_REACTORS
330
C
102
}
330
C
100
AcDbDictionary
281
     1
  3
Standard
350
18
  0
DICTIONARY
  5
19
102
{ACAD_REACTORS
330
C
102
}
330
C
100
AcDbDictionary
281
     1
  0
ACDBDICTIONARYWDFLT
  5
E
102
{ACAD_REACTORS
330
C
102
}
330
C
100
AcDbDictionary
281
     1
  3
Normal
350
F
100
AcDbDictionaryWithDefault
340
F
  0
DICTIONARY
  5
47
102
{ACAD_REACTORS
330
C
102
}
330
C
100
AcDbDictionary
281
     1
  3
A0
350
48
  3
A1
350
49
  3
A2
350
4A
  3
A3
350
4B
  3
A4
350
4C
  3
A5
350
4D
  3
A6
350
4E
  3
A7
350
4F
  3
A8
350
50
  3
A9
350
51
  3
B0
350
52
  3
B1
350
53
  3
B2
350
54
  3
B3
350
55
  3
B4
350
56
  3
B5
350
57
  3
B6
350
58
  0
XRECORD
  5
1A8
102
{ACAD_REACTORS
330
C
102
}
330
C
100
AcDbXrecord
280
     1
  1
DWGPROPS COOKIE
  2

  3

  4

  6

  7

  8
b
  9

300
=
301
=
302
=
303
=
304
=
305
=
306
=
307
=
308
=
309
=
 40
0.0
 41
2460384.33182529
 42
2460384.331825556
  1

 90
        0
  0
LAYOUT
  5
1E
102
{ACAD_REACTORS
330
1A
102
}
330
1A
100
AcDbPlotSettings
  1

  2
none_device
  4

  6

 40
0.0
 41
0.0
 42
0.0
 43
0.0
 44
0.0
 45
0.0
 46
0.0
 47
0.0
 48
0.0
 49
0.0
140
0.0
141
0.0
142
1.0
143
1.0
 70
   688
 72
     1
 73
     0
 74
     5
  7

 75
    16
147
1.0
148
0.0
149
0.0
100
AcDbLayout
  1
Layout1
 70
     1
 71
     1
 10
0.0
 20
0.0
 11
420.0
 21
297.0
 12
0.0
 22
0.0
 32
0.0
 14
1.0000000000E+20
 24
1.0000000000E+20
 34
1.0000000000E+20
 15
-1.0000000000E+20
 25
-1.0000000000E+20
 35
-1.0000000000E+20
146
0.0
 13
0.0
 23
0.0
 33
0.0
 16
1.0
 26
0.0
 36
0.0
 17
0.0
 27
1.0
 37
0.0
 76
     0
330
1B
  0
LAYOUT
  5
26
102
{ACAD_REACTORS
330
1A
102
}
330
1A
100
AcDbPlotSettings
  1

  2
none_device
  4

  6

 40
0.0
 41
0.0
 42
0.0
 43
0.0
 44
0.0
 45
0.0
 46
0.0
 47
0.0
 48
0.0
 49
0.0
140
0.0
141
0.0
142
1.0
143
1.0
 70
   688
 72
     1
 73
     0
 74
     5
  7

 75
    16
147
1.0
148
0.0
149
0.0
100
AcDbLayout
  1
Layout2
 70
     1
 71
     2
 10
0.0
 20
0.0
 11
0.0
 21
0.0
 12
0.0
 22
0.0
 32
0.0
 14
0.0
 24
0.0
 34
0.0
 15
0.0
 25
0.0
 35
0.0
146
0.0
 13
0.0
 23
0.0
 33
0.0
 16
1.0
 26
0.0
 36
0.0
 17
0.0
 27
1.0
 37
0.0
 76
     0
330
23
  0
LAYOUT
  5
22
102
{ACAD_REACTORS
330
1A
102
}
330
1A
100
AcDbPlotSettings
  1

  2
none_device
  4
Letter_(8.50_x_11.00_Inches)
  6

 40
6.35
 41
6.35
 42
6.35000508
 43
6.35000508
 44
215.9
 45
279.4
 46
0.0
 47
0.0
 48
0.0
 49
0.0
140
0.0
141
0.0
142
1.0
143
1.0
 70
  1712
 72
     1
 73
     0
 74
     0
  7

 75
     0
147
1.0
148
0.0
149
0.0
100
AcDbLayout
  1
Model
 70
     1
 71
     0
 10
0.0
 20
0.0
 11
5000.0
 21
3500.0
 12
0.0
 22
0.0
 32
0.0
 14
0.0
 24
0.0
 34
0.0
 15
5000.0
 25
3500.0
 35
0.0
146
0.0
 13
0.0
 23
0.0
 33
0.0
 16
1.0
 26
0.0
 36
0.0
 17
0.0
 27
1.0
 37
0.0
 76
     0
330
1F
331
29
  0
MLINESTYLE
  5
18
102
{ACAD_REACTORS
330
17
102
}
330
17
100
AcDbMlineStyle
  2
Standard
 70
     0
  3

 62
   256
 51
90.0
 52
90.0
 71
     2
 49
0.5
 62
   256
  6
BYLAYER
 49
-0.5
 62
   256
  6
BYLAYER
  0
ACDBPLACEHOLDER
  5
F
102
{ACAD_REACTORS
330
E
102
}
330
E
  0
SCALE
  5
48
102
{ACAD_REACTORS
330
47
102
}
330
47
100
AcDbScale
 70
     0
300
1:1
140
1.0
141
1.0
290
     1
  0
SCALE
  5
49
102
{ACAD_REACTORS
330
47
102
}
330
47
100
AcDbScale
 70
     0
300
1:2
140
1.0
141
2.0
290
     0
  0
SCALE
  5
4A
102
{ACAD_REACTORS
330
47
102
}
330
47
100
AcDbScale
 70
     0
300
1:4
140
1.0
141
4.0
290
     0
  0
SCALE
  5
4B
102
{ACAD_REACTORS
330
47
102
}
330
47
100
AcDbScale
 70
     0
300
1:5
140
1.0
141
5.0
290
     0
  0
SCALE
  5
4C
102
{ACAD_REACTORS
330
47
102
}
330
47
100
AcDbScale
 70
     0
300
1:8
140
1.0
141
8.0
290
     0
  0
SCALE
  5
4D
102
{ACAD_REACTORS
330
47
102
}
330
47
100
AcDbScale
 70
     0
300
1:10
140
1.0
141
10.0
290
     0
  0
SCALE
  5
4E
102
{ACAD_REACTORS
330
47
102
}
330
47
100
AcDbScale
 70
     0
300
1:16
140
1.0
141
16.0
290
     0
  0
SCALE
  5
4F
102
{ACAD_REACTORS
330
47
102
}
330
47
100
AcDbScale
 70
     0
300
1:20
140
1.0
141
20.0
290
     0
  0
SCALE
  5
50
102
{ACAD_REACTORS
330
47
102
}
330
47
100
AcDbScale
 70
     0
300
1:30
140
1.0
141
30.0
290
     0
  0
SCALE
  5
51
102
{ACAD_REACTORS
330
47
102
}
330
47
100
AcDbScale
 70
     0
300
1:40
140
1.0
141
40.0
290
     0
  0
SCALE
  5
52
102
{ACAD_REACTORS
330
47
102
}
330
47
100
AcDbScale
 70
     0
300
1:50
140
1.0
141
50.0
290
     0
  0
SCALE
  5
53
102
{ACAD_REACTORS
330
47
102
}
330
47
100
AcDbScale
 70
     0
300
1:100
140
1.0
141
100.0
290
     0
  0
SCALE
  5
54
102
{ACAD_REACTORS
330
47
102
}
330
47
100
AcDbScale
 70
     0
300
2:1
140
2.0
141
1.0
290
     0
  0
SCALE
  5
55
102
{ACAD_REACTORS
330
47
102
}
330
47
100
AcDbScale
 70
     0
300
4:1
140
4.0
141
1.0
290
     0
  0
SCALE
  5
56
102
{ACAD_REACTORS
330
47
102
}
330
47
100
AcDbScale
 70
     0
300
8:1
140
8.0
141
1.0
290
     0
  0
SCALE
  5
57
102
{ACAD_REACTORS
330
47
102
}
330
47
100
AcDbScale
 70
     0
300
10:1
140
10.0
141
1.0
290
     0
  0
SCALE
  5
58
102
{ACAD_REACTORS
330
47
102
}
330
47
100
AcDbScale
 70
     0
300
100:1
140
100.0
141
1.0
290
     0
  0
ENDSEC
  0
EOF
