  0
SECTION
  2
HEADER
  9
$ACADVER
  1
AC1015
  9
$ACADMAINTVER
 70
     6
  9
$DWGCODEPAGE
  3
DOS932
  9
$INSBASE
 10
0.0
 20
0.0
 30
0.0
  9
$EXTMIN
 10
0.0
 20
0.0
 30
0.0
  9
$EXTMAX
 10
5000.0
 20
3500.0
 30
0.0
  9
$LIMMIN
 10
0.0
 20
0.0
  9
$LIMMAX
 10
5000.0
 20
3500.0
  9
$ORTHOMODE
 70
     0
  9
$REGENMODE
 70
     1
  9
$FILLMODE
 70
     1
  9
$QTEXTMODE
 70
     0
  9
$MIRRTEXT
 70
     1
  9
$LTSCALE
 40
1.0
  9
$ATTMODE
 70
     1
  9
$TEXTSIZE
 40
3.5
  9
$TRACEWID
 40
1.0
  9
$TEXTSTYLE
  7
Standard
  9
$CLAYER
  8
0
  9
$CELTYPE
  6
ByLayer
  9
$CECOLOR
 62
   256
  9
$CELTSCALE
 40
1.0
  9
$DISPSILH
 70
     0
  9
$DIMSCALE
 40
1.0
  9
$DIMASZ
 40
3.302
  9
$DIMEXO
 40
1.0
  9
$DIMDLI
 40
3.75
  9
$DIMRND
 40
0.0
  9
$DIMDLE
 40
0.0
  9
$DIMEXE
 40
1.0
  9
$DIMTP
 40
0.0
  9
$DIMTM
 40
0.0
  9
$DIMTXT
 40
3.5
  9
$DIMCEN
 40
2.5
  9
$DIMTSZ
 40
0.0
  9
$DIMTOL
 70
     0
  9
$DIMLIM
 70
     0
  9
$DIMTIH
 70
     1
  9
$DIMTOH
 70
     1
  9
$DIMSE1
 70
     0
  9
$DIMSE2
 70
     0
  9
$DIMTAD
 70
     1
  9
$DIMZIN
 70
     0
  9
$DIMBLK
  1

  9
$DIMASO
 70
     1
  9
$DIMSHO
 70
     1
  9
$DIMPOST
  1

  9
$DIMAPOST
  1

  9
$DIMALT
 70
     0
  9
$DIMALTD
 70
     3
  9
$DIMALTF
 40
0.0393700787
  9
$DIMLFAC
 40
1.0
  9
$DIMTOFL
 70
     1
  9
$DIMTVP
 40
0.0
  9
$DIMTIX
 70
     0
  9
$DIMSOXD
 70
     0
  9
$DIMSAH
 70
     0
  9
$DIMBLK1
  1

  9
$DIMBLK2
  1

  9
$DIMSTYLE
  2
ISO-25
  9
$DIMCLRD
 70
     0
  9
$DIMCLRE
 70
     0
  9
$DIMCLRT
 70
     0
  9
$DIMTFAC
 40
1.0
  9
$DIMGAP
 40
1.524
  9
$DIMJUST
 70
     0
  9
$DIMSD1
 70
     0
  9
$DIMSD2
 70
     0
  9
$DIMTOLJ
 70
     0
  9
$DIMTZIN
 70
     0
  9
$DIMALTZ
 70
     0
  9
$DIMALTTZ
 70
     0
  9
$DIMUPT
 70
     0
  9
$DIMDEC
 70
     2
  9
$DIMTDEC
 70
     2
  9
$DIMALTU
 70
     2
  9
$DIMALTTD
 70
     3
  9
$DIMTXSTY
  7
Standard
  9
$DIMAUNIT
 70
     0
  9
$DIMADEC
 70
     2
  9
$DIMALTRND
 40
0.0
  9
$DIMAZIN
 70
     0
  9
$DIMDSEP
 70
    44
  9
$DIMATFIT
 70
     3
  9
$DIMFRAC
 70
     0
  9
$DIMLDRBLK
  1

  9
$DIMLUNIT
 70
     2
  9
$DIMLWD
 70
    -2
  9
$DIMLWE
 70
    -2
  9
$DIMTMOVE
 70
     0
  9
$LUNITS
 70
     2
  9
$LUPREC
 70
     3
  9
$SKETCHINC
 40
1.0
  9
$FILLETRAD
 40
0.0
  9
$AUNITS
 70
     0
  9
$AUPREC
 70
     2
  9
$MENU
  1
.
  9
$ELEVATION
 40
0.0
  9
$PELEVATION
 40
0.0
  9
$THICKNESS
 40
0.0
  9
$LIMCHECK
 70
     0
  9
$CHAMFERA
 40
0.0
  9
$CHAMFERB
 40
0.0
  9
$CHAMFERC
 40
0.0
  9
$CHAMFERD
 40
0.0
  9
$SKPOLY
 70
     0
  9
$TDCREATE
 40
2460384.712073819
  9
$TDUCREATE
 40
2460384.337073819
  9
$TDUPDATE
 40
2460384.712074202
  9
$TDUUPDATE
 40
2460384.337074202
  9
$TDINDWG
 40
0.0000000116
  9
$TDUSRTIMER
 40
0.0000000116
  9
$USRTIMER
 70
     1
  9
$ANGBASE
 50
0.0
  9
$ANGDIR
 70
     0
  9
$PDMODE
 70
     0
  9
$PDSIZE
 40
-1.0
  9
$PLINEWID
 40
0.0
  9
$SPLFRAME
 70
     0
  9
$SPLINETYPE
 70
     6
  9
$SPLINESEGS
 70
     8
  9
$HANDSEED
  5
25B
  9
$SURFTAB1
 70
     6
  9
$SURFTAB2
 70
     6
  9
$SURFTYPE
 70
     6
  9
$SURFU
 70
     6
  9
$SURFV
 70
     6
  9
$UCSBASE
  2

  9
$UCSNAME
  2

  9
$UCSORG
 10
0.0
 20
0.0
 30
0.0
  9
$UCSXDIR
 10
1.0
 20
0.0
 30
0.0
  9
$UCSYDIR
 10
0.0
 20
1.0
 30
0.0
  9
$UCSORTHOREF
  2

  9
$UCSORTHOVIEW
 70
     0
  9
$UCSORGTOP
 10
0.0
 20
0.0
 30
0.0
  9
$UCSORGBOTTOM
 10
0.0
 20
0.0
 30
0.0
  9
$UCSORGLEFT
 10
0.0
 20
0.0
 30
0.0
  9
$UCSORGRIGHT
 10
0.0
 20
0.0
 30
0.0
  9
$UCSORGFRONT
 10
0.0
 20
0.0
 30
0.0
  9
$UCSORGBACK
 10
0.0
 20
0.0
 30
0.0
  9
$PUCSBASE
  2

  9
$PUCSNAME
  2

  9
$PUCSORG
 10
0.0
 20
0.0
 30
0.0
  9
$PUCSXDIR
 10
1.0
 20
0.0
 30
0.0
  9
$PUCSYDIR
 10
0.0
 20
1.0
 30
0.0
  9
$PUCSORTHOREF
  2

  9
$PUCSORTHOVIEW
 70
     0
  9
$PUCSORGTOP
 10
0.0
 20
0.0
 30
0.0
  9
$PUCSORGBOTTOM
 10
0.0
 20
0.0
 30
0.0
  9
$PUCSORGLEFT
 10
0.0
 20
0.0
 30
0.0
  9
$PUCSORGRIGHT
 10
0.0
 20
0.0
 30
0.0
  9
$PUCSORGFRONT
 10
0.0
 20
0.0
 30
0.0
  9
$PUCSORGBACK
 10
0.0
 20
0.0
 30
0.0
  9
$USERI1
 70
     0
  9
$USERI2
 70
     0
  9
$USERI3
 70
     0
  9
$USERI4
 70
     0
  9
$USERI5
 70
     0
  9
$USERR1
 40
0.0
  9
$USERR2
 40
0.0
  9
$USERR3
 40
0.0
  9
$USERR4
 40
0.0
  9
$USERR5
 40
0.0
  9
$WORLDVIEW
 70
     1
  9
$SHADEDGE
 70
     3
  9
$SHADEDIF
 70
    70
  9
$TILEMODE
 70
     1
  9
$MAXACTVP
 70
    64
  9
$PINSBASE
 10
0.0
 20
0.0
 30
0.0
  9
$PLIMCHECK
 70
     0
  9
$PEXTMIN
 10
1.0000000000E+20
 20
1.0000000000E+20
 30
1.0000000000E+20
  9
$PEXTMAX
 10
-1.0000000000E+20
 20
-1.0000000000E+20
 30
-1.0000000000E+20
  9
$PLIMMIN
 10
0.0
 20
0.0
  9
$PLIMMAX
 10
420.0
 20
297.0
  9
$UNITMODE
 70
     0
  9
$VISRETAIN
 70
     1
  9
$PLINEGEN
 70
     0
  9
$PSLTSCALE
 70
     1
  9
$TREEDEPTH
 70
  3020
  9
$CMLSTYLE
  2
Standard
  9
$CMLJUST
 70
     0
  9
$CMLSCALE
 40
20.0
  9
$PROXYGRAPHICS
 70
     1
  9
$MEASUREMENT
 70
     1
  9
$CELWEIGHT
370
    -1
  9
$ENDCAPS
280
     0
  9
$JOINSTYLE
280
     0
  9
$LWDISPLAY
290
     1
  9
$INSUNITS
 70
     4
  9
$HYPERLINKBASE
  1

  9
$STYLESHEET
  1

  9
$XEDIT
290
     1
  9
$CEPSNTYPE
380
     0
  9
$PSTYLEMODE
290
     1
  9
$FINGERPRINTGUID
  2
{b436906a-3e87-4f7e-91f3-6fcdd7cb6fcb}
  9
$VERSIONGUID
  2
{FAEB1C32-E019-11D5-929B-00C0DF256EC4}
  9
$EXTNAMES
290
     1
  9
$PSVPSCALE
 40
0.0
  9
$OLESTARTUP
290
     0
  0
ENDSEC
  0
SECTION
  2
CLASSES
  0
CLASS
  1
ACDBDICTIONARYWDFLT
  2
AcDbDictionaryWithDefault
  3
ObjectDBX Classes
 90
        0
280
     0
281
     0
  0
CLASS
  1
VISUALSTYLE
  2
AcDbVisualStyle
  3
ObjectDBX Classes
 90
     4095
280
     0
281
     0
  0
CLASS
  1
MATERIAL
  2
AcDbMaterial
  3
ObjectDBX Classes
 90
     1153
280
     0
281
     0
  0
CLASS
  1
SCALE
  2
AcDbScale
  3
ObjectDBX Classes
 90
     1153
280
     0
281
     0
  0
CLASS
  1
TABLESTYLE
  2
AcDbTableStyle
  3
ObjectDBX Classes
 90
     4095
280
     0
281
     0
  0
CLASS
  1
MLEADERSTYLE
  2
AcDbMLeaderStyle
  3
ACDB_MLEADERSTYLE_CLASS
 90
     4095
280
     0
281
     0
  0
CLASS
  1
SUN
  2
AcDbSun
  3
SCENEOE
 90
     1153
280
     0
281
     0
  0
CLASS
  1
ACDBPLACEHOLDER
  2
AcDbPlaceHolder
  3
ObjectDBX Classes
 90
        0
280
     0
281
     0
  0
CLASS
  1
LAYOUT
  2
AcDbLayout
  3
ObjectDBX Classes
 90
        0
280
     0
281
     0
  0
ENDSEC
  0
SECTION
  2
TABLES
  0
TABLE
  2
VPORT
  5
8
330
0
100
AcDbSymbolTable
 70
     1
  0
VPORT
  5
29
330
8
100
AcDbSymbolTableRecord
100
AcDbViewportTableRecord
  2
*Active
 70
     0
 10
0.0
 20
0.0
 11
1.0
 21
1.0
 12
2500.0
 22
1750.0
 13
0.0
 23
0.0
 14
10.0
 24
10.0
 15
10.0
 25
10.0
 16
0.0
 26
0.0
 36
1.0
 17
0.0
 27
0.0
 37
0.0
 40
3500.0
 41
1.4285714286
 42
50.0
 43
0.0
 44
0.0
 50
0.0
 51
0.0
 71
     0
 72
  2000
 73
     1
 74
     3
 75
     0
 76
     0
 77
     0
 78
     0
281
     0
 65
     1
110
0.0
120
0.0
130
0.0
111
1.0
121
0.0
131
0.0
112
0.0
122
1.0
132
0.0
 79
     0
146
0.0
  0
ENDTAB
  0
TABLE
  2
LTYPE
  5
5
330
0
100
AcDbSymbolTable
 70
     6
  0
LTYPE
  5
14
330
5
100
AcDbSymbolTableRecord
100
AcDbLinetypeTableRecord
  2
ByBlock
 70
     0
  3

 72
    65
 73
     0
 40
0.0
  0
LTYPE
  5
15
330
5
100
AcDbSymbolTableRecord
100
AcDbLinetypeTableRecord
  2
ByLayer
 70
     0
  3

 72
    65
 73
     0
 40
0.0
  0
LTYPE
  5
16
330
5
100
AcDbSymbolTableRecord
100
AcDbLinetypeTableRecord
  2
Continuous
 70
     0
  3
Solid line
 72
    65
 73
     0
 40
0.0
  0
LTYPE
  5
5E
330
5
100
AcDbSymbolTableRecord
100
AcDbLinetypeTableRecord
  2
HIDDEN
 70
     0
  3
Hidden __ __ __ __ __ __ __ __ __ __ __ __ __ __
 72
    65
 73
     2
 40
1.905
 49
1.27
 74
     0
 49
-0.635
 74
     0
  0
LTYPE
  5
5F
330
5
100
AcDbSymbolTableRecord
100
AcDbLinetypeTableRecord
  2
PHANTOM
 70
     0
  3
Phantom ______  __  __  ______  __  __  ______
 72
    65
 73
     6
 40
12.7
 49
6.35
 74
     0
 49
-1.27
 74
     0
 49
1.27
 74
     0
 49
-1.27
 74
     0
 49
1.27
 74
     0
 49
-1.27
 74
     0
  0
LTYPE
  5
60
330
5
100
AcDbSymbolTableRecord
100
AcDbLinetypeTableRecord
  2
CENTER
 70
     0
  3
Center ____ _ ____ _ ____ _ ____ _ ____ _ ____
 72
    65
 73
     4
 40
10.16
 49
6.35
 74
     0
 49
-1.27
 74
     0
 49
1.27
 74
     0
 49
-1.27
 74
     0
  0
LTYPE
  5
61
330
5
100
AcDbSymbolTableRecord
100
AcDbLinetypeTableRecord
  2
CENTERX2
 70
     0
  3
Center (2x) ________  __  ________  __  _____
 72
    65
 73
     4
 40
20.32
 49
12.7
 74
     0
 49
-2.54
 74
     0
 49
2.54
 74
     0
 49
-2.54
 74
     0
  0
LTYPE
  5
62
330
5
100
AcDbSymbolTableRecord
100
AcDbLinetypeTableRecord
  2
DOT2
 70
     0
  3
Dot (.5x) ........................................
 72
    65
 73
     2
 40
0.635
 49
0.0
 74
     0
 49
-0.635
 74
     0
  0
ENDTAB
  0
TABLE
  2
LAYER
  5
2
330
0
100
AcDbSymbolTable
 70
     3
  0
LAYER
  5
10
330
2
100
AcDbSymbolTableRecord
100
AcDbLayerTableRecord
  2
0
 70
     0
 62
     7
  6
Continuous
370
    -3
390
F
  0
LAYER
  5
63
330
2
100
AcDbSymbolTableRecord
100
AcDbLayerTableRecord
  2
SLD-0
 70
     0
 62
   179
  6
Continuous
370
    -3
390
F
  0
LAYER
  5
64
330
2
100
AcDbSymbolTableRecord
100
AcDbLayerTableRecord
  2
寸法
 70
     0
 62
   179
  6
Continuous
370
    -3
390
F
  0
ENDTAB
  0
TABLE
  2
STYLE
  5
3
330
0
100
AcDbSymbolTable
 70
     2
  0
STYLE
  5
11
330
3
100
AcDbSymbolTableRecord
100
AcDbTextStyleTableRecord
  2
Standard
 70
     0
 40
0.0
 41
1.0
 50
0.0
 71
     0
 42
3.5
  3
txt
  4
bigfont
  0
STYLE
  5
66
330
3
100
AcDbSymbolTableRecord
100
AcDbTextStyleTableRecord
  2
SLDTEXTSTYLE0
 70
     0
 40
0.0
 41
0.75
 50
0.0
 71
     0
 42
3.5
  3
TXT
  4
bigfont
  0
ENDTAB
  0
TABLE
  2
VIEW
  5
6
330
0
100
AcDbSymbolTable
 70
     0
  0
ENDTAB
  0
TABLE
  2
UCS
  5
7
330
0
100
AcDbSymbolTable
 70
     0
  0
ENDTAB
  0
TABLE
  2
APPID
  5
9
330
0
100
AcDbSymbolTable
 70
     1
  0
APPID
  5
12
330
9
100
AcDbSymbolTableRecord
100
AcDbRegAppTableRecord
  2
ACAD
 70
     0
  0
ENDTAB
  0
TABLE
  2
DIMSTYLE
  5
A
330
0
100
AcDbSymbolTable
 70
     1
100
AcDbDimStyleTable
  0
DIMSTYLE
105
27
330
A
100
AcDbSymbolTableRecord
100
AcDbDimStyleTableRecord
  2
ISO-25
 70
     0
 41
2.5
 42
0.625
 43
3.75
 44
1.25
 73
     0
 74
     0
 77
     1
 78
     8
140
2.5
141
2.5
143
0.0393700787
147
0.625
171
     3
172
     1
178
     0
271
     2
272
     2
274
     3
278
    44
283
     0
284
     8
340
11
  0
ENDTAB
  0
TABLE
  2
BLOCK_RECORD
  5
1
330
0
100
AcDbSymbolTable
 70
     1
  0
BLOCK_RECORD
  5
1F
330
1
100
AcDbSymbolTableRecord
100
AcDbBlockTableRecord
  2
*Model_Space
340
22
  0
BLOCK_RECORD
  5
1B
330
1
100
AcDbSymbolTableRecord
100
AcDbBlockTableRecord
  2
*Paper_Space
340
1E
  0
BLOCK_RECORD
  5
23
330
1
100
AcDbSymbolTableRecord
100
AcDbBlockTableRecord
  2
*Paper_Space0
340
26
  0
ENDTAB
  0
ENDSEC
  0
SECTION
  2
BLOCKS
  0
BLOCK
  5
20
330
1F
100
AcDbEntity
  8
0
100
AcDbBlockBegin
  2
*Model_Space
 70
     0
 10
0.0
 20
0.0
 30
0.0
  3
*Model_Space
  1

  0
ENDBLK
  5
21
330
1F
100
AcDbEntity
  8
0
100
AcDbBlockEnd
  0
BLOCK
  5
1C
330
1B
100
AcDbEntity
 67
     1
  8
0
100
AcDbBlockBegin
  2
*Paper_Space
 70
     0
 10
0.0
 20
0.0
 30
0.0
  3
*Paper_Space
  1

  0
ENDBLK
  5
1D
330
1B
100
AcDbEntity
 67
     1
  8
0
100
AcDbBlockEnd
  0
BLOCK
  5
24
330
23
100
AcDbEntity
  8
0
100
AcDbBlockBegin
  2
*Paper_Space0
 70
     0
 10
0.0
 20
0.0
 30
0.0
  3
*Paper_Space0
  1

  0
ENDBLK
  5
25
330
23
100
AcDbEntity
  8
0
100
AcDbBlockEnd
  0
ENDSEC
  0
SECTION
  2
ENTITIES
  0
LINE
  5
65
330
1F
100
AcDbEntity
  8
0
  6
Continuous
 62
     7
370
    18
100
AcDbLine
 10
4801.663086451
 20
279.1403827252
 30
0.0
 11
3345.9062220501
 21
279.1403827252
 31
0.0
  0
MTEXT
  5
67
330
1F
100
AcDbEntity
  8
0
  6
Continuous
 62
     7
370
     0
100
AcDbMText
 10
1352.8324799637
 20
1705.1460221879
 30
0.0
 40
52.9166666667
 41
0.0
 71
     1
 72
     1
  1
＜正面＞
  7
SLDTEXTSTYLE0
 73
     1
 44
1.0
  0
MTEXT
  5
68
330
1F
100
AcDbEntity
  8
0
  6
Continuous
 62
     7
370
     0
100
AcDbMText
 10
3377.8142431891
 20
379.4057208634
 30
0.0
 40
52.9166666667
 41
0.0
 71
     1
 72
     1
  1
品名：
  7
SLDTEXTSTYLE0
 73
     1
 44
1.0
  0
MTEXT
  5
69
330
1F
100
AcDbEntity
  8
0
  6
Continuous
 62
     7
370
     0
100
AcDbMText
 10
4446.6634374817
 20
385.2343854145
 30
0.0
 40
52.9166666667
 41
0.0
 71
     1
 72
     1
  1
Pamouna
  7
SLDTEXTSTYLE0
 73
     1
 44
1.0
  0
MTEXT
  5
6A
330
1F
100
AcDbEntity
  8
寸法
 62
     7
100
AcDbMText
 10
4688.0073048854
 20
218.6255182943
 30
0.0
 40
52.9166666667
 41
0.0
 71
     1
 72
     1
  1
1/1
  7
SLDTEXTSTYLE0
 73
     1
 44
1.0
  0
MTEXT
  5
6B
330
1F
100
AcDbEntity
  8
寸法
 62
     7
100
AcDbMText
 10
3611.2831293492
 20
398.3924235142
 30
0.0
 40
66.1458333333
 41
0.0
 71
     1
 72
     1
  1
MAGN240C
  7
SLDTEXTSTYLE0
 73
     1
 44
1.0
  0
MTEXT
  5
6C
330
1F
100
AcDbEntity
  8
寸法
 62
     7
100
AcDbMText
 10
4198.7969392118
 20
218.6255210883
 30
0.0
 40
52.9166666667
 41
0.0
 71
     1
 72
     1
  1
2024/03/14
  7
SLDTEXTSTYLE0
 73
     1
 44
1.0
  0
MTEXT
  5
6D
330
1F
100
AcDbEntity
  8
寸法
 62
     7
100
AcDbMText
 10
3982.4665930518
 20
1700.6575766403
 30
0.0
 40
52.9166666667
 41
0.0
 71
     1
 72
     1
  1
＜右側面＞
  7
SLDTEXTSTYLE0
 73
     1
 44
1.0
  0
MTEXT
  5
6E
330
1F
100
AcDbEntity
  8
0
  6
Continuous
 62
     7
370
     0
100
AcDbMText
 10
1352.8017261557
 20
2765.5678091759
 30
0.0
 40
52.9166666667
 41
0.0
 71
     1
 72
     1
  1
＜上面＞
  7
SLDTEXTSTYLE0
 73
     1
 44
1.0
  0
MTEXT
  5
6F
330
1F
100
AcDbEntity
  8
0
  6
Continuous
 62
     7
370
     0
100
AcDbMText
 10
539.5723251208
 20
1700.5928474105
 30
0.0
 40
52.9166666667
 41
0.0
 71
     1
 72
     1
  1
＜左側面＞
  7
SLDTEXTSTYLE0
 73
     1
 44
1.0
  0
LINE
  5
70
330
1F
100
AcDbEntity
  8
0
  6
Continuous
 62
     7
370
    25
100
AcDbLine
 10
2350.4454585654
 20
1512.0043978663
 30
0.0
 11
2350.4454585654
 21
1512.2543978663
 31
0.0
  0
LINE
  5
71
330
1F
100
AcDbEntity
  8
0
  6
Continuous
 62
     7
370
    25
100
AcDbLine
 10
2342.4454585654
 20
1512.2543978663
 30
0.0
 11
2342.4454585654
 21
1512.0043978663
 31
0.0
  0
LINE
  5
72
330
1F
100
AcDbEntity
  8
0
  6
Continuous
 62
     7
370
    25
100
AcDbLine
 10
2414.4454585654
 20
1512.0043978663
 30
0.0
 11
2414.4454585654
 21
1512.2543978663
 31
0.0
  0
LINE
  5
73
330
1F
100
AcDbEntity
  8
0
  6
Continuous
 62
     7
370
    25
100
AcDbLine
 10
2406.4454585654
 20
1512.2543978663
 30
0.0
 11
2406.4454585654
 21
1512.0043978663
 31
0.0
  0
LINE
  5
74
330
1F
100
AcDbEntity
  8
0
  6
Continuous
 62
     7
370
    25
100
AcDbLine
 10
2542.4454585654
 20
1512.0043978663
 30
0.0
 11
2542.4454585654
 21
1512.2543978663
 31
0.0
  0
LINE
  5
75
330
1F
100
AcDbEntity
  8
0
  6
Continuous
 62
     7
370
    25
100
AcDbLine
 10
2534.4454585654
 20
1512.2543978663
 30
0.0
 11
2534.4454585654
 21
1512.0043978663
 31
0.0
  0
LINE
  5
76
330
1F
100
AcDbEntity
  8
0
  6
Continuous
 62
     7
370
    25
100
AcDbLine
 10
2606.4454585654
 20
1512.0043978663
 30
0.0
 11
2606.4454585654
 21
1512.2543978663
 31
0.0
  0
LINE
  5
77
330
1F
100
AcDbEntity
  8
0
  6
Continuous
 62
     7
370
    25
100
AcDbLine
 10
2598.4454585654
 20
1512.2543978663
 30
0.0
 11
2598.4454585654
 21
1512.0043978663
 31
0.0
  0
LINE
  5
78
330
1F
100
AcDbEntity
  8
0
  6
Continuous
 62
     7
370
    25
100
AcDbLine
 10
2478.4454585654
 20
1512.0043978663
 30
0.0
 11
2478.4454585654
 21
1512.2543978663
 31
0.0
  0
LINE
  5
79
330
1F
100
AcDbEntity
  8
0
  6
Continuous
 62
     7
370
    25
100
AcDbLine
 10
2470.4454585654
 20
1512.2543978663
 30
0.0
 11
2470.4454585654
 21
1512.0043978663
 31
0.0
  0
LINE
  5
7A
330
1F
100
AcDbEntity
  8
0
  6
Continuous
 62
     7
370
    25
100
AcDbLine
 10
2989.9454585654
 20
1512.0043978663
 30
0.0
 11
2989.9454585654
 21
1512.2543978663
 31
0.0
  0
LINE
  5
7B
330
1F
100
AcDbEntity
  8
0
  6
Continuous
 62
     7
370
    25
100
AcDbLine
 10
2981.9454585654
 20
1512.2543978663
 30
0.0
 11
2981.9454585654
 21
1512.0043978663
 31
0.0
  0
LINE
  5
7C
330
1F
100
AcDbEntity
  8
0
  6
Continuous
 62
     7
370
    25
100
AcDbLine
 10
3373.9454585654
 20
1512.0043978663
 30
0.0
 11
3373.9454585654
 21
1512.2543978663
 31
0.0
  0
LINE
  5
7D
330
1F
100
AcDbEntity
  8
0
  6
Continuous
 62
     7
370
    25
100
AcDbLine
 10
3365.9454585654
 20
1512.2543978663
 30
0.0
 11
3365.9454585654
 21
1512.0043978663
 31
0.0
  0
LINE
  5
7E
330
1F
100
AcDbEntity
  8
0
  6
Continuous
 62
     7
370
    25
100
AcDbLine
 10
3565.9454585654
 20
1512.0043978663
 30
0.0
 11
3565.9454585654
 21
1512.2543978663
 31
0.0
  0
LINE
  5
7F
330
1F
100
AcDbEntity
  8
0
  6
Continuous
 62
     7
370
    25
100
AcDbLine
 10
3557.9454585654
 20
1512.2543978663
 30
0.0
 11
3557.9454585654
 21
1512.0043978663
 31
0.0
  0
LINE
  5
80
330
1F
100
AcDbEntity
  8
0
  6
Continuous
 62
     7
370
    25
100
AcDbLine
 10
3181.9454585654
 20
1512.0043978663
 30
0.0
 11
3181.9454585654
 21
1512.2543978663
 31
0.0
  0
LINE
  5
81
330
1F
100
AcDbEntity
  8
0
  6
Continuous
 62
     7
370
    25
100
AcDbLine
 10
3173.9454585654
 20
1512.2543978663
 30
0.0
 11
3173.9454585654
 21
1512.0043978663
 31
0.0
  0
LINE
  5
82
330
1F
100
AcDbEntity
  8
0
  6
Continuous
 62
     7
370
    25
100
AcDbLine
 10
1390.9454585654
 20
1512.0043978663
 30
0.0
 11
1390.9454585654
 21
1512.2543978663
 31
0.0
  0
LINE
  5
83
330
1F
100
AcDbEntity
  8
0
  6
Continuous
 62
     7
370
    25
100
AcDbLine
 10
1382.9454585654
 20
1512.2543978663
 30
0.0
 11
1382.9454585654
 21
1512.0043978663
 31
0.0
  0
LINE
  5
84
330
1F
100
AcDbEntity
  8
0
  6
Continuous
 62
     7
370
    25
100
AcDbLine
 10
1774.9454585654
 20
1512.0043978663
 30
0.0
 11
1774.9454585654
 21
1512.2543978663
 31
0.0
  0
LINE
  5
85
330
1F
100
AcDbEntity
  8
0
  6
Continuous
 62
     7
370
    25
100
AcDbLine
 10
1766.9454585654
 20
1512.2543978663
 30
0.0
 11
1766.9454585654
 21
1512.0043978663
 31
0.0
  0
LINE
  5
86
330
1F
100
AcDbEntity
  8
0
  6
Continuous
 62
     7
370
    25
100
AcDbLine
 10
1966.9454585654
 20
1512.0043978663
 30
0.0
 11
1966.9454585654
 21
1512.2543978663
 31
0.0
  0
LINE
  5
87
330
1F
100
AcDbEntity
  8
0
  6
Continuous
 62
     7
370
    25
100
AcDbLine
 10
1958.9454585654
 20
1512.2543978663
 30
0.0
 11
1958.9454585654
 21
1512.0043978663
 31
0.0
  0
LINE
  5
88
330
1F
100
AcDbEntity
  8
0
  6
Continuous
 62
     7
370
    25
100
AcDbLine
 10
1582.9454585654
 20
1512.0043978663
 30
0.0
 11
1582.9454585654
 21
1512.2543978663
 31
0.0
  0
LINE
  5
89
330
1F
100
AcDbEntity
  8
0
  6
Continuous
 62
     7
370
    25
100
AcDbLine
 10
1574.9454585654
 20
1512.2543978663
 30
0.0
 11
1574.9454585654
 21
1512.0043978663
 31
0.0
  0
ARC
  5
8A
330
1F
100
AcDbEntity
  8
0
  6
Continuous
 62
     7
370
    25
100
AcDbCircle
 10
2876.1454585654
 20
1366.4543978663
 30
0.0
 40
0.2000000000000455
100
AcDbArc
 50
180.0
 51
270.0
  0
LINE
  5
8B
330
1F
100
AcDbEntity
  8
0
  6
Continuous
 62
     7
370
    25
100
AcDbLine
 10
2876.1454585654
 20
1366.2543978663
 30
0.0
 11
2877.9454585654
 21
1366.2543978663
 31
0.0
  0
ARC
  5
8C
330
1F
100
AcDbEntity
  8
0
  6
Continuous
 62
     7
370
    25
100
AcDbCircle
 10
1281.1454585654
 20
1366.4543978663
 30
0.0
 40
0.2000000000000455
100
AcDbArc
 50
180.0
 51
270.0
  0
LINE
  5
8D
330
1F
100
AcDbEntity
  8
0
  6
Continuous
 62
     7
370
    25
100
AcDbLine
 10
1281.1454585654
 20
1366.2543978663
 30
0.0
 11
1282.9454585654
 21
1366.2543978663
 31
0.0
  0
LINE
  5
8E
330
1F
100
AcDbEntity
  8
0
  6
Continuous
 62
     7
370
    25
100
AcDbLine
 10
2078.6454585654
 20
1366.2543978663
 30
0.0
 11
2080.4454585654
 21
1366.2543978663
 31
0.0
  0
ARC
  5
8F
330
1F
100
AcDbEntity
  8
0
  6
Continuous
 62
     7
370
    25
100
AcDbCircle
 10
2078.6454585654
 20
1366.4543978663
 30
0.0
 40
0.2000000000002728
100
AcDbArc
 50
180.0
 51
270.0
  0
LINE
  5
90
330
1F
100
AcDbEntity
  8
0
  6
Continuous
 62
     7
370
    25
100
AcDbLine
 10
1282.9454585654
 20
1366.2543978663
 30
0.0
 11
2070.9454585654
 21
1366.2543978663
 31
0.0
  0
LINE
  5
91
330
1F
100
AcDbEntity
  8
0
  6
Continuous
 62
     7
370
    25
100
AcDbLine
 10
2877.9454585654
 20
1366.2543978663
 30
0.0
 11
3665.9454585654
 21
1366.2543978663
 31
0.0
  0
LINE
  5
92
330
1F
100
AcDbEntity
  8
0
  6
Continuous
 62
     7
370
    25
100
AcDbLine
 10
2080.4454585654
 20
1366.2543978663
 30
0.0
 11
2868.4454585654
 21
1366.2543978663
 31
0.0
  0
LINE
  5
93
330
1F
100
AcDbEntity
  8
0
  6
Continuous
 62
     7
370
    25
100
AcDbLine
 10
3665.9454585654
 20
1366.2543978663
 30
0.0
 11
3667.7454585654
 21
1366.2543978663
 31
0.0
  0
ARC
  5
94
330
1F
100
AcDbEntity
  8
0
  6
Continuous
 62
     7
370
    25
100
AcDbCircle
 10
3667.7454585654
 20
1366.4543978663
 30
0.0
 40
0.2000000000002728
100
AcDbArc
 50
270.0
 51
0.0
  0
ARC
  5
95
330
1F
100
AcDbEntity
  8
0
  6
Continuous
 62
     7
370
    25
100
AcDbCircle
 10
2072.7454585654
 20
1366.4543978663
 30
0.0
 40
0.2000000000000455
100
AcDbArc
 50
270.0
 51
0.0
  0
LINE
  5
96
330
1F
100
AcDbEntity
  8
0
  6
Continuous
 62
     7
370
    25
100
AcDbLine
 10
2070.9454585654
 20
1366.2543978663
 30
0.0
 11
2072.7454585654
 21
1366.2543978663
 31
0.0
  0
ARC
  5
97
330
1F
100
AcDbEntity
  8
0
  6
Continuous
 62
     7
370
    25
100
AcDbCircle
 10
2870.2454585654
 20
1366.4543978663
 30
0.0
 40
0.2000000000000455
100
AcDbArc
 50
270.0
 51
0.0
  0
LINE
  5
98
330
1F
100
AcDbEntity
  8
0
  6
Continuous
 62
     7
370
    25
100
AcDbLine
 10
2868.4454585654
 20
1366.2543978663
 30
0.0
 11
2870.2454585654
 21
1366.2543978663
 31
0.0
  0
LINE
  5
99
330
1F
100
AcDbEntity
  8
0
  6
Continuous
 62
     7
370
    25
100
AcDbLine
 10
2870.4454585654
 20
1507.7543978663
 30
0.0
 11
2078.4454585654
 21
1507.7543978663
 31
0.0
  0
LINE
  5
9A
330
1F
100
AcDbEntity
  8
0
  6
Continuous
 62
     7
370
    25
100
AcDbLine
 10
2870.4454585654
 20
1366.7543978663
 30
0.0
 11
2870.4454585654
 21
1507.7543978663
 31
0.0
  0
LINE
  5
9B
330
1F
100
AcDbEntity
  8
0
  6
Continuous
 62
     7
370
    25
100
AcDbLine
 10
2078.4454585654
 20
1366.7543978663
 30
0.0
 11
2870.4454585654
 21
1366.7543978663
 31
0.0
  0
LINE
  5
9C
330
1F
100
AcDbEntity
  8
0
  6
Continuous
 62
     7
370
    25
100
AcDbLine
 10
2078.4454585654
 20
1507.7543978663
 30
0.0
 11
2078.4454585654
 21
1366.7543978663
 31
0.0
  0
LINE
  5
9D
330
1F
100
AcDbEntity
  8
0
  6
Continuous
 62
     7
370
    25
100
AcDbLine
 10
3667.9454585654
 20
1507.7543978663
 30
0.0
 11
2875.9454585654
 21
1507.7543978663
 31
0.0
  0
LINE
  5
9E
330
1F
100
AcDbEntity
  8
0
  6
Continuous
 62
     7
370
    25
100
AcDbLine
 10
3667.9454585654
 20
1366.7543978663
 30
0.0
 11
3667.9454585654
 21
1507.7543978663
 31
0.0
  0
LINE
  5
9F
330
1F
100
AcDbEntity
  8
0
  6
Continuous
 62
     7
370
    25
100
AcDbLine
 10
2875.9454585654
 20
1366.7543978663
 30
0.0
 11
3667.9454585654
 21
1366.7543978663
 31
0.0
  0
LINE
  5
A0
330
1F
100
AcDbEntity
  8
0
  6
Continuous
 62
     7
370
    25
100
AcDbLine
 10
2875.9454585654
 20
1507.7543978663
 30
0.0
 11
2875.9454585654
 21
1366.7543978663
 31
0.0
  0
LINE
  5
A1
330
1F
100
AcDbEntity
  8
0
  6
Continuous
 62
     7
370
    25
100
AcDbLine
 10
1280.9454585654
 20
1507.7543978663
 30
0.0
 11
1280.9454585654
 21
1366.7543978663
 31
0.0
  0
LINE
  5
A2
330
1F
100
AcDbEntity
  8
0
  6
Continuous
 62
     7
370
    25
100
AcDbLine
 10
2072.9454585654
 20
1507.7543978663
 30
0.0
 11
1280.9454585654
 21
1507.7543978663
 31
0.0
  0
LINE
  5
A3
330
1F
100
AcDbEntity
  8
0
  6
Continuous
 62
     7
370
    25
100
AcDbLine
 10
2072.9454585654
 20
1366.7543978663
 30
0.0
 11
2072.9454585654
 21
1507.7543978663
 31
0.0
  0
LINE
  5
A4
330
1F
100
AcDbEntity
  8
0
  6
Continuous
 62
     7
370
    25
100
AcDbLine
 10
1280.9454585654
 20
1366.7543978663
 30
0.0
 11
2072.9454585654
 21
1366.7543978663
 31
0.0
  0
LINE
  5
A5
330
1F
100
AcDbEntity
  8
0
  6
Continuous
 62
     7
370
    25
100
AcDbLine
 10
3655.9454585654
 20
1357.7543978663
 30
0.0
 11
1292.9454585654
 21
1357.7543978663
 31
0.0
  0
LINE
  5
A6
330
1F
100
AcDbEntity
  8
0
  6
Continuous
 62
     7
370
    25
100
AcDbLine
 10
3674.4454585654
 20
1512.2543978663
 30
0.0
 11
1274.4454585654
 21
1512.2543978663
 31
0.0
  0
LINE
  5
A7
330
1F
100
AcDbEntity
  8
0
  6
Continuous
 62
     7
370
    25
100
AcDbLine
 10
1274.4454585654
 20
1512.2543978663
 30
0.0
 11
1274.4454585654
 21
1515.2543978663
 31
0.0
  0
LINE
  5
A8
330
1F
100
AcDbEntity
  8
0
  6
Continuous
 62
     7
370
    25
100
AcDbLine
 10
1274.4454585654
 20
1515.2543978663
 30
0.0
 11
3674.4454585654
 21
1515.2543978663
 31
0.0
  0
LINE
  5
A9
330
1F
100
AcDbEntity
  8
0
  6
Continuous
 62
     7
370
    25
100
AcDbLine
 10
3674.4454585654
 20
1515.2543978663
 30
0.0
 11
3674.4454585654
 21
1512.2543978663
 31
0.0
  0
LINE
  5
AA
330
1F
100
AcDbEntity
  8
0
  6
Continuous
 62
     7
370
    25
100
AcDbLine
 10
3674.4454585654
 20
1533.7543978663
 30
0.0
 11
1274.4454585654
 21
1533.7543978663
 31
0.0
  0
LINE
  5
AB
330
1F
100
AcDbEntity
  8
0
  6
Continuous
 62
     7
370
    25
100
AcDbLine
 10
1274.4454585654
 20
1533.7543978663
 30
0.0
 11
1274.4454585654
 21
1536.7543978663
 31
0.0
  0
LINE
  5
AC
330
1F
100
AcDbEntity
  8
0
  6
Continuous
 62
     7
370
    25
100
AcDbLine
 10
1274.4454585654
 20
1536.7543978663
 30
0.0
 11
3674.4454585654
 21
1536.7543978663
 31
0.0
  0
LINE
  5
AD
330
1F
100
AcDbEntity
  8
0
  6
Continuous
 62
     7
370
    25
100
AcDbLine
 10
3674.4454585654
 20
1536.7543978663
 30
0.0
 11
3674.4454585654
 21
1533.7543978663
 31
0.0
  0
LINE
  5
AE
330
1F
100
AcDbEntity
  8
0
  6
Continuous
 62
     7
370
    25
100
AcDbLine
 10
3674.4454585654
 20
1533.7543978663
 30
0.0
 11
3674.4454585654
 21
1515.2543978663
 31
0.0
  0
LINE
  5
AF
330
1F
100
AcDbEntity
  8
0
  6
Continuous
 62
     7
370
    25
100
AcDbLine
 10
1274.4454585654
 20
1533.7543978663
 30
0.0
 11
1274.4454585654
 21
1515.2543978663
 31
0.0
  0
LINE
  5
B0
330
1F
100
AcDbEntity
  8
0
  6
Continuous
 62
     7
370
    25
100
AcDbLine
 10
2655.9454585654
 20
1512.0043978663
 30
0.0
 11
2292.9454585654
 21
1512.0043978663
 31
0.0
  0
LINE
  5
B1
330
1F
100
AcDbEntity
  8
0
  6
Continuous
 62
     7
370
    25
100
AcDbLine
 10
2655.9454585654
 20
1511.7543978663
 30
0.0
 11
2655.9454585654
 21
1512.0043978663
 31
0.0
  0
LINE
  5
B2
330
1F
100
AcDbEntity
  8
0
  6
Continuous
 62
     7
370
    25
100
AcDbLine
 10
2292.9454585654
 20
1512.0043978663
 30
0.0
 11
2292.9454585654
 21
1511.7543978663
 31
0.0
  0
LINE
  5
B3
330
1F
100
AcDbEntity
  8
0
  6
Continuous
 62
     7
370
    25
100
AcDbLine
 10
3655.9454585654
 20
1512.0043978663
 30
0.0
 11
2891.9454585654
 21
1512.0043978663
 31
0.0
  0
LINE
  5
B4
330
1F
100
AcDbEntity
  8
0
  6
Continuous
 62
     7
370
    25
100
AcDbLine
 10
2891.9454585654
 20
1512.0043978663
 30
0.0
 11
2891.9454585654
 21
1511.7543978663
 31
0.0
  0
LINE
  5
B5
330
1F
100
AcDbEntity
  8
0
  6
Continuous
 62
     7
370
    25
100
AcDbLine
 10
2056.9454585654
 20
1512.0043978663
 30
0.0
 11
1292.9454585654
 21
1512.0043978663
 31
0.0
  0
LINE
  5
B6
330
1F
100
AcDbEntity
  8
0
  6
Continuous
 62
     7
370
    25
100
AcDbLine
 10
2056.9454585654
 20
1511.7543978663
 30
0.0
 11
2056.9454585654
 21
1512.0043978663
 31
0.0
  0
LINE
  5
B7
330
1F
100
AcDbEntity
  8
0
  6
Continuous
 62
     7
370
    25
100
AcDbLine
 10
2875.9454585654
 20
1483.2543978663
 30
0.0
 11
2870.4454585654
 21
1483.2543978663
 31
0.0
  0
LINE
  5
B8
330
1F
100
AcDbEntity
  8
0
  6
Continuous
 62
     7
370
    25
100
AcDbLine
 10
2870.4454585654
 20
1386.2543978663
 30
0.0
 11
2875.9454585654
 21
1386.2543978663
 31
0.0
  0
LINE
  5
B9
330
1F
100
AcDbEntity
  8
0
  6
Continuous
 62
     7
370
    25
100
AcDbLine
 10
2875.9454585654
 20
1366.4655465881
 30
0.0
 11
2875.9454585654
 21
1366.5543978663
 31
0.0
  0
SPLINE
  5
BA
330
1F
100
AcDbEntity
  8
0
  6
Continuous
 62
     7
370
    25
100
AcDbSpline
210
0.0
220
0.0
230
1.0
 70
     8
 71
     3
 72
    13
 73
     9
 74
     0
 42
0.00000001
 43
0.00000001
 40
0.0
 40
0.0
 40
0.0
 40
0.0
 40
0.0075029974113223
 40
0.3818974549667488
 40
0.6070018873273942
 40
0.7653769096346732
 40
0.8824605049809799
 40
0.9999999999999999
 40
0.9999999999999999
 40
0.9999999999999999
 40
0.9999999999999999
 10
2875.945458565371
 20
1366.554397866314
 30
0.0
 10
2875.945459520976
 20
1366.55483586421
 30
0.0
 10
2875.945508160592
 20
1366.577129658579
 30
0.0
 10
2875.951630265329
 20
1366.624014046795
 30
0.0
 10
2875.993646370803
 20
1366.690298483831
 30
0.0
 10
2876.04245717277
 20
1366.728560043004
 30
0.0
 10
2876.093187820085
 20
1366.750315818739
 30
0.0
 10
2876.128012427535
 20
1366.753035422288
 30
0.0
 10
2876.145458565371
 20
1366.754397866314
 30
0.0
  0
LINE
  5
BB
330
1F
100
AcDbEntity
  8
0
  6
Continuous
 62
     7
370
    25
100
AcDbLine
 10
2876.1454585654
 20
1366.7543978663
 30
0.0
 11
2876.1454585654
 21
1366.2683337685
 31
0.0
  0
ARC
  5
BC
330
1F
100
AcDbEntity
  8
0
  6
Continuous
 62
     7
370
    25
100
AcDbCircle
 10
2876.1440746856
 20
1366.466950026
 30
0.0
 40
0.1986210785921748
100
AcDbArc
 50
180.4048499761
 51
270.3992079345
  0
LINE
  5
BD
330
1F
100
AcDbEntity
  8
0
  6
Continuous
 62
     7
370
    25
100
AcDbLine
 10
2876.1454585654
 20
1366.2683337685
 30
0.0
 11
2877.9454585654
 21
1366.2683337685
 31
0.0
  0
LINE
  5
BE
330
1F
100
AcDbEntity
  8
0
  6
Continuous
 62
     7
370
    25
100
AcDbLine
 10
2877.9454585654
 20
1366.2683337685
 30
0.0
 11
2877.9454585654
 21
1366.7543978663
 31
0.0
  0
LINE
  5
BF
330
1F
100
AcDbEntity
  8
0
  6
Continuous
 62
     7
370
    25
100
AcDbLine
 10
2875.9454585654
 20
1366.4543978663
 30
0.0
 11
2875.9454585654
 21
1366.4655465881
 31
0.0
  0
LINE
  5
C0
330
1F
100
AcDbEntity
  8
0
  6
Continuous
 62
     7
370
    25
100
AcDbLine
 10
2877.9454585654
 20
1366.2543978663
 30
0.0
 11
2877.9454585654
 21
1366.2683337685
 31
0.0
  0
LINE
  5
C1
330
1F
100
AcDbEntity
  8
0
  6
Continuous
 62
     7
370
    25
100
AcDbLine
 10
2875.9454585654
 20
1366.5543978663
 30
0.0
 11
2875.9454585654
 21
1366.7543978663
 31
0.0
  0
LINE
  5
C2
330
1F
100
AcDbEntity
  8
0
  6
Continuous
 62
     7
370
    25
100
AcDbLine
 10
1280.9454585654
 20
1366.4655465881
 30
0.0
 11
1280.9454585654
 21
1366.5543978663
 31
0.0
  0
LINE
  5
C3
330
1F
100
AcDbEntity
  8
0
  6
Continuous
 62
     7
370
    25
100
AcDbLine
 10
1281.1454585654
 20
1366.7543978663
 30
0.0
 11
1281.1454585654
 21
1366.2683337685
 31
0.0
  0
ARC
  5
C4
330
1F
100
AcDbEntity
  8
0
  6
Continuous
 62
     7
370
    25
100
AcDbCircle
 10
1281.1440746856
 20
1366.466950026
 30
0.0
 40
0.1986210785923632
100
AcDbArc
 50
180.4048499763
 51
270.3992079347
  0
SPLINE
  5
C5
330
1F
100
AcDbEntity
  8
0
  6
Continuous
 62
     7
370
    25
100
AcDbSpline
210
0.0
220
0.0
230
1.0
 70
     8
 71
     3
 72
    13
 73
     9
 74
     0
 42
0.00000001
 43
0.00000001
 40
0.0
 40
0.0
 40
0.0
 40
0.0
 40
0.0075029974113224
 40
0.3818974549667551
 40
0.6070018873275027
 40
0.7653769096344524
 40
0.8824605049809779
 40
0.9999999999999999
 40
0.9999999999999999
 40
0.9999999999999999
 40
0.9999999999999999
 10
1280.945458565371
 20
1366.554397866314
 30
0.0
 10
1280.945459520975
 20
1366.55483586421
 30
0.0
 10
1280.945508160591
 20
1366.577129658579
 30
0.0
 10
1280.951630265329
 20
1366.624014046795
 30
0.0
 10
1280.993646370804
 20
1366.690298483831
 30
0.0
 10
1281.04245717277
 20
1366.728560043004
 30
0.0
 10
1281.093187820085
 20
1366.750315818739
 30
0.0
 10
1281.128012427535
 20
1366.753035422288
 30
0.0
 10
1281.145458565371
 20
1366.754397866314
 30
0.0
  0
LINE
  5
C6
330
1F
100
AcDbEntity
  8
0
  6
Continuous
 62
     7
370
    25
100
AcDbLine
 10
1281.1454585654
 20
1366.2683337685
 30
0.0
 11
1282.9454585654
 21
1366.2683337685
 31
0.0
  0
LINE
  5
C7
330
1F
100
AcDbEntity
  8
0
  6
Continuous
 62
     7
370
    25
100
AcDbLine
 10
1282.9454585654
 20
1366.2683337685
 30
0.0
 11
1282.9454585654
 21
1366.7543978663
 31
0.0
  0
LINE
  5
C8
330
1F
100
AcDbEntity
  8
0
  6
Continuous
 62
     7
370
    25
100
AcDbLine
 10
1280.9454585654
 20
1366.4543978663
 30
0.0
 11
1280.9454585654
 21
1366.4655465881
 31
0.0
  0
LINE
  5
C9
330
1F
100
AcDbEntity
  8
0
  6
Continuous
 62
     7
370
    25
100
AcDbLine
 10
1282.9454585654
 20
1366.2543978663
 30
0.0
 11
1282.9454585654
 21
1366.2683337685
 31
0.0
  0
LINE
  5
CA
330
1F
100
AcDbEntity
  8
0
  6
Continuous
 62
     7
370
    25
100
AcDbLine
 10
1280.9454585654
 20
1366.5543978663
 30
0.0
 11
1280.9454585654
 21
1366.7543978663
 31
0.0
  0
LINE
  5
CB
330
1F
100
AcDbEntity
  8
0
  6
Continuous
 62
     7
370
    25
100
AcDbLine
 10
2078.4454585654
 20
1366.4655465881
 30
0.0
 11
2078.4454585654
 21
1366.5543978663
 31
0.0
  0
SPLINE
  5
CC
330
1F
100
AcDbEntity
  8
0
  6
Continuous
 62
     7
370
    25
100
AcDbSpline
210
0.0
220
0.0
230
1.0
 70
     8
 71
     3
 72
    13
 73
     9
 74
     0
 42
0.00000001
 43
0.00000001
 40
0.0
 40
0.0
 40
0.0
 40
0.0
 40
0.0075029974113224
 40
0.3818974549667551
 40
0.6070018873275027
 40
0.7653769096344524
 40
0.8824605049809779
 40
0.9999999999999999
 40
0.9999999999999999
 40
0.9999999999999999
 40
0.9999999999999999
 10
2078.445458565371
 20
1366.554397866315
 30
0.0
 10
2078.445459520976
 20
1366.55483586421
 30
0.0
 10
2078.445508160593
 20
1366.577129658579
 30
0.0
 10
2078.451630265328
 20
1366.624014046795
 30
0.0
 10
2078.493646370805
 20
1366.690298483831
 30
0.0
 10
2078.54245717277
 20
1366.728560043004
 30
0.0
 10
2078.593187820085
 20
1366.750315818739
 30
0.0
 10
2078.628012427535
 20
1366.753035422288
 30
0.0
 10
2078.645458565371
 20
1366.754397866315
 30
0.0
  0
LINE
  5
CD
330
1F
100
AcDbEntity
  8
0
  6
Continuous
 62
     7
370
    25
100
AcDbLine
 10
2078.6454585654
 20
1366.7543978663
 30
0.0
 11
2078.6454585654
 21
1366.2683337685
 31
0.0
  0
ARC
  5
CE
330
1F
100
AcDbEntity
  8
0
  6
Continuous
 62
     7
370
    25
100
AcDbCircle
 10
2078.6440746856
 20
1366.466950026
 30
0.0
 40
0.1986210785930438
100
AcDbArc
 50
180.4048499765
 51
270.3992079347
  0
LINE
  5
CF
330
1F
100
AcDbEntity
  8
0
  6
Continuous
 62
     7
370
    25
100
AcDbLine
 10
2080.4454585654
 20
1366.2683337685
 30
0.0
 11
2080.4454585654
 21
1366.7543978663
 31
0.0
  0
LINE
  5
D0
330
1F
100
AcDbEntity
  8
0
  6
Continuous
 62
     7
370
    25
100
AcDbLine
 10
2078.6454585654
 20
1366.2683337685
 30
0.0
 11
2080.4454585654
 21
1366.2683337685
 31
0.0
  0
LINE
  5
D1
330
1F
100
AcDbEntity
  8
0
  6
Continuous
 62
     7
370
    25
100
AcDbLine
 10
2080.4454585654
 20
1366.2543978663
 30
0.0
 11
2080.4454585654
 21
1366.2683337685
 31
0.0
  0
LINE
  5
D2
330
1F
100
AcDbEntity
  8
0
  6
Continuous
 62
     7
370
    25
100
AcDbLine
 10
2078.4454585654
 20
1366.4543978663
 30
0.0
 11
2078.4454585654
 21
1366.4655465881
 31
0.0
  0
LINE
  5
D3
330
1F
100
AcDbEntity
  8
0
  6
Continuous
 62
     7
370
    25
100
AcDbLine
 10
2078.4454585654
 20
1366.5543978663
 30
0.0
 11
2078.4454585654
 21
1366.7543978663
 31
0.0
  0
LINE
  5
D4
330
1F
100
AcDbEntity
  8
0
  6
Continuous
 62
     7
370
    25
100
AcDbLine
 10
1282.9454585654
 20
1366.2683337685
 30
0.0
 11
2070.9454585654
 21
1366.2683337685
 31
0.0
  0
LINE
  5
D5
330
1F
100
AcDbEntity
  8
0
  6
Continuous
 62
     7
370
    25
100
AcDbLine
 10
2070.9454585654
 20
1366.7543978663
 30
0.0
 11
2070.9454585654
 21
1366.2683337685
 31
0.0
  0
LINE
  5
D6
330
1F
100
AcDbEntity
  8
0
  6
Continuous
 62
     7
370
    25
100
AcDbLine
 10
2070.9454585654
 20
1366.2683337685
 30
0.0
 11
2070.9454585654
 21
1366.2543978663
 31
0.0
  0
LINE
  5
D7
330
1F
100
AcDbEntity
  8
0
  6
Continuous
 62
     7
370
    25
100
AcDbLine
 10
2877.9454585654
 20
1366.2683337685
 30
0.0
 11
3665.9454585654
 21
1366.2683337685
 31
0.0
  0
LINE
  5
D8
330
1F
100
AcDbEntity
  8
0
  6
Continuous
 62
     7
370
    25
100
AcDbLine
 10
3665.9454585654
 20
1366.7543978663
 30
0.0
 11
3665.9454585654
 21
1366.2683337685
 31
0.0
  0
LINE
  5
D9
330
1F
100
AcDbEntity
  8
0
  6
Continuous
 62
     7
370
    25
100
AcDbLine
 10
3665.9454585654
 20
1366.2683337685
 30
0.0
 11
3665.9454585654
 21
1366.2543978663
 31
0.0
  0
LINE
  5
DA
330
1F
100
AcDbEntity
  8
0
  6
Continuous
 62
     7
370
    25
100
AcDbLine
 10
2080.4454585654
 20
1366.2683337685
 30
0.0
 11
2868.4454585654
 21
1366.2683337685
 31
0.0
  0
LINE
  5
DB
330
1F
100
AcDbEntity
  8
0
  6
Continuous
 62
     7
370
    25
100
AcDbLine
 10
2868.4454585654
 20
1366.7543978663
 30
0.0
 11
2868.4454585654
 21
1366.2683337685
 31
0.0
  0
LINE
  5
DC
330
1F
100
AcDbEntity
  8
0
  6
Continuous
 62
     7
370
    25
100
AcDbLine
 10
2868.4454585654
 20
1366.2683337685
 30
0.0
 11
2868.4454585654
 21
1366.2543978663
 31
0.0
  0
LINE
  5
DD
330
1F
100
AcDbEntity
  8
0
  6
Continuous
 62
     7
370
    25
100
AcDbLine
 10
3667.9454585654
 20
1366.5543978663
 30
0.0
 11
3667.9454585654
 21
1366.4655465881
 31
0.0
  0
ARC
  5
DE
330
1F
100
AcDbEntity
  8
0
  6
Continuous
 62
     7
370
    25
100
AcDbCircle
 10
3667.7468424451
 20
1366.466950026
 30
0.0
 40
0.198621078593268
100
AcDbArc
 50
269.6007920655
 51
359.5951500235
  0
LINE
  5
DF
330
1F
100
AcDbEntity
  8
0
  6
Continuous
 62
     7
370
    25
100
AcDbLine
 10
3667.7454585654
 20
1366.2683337685
 30
0.0
 11
3667.7454585654
 21
1366.7543978663
 31
0.0
  0
SPLINE
  5
E0
330
1F
100
AcDbEntity
  8
0
  6
Continuous
 62
     7
370
    25
100
AcDbSpline
210
0.0
220
0.0
230
1.0
 70
     8
 71
     3
 72
    13
 73
     9
 74
     0
 42
0.00000001
 43
0.00000001
 40
0.0
 40
0.0
 40
0.0
 40
0.0
 40
0.0075029974113212
 40
0.3818974549657508
 40
0.6070018873267202
 40
0.7653769096342554
 40
0.8824605049809954
 40
1.0
 40
1.0
 40
1.0
 40
1.0
 10
3667.945458565371
 20
1366.554397866314
 30
0.0
 10
3667.945457609767
 20
1366.55483586421
 30
0.0
 10
3667.945408970159
 20
1366.577129658579
 30
0.0
 10
3667.939286865412
 20
1366.624014046795
 30
0.0
 10
3667.897270759938
 20
1366.690298483831
 30
0.0
 10
3667.848459957973
 20
1366.728560043004
 30
0.0
 10
3667.797729310658
 20
1366.750315818739
 30
0.0
 10
3667.762904703208
 20
1366.753035422288
 30
0.0
 10
3667.745458565372
 20
1366.754397866314
 30
0.0
  0
LINE
  5
E1
330
1F
100
AcDbEntity
  8
0
  6
Continuous
 62
     7
370
    25
100
AcDbLine
 10
3665.9454585654
 20
1366.2683337685
 30
0.0
 11
3667.7454585654
 21
1366.2683337685
 31
0.0
  0
LINE
  5
E2
330
1F
100
AcDbEntity
  8
0
  6
Continuous
 62
     7
370
    25
100
AcDbLine
 10
3667.9454585654
 20
1366.4655465881
 30
0.0
 11
3667.9454585654
 21
1366.4543978663
 31
0.0
  0
LINE
  5
E3
330
1F
100
AcDbEntity
  8
0
  6
Continuous
 62
     7
370
    25
100
AcDbLine
 10
3667.9454585654
 20
1366.7543978663
 30
0.0
 11
3667.9454585654
 21
1366.5543978663
 31
0.0
  0
LINE
  5
E4
330
1F
100
AcDbEntity
  8
0
  6
Continuous
 62
     7
370
    25
100
AcDbLine
 10
2072.9454585654
 20
1366.5543978663
 30
0.0
 11
2072.9454585654
 21
1366.4655465881
 31
0.0
  0
ARC
  5
E5
330
1F
100
AcDbEntity
  8
0
  6
Continuous
 62
     7
370
    25
100
AcDbCircle
 10
2072.7468424451
 20
1366.466950026
 30
0.0
 40
0.1986210785914585
100
AcDbArc
 50
269.6007920651
 51
359.595150024
  0
LINE
  5
E6
330
1F
100
AcDbEntity
  8
0
  6
Continuous
 62
     7
370
    25
100
AcDbLine
 10
2072.7454585654
 20
1366.2683337685
 30
0.0
 11
2072.7454585654
 21
1366.7543978663
 31
0.0
  0
SPLINE
  5
E7
330
1F
100
AcDbEntity
  8
0
  6
Continuous
 62
     7
370
    25
100
AcDbSpline
210
0.0
220
0.0
230
1.0
 70
     8
 71
     3
 72
    13
 73
     9
 74
     0
 42
0.00000001
 43
0.00000001
 40
0.0
 40
0.0
 40
0.0
 40
0.0
 40
0.0075029974113223
 40
0.3818974549658312
 40
0.6070018873268317
 40
0.7653769096342229
 40
0.882460504980979
 40
1.0
 40
1.0
 40
1.0
 40
1.0
 10
2072.945458565371
 20
1366.554397866315
 30
0.0
 10
2072.945457609767
 20
1366.55483586421
 30
0.0
 10
2072.945408970155
 20
1366.577129658579
 30
0.0
 10
2072.939286865411
 20
1366.624014046795
 30
0.0
 10
2072.897270759939
 20
1366.690298483831
 30
0.0
 10
2072.848459957972
 20
1366.728560043004
 30
0.0
 10
2072.797729310657
 20
1366.750315818739
 30
0.0
 10
2072.762904703207
 20
1366.753035422288
 30
0.0
 10
2072.745458565371
 20
1366.754397866315
 30
0.0
  0
LINE
  5
E8
330
1F
100
AcDbEntity
  8
0
  6
Continuous
 62
     7
370
    25
100
AcDbLine
 10
2070.9454585654
 20
1366.2683337685
 30
0.0
 11
2072.7454585654
 21
1366.2683337685
 31
0.0
  0
LINE
  5
E9
330
1F
100
AcDbEntity
  8
0
  6
Continuous
 62
     7
370
    25
100
AcDbLine
 10
2072.9454585654
 20
1366.4655465881
 30
0.0
 11
2072.9454585654
 21
1366.4543978663
 31
0.0
  0
LINE
  5
EA
330
1F
100
AcDbEntity
  8
0
  6
Continuous
 62
     7
370
    25
100
AcDbLine
 10
2072.9454585654
 20
1366.7543978663
 30
0.0
 11
2072.9454585654
 21
1366.5543978663
 31
0.0
  0
LINE
  5
EB
330
1F
100
AcDbEntity
  8
0
  6
Continuous
 62
     7
370
    25
100
AcDbLine
 10
2870.4454585654
 20
1366.5543978663
 30
0.0
 11
2870.4454585654
 21
1366.4655465881
 31
0.0
  0
ARC
  5
EC
330
1F
100
AcDbEntity
  8
0
  6
Continuous
 62
     7
370
    25
100
AcDbCircle
 10
2870.2468424451
 20
1366.466950026
 30
0.0
 40
0.1986210785921343
100
AcDbArc
 50
269.6007920653
 51
359.5951500237
  0
LINE
  5
ED
330
1F
100
AcDbEntity
  8
0
  6
Continuous
 62
     7
370
    25
100
AcDbLine
 10
2870.2454585654
 20
1366.2683337685
 30
0.0
 11
2870.2454585654
 21
1366.7543978663
 31
0.0
  0
SPLINE
  5
EE
330
1F
100
AcDbEntity
  8
0
  6
Continuous
 62
     7
370
    25
100
AcDbSpline
210
0.0
220
0.0
230
1.0
 70
     8
 71
     3
 72
    13
 73
     9
 74
     0
 42
0.00000001
 43
0.00000001
 40
0.0
 40
0.0
 40
0.0
 40
0.0
 40
0.0075029974113212
 40
0.3818974549657508
 40
0.6070018873267202
 40
0.7653769096342554
 40
0.8824605049809954
 40
1.0
 40
1.0
 40
1.0
 40
1.0
 10
2870.445458565371
 20
1366.554397866315
 30
0.0
 10
2870.445457609767
 20
1366.55483586421
 30
0.0
 10
2870.445408970158
 20
1366.577129658579
 30
0.0
 10
2870.439286865411
 20
1366.624014046795
 30
0.0
 10
2870.397270759939
 20
1366.690298483831
 30
0.0
 10
2870.348459957973
 20
1366.728560043004
 30
0.0
 10
2870.297729310657
 20
1366.750315818739
 30
0.0
 10
2870.262904703207
 20
1366.753035422288
 30
0.0
 10
2870.245458565372
 20
1366.754397866315
 30
0.0
  0
LINE
  5
EF
330
1F
100
AcDbEntity
  8
0
  6
Continuous
 62
     7
370
    25
100
AcDbLine
 10
2868.4454585654
 20
1366.2683337685
 30
0.0
 11
2870.2454585654
 21
1366.2683337685
 31
0.0
  0
LINE
  5
F0
330
1F
100
AcDbEntity
  8
0
  6
Continuous
 62
     7
370
    25
100
AcDbLine
 10
2870.4454585654
 20
1366.4655465881
 30
0.0
 11
2870.4454585654
 21
1366.4543978663
 31
0.0
  0
LINE
  5
F1
330
1F
100
AcDbEntity
  8
0
  6
Continuous
 62
     7
370
    25
100
AcDbLine
 10
2870.4454585654
 20
1366.7543978663
 30
0.0
 11
2870.4454585654
 21
1366.5543978663
 31
0.0
  0
LINE
  5
F2
330
1F
100
AcDbEntity
  8
0
  6
Continuous
 62
     7
370
    25
100
AcDbLine
 10
2072.9454585654
 20
1386.2543978663
 30
0.0
 11
2078.4454585654
 21
1386.2543978663
 31
0.0
  0
LINE
  5
F3
330
1F
100
AcDbEntity
  8
0
  6
Continuous
 62
     7
370
    25
100
AcDbLine
 10
2078.4454585654
 20
1483.2543978663
 30
0.0
 11
2072.9454585654
 21
1483.2543978663
 31
0.0
  0
LINE
  5
F4
330
1F
100
AcDbEntity
  8
0
  6
Continuous
 62
     7
370
    25
100
AcDbLine
 10
3673.4454585654
 20
1356.7543978663
 30
0.0
 11
3673.4454585654
 21
1512.2543978663
 31
0.0
  0
LINE
  5
F5
330
1F
100
AcDbEntity
  8
0
  6
Continuous
 62
     7
370
    25
100
AcDbLine
 10
3655.9454585654
 20
1356.7543978663
 30
0.0
 11
3673.4454585654
 21
1356.7543978663
 31
0.0
  0
LINE
  5
F6
330
1F
100
AcDbEntity
  8
0
  6
Continuous
 62
     7
370
    25
100
AcDbLine
 10
3655.9454585654
 20
1512.2543978663
 30
0.0
 11
3655.9454585654
 21
1507.7543978663
 31
0.0
  0
LINE
  5
F7
330
1F
100
AcDbEntity
  8
0
  6
Continuous
 62
     7
370
    25
100
AcDbLine
 10
3655.9454585654
 20
1366.2543978663
 30
0.0
 11
3655.9454585654
 21
1356.7543978663
 31
0.0
  0
LINE
  5
F8
330
1F
100
AcDbEntity
  8
0
  6
Continuous
 62
     7
370
    25
100
AcDbLine
 10
1292.9454585654
 20
1356.7543978663
 30
0.0
 11
1292.9454585654
 21
1366.2543978663
 31
0.0
  0
LINE
  5
F9
330
1F
100
AcDbEntity
  8
0
  6
Continuous
 62
     7
370
    25
100
AcDbLine
 10
1292.9454585654
 20
1507.7543978663
 30
0.0
 11
1292.9454585654
 21
1512.2543978663
 31
0.0
  0
LINE
  5
FA
330
1F
100
AcDbEntity
  8
0
  6
Continuous
 62
     7
370
    25
100
AcDbLine
 10
1275.4454585654
 20
1356.7543978663
 30
0.0
 11
1292.9454585654
 21
1356.7543978663
 31
0.0
  0
LINE
  5
FB
330
1F
100
AcDbEntity
  8
0
  6
Continuous
 62
     7
370
    25
100
AcDbLine
 10
1275.4454585654
 20
1512.2543978663
 30
0.0
 11
1275.4454585654
 21
1356.7543978663
 31
0.0
  0
LINE
  5
FC
330
1F
100
AcDbEntity
  8
0
  6
Continuous
 62
     7
370
    25
100
AcDbLine
 10
3655.9454585654
 20
1511.7543978663
 30
0.0
 11
1292.9454585654
 21
1511.7543978663
 31
0.0
  0
LINE
  5
FD
330
1F
100
AcDbEntity
  8
0
  6
Continuous
 62
     7
370
    25
100
AcDbLine
 10
3655.9454585654
 20
1511.7543978663
 30
0.0
 11
3655.9454585654
 21
1507.7543978663
 31
0.0
  0
LINE
  5
FE
330
1F
100
AcDbEntity
  8
0
  6
Continuous
 62
     7
370
    25
100
AcDbLine
 10
1292.9454585654
 20
1511.7543978663
 30
0.0
 11
1292.9454585654
 21
1507.7543978663
 31
0.0
  0
LINE
  5
FF
330
1F
100
AcDbEntity
  8
0
  6
Continuous
 62
     7
370
    25
100
AcDbLine
 10
1956.4454585654
 20
1512.0043978663
 30
0.0
 11
1956.4454585654
 21
1512.2543978663
 31
0.0
  0
LINE
  5
100
330
1F
100
AcDbEntity
  8
0
  6
Continuous
 62
     7
370
    25
100
AcDbLine
 10
1393.4454585654
 20
1512.2543978663
 30
0.0
 11
1393.4454585654
 21
1512.0043978663
 31
0.0
  0
LINE
  5
101
330
1F
100
AcDbEntity
  8
0
  6
Continuous
 62
     7
370
    25
100
AcDbLine
 10
2992.4454585654
 20
1512.2543978663
 30
0.0
 11
2992.4454585654
 21
1512.0043978663
 31
0.0
  0
LINE
  5
102
330
1F
100
AcDbEntity
  8
0
  6
Continuous
 62
     7
370
    25
100
AcDbLine
 10
3555.4454585654
 20
1512.0043978663
 30
0.0
 11
3555.4454585654
 21
1512.2543978663
 31
0.0
  0
LWPOLYLINE
  5
103
330
1F
100
AcDbEntity
  8
0
  6
Continuous
 62
     7
370
    25
100
AcDbPolyline
 90
        3
 70
   128
 43
0.0
 10
2026.9454585654
 20
1512.1530052151
 10
2027.9021671463
 20
1512.0438529489
 10
2028.0537536149
 20
1512.0043978663
  0
LWPOLYLINE
  5
104
330
1F
100
AcDbEntity
  8
0
  6
Continuous
 62
     7
370
    25
100
AcDbPolyline
 90
        3
 70
   128
 43
0.0
 10
2025.8371635158
 20
1512.0043978663
 10
2025.9887499845
 20
1512.0438529489
 10
2026.9454585654
 20
1512.1530052151
  0
ARC
  5
105
330
1F
100
AcDbEntity
  8
0
  6
Continuous
 62
     7
370
    25
100
AcDbCircle
 10
2049.9454585654
 20
1508.0201477324
 30
0.0
 40
4.135525002484924
100
AcDbArc
 50
74.4550790845
 51
105.5449209155
  0
LWPOLYLINE
  5
106
330
1F
100
AcDbEntity
  8
0
  6
Continuous
 62
     7
370
    25
100
AcDbPolyline
 90
        3
 70
   128
 43
0.0
 10
3625.9454585654
 20
1512.153005215
 10
3626.9021671463
 20
1512.0438529488
 10
3627.0537536148
 20
1512.0043978663
  0
LWPOLYLINE
  5
107
330
1F
100
AcDbEntity
  8
0
  6
Continuous
 62
     7
370
    25
100
AcDbPolyline
 90
        3
 70
   128
 43
0.0
 10
3624.8371635159
 20
1512.0043978663
 10
3624.9887499845
 20
1512.0438529488
 10
3625.9454585654
 20
1512.153005215
  0
ARC
  5
108
330
1F
100
AcDbEntity
  8
0
  6
Continuous
 62
     7
370
    25
100
AcDbCircle
 10
3648.9454585654
 20
1508.0201477324
 30
0.0
 40
4.135525002507729
100
AcDbArc
 50
74.4550790856
 51
105.5449209144
  0
LWPOLYLINE
  5
109
330
1F
100
AcDbEntity
  8
0
  6
Continuous
 62
     7
370
    25
100
AcDbPolyline
 90
        3
 70
   128
 43
0.0
 10
2898.9454585654
 20
1512.153005215
 10
2899.9021671463
 20
1512.0438529489
 10
2900.0537536149
 20
1512.0043978663
  0
LWPOLYLINE
  5
10A
330
1F
100
AcDbEntity
  8
0
  6
Continuous
 62
     7
370
    25
100
AcDbPolyline
 90
        3
 70
   128
 43
0.0
 10
2897.8371635159
 20
1512.0043978663
 10
2897.9887499845
 20
1512.0438529489
 10
2898.9454585654
 20
1512.153005215
  0
ARC
  5
10B
330
1F
100
AcDbEntity
  8
0
  6
Continuous
 62
     7
370
    25
100
AcDbCircle
 10
2921.9454585654
 20
1508.0201477324
 30
0.0
 40
4.135525002488587
100
AcDbArc
 50
74.455079085
 51
105.544920915
  0
LWPOLYLINE
  5
10C
330
1F
100
AcDbEntity
  8
0
  6
Continuous
 62
     7
370
    25
100
AcDbPolyline
 90
        3
 70
   128
 43
0.0
 10
1299.9454585654
 20
1512.1530052151
 10
1300.9021671463
 20
1512.0438529489
 10
1301.0537536149
 20
1512.0043978663
  0
LWPOLYLINE
  5
10D
330
1F
100
AcDbEntity
  8
0
  6
Continuous
 62
     7
370
    25
100
AcDbPolyline
 90
        3
 70
   128
 43
0.0
 10
1298.8371635158
 20
1512.0043978663
 10
1298.9887499845
 20
1512.0438529489
 10
1299.9454585654
 20
1512.1530052151
  0
ARC
  5
10E
330
1F
100
AcDbEntity
  8
0
  6
Continuous
 62
     7
370
    25
100
AcDbCircle
 10
1322.9454585654
 20
1508.0201477324
 30
0.0
 40
4.13552500248086
100
AcDbArc
 50
74.455079084
 51
105.544920916
  0
LINE
  5
10F
330
1F
100
AcDbEntity
  8
0
  6
Continuous
 62
     7
370
    25
100
AcDbLine
 10
2876.1454585654
 20
1366.2683337685
 30
0.0
 11
2876.1454585654
 21
1366.2543978663
 31
0.0
  0
LINE
  5
110
330
1F
100
AcDbEntity
  8
0
  6
Continuous
 62
     7
370
    25
100
AcDbLine
 10
1281.1454585654
 20
1366.2683337685
 30
0.0
 11
1281.1454585654
 21
1366.2543978663
 31
0.0
  0
LINE
  5
111
330
1F
100
AcDbEntity
  8
0
  6
Continuous
 62
     7
370
    25
100
AcDbLine
 10
2078.6454585654
 20
1366.2683337685
 30
0.0
 11
2078.6454585654
 21
1366.2543978663
 31
0.0
  0
LINE
  5
112
330
1F
100
AcDbEntity
  8
0
  6
Continuous
 62
     7
370
    25
100
AcDbLine
 10
3667.7454585654
 20
1366.2543978663
 30
0.0
 11
3667.7454585654
 21
1366.2683337685
 31
0.0
  0
LINE
  5
113
330
1F
100
AcDbEntity
  8
0
  6
Continuous
 62
     7
370
    25
100
AcDbLine
 10
2072.7454585654
 20
1366.2543978663
 30
0.0
 11
2072.7454585654
 21
1366.2683337685
 31
0.0
  0
LINE
  5
114
330
1F
100
AcDbEntity
  8
0
  6
Continuous
 62
     7
370
    25
100
AcDbLine
 10
2870.2454585654
 20
1366.2543978663
 30
0.0
 11
2870.2454585654
 21
1366.2683337685
 31
0.0
  0
LINE
  5
115
330
1F
100
AcDbEntity
  8
0
  6
Continuous
 62
     7
370
    25
100
AcDbLine
 10
555.7831445376
 20
1443.2767567878
 30
0.0
 11
557.7608646997
 21
1443.2249683628
 31
0.0
  0
LINE
  5
116
330
1F
100
AcDbEntity
  8
0
  6
Continuous
 62
     7
370
    25
100
AcDbLine
 10
557.7608646997
 20
1448.7268537215
 30
0.0
 11
555.9271177533
 21
1448.7748720752
 31
0.0
  0
ARC
  5
117
330
1F
100
AcDbEntity
  8
0
  6
Continuous
 62
     7
370
    25
100
AcDbCircle
 10
555.7909976221
 20
1443.5766539853
 30
0.0
 40
0.3000000000001063
100
AcDbArc
 50
178.5000000001
 51
268.5000000001
  0
ARC
  5
118
330
1F
100
AcDbEntity
  8
0
  6
Continuous
 62
     7
370
    25
100
AcDbCircle
 10
555.9192646688
 20
1448.4749748777
 30
0.0
 40
0.2999999999999956
100
AcDbArc
 50
88.5
 51
178.5
  0
ARC
  5
119
330
1F
100
AcDbEntity
  8
0
  6
Continuous
 62
     7
370
    25
100
AcDbCircle
 10
554.280819647
 20
1471.8758832752
 30
0.0
 40
1.199999999999968
100
AcDbArc
 50
88.5000000001
 51
173.500000003
  0
ARC
  5
11A
330
1F
100
AcDbEntity
  8
0
  6
Continuous
 62
     7
370
    25
100
AcDbCircle
 10
553.8201053568
 20
1454.2819143556
 30
0.0
 40
1.19999999999998
100
AcDbArc
 50
183.4999999971
 51
268.5000000001
  0
LINE
  5
11B
330
1F
100
AcDbEntity
  8
0
  6
Continuous
 62
     7
370
    25
100
AcDbLine
 10
555.0624227623
 20
1473.0558276283
 30
0.0
 11
554.312231985
 21
1473.0754720652
 31
0.0
  0
LINE
  5
11C
330
1F
100
AcDbEntity
  8
0
  6
Continuous
 62
     7
370
    25
100
AcDbLine
 10
553.7886930188
 20
1453.0823255657
 30
0.0
 11
554.5388837961
 21
1453.0626811288
 31
0.0
  0
ARC
  5
11D
330
1F
100
AcDbEntity
  8
0
  6
Continuous
 62
     7
370
    25
100
AcDbCircle
 10
555.0571873726
 20
1472.8558961633
 30
0.0
 40
0.2000000000000689
100
AcDbArc
 50
358.5000000001
 51
88.5000000001
  0
ARC
  5
11E
330
1F
100
AcDbEntity
  8
0
  6
Continuous
 62
     7
370
    25
100
AcDbCircle
 10
554.5441191858
 20
1453.2626125938
 30
0.0
 40
0.2000000000000689
100
AcDbArc
 50
268.5000000002
 51
358.5000000001
  0
LINE
  5
11F
330
1F
100
AcDbEntity
  8
0
  6
Continuous
 62
     7
370
    25
100
AcDbLine
 10
553.0885334202
 20
1472.0117271317
 30
0.0
 11
552.9067456257
 21
1470.4161961367
 31
0.0
  0
LINE
  5
120
330
1F
100
AcDbEntity
  8
0
  6
Continuous
 62
     7
370
    25
100
AcDbLine
 10
552.5243085784
 20
1455.8115145215
 30
0.0
 11
552.6223435987
 21
1454.2086561083
 31
0.0
  0
ARC
  5
121
330
1F
100
AcDbEntity
  8
0
  6
Continuous
 62
     7
370
    25
100
AcDbCircle
 10
582.713901296
 20
1467.0200997237
 30
0.0
 40
30.00000000000208
100
AcDbArc
 50
173.5
 51
178.5000000001
  0
ARC
  5
122
330
1F
100
AcDbEntity
  8
0
  6
Continuous
 62
     7
370
    25
100
AcDbCircle
 10
582.4683525311
 20
1457.6429707076
 30
0.0
 40
30.00000000000203
100
AcDbArc
 50
178.5000000001
 51
183.5000000001
  0
SPLINE
  5
123
330
1F
100
AcDbEntity
  8
0
  6
Continuous
 62
     7
370
    25
100
AcDbSpline
210
0.0
220
0.0
230
1.0
 70
     8
 71
     3
 72
    13
 73
     9
 74
     0
 42
0.00000001
 43
0.00000001
 40
0.0
 40
0.0
 40
0.0
 40
0.0
 40
0.2397374167686387
 40
0.3685398007312398
 40
0.5000035787038304
 40
0.631457162006204
 40
0.7602371999079182
 40
1.0
 40
1.0
 40
1.0
 40
1.0
 10
555.6182095108195
 20
1467.539382242841
 30
0.0
 10
555.5551483398771
 20
1467.547732001868
 30
0.0
 10
555.4582066455588
 20
1467.56056778933
 30
0.0
 10
555.3427620111767
 20
1467.626504447249
 30
0.0
 10
555.2641552458662
 20
1467.693613842776
 30
0.0
 10
555.2018152157523
 20
1467.775852176287
 30
0.0
 10
555.1429820569542
 20
1467.894464357312
 30
0.0
 10
555.1360317651805
 20
1467.991032751232
 30
0.0
 10
555.1315101160117
 20
1468.053857221387
 30
0.0
  0
SPLINE
  5
124
330
1F
100
AcDbEntity
  8
0
  6
Continuous
 62
     7
370
    25
100
AcDbSpline
210
0.0
220
0.0
230
1.0
 70
     8
 71
     3
 72
    13
 73
     9
 74
     0
 42
0.00000001
 43
0.00000001
 40
0.0
 40
0.0
 40
0.0
 40
0.0
 40
0.2397628000983097
 40
0.3685428380028891
 40
0.4999964213065071
 40
0.6314601992781772
 40
0.7602625832379712
 40
1.0
 40
1.0
 40
1.0
 40
1.0
 10
554.8696593723926
 20
1458.054180756408
 30
0.0
 10
554.8774628035194
 20
1458.11668248298
 30
0.0
 10
554.8894575693984
 20
1458.212754783109
 30
0.0
 10
554.9544177813126
 20
1458.328125320645
 30
0.0
 10
555.0209763984054
 20
1458.406988324293
 30
0.0
 10
555.1029876702637
 20
1458.469891788499
 30
0.0
 10
555.2217249498304
 20
1458.529696177187
 30
0.0
 10
555.319205562137
 20
1458.537440837371
 30
0.0
 10
555.3826173025595
 20
1458.542478786658
 30
0.0
  0
LINE
  5
125
330
1F
100
AcDbEntity
  8
0
  6
Continuous
 62
     7
370
    25
100
AcDbLine
 10
557.7608646997
 20
1467.4832810807
 30
0.0
 11
555.6182096741
 21
1467.5393884771
 31
0.0
  0
LINE
  5
126
330
1F
100
AcDbEntity
  8
0
  6
Continuous
 62
     7
370
    25
100
AcDbLine
 10
555.3826171393
 20
1458.5424725524
 30
0.0
 11
557.7608646997
 21
1458.4801959483
 31
0.0
  0
LINE
  5
127
330
1F
100
AcDbEntity
  8
0
  6
Continuous
 62
     7
370
    25
100
AcDbLine
 10
954.2608646997
 20
1507.7543978663
 30
0.0
 11
936.2608646997
 21
1507.7543978663
 31
0.0
  0
LINE
  5
128
330
1F
100
AcDbEntity
  8
0
  6
Continuous
 62
     7
370
    25
100
AcDbLine
 10
954.2608646997
 20
1507.7543978663
 30
0.0
 11
954.2608646997
 21
1366.7543978663
 31
0.0
  0
LINE
  5
129
330
1F
100
AcDbEntity
  8
0
  6
Continuous
 62
     7
370
    25
100
AcDbLine
 10
954.2608646997
 20
1366.7543978663
 30
0.0
 11
950.2608646997
 21
1366.7543978663
 31
0.0
  0
LINE
  5
12A
330
1F
100
AcDbEntity
  8
0
  6
Continuous
 62
     7
370
    25
100
AcDbLine
 10
950.2608646997
 20
1366.7543978663
 30
0.0
 11
950.2608646997
 21
1379.7543978663
 31
0.0
  0
LINE
  5
12B
330
1F
100
AcDbEntity
  8
0
  6
Continuous
 62
     7
370
    25
100
AcDbLine
 10
950.2608646997
 20
1379.7543978663
 30
0.0
 11
937.7608646997
 21
1379.7543978663
 31
0.0
  0
LINE
  5
12C
330
1F
100
AcDbEntity
  8
0
  6
Continuous
 62
     7
370
    25
100
AcDbLine
 10
937.7608646997
 20
1379.7543978663
 30
0.0
 11
937.7608646997
 21
1400.2543978663
 31
0.0
  0
LINE
  5
12D
330
1F
100
AcDbEntity
  8
0
  6
Continuous
 62
     7
370
    25
100
AcDbLine
 10
937.7608646997
 20
1400.2543978663
 30
0.0
 11
936.2608646997
 21
1400.2543978663
 31
0.0
  0
ARC
  5
12E
330
1F
100
AcDbEntity
  8
0
  6
Continuous
 62
     7
370
    25
100
AcDbCircle
 10
954.7608646997
 20
1533.7543978663
 30
0.0
 40
3.000000000000227
100
AcDbArc
 50
0.0
 51
90.0
  0
LINE
  5
12F
330
1F
100
AcDbEntity
  8
0
  6
Continuous
 62
     7
370
    25
100
AcDbLine
 10
957.7608646997
 20
1533.7543978663
 30
0.0
 11
957.7608646997
 21
1515.2543978663
 31
0.0
  0
ARC
  5
130
330
1F
100
AcDbEntity
  8
0
  6
Continuous
 62
     7
370
    25
100
AcDbCircle
 10
954.7608646997
 20
1515.2543978663
 30
0.0
 40
3.000000000000114
100
AcDbArc
 50
270.0
 51
0.0
  0
LINE
  5
131
330
1F
100
AcDbEntity
  8
0
  6
Continuous
 62
     7
370
    25
100
AcDbLine
 10
954.7608646997
 20
1512.2543978663
 30
0.0
 11
557.7608646997
 21
1512.2543978663
 31
0.0
  0
LINE
  5
132
330
1F
100
AcDbEntity
  8
0
  6
Continuous
 62
     7
370
    25
100
AcDbLine
 10
557.7608646997
 20
1536.7543978663
 30
0.0
 11
954.7608646997
 21
1536.7543978663
 31
0.0
  0
LINE
  5
133
330
1F
100
AcDbEntity
  8
0
  6
Continuous
 62
     7
370
    25
100
AcDbLine
 10
557.7608646997
 20
1512.2543978663
 30
0.0
 11
557.7608646997
 21
1536.7543978663
 31
0.0
  0
ARC
  5
134
330
1F
100
AcDbEntity
  8
0
  6
Continuous
 62
     7
370
    25
100
AcDbCircle
 10
936.9608646997
 20
1378.7543978663
 30
0.0
 40
0.999999999999923
100
AcDbArc
 50
225.5729959992
 51
270.0
  0
LINE
  5
135
330
1F
100
AcDbEntity
  8
0
  6
Continuous
 62
     7
370
    25
100
AcDbLine
 10
936.9608646997
 20
1377.7543978663
 30
0.0
 11
936.9608646997
 21
1377.9543978663
 31
0.0
  0
LINE
  5
136
330
1F
100
AcDbEntity
  8
0
  6
Continuous
 62
     7
370
    25
100
AcDbLine
 10
936.2608646997
 20
1399.7543978663
 30
0.0
 11
937.7608646997
 21
1399.7543978663
 31
0.0
  0
LINE
  5
137
330
1F
100
AcDbEntity
  8
0
  6
Continuous
 62
     7
370
    25
100
AcDbLine
 10
937.7608646997
 20
1399.7543978663
 30
0.0
 11
937.5608646997
 21
1399.5543978663
 31
0.0
  0
LINE
  5
138
330
1F
100
AcDbEntity
  8
0
  6
Continuous
 62
     7
370
    25
100
AcDbLine
 10
950.0608646997
 20
1366.5543978663
 30
0.0
 11
950.0608646997
 21
1379.5543978663
 31
0.0
  0
LINE
  5
139
330
1F
100
AcDbEntity
  8
0
  6
Continuous
 62
     7
370
    25
100
AcDbLine
 10
950.4780763832
 20
1366.5543978663
 30
0.0
 11
950.0608646997
 21
1366.5543978663
 31
0.0
  0
ARC
  5
13A
330
1F
100
AcDbEntity
  8
0
  6
Continuous
 62
     7
370
    25
100
AcDbCircle
 10
950.2609030256
 20
1366.7613658174
 30
0.0
 40
0.3000000000000862
100
AcDbArc
 50
279.5765884811
 51
316.3783470327
  0
ARC
  5
13B
330
1F
100
AcDbEntity
  8
0
  6
Continuous
 62
     7
370
    25
100
AcDbCircle
 10
950.1777201022
 20
1367.2543978663
 30
0.0
 40
0.8000000000001488
100
AcDbArc
 50
184.9699465947
 51
279.5765884811
  0
LINE
  5
13C
330
1F
100
AcDbEntity
  8
0
  6
Continuous
 62
     7
370
    25
100
AcDbLine
 10
948.539539262
 20
1376.8583577014
 30
0.0
 11
949.3807278807
 21
1367.1850913096
 31
0.0
  0
ARC
  5
13D
330
1F
100
AcDbEntity
  8
0
  6
Continuous
 62
     7
370
    25
100
AcDbCircle
 10
947.3440509297
 20
1376.7543978663
 30
0.0
 40
1.200000000000045
100
AcDbArc
 50
4.9699465947
 51
90.0
  0
LINE
  5
13E
330
1F
100
AcDbEntity
  8
0
  6
Continuous
 62
     7
370
    25
100
AcDbLine
 10
936.9608646997
 20
1377.9543978663
 30
0.0
 11
947.3440509297
 21
1377.9543978663
 31
0.0
  0
LINE
  5
13F
330
1F
100
AcDbEntity
  8
0
  6
Continuous
 62
     7
370
    25
100
AcDbLine
 10
937.5608646997
 20
1379.5543978663
 30
0.0
 11
937.5608646997
 21
1399.5543978663
 31
0.0
  0
LINE
  5
140
330
1F
100
AcDbEntity
  8
0
  6
Continuous
 62
     7
370
    25
100
AcDbLine
 10
950.0608646997
 20
1379.5543978663
 30
0.0
 11
937.5608646997
 21
1379.5543978663
 31
0.0
  0
LINE
  5
141
330
1F
100
AcDbEntity
  8
0
  6
Continuous
 62
     7
370
    25
100
AcDbLine
 10
947.3440509297
 20
1377.7543978663
 30
0.0
 11
936.9608646997
 21
1377.7543978663
 31
0.0
  0
LINE
  5
142
330
1F
100
AcDbEntity
  8
0
  6
Continuous
 62
     7
370
    25
100
AcDbLine
 10
947.3440509297
 20
1377.7543978663
 30
0.0
 11
947.3440509297
 21
1377.9543978663
 31
0.0
  0
LINE
  5
143
330
1F
100
AcDbEntity
  8
0
  6
Continuous
 62
     7
370
    25
100
AcDbLine
 10
937.5608646997
 20
1379.5543978663
 30
0.0
 11
937.7608646997
 21
1379.7543978663
 31
0.0
  0
LINE
  5
144
330
1F
100
AcDbEntity
  8
0
  6
Continuous
 62
     7
370
    25
100
AcDbLine
 10
950.0608646997
 20
1379.5543978663
 30
0.0
 11
950.2608646997
 21
1379.7543978663
 31
0.0
  0
ARC
  5
145
330
1F
100
AcDbEntity
  8
0
  6
Continuous
 62
     7
370
    25
100
AcDbCircle
 10
947.3440509297
 20
1376.7543978663
 30
0.0
 40
1.000000000000227
100
AcDbArc
 50
4.9699465947
 51
90.0
  0
LINE
  5
146
330
1F
100
AcDbEntity
  8
0
  6
Continuous
 62
     7
370
    25
100
AcDbLine
 10
948.3402912066
 20
1376.8410310622
 30
0.0
 11
948.539539262
 21
1376.8583577014
 31
0.0
  0
LINE
  5
147
330
1F
100
AcDbEntity
  8
0
  6
Continuous
 62
     7
370
    25
100
AcDbLine
 10
949.1814798253
 20
1367.1677646704
 30
0.0
 11
948.3402912066
 21
1376.8410310622
 31
0.0
  0
LINE
  5
148
330
1F
100
AcDbEntity
  8
0
  6
Continuous
 62
     7
370
    25
100
AcDbLine
 10
949.3807278807
 20
1367.1850913096
 30
0.0
 11
949.1814798253
 21
1367.1677646704
 31
0.0
  0
LINE
  5
149
330
1F
100
AcDbEntity
  8
0
  6
Continuous
 62
     7
370
    25
100
AcDbLine
 10
950.3108127797
 20
1366.4655465881
 30
0.0
 11
950.3440859491
 21
1366.2683337685
 31
0.0
  0
ARC
  5
14A
330
1F
100
AcDbEntity
  8
0
  6
Continuous
 62
     7
370
    25
100
AcDbCircle
 10
950.1777201022
 20
1367.2543978663
 30
0.0
 40
1.000000000000084
100
AcDbArc
 50
184.9699465947
 51
279.5765884811
  0
LINE
  5
14B
330
1F
100
AcDbEntity
  8
0
  6
Continuous
 62
     7
370
    25
100
AcDbLine
 10
950.0608646997
 20
1366.5543978663
 30
0.0
 11
950.2608646997
 21
1366.7543978663
 31
0.0
  0
SPLINE
  5
14C
330
1F
100
AcDbEntity
  8
0
  6
Continuous
 62
     7
370
    25
100
AcDbSpline
210
0.0
220
0.0
230
1.0
 70
     8
 71
     3
 72
    13
 73
     9
 74
     0
 42
0.00000001
 43
0.00000001
 40
0.0
 40
0.0
 40
0.0
 40
0.0
 40
0.0075029974113224
 40
0.3818974549667551
 40
0.6070018873275027
 40
0.7653769096344524
 40
0.8824605049809779
 40
0.9999999999999999
 40
0.9999999999999999
 40
0.9999999999999999
 40
0.9999999999999999
 10
950.4780763831591
 20
1366.554397866314
 30
0.0
 10
950.479094159775
 20
1366.55483586421
 30
0.0
 10
950.5308982959158
 20
1366.577129658579
 30
0.0
 10
950.609483661281
 20
1366.624014046795
 30
0.0
 10
950.6921231253141
 20
1366.690298483831
 30
0.0
 10
950.7342192434123
 20
1366.728560043004
 30
0.0
 10
950.7567426702477
 20
1366.750315818739
 30
0.0
 10
950.7594820963618
 20
1366.753035422288
 30
0.0
 10
950.7608544709292
 20
1366.754397866314
 30
0.0
  0
ARC
  5
14D
330
1F
100
AcDbEntity
  8
0
  6
Continuous
 62
     7
370
    25
100
AcDbCircle
 10
950.2609030256
 20
1366.7613658174
 30
0.0
 40
0.5000000000000755
100
AcDbArc
 50
279.5765884811
 51
359.2015057739
  0
LINE
  5
14E
330
1F
100
AcDbEntity
  8
0
  6
Continuous
 62
     7
370
    25
100
AcDbLine
 10
936.2608646997
 20
1512.2543978663
 30
0.0
 11
936.2608646997
 21
1356.7543978663
 31
0.0
  0
LINE
  5
14F
330
1F
100
AcDbEntity
  8
0
  6
Continuous
 62
     7
370
    25
100
AcDbLine
 10
936.2608646997
 20
1356.7543978663
 30
0.0
 11
557.7608646997
 21
1356.7543978663
 31
0.0
  0
LINE
  5
150
330
1F
100
AcDbEntity
  8
0
  6
Continuous
 62
     7
370
    25
100
AcDbLine
 10
557.7608646997
 20
1512.2543978663
 30
0.0
 11
557.7608646997
 21
1356.7543978663
 31
0.0
  0
SPLINE
  5
151
330
1F
100
AcDbEntity
  8
0
  6
Continuous
 62
     7
370
    25
100
AcDbSpline
210
0.0
220
0.0
230
1.0
 70
     8
 71
     3
 72
    11
 73
     7
 74
     0
 42
0.00000001
 43
0.00000001
 40
0.0
 40
0.0
 40
0.0
 40
0.0
 40
0.238224734984826
 40
0.4921376904587944
 40
0.7460575595466722
 40
1.0
 40
1.0
 40
1.0
 40
1.0
 10
555.4913742188817
 20
1443.594962851274
 30
0.0
 10
555.4920466031281
 20
1443.620640170789
 30
0.0
 10
555.4934356512895
 20
1443.673685782213
 30
0.0
 10
555.5069732494524
 20
1444.190665780934
 30
0.0
 10
555.527073837218
 20
1444.958276326895
 30
0.0
 10
555.5434574874968
 20
1445.583942518921
 30
0.0
 10
555.5516496767126
 20
1445.896789518447
 30
0.0
  0
LINE
  5
152
330
1F
100
AcDbEntity
  8
0
  6
Continuous
 62
     7
370
    25
100
AcDbLine
 10
555.5516496767
 20
1445.8967895184
 30
0.0
 11
555.555233948
 21
1446.033667516
 31
0.0
  0
SPLINE
  5
153
330
1F
100
AcDbEntity
  8
0
  6
Continuous
 62
     7
370
    25
100
AcDbSpline
210
0.0
220
0.0
230
1.0
 70
    24
 71
     3
 72
    12
 73
     8
 74
     0
 42
0.00000001
 43
0.00000001
 40
0.0
 40
0.0
 40
0.0
 40
0.0
 40
0.2460973337376793
 40
0.4921955654186196
 40
0.7383025770435544
 40
0.9844160040481321
 40
1.0
 40
1.0
 40
1.0
 40
1.0
 10
555.5552339479611
 20
1446.033667516023
 30
0.0
 10
555.5634634249619
 20
1446.347938563519
 30
0.0
 10
555.5799224089905
 20
1446.976481805201
 30
0.0
 10
555.6012384121002
 20
1447.790507122361
 30
0.0
 10
555.6147786748456
 20
1448.307588895109
 30
0.0
 10
555.6206981519288
 20
1448.533644604763
 30
0.0
 10
555.61917792159
 20
1448.47558935035
 30
0.0
 10
555.6190873923705
 20
1448.472132178936
 30
0.0
  0
SPLINE
  5
154
330
1F
100
AcDbEntity
  8
0
  6
Continuous
 62
     7
370
    25
100
AcDbSpline
210
0.0
220
0.0
230
1.0
 70
    24
 71
     3
 72
    13
 73
     9
 74
     0
 42
0.00000001
 43
0.00000001
 40
0.0
 40
0.0
 40
0.0
 40
0.0
 40
0.1538581583652
 40
0.3079676862452551
 40
0.4535077802384582
 40
0.5878340078344994
 40
0.8177872163812495
 40
1.0
 40
1.0
 40
1.0
 40
1.0
 10
555.2568851491627
 20
1472.841736571941
 30
0.0
 10
555.2555656725193
 20
1472.791347791849
 30
0.0
 10
555.2529245635054
 20
1472.690487907767
 30
0.0
 10
555.230697778093
 20
1471.841681217713
 30
0.0
 10
555.1985297677968
 20
1470.613234465797
 30
0.0
 10
555.1492668362088
 20
1468.731959007925
 30
0.0
 10
555.0834475074695
 20
1466.218420251294
 30
0.0
 10
555.0287224443219
 20
1464.128554404703
 30
0.0
 10
555.004529264197
 20
1463.204654130214
 30
0.0
  0
SPLINE
  5
155
330
1F
100
AcDbEntity
  8
0
  6
Continuous
 62
     7
370
    25
100
AcDbSpline
210
0.0
220
0.0
230
1.0
 70
    24
 71
     3
 72
    13
 73
     9
 74
     0
 42
0.00000001
 43
0.00000001
 40
0.0
 40
0.0
 40
0.0
 40
0.0
 40
0.1813201537905601
 40
0.4101468448378905
 40
0.5438150184963828
 40
0.6886421238874921
 40
0.8419966874126491
 40
1.0
 40
1.0
 40
1.0
 40
1.0
 10
555.0005847442012
 20
1463.054018988899
 30
0.0
 10
554.9763578705587
 20
1462.12883201086
 30
0.0
 10
554.9215565945999
 20
1460.036055714374
 30
0.0
 10
554.8551963635773
 20
1457.50186073294
 30
0.0
 10
554.8052253470244
 20
1455.593544601198
 30
0.0
 10
554.7723032583089
 20
1454.336300756266
 30
0.0
 10
554.7490210995824
 20
1453.44719098536
 30
0.0
 10
554.7457289061734
 20
1453.321467191362
 30
0.0
 10
554.7440582323148
 20
1453.257666730712
 30
0.0
  0
LINE
  5
156
330
1F
100
AcDbEntity
  8
0
  6
Continuous
 62
     7
370
    25
100
AcDbLine
 10
552.4786327818
 20
1458.4282791568
 30
0.0
 11
552.7241815467
 21
1467.8054081729
 31
0.0
  0
SPLINE
  5
157
330
1F
100
AcDbEntity
  8
0
  6
Continuous
 62
     7
370
    25
100
AcDbSpline
210
0.0
220
0.0
230
1.0
 70
     8
 71
     3
 72
    11
 73
     7
 74
     0
 42
0.00000001
 43
0.00000001
 40
0.0
 40
0.0
 40
0.0
 40
0.0
 40
0.2702619356886205
 40
0.5624305486186495
 40
0.7897374073724094
 40
0.9999999999999999
 40
0.9999999999999999
 40
0.9999999999999999
 40
0.9999999999999999
 10
555.4965437889347
 20
1462.893155774597
 30
0.0
 10
555.4257065946468
 20
1462.894721041443
 30
0.0
 10
555.2782903410618
 20
1462.897978451293
 30
0.0
 10
555.1105191259054
 20
1462.897927095701
 30
0.0
 10
555.0127956958062
 20
1462.89495861019
 30
0.0
 10
555.0016438762444
 20
1462.891490841424
 30
0.0
 10
554.9962851600768
 20
1462.889824495546
 30
0.0
  0
ARC
  5
158
330
1F
100
AcDbEntity
  8
0
  6
Continuous
 62
     7
370
    25
100
AcDbCircle
 10
936.9608646997
 20
1378.7543978663
 30
0.0
 40
0.8000000000000347
100
AcDbArc
 50
208.9550243719
 51
270.0
  0
LINE
  5
159
330
1F
100
AcDbEntity
  8
0
  6
Continuous
 62
     7
370
    25
100
AcDbLine
 10
937.5608646997
 20
1399.5543978663
 30
0.0
 11
936.2608646997
 21
1399.5543978663
 31
0.0
  0
LINE
  5
15A
330
1F
100
AcDbEntity
  8
0
  6
Continuous
 62
     7
370
    25
100
AcDbLine
 10
555.9271177533
 20
1448.7748720752
 30
0.0
 11
555.7831445376
 21
1443.2767567878
 31
0.0
  0
LINE
  5
15B
330
1F
100
AcDbEntity
  8
0
  6
Continuous
 62
     7
370
    25
100
AcDbLine
 10
554.312231985
 20
1473.0754720652
 30
0.0
 11
553.7886930188
 21
1453.0823255657
 31
0.0
  0
LINE
  5
15C
330
1F
100
AcDbEntity
  8
0
  6
Continuous
 62
     7
370
    25
100
AcDbLine
 10
552.6223435987
 20
1454.2086561083
 30
0.0
 11
553.0885334202
 21
1472.0117271317
 31
0.0
  0
LINE
  5
15D
330
1F
100
AcDbEntity
  8
0
  6
Continuous
 62
     7
370
    25
100
AcDbLine
 10
554.8081328374
 20
1463.3448871838
 30
0.0
 11
555.0624227623
 21
1473.0558276283
 31
0.0
  0
LINE
  5
15E
330
1F
100
AcDbEntity
  8
0
  6
Continuous
 62
     7
370
    25
100
AcDbLine
 10
552.9067456257
 20
1470.4161961367
 30
0.0
 11
552.5243085784
 21
1455.8115145215
 31
0.0
  0
LINE
  5
15F
330
1F
100
AcDbEntity
  8
0
  6
Continuous
 62
     7
370
    25
100
AcDbLine
 10
555.6182085764
 20
1467.5393465579
 30
0.0
 11
555.4965437888
 21
1462.8931557708
 31
0.0
  0
LINE
  5
160
330
1F
100
AcDbEntity
  8
0
  6
Continuous
 62
     7
370
    25
100
AcDbLine
 10
555.4965437888
 20
1462.8931557708
 30
0.0
 11
555.382618237
 21
1458.5425144716
 31
0.0
  0
LINE
  5
161
330
1F
100
AcDbEntity
  8
0
  6
Continuous
 62
     7
370
    25
100
AcDbLine
 10
4420.4562626187
 20
1448.7748720752
 30
0.0
 11
4418.6225156724
 21
1448.7268537215
 31
0.0
  0
LINE
  5
162
330
1F
100
AcDbEntity
  8
0
  6
Continuous
 62
     7
370
    25
100
AcDbLine
 10
4418.6225156724
 20
1443.2249683628
 30
0.0
 11
4420.6002358344
 21
1443.2767567878
 31
0.0
  0
ARC
  5
163
330
1F
100
AcDbEntity
  8
0
  6
Continuous
 62
     7
370
    25
100
AcDbCircle
 10
4420.4641157032
 20
1448.4749748777
 30
0.0
 40
0.2999999999998819
100
AcDbArc
 50
1.5
 51
91.5
  0
ARC
  5
164
330
1F
100
AcDbEntity
  8
0
  6
Continuous
 62
     7
370
    25
100
AcDbCircle
 10
4420.5923827499
 20
1443.5766539853
 30
0.0
 40
0.3000000000003366
100
AcDbArc
 50
271.4999999998
 51
1.5
  0
LINE
  5
165
330
1F
100
AcDbEntity
  8
0
  6
Continuous
 62
     7
370
    25
100
AcDbLine
 10
4421.8444965759
 20
1453.0626811288
 30
0.0
 11
4422.5946873532
 21
1453.0823255656
 31
0.0
  0
LINE
  5
166
330
1F
100
AcDbEntity
  8
0
  6
Continuous
 62
     7
370
    25
100
AcDbLine
 10
4422.0711483871
 20
1473.0754720652
 30
0.0
 11
4421.3209576098
 21
1473.0558276283
 31
0.0
  0
ARC
  5
167
330
1F
100
AcDbEntity
  8
0
  6
Continuous
 62
     7
370
    25
100
AcDbCircle
 10
4421.8392611862
 20
1453.2626125938
 30
0.0
 40
0.2000000000000808
100
AcDbArc
 50
181.5
 51
271.5
  0
ARC
  5
168
330
1F
100
AcDbEntity
  8
0
  6
Continuous
 62
     7
370
    25
100
AcDbCircle
 10
4421.3261929994
 20
1472.8558961633
 30
0.0
 40
0.200000000000057
100
AcDbArc
 50
91.4999999998
 51
181.4999999999
  0
ARC
  5
169
330
1F
100
AcDbEntity
  8
0
  6
Continuous
 62
     7
370
    25
100
AcDbCircle
 10
4422.5632750152
 20
1454.2819143556
 30
0.0
 40
1.20000000000021
100
AcDbArc
 50
271.5
 51
356.5000000029
  0
ARC
  5
16A
330
1F
100
AcDbEntity
  8
0
  6
Continuous
 62
     7
370
    25
100
AcDbCircle
 10
4422.102560725
 20
1471.8758832752
 30
0.0
 40
1.200000000000294
100
AcDbArc
 50
6.499999997
 51
91.4999999999
  0
LINE
  5
16B
330
1F
100
AcDbEntity
  8
0
  6
Continuous
 62
     7
370
    25
100
AcDbLine
 10
4423.7610367733
 20
1454.2086561082
 30
0.0
 11
4423.8590717936
 21
1455.8115145215
 31
0.0
  0
LINE
  5
16C
330
1F
100
AcDbEntity
  8
0
  6
Continuous
 62
     7
370
    25
100
AcDbLine
 10
4423.4766347463
 20
1470.4161961366
 30
0.0
 11
4423.2948469519
 21
1472.0117271316
 31
0.0
  0
ARC
  5
16D
330
1F
100
AcDbEntity
  8
0
  6
Continuous
 62
     7
370
    25
100
AcDbCircle
 10
4393.915027841
 20
1457.6429707076
 30
0.0
 40
30.0000000000026
100
AcDbArc
 50
356.4999999999
 51
1.4999999999
  0
ARC
  5
16E
330
1F
100
AcDbEntity
  8
0
  6
Continuous
 62
     7
370
    25
100
AcDbCircle
 10
4393.669479076
 20
1467.0200997236
 30
0.0
 40
30.00000000000254
100
AcDbArc
 50
1.4999999999
 51
6.5
  0
LINE
  5
16F
330
1F
100
AcDbEntity
  8
0
  6
Continuous
 62
     7
370
    25
100
AcDbLine
 10
4423.7844466987
 20
1463.0223848583
 30
0.0
 11
4423.7819732078
 21
1463.1168436647
 31
0.0
  0
SPLINE
  5
170
330
1F
100
AcDbEntity
  8
0
  6
Continuous
 62
     7
370
    25
100
AcDbSpline
210
0.0
220
0.0
230
1.0
 70
     8
 71
     3
 72
    13
 73
     9
 74
     0
 42
0.00000001
 43
0.00000001
 40
0.0
 40
0.0
 40
0.0
 40
0.0
 40
0.2397374167620757
 40
0.36853980072183
 40
0.5000035786934783
 40
0.6314571619971029
 40
0.7602371999016686
 40
1.0
 40
1.0
 40
1.0
 40
1.0
 10
4421.00076306947
 20
1458.542478786629
 30
0.0
 10
4421.064174809894
 20
1458.537440837342
 30
0.0
 10
4421.1616554222
 20
1458.529696177159
 30
0.0
 10
4421.280392701767
 20
1458.46989178847
 30
0.0
 10
4421.362403973624
 20
1458.406988324264
 30
0.0
 10
4421.428962590718
 20
1458.328125320616
 30
0.0
 10
4421.493922802632
 20
1458.21275478308
 30
0.0
 10
4421.505917568511
 20
1458.116682482951
 30
0.0
 10
4421.513720999638
 20
1458.054180756379
 30
0.0
  0
SPLINE
  5
171
330
1F
100
AcDbEntity
  8
0
  6
Continuous
 62
     7
370
    25
100
AcDbSpline
210
0.0
220
0.0
230
1.0
 70
     8
 71
     3
 72
    13
 73
     9
 74
     0
 42
0.00000001
 43
0.00000001
 40
0.0
 40
0.0
 40
0.0
 40
0.0
 40
0.239762800092059
 40
0.3685428379938706
 40
0.4999964212962083
 40
0.6314601992687645
 40
0.7602625832313603
 40
1.0
 40
1.0
 40
1.0
 40
1.0
 10
4421.251870256019
 20
1468.053857221358
 30
0.0
 10
4421.24734860685
 20
1467.991032751203
 30
0.0
 10
4421.240398315076
 20
1467.894464357283
 30
0.0
 10
4421.181565156279
 20
1467.775852176257
 30
0.0
 10
4421.119225126164
 20
1467.693613842748
 30
0.0
 10
4421.040618360854
 20
1467.62650444722
 30
0.0
 10
4420.925173726472
 20
1467.560567789301
 30
0.0
 10
4420.828232032153
 20
1467.547732001839
 30
0.0
 10
4420.765170861211
 20
1467.539382242811
 30
0.0
  0
LINE
  5
172
330
1F
100
AcDbEntity
  8
0
  6
Continuous
 62
     7
370
    25
100
AcDbLine
 10
4418.6225156724
 20
1458.4801959482
 30
0.0
 11
4421.0007632327
 21
1458.5424725523
 31
0.0
  0
LINE
  5
173
330
1F
100
AcDbEntity
  8
0
  6
Continuous
 62
     7
370
    25
100
AcDbLine
 10
4420.765170698
 20
1467.5393884771
 30
0.0
 11
4418.6225156724
 21
1467.4832810807
 31
0.0
  0
LINE
  5
174
330
1F
100
AcDbEntity
  8
0
  6
Continuous
 62
     7
370
    25
100
AcDbLine
 10
4026.1225156724
 20
1379.7543978663
 30
0.0
 11
4038.6225156724
 21
1379.7543978663
 31
0.0
  0
LINE
  5
175
330
1F
100
AcDbEntity
  8
0
  6
Continuous
 62
     7
370
    25
100
AcDbLine
 10
4026.1225156724
 20
1366.7543978663
 30
0.0
 11
4026.1225156724
 21
1379.7543978663
 31
0.0
  0
LINE
  5
176
330
1F
100
AcDbEntity
  8
0
  6
Continuous
 62
     7
370
    25
100
AcDbLine
 10
4022.1225156724
 20
1366.7543978663
 30
0.0
 11
4026.1225156724
 21
1366.7543978663
 31
0.0
  0
LINE
  5
177
330
1F
100
AcDbEntity
  8
0
  6
Continuous
 62
     7
370
    25
100
AcDbLine
 10
4022.1225156724
 20
1366.7543978663
 30
0.0
 11
4022.1225156724
 21
1507.7543978663
 31
0.0
  0
LINE
  5
178
330
1F
100
AcDbEntity
  8
0
  6
Continuous
 62
     7
370
    25
100
AcDbLine
 10
4022.1225156724
 20
1507.7543978663
 30
0.0
 11
4040.1225156724
 21
1507.7543978663
 31
0.0
  0
LINE
  5
179
330
1F
100
AcDbEntity
  8
0
  6
Continuous
 62
     7
370
    25
100
AcDbLine
 10
4038.6225156724
 20
1400.2543978663
 30
0.0
 11
4040.1225156724
 21
1400.2543978663
 31
0.0
  0
LINE
  5
17A
330
1F
100
AcDbEntity
  8
0
  6
Continuous
 62
     7
370
    25
100
AcDbLine
 10
4038.6225156724
 20
1379.7543978663
 30
0.0
 11
4038.6225156724
 21
1400.2543978663
 31
0.0
  0
ARC
  5
17B
330
1F
100
AcDbEntity
  8
0
  6
Continuous
 62
     7
370
    25
100
AcDbCircle
 10
4021.6225156724
 20
1533.7543978663
 30
0.0
 40
3.000000000000455
100
AcDbArc
 50
90.0
 51
180.0
  0
LINE
  5
17C
330
1F
100
AcDbEntity
  8
0
  6
Continuous
 62
     7
370
    25
100
AcDbLine
 10
4021.6225156724
 20
1512.2543978663
 30
0.0
 11
4418.6225156724
 21
1512.2543978663
 31
0.0
  0
ARC
  5
17D
330
1F
100
AcDbEntity
  8
0
  6
Continuous
 62
     7
370
    25
100
AcDbCircle
 10
4021.6225156724
 20
1515.2543978663
 30
0.0
 40
3.000000000000455
100
AcDbArc
 50
180.0
 51
270.0
  0
LINE
  5
17E
330
1F
100
AcDbEntity
  8
0
  6
Continuous
 62
     7
370
    25
100
AcDbLine
 10
4018.6225156724
 20
1533.7543978663
 30
0.0
 11
4018.6225156724
 21
1515.2543978663
 31
0.0
  0
LINE
  5
17F
330
1F
100
AcDbEntity
  8
0
  6
Continuous
 62
     7
370
    25
100
AcDbLine
 10
4418.6225156724
 20
1536.7543978663
 30
0.0
 11
4021.6225156724
 21
1536.7543978663
 31
0.0
  0
LINE
  5
180
330
1F
100
AcDbEntity
  8
0
  6
Continuous
 62
     7
370
    25
100
AcDbLine
 10
4418.6225156724
 20
1512.2543978663
 30
0.0
 11
4418.6225156724
 21
1536.7543978663
 31
0.0
  0
LINE
  5
181
330
1F
100
AcDbEntity
  8
0
  6
Continuous
 62
     7
370
    25
100
AcDbLine
 10
4038.6225156724
 20
1399.7543978663
 30
0.0
 11
4040.1225156724
 21
1399.7543978663
 31
0.0
  0
LINE
  5
182
330
1F
100
AcDbEntity
  8
0
  6
Continuous
 62
     7
370
    25
100
AcDbLine
 10
4038.6225156724
 20
1399.7543978663
 30
0.0
 11
4038.8225156724
 21
1399.5543978663
 31
0.0
  0
LINE
  5
183
330
1F
100
AcDbEntity
  8
0
  6
Continuous
 62
     7
370
    25
100
AcDbLine
 10
4029.0393294423
 20
1377.9543978663
 30
0.0
 11
4039.4225156724
 21
1377.9543978663
 31
0.0
  0
LINE
  5
184
330
1F
100
AcDbEntity
  8
0
  6
Continuous
 62
     7
370
    25
100
AcDbLine
 10
4039.4225156724
 20
1377.9543978663
 30
0.0
 11
4039.4225156724
 21
1377.7543978663
 31
0.0
  0
LINE
  5
185
330
1F
100
AcDbEntity
  8
0
  6
Continuous
 62
     7
370
    25
100
AcDbLine
 10
4039.4225156724
 20
1377.7543978663
 30
0.0
 11
4029.0393294423
 21
1377.7543978663
 31
0.0
  0
LINE
  5
186
330
1F
100
AcDbEntity
  8
0
  6
Continuous
 62
     7
370
    25
100
AcDbLine
 10
4029.0393294423
 20
1377.9543978663
 30
0.0
 11
4029.0393294423
 21
1377.7543978663
 31
0.0
  0
ARC
  5
187
330
1F
100
AcDbEntity
  8
0
  6
Continuous
 62
     7
370
    25
100
AcDbCircle
 10
4039.4225156724
 20
1378.7543978663
 30
0.0
 40
1.000000000000162
100
AcDbArc
 50
270.0
 51
314.4270040008
  0
LINE
  5
188
330
1F
100
AcDbEntity
  8
0
  6
Continuous
 62
     7
370
    25
100
AcDbLine
 10
4027.0026524914
 20
1367.1850913096
 30
0.0
 11
4027.84384111
 21
1376.8583577014
 31
0.0
  0
LINE
  5
189
330
1F
100
AcDbEntity
  8
0
  6
Continuous
 62
     7
370
    25
100
AcDbLine
 10
4027.84384111
 20
1376.8583577014
 30
0.0
 11
4028.0430891654
 21
1376.8410310622
 31
0.0
  0
LINE
  5
18A
330
1F
100
AcDbEntity
  8
0
  6
Continuous
 62
     7
370
    25
100
AcDbLine
 10
4028.0430891654
 20
1376.8410310622
 30
0.0
 11
4027.2019005468
 21
1367.1677646704
 31
0.0
  0
LINE
  5
18B
330
1F
100
AcDbEntity
  8
0
  6
Continuous
 62
     7
370
    25
100
AcDbLine
 10
4027.0026524914
 20
1367.1850913096
 30
0.0
 11
4027.2019005468
 21
1367.1677646704
 31
0.0
  0
ARC
  5
18C
330
1F
100
AcDbEntity
  8
0
  6
Continuous
 62
     7
370
    25
100
AcDbCircle
 10
4029.0393294423
 20
1376.7543978663
 30
0.0
 40
1.199999999999941
100
AcDbArc
 50
90.0
 51
175.0300534053
  0
ARC
  5
18D
330
1F
100
AcDbEntity
  8
0
  6
Continuous
 62
     7
370
    25
100
AcDbCircle
 10
4029.0393294423
 20
1376.7543978663
 30
0.0
 40
1.0
100
AcDbArc
 50
90.0
 51
175.0300534053
  0
ARC
  5
18E
330
1F
100
AcDbEntity
  8
0
  6
Continuous
 62
     7
370
    25
100
AcDbCircle
 10
4026.1224773464
 20
1366.7613658174
 30
0.0
 40
0.3000000000006011
100
AcDbArc
 50
223.6216529672
 51
260.4234115189
  0
LINE
  5
18F
330
1F
100
AcDbEntity
  8
0
  6
Continuous
 62
     7
370
    25
100
AcDbLine
 10
4026.0725675924
 20
1366.4655465881
 30
0.0
 11
4026.039294423
 21
1366.2683337685
 31
0.0
  0
ARC
  5
190
330
1F
100
AcDbEntity
  8
0
  6
Continuous
 62
     7
370
    25
100
AcDbCircle
 10
4026.1224773464
 20
1366.7613658174
 30
0.0
 40
0.5000000000001923
100
AcDbArc
 50
180.7984942261
 51
260.4234115189
  0
SPLINE
  5
191
330
1F
100
AcDbEntity
  8
0
  6
Continuous
 62
     7
370
    25
100
AcDbSpline
210
0.0
220
0.0
230
1.0
 70
     8
 71
     3
 72
    13
 73
     9
 74
     0
 42
0.00000001
 43
0.00000001
 40
0.0
 40
0.0
 40
0.0
 40
0.0
 40
0.0075029974113212
 40
0.3818974549657508
 40
0.6070018873267202
 40
0.7653769096342554
 40
0.8824605049809954
 40
1.0
 40
1.0
 40
1.0
 40
1.0
 10
4025.9053039889
 20
1366.554397866314
 30
0.0
 10
4025.904286212284
 20
1366.55483586421
 30
0.0
 10
4025.852482076143
 20
1366.577129658579
 30
0.0
 10
4025.773896710779
 20
1366.624014046795
 30
0.0
 10
4025.691257246745
 20
1366.690298483831
 30
0.0
 10
4025.649161128647
 20
1366.728560043004
 30
0.0
 10
4025.626637701812
 20
1366.750315818739
 30
0.0
 10
4025.623898275697
 20
1366.753035422288
 30
0.0
 10
4025.62252590113
 20
1366.754397866314
 30
0.0
  0
LINE
  5
192
330
1F
100
AcDbEntity
  8
0
  6
Continuous
 62
     7
370
    25
100
AcDbLine
 10
4038.8225156724
 20
1399.5543978663
 30
0.0
 11
4038.8225156724
 21
1379.5543978663
 31
0.0
  0
LINE
  5
193
330
1F
100
AcDbEntity
  8
0
  6
Continuous
 62
     7
370
    25
100
AcDbLine
 10
4038.6225156724
 20
1379.7543978663
 30
0.0
 11
4038.8225156724
 21
1379.5543978663
 31
0.0
  0
ARC
  5
194
330
1F
100
AcDbEntity
  8
0
  6
Continuous
 62
     7
370
    25
100
AcDbCircle
 10
4026.2056602699
 20
1367.2543978663
 30
0.0
 40
0.8000000000002055
100
AcDbArc
 50
260.4234115189
 51
355.0300534053
  0
LINE
  5
195
330
1F
100
AcDbEntity
  8
0
  6
Continuous
 62
     7
370
    25
100
AcDbLine
 10
4026.3225156724
 20
1366.5543978663
 30
0.0
 11
4025.9053039889
 21
1366.5543978663
 31
0.0
  0
LINE
  5
196
330
1F
100
AcDbEntity
  8
0
  6
Continuous
 62
     7
370
    25
100
AcDbLine
 10
4026.3225156724
 20
1379.5543978663
 30
0.0
 11
4026.3225156724
 21
1366.5543978663
 31
0.0
  0
LINE
  5
197
330
1F
100
AcDbEntity
  8
0
  6
Continuous
 62
     7
370
    25
100
AcDbLine
 10
4038.8225156724
 20
1379.5543978663
 30
0.0
 11
4026.3225156724
 21
1379.5543978663
 31
0.0
  0
LINE
  5
198
330
1F
100
AcDbEntity
  8
0
  6
Continuous
 62
     7
370
    25
100
AcDbLine
 10
4026.1225156724
 20
1379.7543978663
 30
0.0
 11
4026.3225156724
 21
1379.5543978663
 31
0.0
  0
LINE
  5
199
330
1F
100
AcDbEntity
  8
0
  6
Continuous
 62
     7
370
    25
100
AcDbLine
 10
4026.1225156724
 20
1366.7543978663
 30
0.0
 11
4026.3225156724
 21
1366.5543978663
 31
0.0
  0
ARC
  5
19A
330
1F
100
AcDbEntity
  8
0
  6
Continuous
 62
     7
370
    25
100
AcDbCircle
 10
4026.2056602699
 20
1367.2543978663
 30
0.0
 40
1.000000000000163
100
AcDbArc
 50
260.4234115189
 51
355.0300534053
  0
LINE
  5
19B
330
1F
100
AcDbEntity
  8
0
  6
Continuous
 62
     7
370
    25
100
AcDbLine
 10
4040.1225156724
 20
1356.7543978663
 30
0.0
 11
4418.6225156724
 21
1356.7543978663
 31
0.0
  0
LINE
  5
19C
330
1F
100
AcDbEntity
  8
0
  6
Continuous
 62
     7
370
    25
100
AcDbLine
 10
4040.1225156724
 20
1356.7543978663
 30
0.0
 11
4040.1225156724
 21
1512.2543978663
 31
0.0
  0
LINE
  5
19D
330
1F
100
AcDbEntity
  8
0
  6
Continuous
 62
     7
370
    25
100
AcDbLine
 10
4418.6225156724
 20
1356.7543978663
 30
0.0
 11
4418.6225156724
 21
1512.2543978663
 31
0.0
  0
SPLINE
  5
19E
330
1F
100
AcDbEntity
  8
0
  6
Continuous
 62
     7
370
    25
100
AcDbSpline
210
0.0
220
0.0
230
1.0
 70
    24
 71
     3
 72
    12
 73
     8
 74
     0
 42
0.00000001
 43
0.00000001
 40
0.0
 40
0.0
 40
0.0
 40
0.0
 40
0.2460973337403634
 40
0.4921955654204911
 40
0.7383025770446203
 40
0.9844160040483125
 40
1.0
 40
1.0
 40
1.0
 40
1.0
 10
4420.82814642407
 20
1446.033667515995
 30
0.0
 10
4420.83637590107
 20
1445.719396468494
 30
0.0
 10
4420.8528348851
 20
1445.090853226807
 30
0.0
 10
4420.87415088821
 20
1444.276827909644
 30
0.0
 10
4420.887691150955
 20
1443.759746136896
 30
0.0
 10
4420.893610628037
 20
1443.533690427242
 30
0.0
 10
4420.892090397699
 20
1443.591745681654
 30
0.0
 10
4420.89199986848
 20
1443.595202853068
 30
0.0
  0
SPLINE
  5
19F
330
1F
100
AcDbEntity
  8
0
  6
Continuous
 62
     7
370
    25
100
AcDbSpline
210
0.0
220
0.0
230
1.0
 70
     8
 71
     3
 72
    11
 73
     7
 74
     0
 42
0.00000001
 43
0.00000001
 40
0.0
 40
0.0
 40
0.0
 40
0.0
 40
0.2382247349856991
 40
0.4921376904605014
 40
0.7460575595492116
 40
1.0
 40
1.0
 40
1.0
 40
1.0
 10
4420.764286694991
 20
1448.47237218073
 30
0.0
 10
4420.764959079295
 20
1448.446694861216
 30
0.0
 10
4420.766348127573
 20
1448.393649249796
 30
0.0
 10
4420.779885724809
 20
1447.87666925105
 30
0.0
 10
4420.799986316143
 20
1447.109058705187
 30
0.0
 10
4420.816369957535
 20
1446.483392512933
 30
0.0
 10
4420.824562142308
 20
1446.170545513295
 30
0.0
  0
LINE
  5
1A0
330
1F
100
AcDbEntity
  8
0
  6
Continuous
 62
     7
370
    25
100
AcDbLine
 10
4420.8245621423
 20
1446.1705455133
 30
0.0
 11
4420.8281464241
 21
1446.033667516
 31
0.0
  0
SPLINE
  5
1A1
330
1F
100
AcDbEntity
  8
0
  6
Continuous
 62
     7
370
    25
100
AcDbSpline
210
0.0
220
0.0
230
1.0
 70
    24
 71
     3
 72
    13
 73
     9
 74
     0
 42
0.00000001
 43
0.00000001
 40
0.0
 40
0.0
 40
0.0
 40
0.0
 40
0.1813201537912026
 40
0.4101468448383563
 40
0.5438150184967432
 40
0.6886421238877525
 40
0.8419966874127949
 40
1.0
 40
1.0
 40
1.0
 40
1.0
 10
4421.382795627829
 20
1463.054018988868
 30
0.0
 10
4421.358568754185
 20
1463.979205966911
 30
0.0
 10
4421.303767478227
 20
1466.071982263401
 30
0.0
 10
4421.237407247204
 20
1468.60617724484
 30
0.0
 10
4421.187436230651
 20
1470.514493376582
 30
0.0
 10
4421.154514141935
 20
1471.771737221513
 30
0.0
 10
4421.131231983209
 20
1472.660846992419
 30
0.0
 10
4421.1279397898
 20
1472.786570786417
 30
0.0
 10
4421.126269115941
 20
1472.850371247067
 30
0.0
  0
SPLINE
  5
1A2
330
1F
100
AcDbEntity
  8
0
  6
Continuous
 62
     7
370
    25
100
AcDbSpline
210
0.0
220
0.0
230
1.0
 70
    24
 71
     3
 72
    13
 73
     9
 74
     0
 42
0.00000001
 43
0.00000001
 40
0.0
 40
0.0
 40
0.0
 40
0.0
 40
0.1538581583653255
 40
0.3079676862454915
 40
0.4535077802387745
 40
0.5878340078348987
 40
0.817787216381781
 40
0.9999999999999999
 40
0.9999999999999999
 40
0.9999999999999999
 40
0.9999999999999999
 10
4421.639096032789
 20
1453.266301405838
 30
0.0
 10
4421.637776556146
 20
1453.31669018593
 30
0.0
 10
4421.635135447131
 20
1453.417550070012
 30
0.0
 10
4421.61290866172
 20
1454.266356760067
 30
0.0
 10
4421.580740651423
 20
1455.494803511983
 30
0.0
 10
4421.531477719836
 20
1457.376078969855
 30
0.0
 10
4421.465658391096
 20
1459.889617726483
 30
0.0
 10
4421.410933327949
 20
1461.97948357307
 30
0.0
 10
4421.386740147824
 20
1462.903383847556
 30
0.0
  0
LINE
  5
1A3
330
1F
100
AcDbEntity
  8
0
  6
Continuous
 62
     7
370
    25
100
AcDbLine
 10
4423.7844466987
 20
1463.0223848582
 30
0.0
 11
4423.9047475902
 21
1458.4282791568
 31
0.0
  0
LINE
  5
1A4
330
1F
100
AcDbEntity
  8
0
  6
Continuous
 62
     7
370
    25
100
AcDbLine
 10
4423.6591988253
 20
1467.8054081728
 30
0.0
 11
4423.7819732078
 21
1463.1168436647
 31
0.0
  0
SPLINE
  5
1A5
330
1F
100
AcDbEntity
  8
0
  6
Continuous
 62
     7
370
    25
100
AcDbSpline
210
0.0
220
0.0
230
1.0
 70
     8
 71
     3
 72
    11
 73
     7
 74
     0
 42
0.00000001
 43
0.00000001
 40
0.0
 40
0.0
 40
0.0
 40
0.0
 40
0.270260205167604
 40
0.5624283659897856
 40
0.7897359586731949
 40
0.9999999999999999
 40
0.9999999999999999
 40
0.9999999999999999
 40
0.9999999999999999
 10
4421.378496043704
 20
1463.218213482226
 30
0.0
 10
4421.369746635991
 20
1463.215656025545
 30
0.0
 10
4421.3515385721
 20
1463.210333798467
 30
0.0
 10
4421.216480299695
 20
1463.201285824082
 30
0.0
 10
4421.04841811016
 20
1463.193677152411
 30
0.0
 10
4420.934052746269
 20
1463.19031895308
 30
0.0
 10
4420.879097347585
 20
1463.18870525487
 30
0.0
  0
LINE
  5
1A6
330
1F
100
AcDbEntity
  8
0
  6
Continuous
 62
     7
370
    25
100
AcDbLine
 10
4040.1225156724
 20
1399.5543978663
 30
0.0
 11
4038.8225156724
 21
1399.5543978663
 31
0.0
  0
ARC
  5
1A7
330
1F
100
AcDbEntity
  8
0
  6
Continuous
 62
     7
370
    25
100
AcDbCircle
 10
4039.4225156724
 20
1378.7543978663
 30
0.0
 40
0.8000000000003331
100
AcDbArc
 50
270.0
 51
331.0449756281
  0
LINE
  5
1A8
330
1F
100
AcDbEntity
  8
0
  6
Continuous
 62
     7
370
    25
100
AcDbLine
 10
4420.6002358344
 20
1443.2767567878
 30
0.0
 11
4420.4562626187
 21
1448.7748720752
 31
0.0
  0
LINE
  5
1A9
330
1F
100
AcDbEntity
  8
0
  6
Continuous
 62
     7
370
    25
100
AcDbLine
 10
4421.5905608759
 20
1462.7600942736
 30
0.0
 11
4421.8444965759
 21
1453.0626811288
 31
0.0
  0
LINE
  5
1AA
330
1F
100
AcDbEntity
  8
0
  6
Continuous
 62
     7
370
    25
100
AcDbLine
 10
4422.5946873532
 20
1453.0823255656
 30
0.0
 11
4422.0711483871
 21
1473.0754720652
 31
0.0
  0
LINE
  5
1AB
330
1F
100
AcDbEntity
  8
0
  6
Continuous
 62
     7
370
    25
100
AcDbLine
 10
4423.2948469519
 20
1472.0117271316
 30
0.0
 11
4423.7610367733
 21
1454.2086561082
 31
0.0
  0
LINE
  5
1AC
330
1F
100
AcDbEntity
  8
0
  6
Continuous
 62
     7
370
    25
100
AcDbLine
 10
4423.8590717936
 20
1455.8115145215
 30
0.0
 11
4423.4766347463
 21
1470.4161961367
 31
0.0
  0
LINE
  5
1AD
330
1F
100
AcDbEntity
  8
0
  6
Continuous
 62
     7
370
    25
100
AcDbLine
 10
4421.000762135
 20
1458.5425144715
 30
0.0
 11
4420.8790973475
 21
1463.1887052586
 31
0.0
  0
LINE
  5
1AE
330
1F
100
AcDbEntity
  8
0
  6
Continuous
 62
     7
370
    25
100
AcDbLine
 10
4420.8790973475
 20
1463.1887052586
 30
0.0
 11
4420.7651717957
 21
1467.5393465579
 31
0.0
  0
SPLINE
  5
1AF
330
1F
100
AcDbEntity
  8
0
  6
Continuous
 62
     7
370
    25
100
AcDbSpline
210
0.0
220
0.0
230
1.0
 70
     8
 71
     3
 72
    16
 73
    12
 74
     0
 42
0.00000001
 43
0.00000001
 40
0.0
 40
0.0
 40
0.0
 40
0.0
 40
0.0490847390192365
 40
0.1518473045648584
 40
0.2358684990991716
 40
0.309051916165231
 40
0.3734786142106385
 40
0.4370328180322767
 40
0.5258016248246273
 40
0.7068629655464356
 40
1.0
 40
1.0
 40
1.0
 40
1.0
 10
2048.425074168678
 20
2597.982522916324
 30
0.0
 10
2048.429765765412
 20
2598.048713308545
 30
0.0
 10
2048.44427957016
 20
2598.25347822831
 30
0.0
 10
2048.317101818789
 20
2598.557694887957
 30
0.0
 10
2048.112885409263
 20
2598.833758526978
 30
0.0
 10
2047.891873803397
 20
2599.007097001616
 30
0.0
 10
2047.700107235655
 20
2599.104101014118
 30
0.0
 10
2047.542893347471
 20
2599.158174379475
 30
0.0
 10
2047.377542172418
 20
2599.196807200847
 30
0.0
 10
2047.181828237492
 20
2599.226544086367
 30
0.0
 10
2046.954213845384
 20
2599.243759755638
 30
0.0
 10
2046.813508580679
 20
2599.254402032164
 30
0.0
  0
SPLINE
  5
1B0
330
1F
100
AcDbEntity
  8
0
  6
Continuous
 62
     7
370
    25
100
AcDbSpline
210
0.0
220
0.0
230
1.0
 70
     8
 71
     3
 72
    15
 73
    11
 74
     0
 42
0.00000001
 43
0.00000001
 40
0.0
 40
0.0
 40
0.0
 40
0.0
 40
0.0366146332909308
 40
0.4586206584971943
 40
0.6039592141587768
 40
0.6771237587644505
 40
0.7596633924487776
 40
0.8571328939031002
 40
0.9634171087776116
 40
0.9999999999999999
 40
0.9999999999999999
 40
0.9999999999999999
 40
0.9999999999999999
 10
2030.095706343184
 20
2599.257096001311
 30
0.0
 10
2030.073357319805
 20
2599.255823552641
 30
0.0
 10
2029.793422143694
 20
2599.239885355407
 30
0.0
 10
2029.637947923134
 20
2599.218833256145
 30
0.0
 10
2029.32611558683
 20
2599.158689292439
 30
0.0
 10
2029.053551866993
 20
2599.042171305226
 30
0.0
 10
2028.789122930554
 20
2598.852245044199
 30
0.0
 10
2028.560974971927
 20
2598.539748887457
 30
0.0
 10
2028.436909000224
 20
2598.217783908185
 30
0.0
 10
2028.458389606712
 20
2598.022470086484
 30
0.0
 10
2028.463889981935
 20
2597.972457564438
 30
0.0
  0
LINE
  5
1B1
330
1F
100
AcDbEntity
  8
0
  6
Continuous
 62
     7
370
    25
100
AcDbLine
 10
2048.4454585654
 20
2597.2318663251
 30
0.0
 11
2048.4454585654
 21
2597.9820571024
 31
0.0
  0
LINE
  5
1B2
330
1F
100
AcDbEntity
  8
0
  6
Continuous
 62
     7
370
    25
100
AcDbLine
 10
2028.4454585654
 20
2597.9820571024
 30
0.0
 11
2028.4454585654
 21
2597.2318663251
 31
0.0
  0
LINE
  5
1B3
330
1F
100
AcDbEntity
  8
0
  6
Continuous
 62
     7
370
    25
100
AcDbLine
 10
2046.9418327899
 20
2599.2468479058
 30
0.0
 11
2045.4154268517
 21
2599.3742254403
 31
0.0
  0
LINE
  5
1B4
330
1F
100
AcDbEntity
  8
0
  6
Continuous
 62
     7
370
    25
100
AcDbLine
 10
2031.475490279
 20
2599.3742254403
 30
0.0
 11
2029.9490843408
 21
2599.2468479058
 31
0.0
  0
SPLINE
  5
1B5
330
1F
100
AcDbEntity
  8
0
  6
Continuous
 62
     7
370
    25
100
AcDbSpline
210
0.0
220
0.0
230
1.0
 70
     8
 71
     3
 72
    14
 73
    10
 74
     0
 42
0.00000001
 43
0.00000001
 40
0.0
 40
0.0
 40
0.0
 40
0.0
 40
0.0907475556428928
 40
0.2288563839003356
 40
0.4128530542467168
 40
0.6071420004334067
 40
0.7878282318393922
 40
0.9626611221744487
 40
0.9999999999999999
 40
0.9999999999999999
 40
0.9999999999999999
 40
0.9999999999999999
 10
2045.325460923733
 20
2599.379327213112
 30
0.0
 10
2045.113909756885
 20
2599.396159746661
 30
0.0
 10
2044.580398581715
 20
2599.438609735892
 30
0.0
 10
2043.719912941165
 20
2599.480570026104
 30
0.0
 10
2042.670112580984
 20
2599.517502171321
 30
0.0
 10
2041.435496063461
 20
2599.543227737943
 30
0.0
 10
2040.098989846258
 20
2599.559073656578
 30
0.0
 10
2039.088959722671
 20
2599.563885326816
 30
0.0
 10
2038.541757506836
 20
2599.564124910313
 30
0.0
 10
2038.445458565369
 20
2599.564167073221
 30
0.0
  0
SPLINE
  5
1B6
330
1F
100
AcDbEntity
  8
0
  6
Continuous
 62
     7
370
    25
100
AcDbSpline
210
0.0
220
0.0
230
1.0
 70
     8
 71
     3
 72
    13
 73
     9
 74
     0
 42
0.00000001
 43
0.00000001
 40
0.0
 40
0.0
 40
0.0
 40
0.0
 40
0.0971790056424371
 40
0.2845710337030954
 40
0.4775192778490218
 40
0.6890792027700346
 40
0.8771625243242644
 40
1.0
 40
1.0
 40
1.0
 40
1.0
 10
2038.445458565369
 20
2599.564167073221
 30
0.0
 10
2038.19843749366
 20
2599.563905304345
 30
0.0
 10
2037.475081237253
 20
2599.563138761826
 30
0.0
 10
2036.282482825126
 20
2599.554264289762
 30
0.0
 10
2034.912409207471
 20
2599.534024945493
 30
0.0
 10
2033.678104082211
 20
2599.50000799957
 30
0.0
 10
2032.64833539852
 20
2599.460504786324
 30
0.0
 10
2031.941932094426
 20
2599.406884625919
 30
0.0
 10
2031.662848805508
 20
2599.385700564872
 30
0.0
  0
LINE
  5
1B7
330
1F
100
AcDbEntity
  8
0
  6
Continuous
 62
     7
370
    25
100
AcDbLine
 10
2042.9454585654
 20
2594.2716549046
 30
0.0
 11
2042.9454585654
 21
2596.5321061976
 31
0.0
  0
LINE
  5
1B8
330
1F
100
AcDbEntity
  8
0
  6
Continuous
 62
     7
370
    25
100
AcDbLine
 10
2033.9454585654
 20
2596.5321061976
 30
0.0
 11
2033.9454585654
 21
2594.2716549046
 31
0.0
  0
SPLINE
  5
1B9
330
1F
100
AcDbEntity
  8
0
  6
Continuous
 62
     7
370
    25
100
AcDbSpline
210
0.0
220
0.0
230
1.0
 70
     8
 71
     3
 72
    16
 73
    12
 74
     0
 42
0.00000001
 43
0.00000001
 40
0.0
 40
0.0
 40
0.0
 40
0.0
 40
0.0490847390192432
 40
0.1518473045648978
 40
0.2358684990992235
 40
0.3090519161652371
 40
0.3734786142106723
 40
0.4370328180322909
 40
0.5258016248246652
 40
0.7068629655465081
 40
1.0
 40
1.0
 40
1.0
 40
1.0
 10
3647.425074168677
 20
2597.982522916304
 30
0.0
 10
3647.429765765412
 20
2598.048713308526
 30
0.0
 10
3647.44427957016
 20
2598.253478228291
 30
0.0
 10
3647.317101818789
 20
2598.557694887937
 30
0.0
 10
3647.112885409263
 20
2598.833758526958
 30
0.0
 10
3646.891873803396
 20
2599.007097001597
 30
0.0
 10
3646.700107235655
 20
2599.104101014099
 30
0.0
 10
3646.542893347472
 20
2599.158174379456
 30
0.0
 10
3646.377542172418
 20
2599.196807200827
 30
0.0
 10
3646.181828237492
 20
2599.226544086348
 30
0.0
 10
3645.954213845385
 20
2599.243759755619
 30
0.0
 10
3645.81350858068
 20
2599.254402032145
 30
0.0
  0
SPLINE
  5
1BA
330
1F
100
AcDbEntity
  8
0
  6
Continuous
 62
     7
370
    25
100
AcDbSpline
210
0.0
220
0.0
230
1.0
 70
     8
 71
     3
 72
    14
 73
    10
 74
     0
 42
0.00000001
 43
0.00000001
 40
0.0
 40
0.0
 40
0.0
 40
0.0
 40
0.4380448777708073
 40
0.5889072021157047
 40
0.6648524542795089
 40
0.7505291071918716
 40
0.8517030556682197
 40
0.9620267314757373
 40
1.0
 40
1.0
 40
1.0
 40
1.0
 10
3629.029691039089
 20
2599.253278350217
 30
0.0
 10
3628.85758741921
 20
2599.238587326899
 30
0.0
 10
3628.626211442911
 20
2599.218836726269
 30
0.0
 10
3628.326901395457
 20
2599.158689060079
 30
0.0
 10
3628.053382146914
 20
2599.042171355388
 30
0.0
 10
3627.789180317129
 20
2598.852245027211
 30
0.0
 10
3627.560956382534
 20
2598.539748892933
 30
0.0
 10
3627.436910392506
 20
2598.217783907754
 30
0.0
 10
3627.458389890544
 20
2598.022470086382
 30
0.0
 10
3627.463889981935
 20
2597.972457564418
 30
0.0
  0
LINE
  5
1BB
330
1F
100
AcDbEntity
  8
0
  6
Continuous
 62
     7
370
    25
100
AcDbLine
 10
3647.4454585654
 20
2597.2318663251
 30
0.0
 11
3647.4454585654
 21
2597.9820571024
 31
0.0
  0
LINE
  5
1BC
330
1F
100
AcDbEntity
  8
0
  6
Continuous
 62
     7
370
    25
100
AcDbLine
 10
3627.4454585654
 20
2597.9820571024
 30
0.0
 11
3627.4454585654
 21
2597.2318663251
 31
0.0
  0
LINE
  5
1BD
330
1F
100
AcDbEntity
  8
0
  6
Continuous
 62
     7
370
    25
100
AcDbLine
 10
3645.9418327899
 20
2599.2468479058
 30
0.0
 11
3644.4154268517
 21
2599.3742254403
 31
0.0
  0
LINE
  5
1BE
330
1F
100
AcDbEntity
  8
0
  6
Continuous
 62
     7
370
    25
100
AcDbLine
 10
3630.475490279
 20
2599.3742254403
 30
0.0
 11
3628.9490843408
 21
2599.2468479058
 31
0.0
  0
SPLINE
  5
1BF
330
1F
100
AcDbEntity
  8
0
  6
Continuous
 62
     7
370
    25
100
AcDbSpline
210
0.0
220
0.0
230
1.0
 70
     8
 71
     3
 72
    14
 73
    10
 74
     0
 42
0.00000001
 43
0.00000001
 40
0.0
 40
0.0
 40
0.0
 40
0.0
 40
0.0907475556428811
 40
0.2288563839002901
 40
0.4128530542467082
 40
0.6071420004333882
 40
0.7878282318393893
 40
0.9626611221744196
 40
1.0
 40
1.0
 40
1.0
 40
1.0
 10
3644.325460923733
 20
2599.379327213093
 30
0.0
 10
3644.113909756884
 20
2599.396159746642
 30
0.0
 10
3643.580398581715
 20
2599.438609735873
 30
0.0
 10
3642.719912941164
 20
2599.480570026084
 30
0.0
 10
3641.670112580984
 20
2599.517502171302
 30
0.0
 10
3640.43549606346
 20
2599.543227737924
 30
0.0
 10
3639.098989846258
 20
2599.559073656558
 30
0.0
 10
3638.08895972267
 20
2599.563885326797
 30
0.0
 10
3637.541757506835
 20
2599.564124910293
 30
0.0
 10
3637.445458565369
 20
2599.564167073202
 30
0.0
  0
SPLINE
  5
1C0
330
1F
100
AcDbEntity
  8
0
  6
Continuous
 62
     7
370
    25
100
AcDbSpline
210
0.0
220
0.0
230
1.0
 70
     8
 71
     3
 72
    13
 73
     9
 74
     0
 42
0.00000001
 43
0.00000001
 40
0.0
 40
0.0
 40
0.0
 40
0.0
 40
0.0971790056424098
 40
0.2845710337030858
 40
0.4775192778489894
 40
0.6890792027700182
 40
0.877162524324275
 40
1.0
 40
1.0
 40
1.0
 40
1.0
 10
3637.445458565369
 20
2599.564167073202
 30
0.0
 10
3637.198437493659
 20
2599.563905304326
 30
0.0
 10
3636.475081237253
 20
2599.563138761807
 30
0.0
 10
3635.282482825126
 20
2599.554264289743
 30
0.0
 10
3633.912409207471
 20
2599.534024945473
 30
0.0
 10
3632.678104082211
 20
2599.50000799955
 30
0.0
 10
3631.64833539852
 20
2599.460504786305
 30
0.0
 10
3630.941932094426
 20
2599.4068846259
 30
0.0
 10
3630.662848805507
 20
2599.385700564853
 30
0.0
  0
LINE
  5
1C1
330
1F
100
AcDbEntity
  8
0
  6
Continuous
 62
     7
370
    25
100
AcDbLine
 10
3641.9454585654
 20
2594.2716549046
 30
0.0
 11
3641.9454585654
 21
2596.5321061976
 31
0.0
  0
LINE
  5
1C2
330
1F
100
AcDbEntity
  8
0
  6
Continuous
 62
     7
370
    25
100
AcDbLine
 10
3632.9454585654
 20
2596.5321061976
 30
0.0
 11
3632.9454585654
 21
2594.2716549046
 31
0.0
  0
SPLINE
  5
1C3
330
1F
100
AcDbEntity
  8
0
  6
Continuous
 62
     7
370
    25
100
AcDbSpline
210
0.0
220
0.0
230
1.0
 70
     8
 71
     3
 72
    16
 73
    12
 74
     0
 42
0.00000001
 43
0.00000001
 40
0.0
 40
0.0
 40
0.0
 40
0.0
 40
0.0490847390192498
 40
0.1518473045648566
 40
0.235868499099161
 40
0.3090519161652311
 40
0.3734786142106117
 40
0.4370328180322468
 40
0.5258016248246096
 40
0.7068629655464104
 40
1.0
 40
1.0
 40
1.0
 40
1.0
 10
2920.42507416868
 20
2597.982522916314
 30
0.0
 10
2920.429765765414
 20
2598.048713308536
 30
0.0
 10
2920.444279570162
 20
2598.2534782283
 30
0.0
 10
2920.317101818792
 20
2598.557694887947
 30
0.0
 10
2920.112885409265
 20
2598.833758526968
 30
0.0
 10
2919.891873803399
 20
2599.007097001607
 30
0.0
 10
2919.700107235657
 20
2599.104101014109
 30
0.0
 10
2919.542893347474
 20
2599.158174379465
 30
0.0
 10
2919.37754217242
 20
2599.196807200837
 30
0.0
 10
2919.181828237495
 20
2599.226544086357
 30
0.0
 10
2918.954213845386
 20
2599.243759755629
 30
0.0
 10
2918.813508580682
 20
2599.254402032154
 30
0.0
  0
SPLINE
  5
1C4
330
1F
100
AcDbEntity
  8
0
  6
Continuous
 62
     7
370
    25
100
AcDbSpline
210
0.0
220
0.0
230
1.0
 70
     8
 71
     3
 72
    14
 73
    10
 74
     0
 42
0.00000001
 43
0.00000001
 40
0.0
 40
0.0
 40
0.0
 40
0.0
 40
0.4380448777708126
 40
0.5889072021157118
 40
0.6648524542795518
 40
0.7505291071918379
 40
0.8517030556682188
 40
0.9620267314757377
 40
1.0
 40
1.0
 40
1.0
 40
1.0
 10
2902.029691039091
 20
2599.253278350227
 30
0.0
 10
2901.857587419213
 20
2599.238587326908
 30
0.0
 10
2901.626211442914
 20
2599.218836726279
 30
0.0
 10
2901.326901395459
 20
2599.158689060089
 30
0.0
 10
2901.053382146916
 20
2599.042171355398
 30
0.0
 10
2900.789180317131
 20
2598.852245027221
 30
0.0
 10
2900.560956382538
 20
2598.539748892943
 30
0.0
 10
2900.436910392508
 20
2598.217783907763
 30
0.0
 10
2900.458389890546
 20
2598.022470086391
 30
0.0
 10
2900.463889981937
 20
2597.972457564428
 30
0.0
  0
LINE
  5
1C5
330
1F
100
AcDbEntity
  8
0
  6
Continuous
 62
     7
370
    25
100
AcDbLine
 10
2920.4454585654
 20
2597.2318663251
 30
0.0
 11
2920.4454585654
 21
2597.9820571024
 31
0.0
  0
LINE
  5
1C6
330
1F
100
AcDbEntity
  8
0
  6
Continuous
 62
     7
370
    25
100
AcDbLine
 10
2900.4454585654
 20
2597.9820571024
 30
0.0
 11
2900.4454585654
 21
2597.2318663251
 31
0.0
  0
LINE
  5
1C7
330
1F
100
AcDbEntity
  8
0
  6
Continuous
 62
     7
370
    25
100
AcDbLine
 10
2918.9418327899
 20
2599.2468479058
 30
0.0
 11
2917.4154268517
 21
2599.3742254403
 31
0.0
  0
LINE
  5
1C8
330
1F
100
AcDbEntity
  8
0
  6
Continuous
 62
     7
370
    25
100
AcDbLine
 10
2903.475490279
 20
2599.3742254403
 30
0.0
 11
2901.9490843408
 21
2599.2468479058
 31
0.0
  0
SPLINE
  5
1C9
330
1F
100
AcDbEntity
  8
0
  6
Continuous
 62
     7
370
    25
100
AcDbSpline
210
0.0
220
0.0
230
1.0
 70
     8
 71
     3
 72
    14
 73
    10
 74
     0
 42
0.00000001
 43
0.00000001
 40
0.0
 40
0.0
 40
0.0
 40
0.0
 40
0.090747555642709
 40
0.2288563839001275
 40
0.412853054246392
 40
0.6071420004331245
 40
0.7878282318391205
 40
0.962661122174161
 40
1.0
 40
1.0
 40
1.0
 40
1.0
 10
2917.325460923735
 20
2599.379327213103
 30
0.0
 10
2917.113909756887
 20
2599.396159746651
 30
0.0
 10
2916.580398581718
 20
2599.438609735882
 30
0.0
 10
2915.719912941169
 20
2599.480570026094
 30
0.0
 10
2914.670112580987
 20
2599.517502171311
 30
0.0
 10
2913.435496063465
 20
2599.543227737934
 30
0.0
 10
2912.098989846262
 20
2599.559073656568
 30
0.0
 10
2911.088959722675
 20
2599.563885326807
 30
0.0
 10
2910.541757506838
 20
2599.564124910303
 30
0.0
 10
2910.445458565371
 20
2599.564167073212
 30
0.0
  0
SPLINE
  5
1CA
330
1F
100
AcDbEntity
  8
0
  6
Continuous
 62
     7
370
    25
100
AcDbSpline
210
0.0
220
0.0
230
1.0
 70
     8
 71
     3
 72
    13
 73
     9
 74
     0
 42
0.00000001
 43
0.00000001
 40
0.0
 40
0.0
 40
0.0
 40
0.0
 40
0.0971790056424356
 40
0.2845710337031054
 40
0.4775192778490289
 40
0.6890792027700264
 40
0.8771625243242535
 40
1.0
 40
1.0
 40
1.0
 40
1.0
 10
2910.445458565371
 20
2599.564167073212
 30
0.0
 10
2910.198437493662
 20
2599.563905304335
 30
0.0
 10
2909.475081237256
 20
2599.563138761816
 30
0.0
 10
2908.282482825128
 20
2599.554264289752
 30
0.0
 10
2906.912409207473
 20
2599.534024945483
 30
0.0
 10
2905.678104082214
 20
2599.50000799956
 30
0.0
 10
2904.648335398522
 20
2599.460504786315
 30
0.0
 10
2903.941932094427
 20
2599.40688462591
 30
0.0
 10
2903.662848805511
 20
2599.385700564862
 30
0.0
  0
LINE
  5
1CB
330
1F
100
AcDbEntity
  8
0
  6
Continuous
 62
     7
370
    25
100
AcDbLine
 10
2914.9454585654
 20
2594.2716549046
 30
0.0
 11
2914.9454585654
 21
2596.5321061976
 31
0.0
  0
LINE
  5
1CC
330
1F
100
AcDbEntity
  8
0
  6
Continuous
 62
     7
370
    25
100
AcDbLine
 10
2905.9454585654
 20
2596.5321061976
 30
0.0
 11
2905.9454585654
 21
2594.2716549046
 31
0.0
  0
SPLINE
  5
1CD
330
1F
100
AcDbEntity
  8
0
  6
Continuous
 62
     7
370
    25
100
AcDbSpline
210
0.0
220
0.0
230
1.0
 70
     8
 71
     3
 72
    16
 73
    12
 74
     0
 42
0.00000001
 43
0.00000001
 40
0.0
 40
0.0
 40
0.0
 40
0.0
 40
0.0490847390192913
 40
0.1518473045648779
 40
0.2358684990991711
 40
0.3090519161652094
 40
0.3734786142105929
 40
0.4370328180322315
 40
0.5258016248245991
 40
0.7068629655464306
 40
1.0
 40
1.0
 40
1.0
 40
1.0
 10
1321.42507416868
 20
2597.982522916334
 30
0.0
 10
1321.429765765414
 20
2598.048713308555
 30
0.0
 10
1321.444279570162
 20
2598.253478228319
 30
0.0
 10
1321.317101818791
 20
2598.557694887966
 30
0.0
 10
1321.112885409265
 20
2598.833758526987
 30
0.0
 10
1320.891873803399
 20
2599.007097001626
 30
0.0
 10
1320.700107235657
 20
2599.104101014128
 30
0.0
 10
1320.542893347474
 20
2599.158174379485
 30
0.0
 10
1320.37754217242
 20
2599.196807200857
 30
0.0
 10
1320.181828237494
 20
2599.226544086376
 30
0.0
 10
1319.954213845386
 20
2599.243759755648
 30
0.0
 10
1319.813508580681
 20
2599.254402032174
 30
0.0
  0
SPLINE
  5
1CE
330
1F
100
AcDbEntity
  8
0
  6
Continuous
 62
     7
370
    25
100
AcDbSpline
210
0.0
220
0.0
230
1.0
 70
     8
 71
     3
 72
    15
 73
    11
 74
     0
 42
0.00000001
 43
0.00000001
 40
0.0
 40
0.0
 40
0.0
 40
0.0
 40
0.0366146332909092
 40
0.4586206584971821
 40
0.603959214158768
 40
0.6771237587644509
 40
0.7596633924487806
 40
0.8571328939031009
 40
0.9634171087776203
 40
1.0
 40
1.0
 40
1.0
 40
1.0
 10
1303.095706343186
 20
2599.257096001321
 30
0.0
 10
1303.073357319808
 20
2599.255823552651
 30
0.0
 10
1302.793422143696
 20
2599.239885355417
 30
0.0
 10
1302.637947923137
 20
2599.218833256155
 30
0.0
 10
1302.326115586832
 20
2599.158689292449
 30
0.0
 10
1302.053551866995
 20
2599.042171305235
 30
0.0
 10
1301.789122930556
 20
2598.852245044208
 30
0.0
 10
1301.56097497193
 20
2598.539748887466
 30
0.0
 10
1301.436909000226
 20
2598.217783908194
 30
0.0
 10
1301.458389606714
 20
2598.022470086494
 30
0.0
 10
1301.463889981937
 20
2597.972457564447
 30
0.0
  0
LINE
  5
1CF
330
1F
100
AcDbEntity
  8
0
  6
Continuous
 62
     7
370
    25
100
AcDbLine
 10
1321.4454585654
 20
2597.2318663251
 30
0.0
 11
1321.4454585654
 21
2597.9820571024
 31
0.0
  0
LINE
  5
1D0
330
1F
100
AcDbEntity
  8
0
  6
Continuous
 62
     7
370
    25
100
AcDbLine
 10
1301.4454585654
 20
2597.9820571024
 30
0.0
 11
1301.4454585654
 21
2597.2318663251
 31
0.0
  0
LINE
  5
1D1
330
1F
100
AcDbEntity
  8
0
  6
Continuous
 62
     7
370
    25
100
AcDbLine
 10
1319.9418327899
 20
2599.2468479058
 30
0.0
 11
1318.4154268517
 21
2599.3742254403
 31
0.0
  0
LINE
  5
1D2
330
1F
100
AcDbEntity
  8
0
  6
Continuous
 62
     7
370
    25
100
AcDbLine
 10
1304.475490279
 20
2599.3742254403
 30
0.0
 11
1302.9490843408
 21
2599.2468479058
 31
0.0
  0
SPLINE
  5
1D3
330
1F
100
AcDbEntity
  8
0
  6
Continuous
 62
     7
370
    25
100
AcDbSpline
210
0.0
220
0.0
230
1.0
 70
     8
 71
     3
 72
    14
 73
    10
 74
     0
 42
0.00000001
 43
0.00000001
 40
0.0
 40
0.0
 40
0.0
 40
0.0
 40
0.0907475556428443
 40
0.2288563839002862
 40
0.4128530542466447
 40
0.6071420004333389
 40
0.7878282318393292
 40
0.9626611221743819
 40
1.0
 40
1.0
 40
1.0
 40
1.0
 10
1318.325460923735
 20
2599.379327213122
 30
0.0
 10
1318.113909756887
 20
2599.39615974667
 30
0.0
 10
1317.580398581718
 20
2599.438609735902
 30
0.0
 10
1316.719912941168
 20
2599.480570026113
 30
0.0
 10
1315.670112580986
 20
2599.517502171331
 30
0.0
 10
1314.435496063463
 20
2599.543227737953
 30
0.0
 10
1313.098989846261
 20
2599.559073656587
 30
0.0
 10
1312.088959722673
 20
2599.563885326826
 30
0.0
 10
1311.541757506838
 20
2599.564124910322
 30
0.0
 10
1311.445458565371
 20
2599.564167073231
 30
0.0
  0
SPLINE
  5
1D4
330
1F
100
AcDbEntity
  8
0
  6
Continuous
 62
     7
370
    25
100
AcDbSpline
210
0.0
220
0.0
230
1.0
 70
     8
 71
     3
 72
    13
 73
     9
 74
     0
 42
0.00000001
 43
0.00000001
 40
0.0
 40
0.0
 40
0.0
 40
0.0
 40
0.0971790056424374
 40
0.2845710337030978
 40
0.4775192778490248
 40
0.6890792027700334
 40
0.87716252432426
 40
1.0
 40
1.0
 40
1.0
 40
1.0
 10
1311.445458565371
 20
2599.564167073231
 30
0.0
 10
1311.198437493662
 20
2599.563905304355
 30
0.0
 10
1310.475081237256
 20
2599.563138761835
 30
0.0
 10
1309.282482825128
 20
2599.554264289772
 30
0.0
 10
1307.912409207473
 20
2599.534024945503
 30
0.0
 10
1306.678104082214
 20
2599.50000799958
 30
0.0
 10
1305.648335398522
 20
2599.460504786334
 30
0.0
 10
1304.941932094428
 20
2599.40688462593
 30
0.0
 10
1304.66284880551
 20
2599.385700564882
 30
0.0
  0
LINE
  5
1D5
330
1F
100
AcDbEntity
  8
0
  6
Continuous
 62
     7
370
    25
100
AcDbLine
 10
1315.9454585654
 20
2594.2716549046
 30
0.0
 11
1315.9454585654
 21
2596.5321061976
 31
0.0
  0
LINE
  5
1D6
330
1F
100
AcDbEntity
  8
0
  6
Continuous
 62
     7
370
    25
100
AcDbLine
 10
1306.9454585654
 20
2596.5321061976
 30
0.0
 11
1306.9454585654
 21
2594.2716549046
 31
0.0
  0
LINE
  5
1D7
330
1F
100
AcDbEntity
  8
0
  6
Continuous
 62
     7
370
    25
100
AcDbLine
 10
3674.4454585654
 20
2594.2716549046
 30
0.0
 11
3674.4454585654
 21
2197.2716549046
 31
0.0
  0
LINE
  5
1D8
330
1F
100
AcDbEntity
  8
0
  6
Continuous
 62
     7
370
    25
100
AcDbLine
 10
1274.4454585654
 20
2197.2716549046
 30
0.0
 11
3674.4454585654
 21
2197.2716549046
 31
0.0
  0
LINE
  5
1D9
330
1F
100
AcDbEntity
  8
0
  6
Continuous
 62
     7
370
    25
100
AcDbLine
 10
1274.4454585654
 20
2594.2716549046
 30
0.0
 11
1274.4454585654
 21
2197.2716549046
 31
0.0
  0
LINE
  5
1DA
330
1F
100
AcDbEntity
  8
0
  6
Continuous
 62
     7
370
    25
100
AcDbLine
 10
3674.4454585654
 20
2594.2716549046
 30
0.0
 11
1274.4454585654
 21
2594.2716549046
 31
0.0
  0
LINE
  5
1DB
330
1F
100
AcDbEntity
  8
0
  6
Continuous
 62
     7
370
    25
100
AcDbLine
 10
3674.4454585654
 20
2194.2716549046
 30
0.0
 11
1274.4454585654
 21
2194.2716549046
 31
0.0
  0
LINE
  5
1DC
330
1F
100
AcDbEntity
  8
0
  6
Continuous
 62
     7
370
    25
100
AcDbLine
 10
3674.4454585654
 20
2197.2716549046
 30
0.0
 11
3674.4454585654
 21
2194.2716549046
 31
0.0
  0
LINE
  5
1DD
330
1F
100
AcDbEntity
  8
0
  6
Continuous
 62
     7
370
    25
100
AcDbLine
 10
1274.4454585654
 20
2194.2716549046
 30
0.0
 11
1274.4454585654
 21
2197.2716549046
 31
0.0
  0
ARC
  5
1DE
330
1F
100
AcDbEntity
  8
0
  6
Continuous
 62
     7
370
    25
100
AcDbCircle
 10
2039.4487994323
 20
2789.2477776298
 30
0.0
 40
190.3064363901377
100
AcDbArc
 50
269.6979216021
 51
271.9898299979
  0
ARC
  5
1DF
330
1F
100
AcDbEntity
  8
0
  6
Continuous
 62
     7
370
    25
100
AcDbCircle
 10
2037.8807674914
 20
2833.5241370772
 30
0.0
 40
234.5808305660185
100
AcDbArc
 50
268.5008299501
 51
270.1379245117
  0
ARC
  5
1E0
330
1F
100
AcDbEntity
  8
0
  6
Continuous
 62
     7
370
    25
100
AcDbCircle
 10
2041.2883976532
 20
2679.5040519046
 30
0.0
 40
82.58290404758635
100
AcDbArc
 50
268.0271873052
 51
274.9717851391
  0
ARC
  5
1E1
330
1F
100
AcDbEntity
  8
0
  6
Continuous
 62
     7
370
    25
100
AcDbCircle
 10
2035.8258447337
 20
2688.0354228505
 30
0.0
 40
91.10299653500843
100
AcDbArc
 50
265.3532935281
 51
271.6477340277
  0
SPLINE
  5
1E2
330
1F
100
AcDbEntity
  8
0
  6
Continuous
 62
     7
370
    25
100
AcDbSpline
210
0.0
220
0.0
230
1.0
 70
     8
 71
     3
 72
    19
 73
    15
 74
     0
 42
0.00000001
 43
0.00000001
 40
0.0
 40
0.0
 40
0.0
 40
0.0
 40
0.0906600731282837
 40
0.2050734138974943
 40
0.2719074979494432
 40
0.3443210476358497
 40
0.4209983262120957
 40
0.4999999792228532
 40
0.5790016347260417
 40
0.655678919925993
 40
0.728092478313056
 40
0.7949265709541784
 40
0.9093399235673056
 40
1.0
 40
1.0
 40
1.0
 40
1.0
 10
2048.245458565369
 20
2597.031934860074
 30
0.0
 10
2048.168604520703
 20
2597.007709314837
 30
0.0
 10
2047.994760393207
 20
2596.952911043739
 30
0.0
 10
2046.674903170731
 20
2596.886527760358
 30
0.0
 10
2044.918984010535
 20
2596.836615149711
 30
0.0
 10
2043.095890405652
 20
2596.803484284432
 30
0.0
 10
2040.914524317429
 20
2596.781051426668
 30
0.0
 10
2038.521572113842
 20
2596.772789316636
 30
0.0
 10
2036.124049624959
 20
2596.78008728252
 30
0.0
 10
2033.929764294545
 20
2596.801639484261
 30
0.0
 10
2032.087425031521
 20
2596.834032633693
 30
0.0
 10
2030.302394606046
 20
2596.883232581893
 30
0.0
 10
2028.943699588444
 20
2596.949076769686
 30
0.0
 10
2028.737687244353
 20
2597.003798592473
 30
0.0
 10
2028.646612086794
 20
2597.027990340079
 30
0.0
  0
LINE
  5
1E3
330
1F
100
AcDbEntity
  8
0
  6
Continuous
 62
     7
370
    25
100
AcDbLine
 10
2031.475490279
 20
2599.3742254403
 30
0.0
 11
2031.5274519144
 21
2599.3783936567
 31
0.0
  0
LINE
  5
1E4
330
1F
100
AcDbEntity
  8
0
  6
Continuous
 62
     7
370
    25
100
AcDbLine
 10
2043.1356302781
 20
2599.43111244
 30
0.0
 11
2043.1346783417
 21
2599.4335859309
 31
0.0
  0
LWPOLYLINE
  5
1E5
330
1F
100
AcDbEntity
  8
0
  6
Continuous
 62
     7
370
    25
100
AcDbPolyline
 90
       23
 70
   128
 43
0.0
 10
2043.1346783417
 20
2599.4335859309
 10
2042.9194017973
 20
2599.4679610176
 10
2042.3439780752
 20
2599.499369837
 10
2041.4547281094
 20
2599.5252840161
 10
2040.3232354781
 20
2599.5436174939
 10
2039.04058401
 20
2599.5528944469
 10
2037.7100256422
 20
2599.5523680914
 10
2036.4386687613
 20
2599.5420807983
 10
2035.3288561037
 20
2599.5228606826
 10
2034.4699262854
 20
2599.4962549411
 10
2033.9310221483
 20
2599.4644053047
 10
2033.7555248428
 20
2599.4298756318
 10
2033.9575616959
 20
2599.3954455205
 10
2034.5208689783
 20
2599.3638865544
 10
2035.4001011149
 20
2599.3377391931
 10
2036.5244809511
 20
2599.3191082686
 10
2037.8034972299
 20
2599.3094935484
 10
2039.1341906426
 20
2599.3096690062
 10
2040.4094419316
 20
2599.3196205178
 10
2041.5265948654
 20
2599.3385469983
 10
2042.3957199443
 20
2599.3649248882
 10
2042.9468536198
 20
2599.3966307983
 10
2043.1356302781
 20
2599.43111244
  0
SPLINE
  5
1E6
330
1F
100
AcDbEntity
  8
0
  6
Continuous
 62
     7
370
    25
100
AcDbSpline
210
0.0
220
0.0
230
1.0
 70
     8
 71
     3
 72
     9
 73
     5
 74
     0
 42
0.00000001
 43
0.00000001
 40
0.0
 40
0.0
 40
0.0
 40
0.0
 40
0.724693798649193
 40
1.0
 40
1.0
 40
1.0
 40
1.0
 10
2033.947887259408
 20
2596.535975815341
 30
0.0
 10
2033.943212180519
 20
2596.609347136471
 30
0.0
 10
2033.93676107124
 20
2596.710591719033
 30
0.0
 10
2033.872422639852
 20
2596.785078969114
 30
0.0
 10
2033.854709870705
 20
2596.805585770983
 30
0.0
  0
LINE
  5
1E7
330
1F
100
AcDbEntity
  8
0
  6
Continuous
 62
     7
370
    25
100
AcDbLine
 10
2035.9996091614
 20
2599.4176313116
 30
0.0
 11
2037.9304585654
 21
2599.4176313116
 31
0.0
  0
LINE
  5
1E8
330
1F
100
AcDbEntity
  8
0
  6
Continuous
 62
     7
370
    25
100
AcDbLine
 10
2037.9304585654
 20
2599.4176313116
 30
0.0
 11
2037.9304585654
 21
2599.3670875666
 31
0.0
  0
ARC
  5
1E9
330
1F
100
AcDbEntity
  8
0
  6
Continuous
 62
     7
370
    25
100
AcDbCircle
 10
2038.4454585654
 20
2693.6549486138
 30
0.0
 40
94.28926750085182
100
AcDbArc
 50
269.6870537448
 51
270.3129462551
  0
LINE
  5
1EA
330
1F
100
AcDbEntity
  8
0
  6
Continuous
 62
     7
370
    25
100
AcDbLine
 10
2038.9604585654
 20
2599.3670875666
 30
0.0
 11
2038.9604585654
 21
2599.4176313116
 31
0.0
  0
LINE
  5
1EB
330
1F
100
AcDbEntity
  8
0
  6
Continuous
 62
     7
370
    25
100
AcDbLine
 10
2038.9604585654
 20
2599.4176313116
 30
0.0
 11
2040.8913079693
 21
2599.4176313116
 31
0.0
  0
LWPOLYLINE
  5
1EC
330
1F
100
AcDbEntity
  8
0
  6
Continuous
 62
     7
370
    25
100
AcDbPolyline
 90
        9
 70
   128
 43
0.0
 10
2040.8913079693
 20
2599.4445935684
 10
2040.9147242752
 20
2599.44125516
 10
2040.9314953662
 20
2599.4378894559
 10
2040.9415761084
 20
2599.4345055136
 10
2040.9449393728
 20
2599.43111244
 10
2040.9415761084
 20
2599.4277193664
 10
2040.9314953662
 20
2599.4243354241
 10
2040.9147242752
 20
2599.42096972
 10
2040.8913079693
 20
2599.4176313116
  0
LINE
  5
1ED
330
1F
100
AcDbEntity
  8
0
  6
Continuous
 62
     7
370
    25
100
AcDbLine
 10
2040.8913079693
 20
2599.4445935684
 30
0.0
 11
2038.9604585654
 21
2599.4445935684
 31
0.0
  0
LINE
  5
1EE
330
1F
100
AcDbEntity
  8
0
  6
Continuous
 62
     7
370
    25
100
AcDbLine
 10
2038.9604585654
 20
2599.4445935684
 30
0.0
 11
2038.9604585654
 21
2599.4951373134
 31
0.0
  0
ARC
  5
1EF
330
1F
100
AcDbEntity
  8
0
  6
Continuous
 62
     7
370
    25
100
AcDbCircle
 10
2038.4454585653
 20
2505.2072762155
 30
0.0
 40
94.28926755164906
100
AcDbArc
 50
89.687053745
 51
90.3129462549
  0
LINE
  5
1F0
330
1F
100
AcDbEntity
  8
0
  6
Continuous
 62
     7
370
    25
100
AcDbLine
 10
2037.9304585654
 20
2599.4951373134
 30
0.0
 11
2037.9304585654
 21
2599.4445935684
 31
0.0
  0
LINE
  5
1F1
330
1F
100
AcDbEntity
  8
0
  6
Continuous
 62
     7
370
    25
100
AcDbLine
 10
2037.9304585654
 20
2599.4445935684
 30
0.0
 11
2035.9996091614
 21
2599.4445935684
 31
0.0
  0
LWPOLYLINE
  5
1F2
330
1F
100
AcDbEntity
  8
0
  6
Continuous
 62
     7
370
    25
100
AcDbPolyline
 90
        9
 70
   128
 43
0.0
 10
2035.9996091614
 20
2599.4176313116
 10
2035.9761928556
 20
2599.42096972
 10
2035.9594217646
 20
2599.4243354241
 10
2035.9493410224
 20
2599.4277193664
 10
2035.9459777579
 20
2599.43111244
 10
2035.9493410224
 20
2599.4345055136
 10
2035.9594217646
 20
2599.4378894559
 10
2035.9761928556
 20
2599.44125516
 10
2035.9996091614
 20
2599.4445935684
  0
LINE
  5
1F3
330
1F
100
AcDbEntity
  8
0
  6
Continuous
 62
     7
370
    25
100
AcDbLine
 10
2036.0133329309
 20
2599.4176313116
 30
0.0
 11
2035.9996091614
 21
2599.4445935684
 31
0.0
  0
LINE
  5
1F4
330
1F
100
AcDbEntity
  8
0
  6
Continuous
 62
     7
370
    25
100
AcDbLine
 10
2038.9604585654
 20
2599.4445935684
 30
0.0
 11
2038.9604585654
 21
2599.4176313116
 31
0.0
  0
LINE
  5
1F5
330
1F
100
AcDbEntity
  8
0
  6
Continuous
 62
     7
370
    25
100
AcDbLine
 10
2037.9304585654
 20
2599.4445935684
 30
0.0
 11
2037.9304585654
 21
2599.4176313116
 31
0.0
  0
ARC
  5
1F6
330
1F
100
AcDbEntity
  8
0
  6
Continuous
 62
     7
370
    25
100
AcDbCircle
 10
3638.4487994325
 20
2789.2477776142
 30
0.0
 40
190.3064363745235
100
AcDbArc
 50
269.697921602
 51
271.989829998
  0
ARC
  5
1F7
330
1F
100
AcDbEntity
  8
0
  6
Continuous
 62
     7
370
    25
100
AcDbCircle
 10
3636.8807674913
 20
2833.5241370747
 30
0.0
 40
234.5808305635757
100
AcDbArc
 50
268.5008299501
 51
270.1379245117
  0
ARC
  5
1F8
330
1F
100
AcDbEntity
  8
0
  6
Continuous
 62
     7
370
    25
100
AcDbCircle
 10
3640.2883976532
 20
2679.5040519047
 30
0.0
 40
82.58290404772768
100
AcDbArc
 50
268.0271873052
 51
274.9717851391
  0
ARC
  5
1F9
330
1F
100
AcDbEntity
  8
0
  6
Continuous
 62
     7
370
    25
100
AcDbCircle
 10
3634.8258447337
 20
2688.0354228508
 30
0.0
 40
91.10299653530652
100
AcDbArc
 50
265.3532935281
 51
271.6477340277
  0
SPLINE
  5
1FA
330
1F
100
AcDbEntity
  8
0
  6
Continuous
 62
     7
370
    25
100
AcDbSpline
210
0.0
220
0.0
230
1.0
 70
     8
 71
     3
 72
    19
 73
    15
 74
     0
 42
0.00000001
 43
0.00000001
 40
0.0
 40
0.0
 40
0.0
 40
0.0
 40
0.0906600731282842
 40
0.2050734138974933
 40
0.2719074979494422
 40
0.3443210476358516
 40
0.4209983262121011
 40
0.4999999792228442
 40
0.5790016347260327
 40
0.6556789199259941
 40
0.7280924783130511
 40
0.794926570954176
 40
0.9093399235673066
 40
0.9999999999999999
 40
0.9999999999999999
 40
0.9999999999999999
 40
0.9999999999999999
 10
3647.245458565369
 20
2597.031934860054
 30
0.0
 10
3647.168604520702
 20
2597.007709314818
 30
0.0
 10
3646.994760393207
 20
2596.95291104372
 30
0.0
 10
3645.67490317073
 20
2596.886527760338
 30
0.0
 10
3643.918984010535
 20
2596.836615149691
 30
0.0
 10
3642.095890405651
 20
2596.803484284413
 30
0.0
 10
3639.914524317429
 20
2596.781051426649
 30
0.0
 10
3637.521572113842
 20
2596.772789316617
 30
0.0
 10
3635.124049624959
 20
2596.7800872825
 30
0.0
 10
3632.929764294544
 20
2596.801639484241
 30
0.0
 10
3631.087425031521
 20
2596.834032633674
 30
0.0
 10
3629.302394606046
 20
2596.883232581874
 30
0.0
 10
3627.943699588443
 20
2596.949076769667
 30
0.0
 10
3627.737687244353
 20
2597.003798592453
 30
0.0
 10
3627.646612086794
 20
2597.027990340059
 30
0.0
  0
LINE
  5
1FB
330
1F
100
AcDbEntity
  8
0
  6
Continuous
 62
     7
370
    25
100
AcDbLine
 10
3630.475490279
 20
2599.3742254403
 30
0.0
 11
3630.5274519144
 21
2599.3783936566
 31
0.0
  0
LINE
  5
1FC
330
1F
100
AcDbEntity
  8
0
  6
Continuous
 62
     7
370
    25
100
AcDbLine
 10
3642.1356302781
 20
2599.43111244
 30
0.0
 11
3642.1346783417
 21
2599.4335859309
 31
0.0
  0
LWPOLYLINE
  5
1FD
330
1F
100
AcDbEntity
  8
0
  6
Continuous
 62
     7
370
    25
100
AcDbPolyline
 90
       23
 70
   128
 43
0.0
 10
3642.1346783417
 20
2599.4335859309
 10
3641.9194017973
 20
2599.4679610176
 10
3641.3439780752
 20
2599.499369837
 10
3640.4547281094
 20
2599.5252840161
 10
3639.3232354781
 20
2599.5436174939
 10
3638.04058401
 20
2599.5528944469
 10
3636.7100256422
 20
2599.5523680914
 10
3635.4386687613
 20
2599.5420807982
 10
3634.3288561037
 20
2599.5228606825
 10
3633.4699262854
 20
2599.496254941
 10
3632.9310221483
 20
2599.4644053047
 10
3632.7555248428
 20
2599.4298756318
 10
3632.9575616959
 20
2599.3954455205
 10
3633.5208689783
 20
2599.3638865544
 10
3634.4001011149
 20
2599.3377391931
 10
3635.5244809511
 20
2599.3191082686
 10
3636.8034972299
 20
2599.3094935484
 10
3638.1341906426
 20
2599.3096690062
 10
3639.4094419316
 20
2599.3196205178
 10
3640.5265948654
 20
2599.3385469983
 10
3641.3957199443
 20
2599.3649248882
 10
3641.9468536198
 20
2599.3966307982
 10
3642.1356302781
 20
2599.43111244
  0
SPLINE
  5
1FE
330
1F
100
AcDbEntity
  8
0
  6
Continuous
 62
     7
370
    25
100
AcDbSpline
210
0.0
220
0.0
230
1.0
 70
     8
 71
     3
 72
     9
 73
     5
 74
     0
 42
0.00000001
 43
0.00000001
 40
0.0
 40
0.0
 40
0.0
 40
0.0
 40
0.7246937986488632
 40
1.0
 40
1.0
 40
1.0
 40
1.0
 10
3632.947887259408
 20
2596.535975815322
 30
0.0
 10
3632.943212180519
 20
2596.609347136451
 30
0.0
 10
3632.93676107124
 20
2596.710591719014
 30
0.0
 10
3632.872422639851
 20
2596.785078969095
 30
0.0
 10
3632.854709870705
 20
2596.805585770964
 30
0.0
  0
LINE
  5
1FF
330
1F
100
AcDbEntity
  8
0
  6
Continuous
 62
     7
370
    25
100
AcDbLine
 10
3634.9996091614
 20
2599.4176313116
 30
0.0
 11
3636.9304585654
 21
2599.4176313116
 31
0.0
  0
LINE
  5
200
330
1F
100
AcDbEntity
  8
0
  6
Continuous
 62
     7
370
    25
100
AcDbLine
 10
3636.9304585654
 20
2599.4176313116
 30
0.0
 11
3636.9304585654
 21
2599.3670875666
 31
0.0
  0
ARC
  5
201
330
1F
100
AcDbEntity
  8
0
  6
Continuous
 62
     7
370
    25
100
AcDbCircle
 10
3637.4454585654
 20
2693.6549486324
 30
0.0
 40
94.28926751952687
100
AcDbArc
 50
269.6870537449
 51
270.3129462551
  0
LINE
  5
202
330
1F
100
AcDbEntity
  8
0
  6
Continuous
 62
     7
370
    25
100
AcDbLine
 10
3637.9604585654
 20
2599.3670875666
 30
0.0
 11
3637.9604585654
 21
2599.4176313116
 31
0.0
  0
LINE
  5
203
330
1F
100
AcDbEntity
  8
0
  6
Continuous
 62
     7
370
    25
100
AcDbLine
 10
3637.9604585654
 20
2599.4176313116
 30
0.0
 11
3639.8913079693
 21
2599.4176313116
 31
0.0
  0
LWPOLYLINE
  5
204
330
1F
100
AcDbEntity
  8
0
  6
Continuous
 62
     7
370
    25
100
AcDbPolyline
 90
        9
 70
   128
 43
0.0
 10
3639.8913079693
 20
2599.4445935684
 10
3639.9147242752
 20
2599.44125516
 10
3639.9314953662
 20
2599.4378894558
 10
3639.9415761084
 20
2599.4345055136
 10
3639.9449393728
 20
2599.43111244
 10
3639.9415761084
 20
2599.4277193664
 10
3639.9314953662
 20
2599.4243354241
 10
3639.9147242752
 20
2599.42096972
 10
3639.8913079693
 20
2599.4176313116
  0
LINE
  5
205
330
1F
100
AcDbEntity
  8
0
  6
Continuous
 62
     7
370
    25
100
AcDbLine
 10
3639.8913079693
 20
2599.4445935684
 30
0.0
 11
3637.9604585654
 21
2599.4445935684
 31
0.0
  0
LINE
  5
206
330
1F
100
AcDbEntity
  8
0
  6
Continuous
 62
     7
370
    25
100
AcDbLine
 10
3637.9604585654
 20
2599.4445935684
 30
0.0
 11
3637.9604585654
 21
2599.4951373134
 31
0.0
  0
ARC
  5
207
330
1F
100
AcDbEntity
  8
0
  6
Continuous
 62
     7
370
    25
100
AcDbCircle
 10
3637.4454585653
 20
2505.2072762052
 30
0.0
 40
94.28926756188072
100
AcDbArc
 50
89.687053745
 51
90.3129462549
  0
LINE
  5
208
330
1F
100
AcDbEntity
  8
0
  6
Continuous
 62
     7
370
    25
100
AcDbLine
 10
3636.9304585654
 20
2599.4951373134
 30
0.0
 11
3636.9304585654
 21
2599.4445935684
 31
0.0
  0
LINE
  5
209
330
1F
100
AcDbEntity
  8
0
  6
Continuous
 62
     7
370
    25
100
AcDbLine
 10
3636.9304585654
 20
2599.4445935684
 30
0.0
 11
3634.9996091614
 21
2599.4445935684
 31
0.0
  0
LWPOLYLINE
  5
20A
330
1F
100
AcDbEntity
  8
0
  6
Continuous
 62
     7
370
    25
100
AcDbPolyline
 90
        9
 70
   128
 43
0.0
 10
3634.9996091614
 20
2599.4176313116
 10
3634.9761928556
 20
2599.42096972
 10
3634.9594217646
 20
2599.4243354241
 10
3634.9493410224
 20
2599.4277193664
 10
3634.9459777579
 20
2599.43111244
 10
3634.9493410224
 20
2599.4345055136
 10
3634.9594217646
 20
2599.4378894558
 10
3634.9761928556
 20
2599.44125516
 10
3634.9996091614
 20
2599.4445935684
  0
LINE
  5
20B
330
1F
100
AcDbEntity
  8
0
  6
Continuous
 62
     7
370
    25
100
AcDbLine
 10
3635.0133329309
 20
2599.4176313116
 30
0.0
 11
3634.9996091614
 21
2599.4445935684
 31
0.0
  0
LINE
  5
20C
330
1F
100
AcDbEntity
  8
0
  6
Continuous
 62
     7
370
    25
100
AcDbLine
 10
3637.9604585654
 20
2599.4445935684
 30
0.0
 11
3637.9604585654
 21
2599.4176313116
 31
0.0
  0
LINE
  5
20D
330
1F
100
AcDbEntity
  8
0
  6
Continuous
 62
     7
370
    25
100
AcDbLine
 10
3636.9304585654
 20
2599.4445935684
 30
0.0
 11
3636.9304585654
 21
2599.4176313116
 31
0.0
  0
ARC
  5
20E
330
1F
100
AcDbEntity
  8
0
  6
Continuous
 62
     7
370
    25
100
AcDbCircle
 10
2911.4487994323
 20
2789.247777629
 30
0.0
 40
190.3064363893207
100
AcDbArc
 50
269.6979216021
 51
271.9898299979
  0
ARC
  5
20F
330
1F
100
AcDbEntity
  8
0
  6
Continuous
 62
     7
370
    25
100
AcDbCircle
 10
2909.8807674915
 20
2833.5241370896
 30
0.0
 40
234.5808305783873
100
AcDbArc
 50
268.5008299502
 51
270.1379245117
  0
ARC
  5
210
330
1F
100
AcDbEntity
  8
0
  6
Continuous
 62
     7
370
    25
100
AcDbCircle
 10
2913.2883976532
 20
2679.5040519051
 30
0.0
 40
82.5829040480878
100
AcDbArc
 50
268.0271873052
 51
274.971785139
  0
ARC
  5
211
330
1F
100
AcDbEntity
  8
0
  6
Continuous
 62
     7
370
    25
100
AcDbCircle
 10
2907.8258447337
 20
2688.0354228509
 30
0.0
 40
91.10299653542597
100
AcDbArc
 50
265.3532935281
 51
271.6477340277
  0
SPLINE
  5
212
330
1F
100
AcDbEntity
  8
0
  6
Continuous
 62
     7
370
    25
100
AcDbSpline
210
0.0
220
0.0
230
1.0
 70
     8
 71
     3
 72
    19
 73
    15
 74
     0
 42
0.00000001
 43
0.00000001
 40
0.0
 40
0.0
 40
0.0
 40
0.0
 40
0.090660073128283
 40
0.2050734138974951
 40
0.271907497949444
 40
0.3443210476358474
 40
0.4209983262120967
 40
0.4999999792228541
 40
0.5790016347260424
 40
0.6556789199259969
 40
0.7280924783130538
 40
0.7949265709541785
 40
0.9093399235673056
 40
0.9999999999999999
 40
0.9999999999999999
 40
0.9999999999999999
 40
0.9999999999999999
 10
2920.245458565371
 20
2597.031934860064
 30
0.0
 10
2920.168604520704
 20
2597.007709314828
 30
0.0
 10
2919.994760393209
 20
2596.952911043729
 30
0.0
 10
2918.674903170733
 20
2596.886527760348
 30
0.0
 10
2916.918984010537
 20
2596.836615149701
 30
0.0
 10
2915.095890405655
 20
2596.803484284422
 30
0.0
 10
2912.914524317432
 20
2596.781051426658
 30
0.0
 10
2910.521572113844
 20
2596.772789316626
 30
0.0
 10
2908.124049624961
 20
2596.78008728251
 30
0.0
 10
2905.929764294546
 20
2596.801639484251
 30
0.0
 10
2904.087425031523
 20
2596.834032633684
 30
0.0
 10
2902.302394606047
 20
2596.883232581883
 30
0.0
 10
2900.943699588446
 20
2596.949076769676
 30
0.0
 10
2900.737687244355
 20
2597.003798592463
 30
0.0
 10
2900.646612086797
 20
2597.027990340069
 30
0.0
  0
LINE
  5
213
330
1F
100
AcDbEntity
  8
0
  6
Continuous
 62
     7
370
    25
100
AcDbLine
 10
2903.475490279
 20
2599.3742254403
 30
0.0
 11
2903.5274519144
 21
2599.3783936567
 31
0.0
  0
LINE
  5
214
330
1F
100
AcDbEntity
  8
0
  6
Continuous
 62
     7
370
    25
100
AcDbLine
 10
2915.1356302781
 20
2599.43111244
 30
0.0
 11
2915.1346783417
 21
2599.4335859309
 31
0.0
  0
LWPOLYLINE
  5
215
330
1F
100
AcDbEntity
  8
0
  6
Continuous
 62
     7
370
    25
100
AcDbPolyline
 90
       23
 70
   128
 43
0.0
 10
2915.1346783417
 20
2599.4335859309
 10
2914.9194017973
 20
2599.4679610176
 10
2914.3439780752
 20
2599.499369837
 10
2913.4547281094
 20
2599.5252840161
 10
2912.3232354782
 20
2599.5436174939
 10
2911.04058401
 20
2599.5528944469
 10
2909.7100256422
 20
2599.5523680914
 10
2908.4386687613
 20
2599.5420807982
 10
2907.3288561037
 20
2599.5228606825
 10
2906.4699262854
 20
2599.496254941
 10
2905.9310221483
 20
2599.4644053047
 10
2905.7555248428
 20
2599.4298756318
 10
2905.9575616959
 20
2599.3954455205
 10
2906.5208689783
 20
2599.3638865544
 10
2907.4001011149
 20
2599.3377391931
 10
2908.5244809511
 20
2599.3191082686
 10
2909.8034972299
 20
2599.3094935484
 10
2911.1341906426
 20
2599.3096690062
 10
2912.4094419316
 20
2599.3196205178
 10
2913.5265948654
 20
2599.3385469983
 10
2914.3957199443
 20
2599.3649248882
 10
2914.9468536198
 20
2599.3966307982
 10
2915.1356302781
 20
2599.43111244
  0
SPLINE
  5
216
330
1F
100
AcDbEntity
  8
0
  6
Continuous
 62
     7
370
    25
100
AcDbSpline
210
0.0
220
0.0
230
1.0
 70
     8
 71
     3
 72
     9
 73
     5
 74
     0
 42
0.00000001
 43
0.00000001
 40
0.0
 40
0.0
 40
0.0
 40
0.0
 40
0.7246937986491998
 40
1.0
 40
1.0
 40
1.0
 40
1.0
 10
2905.947887259411
 20
2596.535975815331
 30
0.0
 10
2905.943212180521
 20
2596.609347136461
 30
0.0
 10
2905.936761071242
 20
2596.710591719023
 30
0.0
 10
2905.872422639854
 20
2596.785078969104
 30
0.0
 10
2905.854709870707
 20
2596.805585770973
 30
0.0
  0
LINE
  5
217
330
1F
100
AcDbEntity
  8
0
  6
Continuous
 62
     7
370
    25
100
AcDbLine
 10
2907.9996091614
 20
2599.4176313116
 30
0.0
 11
2909.9304585654
 21
2599.4176313116
 31
0.0
  0
LINE
  5
218
330
1F
100
AcDbEntity
  8
0
  6
Continuous
 62
     7
370
    25
100
AcDbLine
 10
2909.9304585654
 20
2599.4176313116
 30
0.0
 11
2909.9304585654
 21
2599.3670875666
 31
0.0
  0
ARC
  5
219
330
1F
100
AcDbEntity
  8
0
  6
Continuous
 62
     7
370
    25
100
AcDbCircle
 10
2910.4454585654
 20
2693.6549486782
 30
0.0
 40
94.28926756530673
100
AcDbArc
 50
269.6870537451
 51
270.3129462549
  0
LINE
  5
21A
330
1F
100
AcDbEntity
  8
0
  6
Continuous
 62
     7
370
    25
100
AcDbLine
 10
2910.9604585654
 20
2599.3670875666
 30
0.0
 11
2910.9604585654
 21
2599.4176313116
 31
0.0
  0
LINE
  5
21B
330
1F
100
AcDbEntity
  8
0
  6
Continuous
 62
     7
370
    25
100
AcDbLine
 10
2910.9604585654
 20
2599.4176313116
 30
0.0
 11
2912.8913079693
 21
2599.4176313116
 31
0.0
  0
LWPOLYLINE
  5
21C
330
1F
100
AcDbEntity
  8
0
  6
Continuous
 62
     7
370
    25
100
AcDbPolyline
 90
        9
 70
   128
 43
0.0
 10
2912.8913079693
 20
2599.4445935684
 10
2912.9147242752
 20
2599.44125516
 10
2912.9314953662
 20
2599.4378894559
 10
2912.9415761084
 20
2599.4345055136
 10
2912.9449393728
 20
2599.43111244
 10
2912.9415761084
 20
2599.4277193664
 10
2912.9314953662
 20
2599.4243354241
 10
2912.9147242752
 20
2599.42096972
 10
2912.8913079693
 20
2599.4176313116
  0
LINE
  5
21D
330
1F
100
AcDbEntity
  8
0
  6
Continuous
 62
     7
370
    25
100
AcDbLine
 10
2912.8913079693
 20
2599.4445935684
 30
0.0
 11
2910.9604585654
 21
2599.4445935684
 31
0.0
  0
LINE
  5
21E
330
1F
100
AcDbEntity
  8
0
  6
Continuous
 62
     7
370
    25
100
AcDbLine
 10
2910.9604585654
 20
2599.4445935684
 30
0.0
 11
2910.9604585654
 21
2599.4951373134
 31
0.0
  0
ARC
  5
21F
330
1F
100
AcDbEntity
  8
0
  6
Continuous
 62
     7
370
    25
100
AcDbCircle
 10
2910.4454585653
 20
2505.2072761782
 30
0.0
 40
94.28926758888502
100
AcDbArc
 50
89.6870537451
 51
90.3129462548
  0
LINE
  5
220
330
1F
100
AcDbEntity
  8
0
  6
Continuous
 62
     7
370
    25
100
AcDbLine
 10
2909.9304585654
 20
2599.4951373134
 30
0.0
 11
2909.9304585654
 21
2599.4445935684
 31
0.0
  0
LINE
  5
221
330
1F
100
AcDbEntity
  8
0
  6
Continuous
 62
     7
370
    25
100
AcDbLine
 10
2909.9304585654
 20
2599.4445935684
 30
0.0
 11
2907.9996091614
 21
2599.4445935684
 31
0.0
  0
LWPOLYLINE
  5
222
330
1F
100
AcDbEntity
  8
0
  6
Continuous
 62
     7
370
    25
100
AcDbPolyline
 90
        9
 70
   128
 43
0.0
 10
2907.9996091614
 20
2599.4176313116
 10
2907.9761928556
 20
2599.42096972
 10
2907.9594217646
 20
2599.4243354241
 10
2907.9493410224
 20
2599.4277193664
 10
2907.9459777579
 20
2599.43111244
 10
2907.9493410224
 20
2599.4345055136
 10
2907.9594217646
 20
2599.4378894558
 10
2907.9761928556
 20
2599.44125516
 10
2907.9996091614
 20
2599.4445935684
  0
LINE
  5
223
330
1F
100
AcDbEntity
  8
0
  6
Continuous
 62
     7
370
    25
100
AcDbLine
 10
2908.0133329309
 20
2599.4176313116
 30
0.0
 11
2907.9996091614
 21
2599.4445935684
 31
0.0
  0
LINE
  5
224
330
1F
100
AcDbEntity
  8
0
  6
Continuous
 62
     7
370
    25
100
AcDbLine
 10
2910.9604585654
 20
2599.4445935684
 30
0.0
 11
2910.9604585654
 21
2599.4176313116
 31
0.0
  0
LINE
  5
225
330
1F
100
AcDbEntity
  8
0
  6
Continuous
 62
     7
370
    25
100
AcDbLine
 10
2909.9304585654
 20
2599.4445935684
 30
0.0
 11
2909.9304585654
 21
2599.4176313116
 31
0.0
  0
ARC
  5
226
330
1F
100
AcDbEntity
  8
0
  6
Continuous
 62
     7
370
    25
100
AcDbCircle
 10
1312.4487994323
 20
2789.2477776284
 30
0.0
 40
190.3064363887468
100
AcDbArc
 50
269.6979216021
 51
271.9898299979
  0
ARC
  5
227
330
1F
100
AcDbEntity
  8
0
  6
Continuous
 62
     7
370
    25
100
AcDbCircle
 10
1310.8807674914
 20
2833.5241370813
 30
0.0
 40
234.5808305701329
100
AcDbArc
 50
268.5008299502
 51
270.1379245117
  0
ARC
  5
228
330
1F
100
AcDbEntity
  8
0
  6
Continuous
 62
     7
370
    25
100
AcDbCircle
 10
1314.2883976532
 20
2679.5040519049
 30
0.0
 40
82.58290404784861
100
AcDbArc
 50
268.0271873052
 51
274.971785139
  0
ARC
  5
229
330
1F
100
AcDbEntity
  8
0
  6
Continuous
 62
     7
370
    25
100
AcDbCircle
 10
1308.8258447337
 20
2688.0354228507
 30
0.0
 40
91.10299653522748
100
AcDbArc
 50
265.3532935281
 51
271.6477340277
  0
SPLINE
  5
22A
330
1F
100
AcDbEntity
  8
0
  6
Continuous
 62
     7
370
    25
100
AcDbSpline
210
0.0
220
0.0
230
1.0
 70
     8
 71
     3
 72
    19
 73
    15
 74
     0
 42
0.00000001
 43
0.00000001
 40
0.0
 40
0.0
 40
0.0
 40
0.0
 40
0.0906600731282836
 40
0.2050734138974936
 40
0.2719074979494447
 40
0.3443210476358489
 40
0.4209983262120972
 40
0.4999999792228528
 40
0.5790016347260409
 40
0.6556789199259938
 40
0.7280924783130547
 40
0.7949265709541782
 40
0.9093399235673059
 40
1.0
 40
1.0
 40
1.0
 40
1.0
 10
1321.245458565371
 20
2597.031934860083
 30
0.0
 10
1321.168604520705
 20
2597.007709314847
 30
0.0
 10
1320.994760393209
 20
2596.952911043748
 30
0.0
 10
1319.674903170734
 20
2596.886527760367
 30
0.0
 10
1317.918984010537
 20
2596.836615149721
 30
0.0
 10
1316.095890405654
 20
2596.803484284442
 30
0.0
 10
1313.914524317431
 20
2596.781051426677
 30
0.0
 10
1311.521572113844
 20
2596.772789316646
 30
0.0
 10
1309.124049624961
 20
2596.780087282529
 30
0.0
 10
1306.929764294547
 20
2596.801639484271
 30
0.0
 10
1305.087425031523
 20
2596.834032633703
 30
0.0
 10
1303.302394606048
 20
2596.883232581902
 30
0.0
 10
1301.943699588446
 20
2596.949076769696
 30
0.0
 10
1301.737687244355
 20
2597.003798592482
 30
0.0
 10
1301.646612086797
 20
2597.027990340088
 30
0.0
  0
LINE
  5
22B
330
1F
100
AcDbEntity
  8
0
  6
Continuous
 62
     7
370
    25
100
AcDbLine
 10
1304.475490279
 20
2599.3742254403
 30
0.0
 11
1304.5274519144
 21
2599.3783936567
 31
0.0
  0
LINE
  5
22C
330
1F
100
AcDbEntity
  8
0
  6
Continuous
 62
     7
370
    25
100
AcDbLine
 10
1316.1356302781
 20
2599.43111244
 30
0.0
 11
1316.1346783417
 21
2599.4335859309
 31
0.0
  0
LWPOLYLINE
  5
22D
330
1F
100
AcDbEntity
  8
0
  6
Continuous
 62
     7
370
    25
100
AcDbPolyline
 90
       23
 70
   128
 43
0.0
 10
1316.1346783417
 20
2599.4335859309
 10
1315.9194017973
 20
2599.4679610176
 10
1315.3439780752
 20
2599.499369837
 10
1314.4547281094
 20
2599.5252840161
 10
1313.3232354782
 20
2599.5436174939
 10
1312.04058401
 20
2599.552894447
 10
1310.7100256422
 20
2599.5523680914
 10
1309.4386687613
 20
2599.5420807983
 10
1308.3288561037
 20
2599.5228606826
 10
1307.4699262854
 20
2599.4962549411
 10
1306.9310221483
 20
2599.4644053047
 10
1306.7555248428
 20
2599.4298756318
 10
1306.9575616959
 20
2599.3954455205
 10
1307.5208689783
 20
2599.3638865544
 10
1308.4001011149
 20
2599.3377391931
 10
1309.5244809511
 20
2599.3191082686
 10
1310.8034972299
 20
2599.3094935484
 10
1312.1341906426
 20
2599.3096690062
 10
1313.4094419316
 20
2599.3196205179
 10
1314.5265948654
 20
2599.3385469983
 10
1315.3957199443
 20
2599.3649248882
 10
1315.9468536198
 20
2599.3966307983
 10
1316.1356302781
 20
2599.43111244
  0
SPLINE
  5
22E
330
1F
100
AcDbEntity
  8
0
  6
Continuous
 62
     7
370
    25
100
AcDbSpline
210
0.0
220
0.0
230
1.0
 70
     8
 71
     3
 72
     9
 73
     5
 74
     0
 42
0.00000001
 43
0.00000001
 40
0.0
 40
0.0
 40
0.0
 40
0.0
 40
0.7246937986492402
 40
1.0
 40
1.0
 40
1.0
 40
1.0
 10
1306.947887259411
 20
2596.535975815351
 30
0.0
 10
1306.943212180522
 20
2596.60934713648
 30
0.0
 10
1306.936761071242
 20
2596.710591719042
 30
0.0
 10
1306.872422639854
 20
2596.785078969124
 30
0.0
 10
1306.854709870707
 20
2596.805585770992
 30
0.0
  0
LINE
  5
22F
330
1F
100
AcDbEntity
  8
0
  6
Continuous
 62
     7
370
    25
100
AcDbLine
 10
1308.9996091614
 20
2599.4176313116
 30
0.0
 11
1310.9304585654
 21
2599.4176313116
 31
0.0
  0
LINE
  5
230
330
1F
100
AcDbEntity
  8
0
  6
Continuous
 62
     7
370
    25
100
AcDbLine
 10
1310.9304585654
 20
2599.4176313116
 30
0.0
 11
1310.9304585654
 21
2599.3670875666
 31
0.0
  0
ARC
  5
231
330
1F
100
AcDbEntity
  8
0
  6
Continuous
 62
     7
370
    25
100
AcDbCircle
 10
1311.4454585654
 20
2693.6549486597
 30
0.0
 40
94.28926754673945
100
AcDbArc
 50
269.687053745
 51
270.312946255
  0
LINE
  5
232
330
1F
100
AcDbEntity
  8
0
  6
Continuous
 62
     7
370
    25
100
AcDbLine
 10
1311.9604585654
 20
2599.3670875666
 30
0.0
 11
1311.9604585654
 21
2599.4176313116
 31
0.0
  0
LINE
  5
233
330
1F
100
AcDbEntity
  8
0
  6
Continuous
 62
     7
370
    25
100
AcDbLine
 10
1311.9604585654
 20
2599.4176313116
 30
0.0
 11
1313.8913079693
 21
2599.4176313116
 31
0.0
  0
LWPOLYLINE
  5
234
330
1F
100
AcDbEntity
  8
0
  6
Continuous
 62
     7
370
    25
100
AcDbPolyline
 90
        9
 70
   128
 43
0.0
 10
1313.8913079693
 20
2599.4445935684
 10
1313.9147242752
 20
2599.44125516
 10
1313.9314953662
 20
2599.4378894559
 10
1313.9415761084
 20
2599.4345055136
 10
1313.9449393728
 20
2599.43111244
 10
1313.9415761084
 20
2599.4277193664
 10
1313.9314953662
 20
2599.4243354242
 10
1313.9147242752
 20
2599.42096972
 10
1313.8913079693
 20
2599.4176313116
  0
LINE
  5
235
330
1F
100
AcDbEntity
  8
0
  6
Continuous
 62
     7
370
    25
100
AcDbLine
 10
1313.8913079693
 20
2599.4445935684
 30
0.0
 11
1311.9604585654
 21
2599.4445935684
 31
0.0
  0
LINE
  5
236
330
1F
100
AcDbEntity
  8
0
  6
Continuous
 62
     7
370
    25
100
AcDbLine
 10
1311.9604585654
 20
2599.4445935684
 30
0.0
 11
1311.9604585654
 21
2599.4951373134
 31
0.0
  0
ARC
  5
237
330
1F
100
AcDbEntity
  8
0
  6
Continuous
 62
     7
370
    25
100
AcDbCircle
 10
1311.4454585653
 20
2505.2072762019
 30
0.0
 40
94.28926756519078
100
AcDbArc
 50
89.687053745
 51
90.3129462549
  0
LINE
  5
238
330
1F
100
AcDbEntity
  8
0
  6
Continuous
 62
     7
370
    25
100
AcDbLine
 10
1310.9304585654
 20
2599.4951373134
 30
0.0
 11
1310.9304585654
 21
2599.4445935684
 31
0.0
  0
LINE
  5
239
330
1F
100
AcDbEntity
  8
0
  6
Continuous
 62
     7
370
    25
100
AcDbLine
 10
1310.9304585654
 20
2599.4445935684
 30
0.0
 11
1308.9996091614
 21
2599.4445935684
 31
0.0
  0
LWPOLYLINE
  5
23A
330
1F
100
AcDbEntity
  8
0
  6
Continuous
 62
     7
370
    25
100
AcDbPolyline
 90
        9
 70
   128
 43
0.0
 10
1308.9996091614
 20
2599.4176313116
 10
1308.9761928556
 20
2599.42096972
 10
1308.9594217646
 20
2599.4243354242
 10
1308.9493410224
 20
2599.4277193664
 10
1308.9459777579
 20
2599.43111244
 10
1308.9493410224
 20
2599.4345055136
 10
1308.9594217646
 20
2599.4378894559
 10
1308.9761928556
 20
2599.44125516
 10
1308.9996091614
 20
2599.4445935684
  0
LINE
  5
23B
330
1F
100
AcDbEntity
  8
0
  6
Continuous
 62
     7
370
    25
100
AcDbLine
 10
1309.0133329309
 20
2599.4176313116
 30
0.0
 11
1308.9996091614
 21
2599.4445935684
 31
0.0
  0
LINE
  5
23C
330
1F
100
AcDbEntity
  8
0
  6
Continuous
 62
     7
370
    25
100
AcDbLine
 10
1311.9604585654
 20
2599.4445935684
 30
0.0
 11
1311.9604585654
 21
2599.4176313116
 31
0.0
  0
LINE
  5
23D
330
1F
100
AcDbEntity
  8
0
  6
Continuous
 62
     7
370
    25
100
AcDbLine
 10
1310.9304585654
 20
2599.4445935684
 30
0.0
 11
1310.9304585654
 21
2599.4176313116
 31
0.0
  0
ARC
  5
23E
330
1F
100
AcDbEntity
  8
0
  6
Continuous
 62
     7
370
    25
100
AcDbCircle
 10
2038.4448257767
 20
2744.6497996171
 30
0.0
 40
147.0082502475236
100
AcDbArc
 50
266.0997819289
 51
273.9007124515
  0
LWPOLYLINE
  5
23F
330
1F
100
AcDbEntity
  8
0
  6
Continuous
 62
     7
370
    25
100
AcDbPolyline
 90
        6
 70
   128
 43
0.0
 10
2046.056639358
 20
2599.056094891
 10
2046.7957539085
 20
2599.0961260079
 10
2047.2473606486
 20
2599.1417840506
 10
2047.3386164832
 20
2599.1888871583
 10
2047.0657853877
 20
2599.2355069245
 10
2046.9418327899
 20
2599.2468479058
  0
LWPOLYLINE
  5
240
330
1F
100
AcDbEntity
  8
0
  6
Continuous
 62
     7
370
    25
100
AcDbPolyline
 90
        7
 70
   128
 43
0.0
 10
2029.9490843408
 20
2599.2468479058
 10
2029.825131743
 20
2599.2355069245
 10
2029.5523006476
 20
2599.1888871583
 10
2029.6435564822
 20
2599.1417840506
 10
2030.0951632222
 20
2599.0961260079
 10
2030.8886320348
 20
2599.0537822761
 10
2031.7435540403
 20
2599.0236025787
  0
LWPOLYLINE
  5
241
330
1F
100
AcDbEntity
  8
0
  6
Continuous
 62
     7
370
    25
100
AcDbPolyline
 90
       19
 70
   128
 43
0.0
 10
2045.4154268517
 20
2599.3742254403
 10
2045.5671548704
 20
2599.3595426267
 10
2045.7503025605
 20
2599.3169925022
 10
2045.5671548704
 20
2599.2744423778
 10
2045.0268955899
 20
2599.2340258942
 10
2044.1566155753
 20
2599.1977697028
 10
2042.9999543005
 20
2599.1674918404
 10
2041.6149115917
 20
2599.1447105655
 10
2040.0709392736
 20
2599.1305682262
 10
2038.4454585654
 20
2599.1257739786
 10
2036.8199778572
 20
2599.1305682262
 10
2035.2760055391
 20
2599.1447105655
 10
2033.8909628302
 20
2599.1674918404
 10
2032.7343015554
 20
2599.1977697028
 10
2031.8640215408
 20
2599.2340258942
 10
2031.3237622603
 20
2599.2744423778
 10
2031.1406145702
 20
2599.3169925022
 10
2031.3237622603
 20
2599.3595426267
 10
2031.475490279
 20
2599.3742254403
  0
SPLINE
  5
242
330
1F
100
AcDbEntity
  8
0
  6
Continuous
 62
     7
370
    25
100
AcDbSpline
210
0.0
220
0.0
230
1.0
 70
     8
 71
     3
 72
    10
 73
     6
 74
     0
 42
0.00000001
 43
0.00000001
 40
0.0
 40
0.0
 40
0.0
 40
0.0
 40
0.2348528608092761
 40
0.632327790032044
 40
0.9999999999999999
 40
0.9999999999999999
 40
0.9999999999999999
 40
0.9999999999999999
 10
2043.139161340489
 20
2596.908496935366
 30
0.0
 10
2043.109898948591
 20
2596.888924055672
 30
0.0
 10
2043.031111645186
 20
2596.836225205343
 30
0.0
 10
2042.96070207294
 20
2596.69563869583
 30
0.0
 10
2042.948765629135
 20
2596.582569255194
 30
0.0
 10
2042.943029871334
 20
2596.528236579831
 30
0.0
  0
ARC
  5
243
330
1F
100
AcDbEntity
  8
0
  6
Continuous
 62
     7
370
    25
100
AcDbCircle
 10
2038.4727661044
 20
2662.8487882409
 30
0.0
 40
66.47103753359983
100
AcDbArc
 50
266.0945910319
 51
273.8561261672
  0
LINE
  5
244
330
1F
100
AcDbEntity
  8
0
  6
Continuous
 62
     7
370
    25
100
AcDbLine
 10
2042.9454585654
 20
2596.5321061976
 30
0.0
 11
2042.9430298712
 21
2596.5282365797
 31
0.0
  0
ARC
  5
245
330
1F
100
AcDbEntity
  8
0
  6
Continuous
 62
     7
370
    25
100
AcDbCircle
 10
3637.4448257767
 20
2744.6497996169
 30
0.0
 40
147.0082502473126
100
AcDbArc
 50
266.0997819288
 51
273.9007124515
  0
LWPOLYLINE
  5
246
330
1F
100
AcDbEntity
  8
0
  6
Continuous
 62
     7
370
    25
100
AcDbPolyline
 90
        6
 70
   128
 43
0.0
 10
3645.056639358
 20
2599.056094891
 10
3645.7957539085
 20
2599.0961260079
 10
3646.2473606486
 20
2599.1417840505
 10
3646.3386164832
 20
2599.1888871583
 10
3646.0657853877
 20
2599.2355069245
 10
3645.9418327899
 20
2599.2468479058
  0
LWPOLYLINE
  5
247
330
1F
100
AcDbEntity
  8
0
  6
Continuous
 62
     7
370
    25
100
AcDbPolyline
 90
        7
 70
   128
 43
0.0
 10
3628.9490843408
 20
2599.2468479058
 10
3628.825131743
 20
2599.2355069245
 10
3628.5523006476
 20
2599.1888871583
 10
3628.6435564822
 20
2599.1417840505
 10
3629.0951632222
 20
2599.0961260079
 10
3629.8886320348
 20
2599.0537822761
 10
3630.7435540403
 20
2599.0236025787
  0
LWPOLYLINE
  5
248
330
1F
100
AcDbEntity
  8
0
  6
Continuous
 62
     7
370
    25
100
AcDbPolyline
 90
       19
 70
   128
 43
0.0
 10
3644.4154268517
 20
2599.3742254403
 10
3644.5671548704
 20
2599.3595426267
 10
3644.7503025605
 20
2599.3169925022
 10
3644.5671548704
 20
2599.2744423777
 10
3644.0268955899
 20
2599.2340258942
 10
3643.1566155753
 20
2599.1977697028
 10
3641.9999543005
 20
2599.1674918404
 10
3640.6149115917
 20
2599.1447105654
 10
3639.0709392736
 20
2599.1305682262
 10
3637.4454585654
 20
2599.1257739786
 10
3635.8199778572
 20
2599.1305682262
 10
3634.2760055391
 20
2599.1447105654
 10
3632.8909628302
 20
2599.1674918404
 10
3631.7343015554
 20
2599.1977697028
 10
3630.8640215408
 20
2599.2340258942
 10
3630.3237622603
 20
2599.2744423777
 10
3630.1406145702
 20
2599.3169925022
 10
3630.3237622603
 20
2599.3595426267
 10
3630.475490279
 20
2599.3742254403
  0
SPLINE
  5
249
330
1F
100
AcDbEntity
  8
0
  6
Continuous
 62
     7
370
    25
100
AcDbSpline
210
0.0
220
0.0
230
1.0
 70
     8
 71
     3
 72
    10
 73
     6
 74
     0
 42
0.00000001
 43
0.00000001
 40
0.0
 40
0.0
 40
0.0
 40
0.0
 40
0.2348528608097765
 40
0.6323277900321475
 40
0.9999999999999999
 40
0.9999999999999999
 40
0.9999999999999999
 40
0.9999999999999999
 10
3642.139161340489
 20
2596.908496935346
 30
0.0
 10
3642.109898948591
 20
2596.888924055653
 30
0.0
 10
3642.031111645186
 20
2596.836225205324
 30
0.0
 10
3641.960702072939
 20
2596.695638695811
 30
0.0
 10
3641.948765629135
 20
2596.582569255175
 30
0.0
 10
3641.943029871333
 20
2596.528236579812
 30
0.0
  0
ARC
  5
24A
330
1F
100
AcDbEntity
  8
0
  6
Continuous
 62
     7
370
    25
100
AcDbCircle
 10
3637.4727661044
 20
2662.8487882407
 30
0.0
 40
66.4710375333816
100
AcDbArc
 50
266.0945910318
 51
273.8561261673
  0
LINE
  5
24B
330
1F
100
AcDbEntity
  8
0
  6
Continuous
 62
     7
370
    25
100
AcDbLine
 10
3641.9454585654
 20
2596.5321061976
 30
0.0
 11
3641.9430298712
 21
2596.5282365797
 31
0.0
  0
ARC
  5
24C
330
1F
100
AcDbEntity
  8
0
  6
Continuous
 62
     7
370
    25
100
AcDbCircle
 10
2910.4448257767
 20
2744.6497996169
 30
0.0
 40
147.0082502473199
100
AcDbArc
 50
266.0997819288
 51
273.9007124515
  0
LWPOLYLINE
  5
24D
330
1F
100
AcDbEntity
  8
0
  6
Continuous
 62
     7
370
    25
100
AcDbPolyline
 90
        6
 70
   128
 43
0.0
 10
2918.056639358
 20
2599.056094891
 10
2918.7957539085
 20
2599.0961260079
 10
2919.2473606486
 20
2599.1417840506
 10
2919.3386164832
 20
2599.1888871583
 10
2919.0657853877
 20
2599.2355069245
 10
2918.9418327899
 20
2599.2468479058
  0
LWPOLYLINE
  5
24E
330
1F
100
AcDbEntity
  8
0
  6
Continuous
 62
     7
370
    25
100
AcDbPolyline
 90
        7
 70
   128
 43
0.0
 10
2901.9490843408
 20
2599.2468479058
 10
2901.825131743
 20
2599.2355069245
 10
2901.5523006476
 20
2599.1888871583
 10
2901.6435564822
 20
2599.1417840506
 10
2902.0951632222
 20
2599.0961260079
 10
2902.8886320348
 20
2599.0537822761
 10
2903.7435540403
 20
2599.0236025787
  0
LWPOLYLINE
  5
24F
330
1F
100
AcDbEntity
  8
0
  6
Continuous
 62
     7
370
    25
100
AcDbPolyline
 90
       19
 70
   128
 43
0.0
 10
2917.4154268517
 20
2599.3742254403
 10
2917.5671548704
 20
2599.3595426267
 10
2917.7503025605
 20
2599.3169925022
 10
2917.5671548704
 20
2599.2744423777
 10
2917.0268955899
 20
2599.2340258942
 10
2916.1566155753
 20
2599.1977697028
 10
2914.9999543005
 20
2599.1674918404
 10
2913.6149115917
 20
2599.1447105654
 10
2912.0709392736
 20
2599.1305682262
 10
2910.4454585654
 20
2599.1257739786
 10
2908.8199778572
 20
2599.1305682262
 10
2907.2760055391
 20
2599.1447105654
 10
2905.8909628302
 20
2599.1674918404
 10
2904.7343015554
 20
2599.1977697028
 10
2903.8640215408
 20
2599.2340258942
 10
2903.3237622603
 20
2599.2744423777
 10
2903.1406145702
 20
2599.3169925022
 10
2903.3237622603
 20
2599.3595426267
 10
2903.475490279
 20
2599.3742254403
  0
SPLINE
  5
250
330
1F
100
AcDbEntity
  8
0
  6
Continuous
 62
     7
370
    25
100
AcDbSpline
210
0.0
220
0.0
230
1.0
 70
     8
 71
     3
 72
    10
 73
     6
 74
     0
 42
0.00000001
 43
0.00000001
 40
0.0
 40
0.0
 40
0.0
 40
0.0
 40
0.2348528608090744
 40
0.6323277900320845
 40
1.0
 40
1.0
 40
1.0
 40
1.0
 10
2915.139161340491
 20
2596.908496935356
 30
0.0
 10
2915.109898948592
 20
2596.888924055663
 30
0.0
 10
2915.031111645189
 20
2596.836225205333
 30
0.0
 10
2914.960702072942
 20
2596.69563869582
 30
0.0
 10
2914.948765629137
 20
2596.582569255184
 30
0.0
 10
2914.943029871336
 20
2596.528236579822
 30
0.0
  0
ARC
  5
251
330
1F
100
AcDbEntity
  8
0
  6
Continuous
 62
     7
370
    25
100
AcDbCircle
 10
2910.4727661044
 20
2662.8487882406
 30
0.0
 40
66.47103753330606
100
AcDbArc
 50
266.0945910318
 51
273.8561261673
  0
LINE
  5
252
330
1F
100
AcDbEntity
  8
0
  6
Continuous
 62
     7
370
    25
100
AcDbLine
 10
2914.9454585654
 20
2596.5321061976
 30
0.0
 11
2914.9430298712
 21
2596.5282365797
 31
0.0
  0
ARC
  5
253
330
1F
100
AcDbEntity
  8
0
  6
Continuous
 62
     7
370
    25
100
AcDbCircle
 10
1311.4448257767
 20
2744.6497996171
 30
0.0
 40
147.0082502475272
100
AcDbArc
 50
266.0997819289
 51
273.9007124515
  0
LWPOLYLINE
  5
254
330
1F
100
AcDbEntity
  8
0
  6
Continuous
 62
     7
370
    25
100
AcDbPolyline
 90
        6
 70
   128
 43
0.0
 10
1319.056639358
 20
2599.056094891
 10
1319.7957539085
 20
2599.0961260079
 10
1320.2473606486
 20
2599.1417840506
 10
1320.3386164832
 20
2599.1888871583
 10
1320.0657853877
 20
2599.2355069245
 10
1319.9418327899
 20
2599.2468479058
  0
LWPOLYLINE
  5
255
330
1F
100
AcDbEntity
  8
0
  6
Continuous
 62
     7
370
    25
100
AcDbPolyline
 90
        7
 70
   128
 43
0.0
 10
1302.9490843408
 20
2599.2468479058
 10
1302.825131743
 20
2599.2355069245
 10
1302.5523006476
 20
2599.1888871583
 10
1302.6435564822
 20
2599.1417840506
 10
1303.0951632222
 20
2599.0961260079
 10
1303.8886320348
 20
2599.0537822761
 10
1304.7435540403
 20
2599.0236025787
  0
LWPOLYLINE
  5
256
330
1F
100
AcDbEntity
  8
0
  6
Continuous
 62
     7
370
    25
100
AcDbPolyline
 90
       19
 70
   128
 43
0.0
 10
1318.4154268517
 20
2599.3742254403
 10
1318.5671548704
 20
2599.3595426267
 10
1318.7503025605
 20
2599.3169925022
 10
1318.5671548704
 20
2599.2744423778
 10
1318.0268955899
 20
2599.2340258942
 10
1317.1566155753
 20
2599.1977697028
 10
1315.9999543005
 20
2599.1674918404
 10
1314.6149115917
 20
2599.1447105655
 10
1313.0709392736
 20
2599.1305682262
 10
1311.4454585654
 20
2599.1257739786
 10
1309.8199778572
 20
2599.1305682262
 10
1308.2760055391
 20
2599.1447105655
 10
1306.8909628302
 20
2599.1674918404
 10
1305.7343015554
 20
2599.1977697028
 10
1304.8640215408
 20
2599.2340258942
 10
1304.3237622603
 20
2599.2744423778
 10
1304.1406145702
 20
2599.3169925022
 10
1304.3237622603
 20
2599.3595426267
 10
1304.475490279
 20
2599.3742254403
  0
SPLINE
  5
257
330
1F
100
AcDbEntity
  8
0
  6
Continuous
 62
     7
370
    25
100
AcDbSpline
210
0.0
220
0.0
230
1.0
 70
     8
 71
     3
 72
    10
 73
     6
 74
     0
 42
0.00000001
 43
0.00000001
 40
0.0
 40
0.0
 40
0.0
 40
0.0
 40
0.2348528608092477
 40
0.6323277900320552
 40
1.0
 40
1.0
 40
1.0
 40
1.0
 10
1316.139161340491
 20
2596.908496935376
 30
0.0
 10
1316.109898948593
 20
2596.888924055682
 30
0.0
 10
1316.031111645188
 20
2596.836225205352
 30
0.0
 10
1315.960702072942
 20
2596.695638695839
 30
0.0
 10
1315.948765629137
 20
2596.582569255204
 30
0.0
 10
1315.943029871336
 20
2596.528236579841
 30
0.0
  0
ARC
  5
258
330
1F
100
AcDbEntity
  8
0
  6
Continuous
 62
     7
370
    25
100
AcDbCircle
 10
1311.4727661044
 20
2662.8487882407
 30
0.0
 40
66.47103753329743
100
AcDbArc
 50
266.0945910318
 51
273.8561261673
  0
LINE
  5
259
330
1F
100
AcDbEntity
  8
0
  6
Continuous
 62
     7
370
    25
100
AcDbLine
 10
1315.9454585654
 20
2596.5321061976
 30
0.0
 11
1315.9430298712
 21
2596.5282365797
 31
0.0
  0
ENDSEC
  0
SECTION
  2
OBJECTS
  0
DICTIONARY
  5
C
330
0
100
AcDbDictionary
281
     1
  3
ACAD_GROUP
350
D
  3
ACAD_LAYOUT
350
1A
  3
ACAD_MLINESTYLE
350
17
  3
ACAD_PLOTSETTINGS
350
19
  3
ACAD_PLOTSTYLENAME
350
E
  3
ACAD_SCALELIST
350
47
  3
DWGPROPS
350
25A
  0
DICTIONARY
  5
D
102
{ACAD_REACTORS
330
C
102
}
330
C
100
AcDbDictionary
281
     1
  0
DICTIONARY
  5
1A
102
{ACAD_REACTORS
330
C
102
}
330
C
100
AcDbDictionary
281
     1
  3
Layout1
350
1E
  3
Layout2
350
26
  3
Model
350
22
  0
DICTIONARY
  5
17
102
{ACAD_REACTORS
330
C
102
}
330
C
100
AcDbDictionary
281
     1
  3
Standard
350
18
  0
DICTIONARY
  5
19
102
{ACAD_REACTORS
330
C
102
}
330
C
100
AcDbDictionary
281
     1
  0
ACDBDICTIONARYWDFLT
  5
E
102
{ACAD_REACTORS
330
C
102
}
330
C
100
AcDbDictionary
281
     1
  3
Normal
350
F
100
AcDbDictionaryWithDefault
340
F
  0
DICTIONARY
  5
47
102
{ACAD_REACTORS
330
C
102
}
330
C
100
AcDbDictionary
281
     1
  3
A0
350
48
  3
A1
350
49
  3
A2
350
4A
  3
A3
350
4B
  3
A4
350
4C
  3
A5
350
4D
  3
A6
350
4E
  3
A7
350
4F
  3
A8
350
50
  3
A9
350
51
  3
B0
350
52
  3
B1
350
53
  3
B2
350
54
  3
B3
350
55
  3
B4
350
56
  3
B5
350
57
  3
B6
350
58
  0
XRECORD
  5
25A
102
{ACAD_REACTORS
330
C
102
}
330
C
100
AcDbXrecord
280
     1
  1
DWGPROPS COOKIE
  2

  3

  4

  6

  7

  8
b
  9

300
=
301
=
302
=
303
=
304
=
305
=
306
=
307
=
308
=
309
=
 40
0.0
 41
2460384.337073819
 42
2460384.337074202
  1

 90
        0
  0
LAYOUT
  5
1E
102
{ACAD_REACTORS
330
1A
102
}
330
1A
100
AcDbPlotSettings
  1

  2
none_device
  4

  6

 40
0.0
 41
0.0
 42
0.0
 43
0.0
 44
0.0
 45
0.0
 46
0.0
 47
0.0
 48
0.0
 49
0.0
140
0.0
141
0.0
142
1.0
143
1.0
 70
   688
 72
     1
 73
     0
 74
     5
  7

 75
    16
147
1.0
148
0.0
149
0.0
100
AcDbLayout
  1
Layout1
 70
     1
 71
     1
 10
0.0
 20
0.0
 11
420.0
 21
297.0
 12
0.0
 22
0.0
 32
0.0
 14
1.0000000000E+20
 24
1.0000000000E+20
 34
1.0000000000E+20
 15
-1.0000000000E+20
 25
-1.0000000000E+20
 35
-1.0000000000E+20
146
0.0
 13
0.0
 23
0.0
 33
0.0
 16
1.0
 26
0.0
 36
0.0
 17
0.0
 27
1.0
 37
0.0
 76
     0
330
1B
  0
LAYOUT
  5
26
102
{ACAD_REACTORS
330
1A
102
}
330
1A
100
AcDbPlotSettings
  1

  2
none_device
  4

  6

 40
0.0
 41
0.0
 42
0.0
 43
0.0
 44
0.0
 45
0.0
 46
0.0
 47
0.0
 48
0.0
 49
0.0
140
0.0
141
0.0
142
1.0
143
1.0
 70
   688
 72
     1
 73
     0
 74
     5
  7

 75
    16
147
1.0
148
0.0
149
0.0
100
AcDbLayout
  1
Layout2
 70
     1
 71
     2
 10
0.0
 20
0.0
 11
0.0
 21
0.0
 12
0.0
 22
0.0
 32
0.0
 14
0.0
 24
0.0
 34
0.0
 15
0.0
 25
0.0
 35
0.0
146
0.0
 13
0.0
 23
0.0
 33
0.0
 16
1.0
 26
0.0
 36
0.0
 17
0.0
 27
1.0
 37
0.0
 76
     0
330
23
  0
LAYOUT
  5
22
102
{ACAD_REACTORS
330
1A
102
}
330
1A
100
AcDbPlotSettings
  1

  2
none_device
  4
Letter_(8.50_x_11.00_Inches)
  6

 40
6.35
 41
6.35
 42
6.35000508
 43
6.35000508
 44
215.9
 45
279.4
 46
0.0
 47
0.0
 48
0.0
 49
0.0
140
0.0
141
0.0
142
1.0
143
1.0
 70
  1712
 72
     1
 73
     0
 74
     0
  7

 75
     0
147
1.0
148
0.0
149
0.0
100
AcDbLayout
  1
Model
 70
     1
 71
     0
 10
0.0
 20
0.0
 11
5000.0
 21
3500.0
 12
0.0
 22
0.0
 32
0.0
 14
0.0
 24
0.0
 34
0.0
 15
5000.0
 25
3500.0
 35
0.0
146
0.0
 13
0.0
 23
0.0
 33
0.0
 16
1.0
 26
0.0
 36
0.0
 17
0.0
 27
1.0
 37
0.0
 76
     0
330
1F
331
29
  0
MLINESTYLE
  5
18
102
{ACAD_REACTORS
330
17
102
}
330
17
100
AcDbMlineStyle
  2
Standard
 70
     0
  3

 62
   256
 51
90.0
 52
90.0
 71
     2
 49
0.5
 62
   256
  6
BYLAYER
 49
-0.5
 62
   256
  6
BYLAYER
  0
ACDBPLACEHOLDER
  5
F
102
{ACAD_REACTORS
330
E
102
}
330
E
  0
SCALE
  5
48
102
{ACAD_REACTORS
330
47
102
}
330
47
100
AcDbScale
 70
     0
300
1:1
140
1.0
141
1.0
290
     1
  0
SCALE
  5
49
102
{ACAD_REACTORS
330
47
102
}
330
47
100
AcDbScale
 70
     0
300
1:2
140
1.0
141
2.0
290
     0
  0
SCALE
  5
4A
102
{ACAD_REACTORS
330
47
102
}
330
47
100
AcDbScale
 70
     0
300
1:4
140
1.0
141
4.0
290
     0
  0
SCALE
  5
4B
102
{ACAD_REACTORS
330
47
102
}
330
47
100
AcDbScale
 70
     0
300
1:5
140
1.0
141
5.0
290
     0
  0
SCALE
  5
4C
102
{ACAD_REACTORS
330
47
102
}
330
47
100
AcDbScale
 70
     0
300
1:8
140
1.0
141
8.0
290
     0
  0
SCALE
  5
4D
102
{ACAD_REACTORS
330
47
102
}
330
47
100
AcDbScale
 70
     0
300
1:10
140
1.0
141
10.0
290
     0
  0
SCALE
  5
4E
102
{ACAD_REACTORS
330
47
102
}
330
47
100
AcDbScale
 70
     0
300
1:16
140
1.0
141
16.0
290
     0
  0
SCALE
  5
4F
102
{ACAD_REACTORS
330
47
102
}
330
47
100
AcDbScale
 70
     0
300
1:20
140
1.0
141
20.0
290
     0
  0
SCALE
  5
50
102
{ACAD_REACTORS
330
47
102
}
330
47
100
AcDbScale
 70
     0
300
1:30
140
1.0
141
30.0
290
     0
  0
SCALE
  5
51
102
{ACAD_REACTORS
330
47
102
}
330
47
100
AcDbScale
 70
     0
300
1:40
140
1.0
141
40.0
290
     0
  0
SCALE
  5
52
102
{ACAD_REACTORS
330
47
102
}
330
47
100
AcDbScale
 70
     0
300
1:50
140
1.0
141
50.0
290
     0
  0
SCALE
  5
53
102
{ACAD_REACTORS
330
47
102
}
330
47
100
AcDbScale
 70
     0
300
1:100
140
1.0
141
100.0
290
     0
  0
SCALE
  5
54
102
{ACAD_REACTORS
330
47
102
}
330
47
100
AcDbScale
 70
     0
300
2:1
140
2.0
141
1.0
290
     0
  0
SCALE
  5
55
102
{ACAD_REACTORS
330
47
102
}
330
47
100
AcDbScale
 70
     0
300
4:1
140
4.0
141
1.0
290
     0
  0
SCALE
  5
56
102
{ACAD_REACTORS
330
47
102
}
330
47
100
AcDbScale
 70
     0
300
8:1
140
8.0
141
1.0
290
     0
  0
SCALE
  5
57
102
{ACAD_REACTORS
330
47
102
}
330
47
100
AcDbScale
 70
     0
300
10:1
140
10.0
141
1.0
290
     0
  0
SCALE
  5
58
102
{ACAD_REACTORS
330
47
102
}
330
47
100
AcDbScale
 70
     0
300
100:1
140
100.0
141
1.0
290
     0
  0
ENDSEC
  0
EOF
