  0
SECTION
  2
HEADER
  9
$ACADVER
  1
AC1015
  9
$ACADMAINTVER
 70
     6
  9
$DWGCODEPAGE
  3
DOS932
  9
$INSBASE
 10
0.0
 20
0.0
 30
0.0
  9
$EXTMIN
 10
0.0
 20
0.0
 30
0.0
  9
$EXTMAX
 10
5000.0
 20
3500.0
 30
0.0
  9
$LIMMIN
 10
0.0
 20
0.0
  9
$LIMMAX
 10
5000.0
 20
3500.0
  9
$ORTHOMODE
 70
     0
  9
$REGENMODE
 70
     1
  9
$FILLMODE
 70
     1
  9
$QTEXTMODE
 70
     0
  9
$MIRRTEXT
 70
     1
  9
$LTSCALE
 40
1.0
  9
$ATTMODE
 70
     1
  9
$TEXTSIZE
 40
3.5
  9
$TRACEWID
 40
1.0
  9
$TEXTSTYLE
  7
Standard
  9
$CLAYER
  8
0
  9
$CELTYPE
  6
ByLayer
  9
$CECOLOR
 62
   256
  9
$CELTSCALE
 40
1.0
  9
$DISPSILH
 70
     0
  9
$DIMSCALE
 40
1.0
  9
$DIMASZ
 40
3.302
  9
$DIMEXO
 40
1.0
  9
$DIMDLI
 40
3.75
  9
$DIMRND
 40
0.0
  9
$DIMDLE
 40
0.0
  9
$DIMEXE
 40
1.0
  9
$DIMTP
 40
0.0
  9
$DIMTM
 40
0.0
  9
$DIMTXT
 40
3.5
  9
$DIMCEN
 40
2.5
  9
$DIMTSZ
 40
0.0
  9
$DIMTOL
 70
     0
  9
$DIMLIM
 70
     0
  9
$DIMTIH
 70
     1
  9
$DIMTOH
 70
     1
  9
$DIMSE1
 70
     0
  9
$DIMSE2
 70
     0
  9
$DIMTAD
 70
     1
  9
$DIMZIN
 70
     0
  9
$DIMBLK
  1

  9
$DIMASO
 70
     1
  9
$DIMSHO
 70
     1
  9
$DIMPOST
  1

  9
$DIMAPOST
  1

  9
$DIMALT
 70
     0
  9
$DIMALTD
 70
     3
  9
$DIMALTF
 40
0.0393700787
  9
$DIMLFAC
 40
1.0
  9
$DIMTOFL
 70
     1
  9
$DIMTVP
 40
0.0
  9
$DIMTIX
 70
     0
  9
$DIMSOXD
 70
     0
  9
$DIMSAH
 70
     0
  9
$DIMBLK1
  1

  9
$DIMBLK2
  1

  9
$DIMSTYLE
  2
ISO-25
  9
$DIMCLRD
 70
     0
  9
$DIMCLRE
 70
     0
  9
$DIMCLRT
 70
     0
  9
$DIMTFAC
 40
1.0
  9
$DIMGAP
 40
1.524
  9
$DIMJUST
 70
     0
  9
$DIMSD1
 70
     0
  9
$DIMSD2
 70
     0
  9
$DIMTOLJ
 70
     0
  9
$DIMTZIN
 70
     0
  9
$DIMALTZ
 70
     0
  9
$DIMALTTZ
 70
     0
  9
$DIMUPT
 70
     0
  9
$DIMDEC
 70
     2
  9
$DIMTDEC
 70
     2
  9
$DIMALTU
 70
     2
  9
$DIMALTTD
 70
     3
  9
$DIMTXSTY
  7
Standard
  9
$DIMAUNIT
 70
     0
  9
$DIMADEC
 70
     2
  9
$DIMALTRND
 40
0.0
  9
$DIMAZIN
 70
     0
  9
$DIMDSEP
 70
    44
  9
$DIMATFIT
 70
     3
  9
$DIMFRAC
 70
     0
  9
$DIMLDRBLK
  1

  9
$DIMLUNIT
 70
     2
  9
$DIMLWD
 70
    -2
  9
$DIMLWE
 70
    -2
  9
$DIMTMOVE
 70
     0
  9
$LUNITS
 70
     2
  9
$LUPREC
 70
     3
  9
$SKETCHINC
 40
1.0
  9
$FILLETRAD
 40
0.0
  9
$AUNITS
 70
     0
  9
$AUPREC
 70
     2
  9
$MENU
  1
.
  9
$ELEVATION
 40
0.0
  9
$PELEVATION
 40
0.0
  9
$THICKNESS
 40
0.0
  9
$LIMCHECK
 70
     0
  9
$CHAMFERA
 40
0.0
  9
$CHAMFERB
 40
0.0
  9
$CHAMFERC
 40
0.0
  9
$CHAMFERD
 40
0.0
  9
$SKPOLY
 70
     0
  9
$TDCREATE
 40
2460384.683999399
  9
$TDUCREATE
 40
2460384.308999399
  9
$TDUPDATE
 40
2460384.683999769
  9
$TDUUPDATE
 40
2460384.308999769
  9
$TDINDWG
 40
0.0000000116
  9
$TDUSRTIMER
 40
0.0000000116
  9
$USRTIMER
 70
     1
  9
$ANGBASE
 50
0.0
  9
$ANGDIR
 70
     0
  9
$PDMODE
 70
     0
  9
$PDSIZE
 40
-1.0
  9
$PLINEWID
 40
0.0
  9
$SPLFRAME
 70
     0
  9
$SPLINETYPE
 70
     6
  9
$SPLINESEGS
 70
     8
  9
$HANDSEED
  5
4EB
  9
$SURFTAB1
 70
     6
  9
$SURFTAB2
 70
     6
  9
$SURFTYPE
 70
     6
  9
$SURFU
 70
     6
  9
$SURFV
 70
     6
  9
$UCSBASE
  2

  9
$UCSNAME
  2

  9
$UCSORG
 10
0.0
 20
0.0
 30
0.0
  9
$UCSXDIR
 10
1.0
 20
0.0
 30
0.0
  9
$UCSYDIR
 10
0.0
 20
1.0
 30
0.0
  9
$UCSORTHOREF
  2

  9
$UCSORTHOVIEW
 70
     0
  9
$UCSORGTOP
 10
0.0
 20
0.0
 30
0.0
  9
$UCSORGBOTTOM
 10
0.0
 20
0.0
 30
0.0
  9
$UCSORGLEFT
 10
0.0
 20
0.0
 30
0.0
  9
$UCSORGRIGHT
 10
0.0
 20
0.0
 30
0.0
  9
$UCSORGFRONT
 10
0.0
 20
0.0
 30
0.0
  9
$UCSORGBACK
 10
0.0
 20
0.0
 30
0.0
  9
$PUCSBASE
  2

  9
$PUCSNAME
  2

  9
$PUCSORG
 10
0.0
 20
0.0
 30
0.0
  9
$PUCSXDIR
 10
1.0
 20
0.0
 30
0.0
  9
$PUCSYDIR
 10
0.0
 20
1.0
 30
0.0
  9
$PUCSORTHOREF
  2

  9
$PUCSORTHOVIEW
 70
     0
  9
$PUCSORGTOP
 10
0.0
 20
0.0
 30
0.0
  9
$PUCSORGBOTTOM
 10
0.0
 20
0.0
 30
0.0
  9
$PUCSORGLEFT
 10
0.0
 20
0.0
 30
0.0
  9
$PUCSORGRIGHT
 10
0.0
 20
0.0
 30
0.0
  9
$PUCSORGFRONT
 10
0.0
 20
0.0
 30
0.0
  9
$PUCSORGBACK
 10
0.0
 20
0.0
 30
0.0
  9
$USERI1
 70
     0
  9
$USERI2
 70
     0
  9
$USERI3
 70
     0
  9
$USERI4
 70
     0
  9
$USERI5
 70
     0
  9
$USERR1
 40
0.0
  9
$USERR2
 40
0.0
  9
$USERR3
 40
0.0
  9
$USERR4
 40
0.0
  9
$USERR5
 40
0.0
  9
$WORLDVIEW
 70
     1
  9
$SHADEDGE
 70
     3
  9
$SHADEDIF
 70
    70
  9
$TILEMODE
 70
     1
  9
$MAXACTVP
 70
    64
  9
$PINSBASE
 10
0.0
 20
0.0
 30
0.0
  9
$PLIMCHECK
 70
     0
  9
$PEXTMIN
 10
1.0000000000E+20
 20
1.0000000000E+20
 30
1.0000000000E+20
  9
$PEXTMAX
 10
-1.0000000000E+20
 20
-1.0000000000E+20
 30
-1.0000000000E+20
  9
$PLIMMIN
 10
0.0
 20
0.0
  9
$PLIMMAX
 10
420.0
 20
297.0
  9
$UNITMODE
 70
     0
  9
$VISRETAIN
 70
     1
  9
$PLINEGEN
 70
     0
  9
$PSLTSCALE
 70
     1
  9
$TREEDEPTH
 70
  3020
  9
$CMLSTYLE
  2
Standard
  9
$CMLJUST
 70
     0
  9
$CMLSCALE
 40
20.0
  9
$PROXYGRAPHICS
 70
     1
  9
$MEASUREMENT
 70
     1
  9
$CELWEIGHT
370
    -1
  9
$ENDCAPS
280
     0
  9
$JOINSTYLE
280
     0
  9
$LWDISPLAY
290
     1
  9
$INSUNITS
 70
     4
  9
$HYPERLINKBASE
  1

  9
$STYLESHEET
  1

  9
$XEDIT
290
     1
  9
$CEPSNTYPE
380
     0
  9
$PSTYLEMODE
290
     1
  9
$FINGERPRINTGUID
  2
{1b282a2c-5d4b-4042-b77c-f47714653dc3}
  9
$VERSIONGUID
  2
{FAEB1C32-E019-11D5-929B-00C0DF256EC4}
  9
$EXTNAMES
290
     1
  9
$PSVPSCALE
 40
0.0
  9
$OLESTARTUP
290
     0
  0
ENDSEC
  0
SECTION
  2
CLASSES
  0
CLASS
  1
ACDBDICTIONARYWDFLT
  2
AcDbDictionaryWithDefault
  3
ObjectDBX Classes
 90
        0
280
     0
281
     0
  0
CLASS
  1
VISUALSTYLE
  2
AcDbVisualStyle
  3
ObjectDBX Classes
 90
     4095
280
     0
281
     0
  0
CLASS
  1
MATERIAL
  2
AcDbMaterial
  3
ObjectDBX Classes
 90
     1153
280
     0
281
     0
  0
CLASS
  1
SCALE
  2
AcDbScale
  3
ObjectDBX Classes
 90
     1153
280
     0
281
     0
  0
CLASS
  1
TABLESTYLE
  2
AcDbTableStyle
  3
ObjectDBX Classes
 90
     4095
280
     0
281
     0
  0
CLASS
  1
MLEADERSTYLE
  2
AcDbMLeaderStyle
  3
ACDB_MLEADERSTYLE_CLASS
 90
     4095
280
     0
281
     0
  0
CLASS
  1
SUN
  2
AcDbSun
  3
SCENEOE
 90
     1153
280
     0
281
     0
  0
CLASS
  1
ACDBPLACEHOLDER
  2
AcDbPlaceHolder
  3
ObjectDBX Classes
 90
        0
280
     0
281
     0
  0
CLASS
  1
LAYOUT
  2
AcDbLayout
  3
ObjectDBX Classes
 90
        0
280
     0
281
     0
  0
ENDSEC
  0
SECTION
  2
TABLES
  0
TABLE
  2
VPORT
  5
8
330
0
100
AcDbSymbolTable
 70
     1
  0
VPORT
  5
29
330
8
100
AcDbSymbolTableRecord
100
AcDbViewportTableRecord
  2
*Active
 70
     0
 10
0.0
 20
0.0
 11
1.0
 21
1.0
 12
2500.0
 22
1750.0
 13
0.0
 23
0.0
 14
10.0
 24
10.0
 15
10.0
 25
10.0
 16
0.0
 26
0.0
 36
1.0
 17
0.0
 27
0.0
 37
0.0
 40
3500.0
 41
1.4285714286
 42
50.0
 43
0.0
 44
0.0
 50
0.0
 51
0.0
 71
     0
 72
  2000
 73
     1
 74
     3
 75
     0
 76
     0
 77
     0
 78
     0
281
     0
 65
     1
110
0.0
120
0.0
130
0.0
111
1.0
121
0.0
131
0.0
112
0.0
122
1.0
132
0.0
 79
     0
146
0.0
  0
ENDTAB
  0
TABLE
  2
LTYPE
  5
5
330
0
100
AcDbSymbolTable
 70
     6
  0
LTYPE
  5
14
330
5
100
AcDbSymbolTableRecord
100
AcDbLinetypeTableRecord
  2
ByBlock
 70
     0
  3

 72
    65
 73
     0
 40
0.0
  0
LTYPE
  5
15
330
5
100
AcDbSymbolTableRecord
100
AcDbLinetypeTableRecord
  2
ByLayer
 70
     0
  3

 72
    65
 73
     0
 40
0.0
  0
LTYPE
  5
16
330
5
100
AcDbSymbolTableRecord
100
AcDbLinetypeTableRecord
  2
Continuous
 70
     0
  3
Solid line
 72
    65
 73
     0
 40
0.0
  0
LTYPE
  5
5E
330
5
100
AcDbSymbolTableRecord
100
AcDbLinetypeTableRecord
  2
HIDDEN
 70
     0
  3
Hidden __ __ __ __ __ __ __ __ __ __ __ __ __ __
 72
    65
 73
     2
 40
1.905
 49
1.27
 74
     0
 49
-0.635
 74
     0
  0
LTYPE
  5
5F
330
5
100
AcDbSymbolTableRecord
100
AcDbLinetypeTableRecord
  2
PHANTOM
 70
     0
  3
Phantom ______  __  __  ______  __  __  ______
 72
    65
 73
     6
 40
12.7
 49
6.35
 74
     0
 49
-1.27
 74
     0
 49
1.27
 74
     0
 49
-1.27
 74
     0
 49
1.27
 74
     0
 49
-1.27
 74
     0
  0
LTYPE
  5
60
330
5
100
AcDbSymbolTableRecord
100
AcDbLinetypeTableRecord
  2
CENTER
 70
     0
  3
Center ____ _ ____ _ ____ _ ____ _ ____ _ ____
 72
    65
 73
     4
 40
10.16
 49
6.35
 74
     0
 49
-1.27
 74
     0
 49
1.27
 74
     0
 49
-1.27
 74
     0
  0
LTYPE
  5
61
330
5
100
AcDbSymbolTableRecord
100
AcDbLinetypeTableRecord
  2
CENTERX2
 70
     0
  3
Center (2x) ________  __  ________  __  _____
 72
    65
 73
     4
 40
20.32
 49
12.7
 74
     0
 49
-2.54
 74
     0
 49
2.54
 74
     0
 49
-2.54
 74
     0
  0
LTYPE
  5
62
330
5
100
AcDbSymbolTableRecord
100
AcDbLinetypeTableRecord
  2
DOT2
 70
     0
  3
Dot (.5x) ........................................
 72
    65
 73
     2
 40
0.635
 49
0.0
 74
     0
 49
-0.635
 74
     0
  0
ENDTAB
  0
TABLE
  2
LAYER
  5
2
330
0
100
AcDbSymbolTable
 70
     3
  0
LAYER
  5
10
330
2
100
AcDbSymbolTableRecord
100
AcDbLayerTableRecord
  2
0
 70
     0
 62
     7
  6
Continuous
370
    -3
390
F
  0
LAYER
  5
63
330
2
100
AcDbSymbolTableRecord
100
AcDbLayerTableRecord
  2
SLD-0
 70
     0
 62
   179
  6
Continuous
370
    -3
390
F
  0
LAYER
  5
64
330
2
100
AcDbSymbolTableRecord
100
AcDbLayerTableRecord
  2
寸法
 70
     0
 62
   179
  6
Continuous
370
    -3
390
F
  0
ENDTAB
  0
TABLE
  2
STYLE
  5
3
330
0
100
AcDbSymbolTable
 70
     2
  0
STYLE
  5
11
330
3
100
AcDbSymbolTableRecord
100
AcDbTextStyleTableRecord
  2
Standard
 70
     0
 40
0.0
 41
1.0
 50
0.0
 71
     0
 42
3.5
  3
txt
  4
bigfont
  0
STYLE
  5
66
330
3
100
AcDbSymbolTableRecord
100
AcDbTextStyleTableRecord
  2
SLDTEXTSTYLE0
 70
     0
 40
0.0
 41
0.75
 50
0.0
 71
     0
 42
3.5
  3
TXT
  4
bigfont
  0
ENDTAB
  0
TABLE
  2
VIEW
  5
6
330
0
100
AcDbSymbolTable
 70
     0
  0
ENDTAB
  0
TABLE
  2
UCS
  5
7
330
0
100
AcDbSymbolTable
 70
     0
  0
ENDTAB
  0
TABLE
  2
APPID
  5
9
330
0
100
AcDbSymbolTable
 70
     1
  0
APPID
  5
12
330
9
100
AcDbSymbolTableRecord
100
AcDbRegAppTableRecord
  2
ACAD
 70
     0
  0
ENDTAB
  0
TABLE
  2
DIMSTYLE
  5
A
330
0
100
AcDbSymbolTable
 70
     1
100
AcDbDimStyleTable
  0
DIMSTYLE
105
27
330
A
100
AcDbSymbolTableRecord
100
AcDbDimStyleTableRecord
  2
ISO-25
 70
     0
 41
2.5
 42
0.625
 43
3.75
 44
1.25
 73
     0
 74
     0
 77
     1
 78
     8
140
2.5
141
2.5
143
0.0393700787
147
0.625
171
     3
172
     1
178
     0
271
     2
272
     2
274
     3
278
    44
283
     0
284
     8
340
11
  0
ENDTAB
  0
TABLE
  2
BLOCK_RECORD
  5
1
330
0
100
AcDbSymbolTable
 70
     1
  0
BLOCK_RECORD
  5
1F
330
1
100
AcDbSymbolTableRecord
100
AcDbBlockTableRecord
  2
*Model_Space
340
22
  0
BLOCK_RECORD
  5
1B
330
1
100
AcDbSymbolTableRecord
100
AcDbBlockTableRecord
  2
*Paper_Space
340
1E
  0
BLOCK_RECORD
  5
23
330
1
100
AcDbSymbolTableRecord
100
AcDbBlockTableRecord
  2
*Paper_Space0
340
26
  0
ENDTAB
  0
ENDSEC
  0
SECTION
  2
BLOCKS
  0
BLOCK
  5
20
330
1F
100
AcDbEntity
  8
0
100
AcDbBlockBegin
  2
*Model_Space
 70
     0
 10
0.0
 20
0.0
 30
0.0
  3
*Model_Space
  1

  0
ENDBLK
  5
21
330
1F
100
AcDbEntity
  8
0
100
AcDbBlockEnd
  0
BLOCK
  5
1C
330
1B
100
AcDbEntity
 67
     1
  8
0
100
AcDbBlockBegin
  2
*Paper_Space
 70
     0
 10
0.0
 20
0.0
 30
0.0
  3
*Paper_Space
  1

  0
ENDBLK
  5
1D
330
1B
100
AcDbEntity
 67
     1
  8
0
100
AcDbBlockEnd
  0
BLOCK
  5
24
330
23
100
AcDbEntity
  8
0
100
AcDbBlockBegin
  2
*Paper_Space0
 70
     0
 10
0.0
 20
0.0
 30
0.0
  3
*Paper_Space0
  1

  0
ENDBLK
  5
25
330
23
100
AcDbEntity
  8
0
100
AcDbBlockEnd
  0
ENDSEC
  0
SECTION
  2
ENTITIES
  0
LINE
  5
65
330
1F
100
AcDbEntity
  8
0
  6
Continuous
 62
     7
370
    18
100
AcDbLine
 10
4801.663086451
 20
279.1403827252
 30
0.0
 11
3345.9062220501
 21
279.1403827252
 31
0.0
  0
MTEXT
  5
67
330
1F
100
AcDbEntity
  8
0
  6
Continuous
 62
     7
370
     0
100
AcDbMText
 10
1882.8324799637
 20
2519.2846179971
 30
0.0
 40
52.9166666667
 41
0.0
 71
     1
 72
     1
  1
＜正面＞
  7
SLDTEXTSTYLE0
 73
     1
 44
1.0
  0
MTEXT
  5
68
330
1F
100
AcDbEntity
  8
0
  6
Continuous
 62
     7
370
     0
100
AcDbMText
 10
3377.8142431891
 20
379.4057208634
 30
0.0
 40
52.9166666667
 41
0.0
 71
     1
 72
     1
  1
品名：
  7
SLDTEXTSTYLE0
 73
     1
 44
1.0
  0
MTEXT
  5
69
330
1F
100
AcDbEntity
  8
0
  6
Continuous
 62
     7
370
     0
100
AcDbMText
 10
4446.6634374817
 20
385.2343854145
 30
0.0
 40
52.9166666667
 41
0.0
 71
     1
 72
     1
  1
Pamouna
  7
SLDTEXTSTYLE0
 73
     1
 44
1.0
  0
MTEXT
  5
6A
330
1F
100
AcDbEntity
  8
寸法
 62
     7
100
AcDbMText
 10
4688.0073048854
 20
218.6255182943
 30
0.0
 40
52.9166666667
 41
0.0
 71
     1
 72
     1
  1
1/1
  7
SLDTEXTSTYLE0
 73
     1
 44
1.0
  0
MTEXT
  5
6B
330
1F
100
AcDbEntity
  8
寸法
 62
     7
100
AcDbMText
 10
3611.2831293492
 20
398.3924235142
 30
0.0
 40
66.1458333333
 41
0.0
 71
     1
 72
     1
  1
MAGC803
  7
SLDTEXTSTYLE0
 73
     1
 44
1.0
  0
MTEXT
  5
6C
330
1F
100
AcDbEntity
  8
寸法
 62
     7
100
AcDbMText
 10
4198.7969392118
 20
218.6255210883
 30
0.0
 40
52.9166666667
 41
0.0
 71
     1
 72
     1
  1
2024/03/14
  7
SLDTEXTSTYLE0
 73
     1
 44
1.0
  0
MTEXT
  5
6D
330
1F
100
AcDbEntity
  8
寸法
 62
     7
100
AcDbMText
 10
3662.4665930518
 20
2520.6575766403
 30
0.0
 40
52.9166666667
 41
0.0
 71
     1
 72
     1
  1
＜右側面＞
  7
SLDTEXTSTYLE0
 73
     1
 44
1.0
  0
MTEXT
  5
6E
330
1F
100
AcDbEntity
  8
0
  6
Continuous
 62
     7
370
     0
100
AcDbMText
 10
1882.8017261557
 20
3205.5678091759
 30
0.0
 40
52.9166666667
 41
0.0
 71
     1
 72
     1
  1
＜上面＞
  7
SLDTEXTSTYLE0
 73
     1
 44
1.0
  0
MTEXT
  5
6F
330
1F
100
AcDbEntity
  8
0
  6
Continuous
 62
     7
370
     0
100
AcDbMText
 10
599.5723251208
 20
2520.5928474105
 30
0.0
 40
52.9166666667
 41
0.0
 71
     1
 72
     1
  1
＜左側面＞
  7
SLDTEXTSTYLE0
 73
     1
 44
1.0
  0
LINE
  5
70
330
1F
100
AcDbEntity
  8
0
  6
Continuous
 62
     7
370
    25
100
AcDbLine
 10
2432.7454585654
 20
1497.2543978663
 30
0.0
 11
2430.9454585654
 21
1497.2543978663
 31
0.0
  0
ARC
  5
71
330
1F
100
AcDbEntity
  8
0
  6
Continuous
 62
     7
370
    25
100
AcDbCircle
 10
2432.7454585654
 20
1497.0543978663
 30
0.0
 40
0.1999999999998181
100
AcDbArc
 50
0.0
 51
90.0
  0
LINE
  5
72
330
1F
100
AcDbEntity
  8
0
  6
Continuous
 62
     7
370
    25
100
AcDbLine
 10
2037.1454585654
 20
1866.2543978663
 30
0.0
 11
2038.9454585654
 21
1866.2543978663
 31
0.0
  0
ARC
  5
73
330
1F
100
AcDbEntity
  8
0
  6
Continuous
 62
     7
370
    25
100
AcDbCircle
 10
2037.1454585654
 20
1866.4543978663
 30
0.0
 40
0.2000000000000455
100
AcDbArc
 50
180.0
 51
270.0
  0
ARC
  5
74
330
1F
100
AcDbEntity
  8
0
  6
Continuous
 62
     7
370
    25
100
AcDbCircle
 10
2832.2454585654
 20
1497.0543978663
 30
0.0
 40
0.2000000000002728
100
AcDbArc
 50
0.0
 51
90.0
  0
LINE
  5
75
330
1F
100
AcDbEntity
  8
0
  6
Continuous
 62
     7
370
    25
100
AcDbLine
 10
2832.2454585654
 20
1497.2543978663
 30
0.0
 11
2830.4454585654
 21
1497.2543978663
 31
0.0
  0
LINE
  5
76
330
1F
100
AcDbEntity
  8
0
  6
Continuous
 62
     7
370
    25
100
AcDbLine
 10
2436.6454585654
 20
1866.2543978663
 30
0.0
 11
2438.4454585654
 21
1866.2543978663
 31
0.0
  0
ARC
  5
77
330
1F
100
AcDbEntity
  8
0
  6
Continuous
 62
     7
370
    25
100
AcDbCircle
 10
2436.6454585654
 20
1866.4543978663
 30
0.0
 40
0.2000000000000455
100
AcDbArc
 50
180.0
 51
270.0
  0
LINE
  5
78
330
1F
100
AcDbEntity
  8
0
  6
Continuous
 62
     7
370
    25
100
AcDbLine
 10
2438.4454585654
 20
1866.2543978663
 30
0.0
 11
2830.4454585654
 21
1866.2543978663
 31
0.0
  0
LINE
  5
79
330
1F
100
AcDbEntity
  8
0
  6
Continuous
 62
     7
370
    25
100
AcDbLine
 10
2830.4454585654
 20
1497.2543978663
 30
0.0
 11
2438.4454585654
 21
1497.2543978663
 31
0.0
  0
LINE
  5
7A
330
1F
100
AcDbEntity
  8
0
  6
Continuous
 62
     7
370
    25
100
AcDbLine
 10
2038.9454585654
 20
1866.2543978663
 30
0.0
 11
2430.9454585654
 21
1866.2543978663
 31
0.0
  0
LINE
  5
7B
330
1F
100
AcDbEntity
  8
0
  6
Continuous
 62
     7
370
    25
100
AcDbLine
 10
2430.9454585654
 20
1497.2543978663
 30
0.0
 11
2038.9454585654
 21
1497.2543978663
 31
0.0
  0
LINE
  5
7C
330
1F
100
AcDbEntity
  8
0
  6
Continuous
 62
     7
370
    25
100
AcDbLine
 10
2430.9454585654
 20
1866.2543978663
 30
0.0
 11
2432.7454585654
 21
1866.2543978663
 31
0.0
  0
ARC
  5
7D
330
1F
100
AcDbEntity
  8
0
  6
Continuous
 62
     7
370
    25
100
AcDbCircle
 10
2432.7454585654
 20
1866.4543978663
 30
0.0
 40
0.2000000000000455
100
AcDbArc
 50
270.0
 51
0.0
  0
LINE
  5
7E
330
1F
100
AcDbEntity
  8
0
  6
Continuous
 62
     7
370
    25
100
AcDbLine
 10
2438.4454585654
 20
1497.2543978663
 30
0.0
 11
2436.6454585654
 21
1497.2543978663
 31
0.0
  0
ARC
  5
7F
330
1F
100
AcDbEntity
  8
0
  6
Continuous
 62
     7
370
    25
100
AcDbCircle
 10
2436.6454585654
 20
1497.0543978663
 30
0.0
 40
0.1999999999998181
100
AcDbArc
 50
90.0
 51
180.0
  0
LINE
  5
80
330
1F
100
AcDbEntity
  8
0
  6
Continuous
 62
     7
370
    25
100
AcDbLine
 10
2830.4454585654
 20
1866.2543978663
 30
0.0
 11
2832.2454585654
 21
1866.2543978663
 31
0.0
  0
ARC
  5
81
330
1F
100
AcDbEntity
  8
0
  6
Continuous
 62
     7
370
    25
100
AcDbCircle
 10
2832.2454585654
 20
1866.4543978663
 30
0.0
 40
0.2000000000002728
100
AcDbArc
 50
270.0
 51
0.0
  0
LINE
  5
82
330
1F
100
AcDbEntity
  8
0
  6
Continuous
 62
     7
370
    25
100
AcDbLine
 10
2038.9454585654
 20
1497.2543978663
 30
0.0
 11
2037.1454585654
 21
1497.2543978663
 31
0.0
  0
ARC
  5
83
330
1F
100
AcDbEntity
  8
0
  6
Continuous
 62
     7
370
    25
100
AcDbCircle
 10
2037.1454585654
 20
1497.0543978663
 30
0.0
 40
0.2000000000000455
100
AcDbArc
 50
90.0
 51
180.0
  0
LINE
  5
84
330
1F
100
AcDbEntity
  8
0
  6
Continuous
 62
     7
370
    25
100
AcDbLine
 10
2436.4454585654
 20
616.7543978663
 30
0.0
 11
2832.4454585654
 21
616.7543978663
 31
0.0
  0
LINE
  5
85
330
1F
100
AcDbEntity
  8
0
  6
Continuous
 62
     7
370
    25
100
AcDbLine
 10
2436.4454585654
 20
1496.7543978663
 30
0.0
 11
2436.4454585654
 21
616.7543978663
 31
0.0
  0
LINE
  5
86
330
1F
100
AcDbEntity
  8
0
  6
Continuous
 62
     7
370
    25
100
AcDbLine
 10
2832.4454585654
 20
616.7543978663
 30
0.0
 11
2832.4454585654
 21
1496.7543978663
 31
0.0
  0
LINE
  5
87
330
1F
100
AcDbEntity
  8
0
  6
Continuous
 62
     7
370
    25
100
AcDbLine
 10
2832.4454585654
 20
1496.7543978663
 30
0.0
 11
2436.4454585654
 21
1496.7543978663
 31
0.0
  0
LINE
  5
88
330
1F
100
AcDbEntity
  8
0
  6
Continuous
 62
     7
370
    25
100
AcDbLine
 10
2432.9454585654
 20
1496.7543978663
 30
0.0
 11
2036.9454585654
 21
1496.7543978663
 31
0.0
  0
LINE
  5
89
330
1F
100
AcDbEntity
  8
0
  6
Continuous
 62
     7
370
    25
100
AcDbLine
 10
2432.9454585654
 20
616.7543978663
 30
0.0
 11
2432.9454585654
 21
1496.7543978663
 31
0.0
  0
LINE
  5
8A
330
1F
100
AcDbEntity
  8
0
  6
Continuous
 62
     7
370
    25
100
AcDbLine
 10
2036.9454585654
 20
616.7543978663
 30
0.0
 11
2432.9454585654
 21
616.7543978663
 31
0.0
  0
LINE
  5
8B
330
1F
100
AcDbEntity
  8
0
  6
Continuous
 62
     7
370
    25
100
AcDbLine
 10
2036.9454585654
 20
1496.7543978663
 30
0.0
 11
2036.9454585654
 21
616.7543978663
 31
0.0
  0
LINE
  5
8C
330
1F
100
AcDbEntity
  8
0
  6
Continuous
 62
     7
370
    25
100
AcDbLine
 10
2832.4454585654
 20
2396.7543978663
 30
0.0
 11
2436.4454585654
 21
2396.7543978663
 31
0.0
  0
LINE
  5
8D
330
1F
100
AcDbEntity
  8
0
  6
Continuous
 62
     7
370
    25
100
AcDbLine
 10
2832.4454585654
 20
1866.7543978663
 30
0.0
 11
2832.4454585654
 21
2396.7543978663
 31
0.0
  0
LINE
  5
8E
330
1F
100
AcDbEntity
  8
0
  6
Continuous
 62
     7
370
    25
100
AcDbLine
 10
2436.4454585654
 20
2396.7543978663
 30
0.0
 11
2436.4454585654
 21
1866.7543978663
 31
0.0
  0
LINE
  5
8F
330
1F
100
AcDbEntity
  8
0
  6
Continuous
 62
     7
370
    25
100
AcDbLine
 10
2436.4454585654
 20
1866.7543978663
 30
0.0
 11
2832.4454585654
 21
1866.7543978663
 31
0.0
  0
LINE
  5
90
330
1F
100
AcDbEntity
  8
0
  6
Continuous
 62
     7
370
    25
100
AcDbLine
 10
2432.9454585654
 20
1866.7543978663
 30
0.0
 11
2432.9454585654
 21
2396.7543978663
 31
0.0
  0
LINE
  5
91
330
1F
100
AcDbEntity
  8
0
  6
Continuous
 62
     7
370
    25
100
AcDbLine
 10
2036.9454585654
 20
1866.7543978663
 30
0.0
 11
2432.9454585654
 21
1866.7543978663
 31
0.0
  0
LINE
  5
92
330
1F
100
AcDbEntity
  8
0
  6
Continuous
 62
     7
370
    25
100
AcDbLine
 10
2036.9454585654
 20
2396.7543978663
 30
0.0
 11
2036.9454585654
 21
1866.7543978663
 31
0.0
  0
LINE
  5
93
330
1F
100
AcDbEntity
  8
0
  6
Continuous
 62
     7
370
    25
100
AcDbLine
 10
2432.9454585654
 20
2396.7543978663
 30
0.0
 11
2036.9454585654
 21
2396.7543978663
 31
0.0
  0
LINE
  5
94
330
1F
100
AcDbEntity
  8
0
  6
Continuous
 62
     7
370
    25
100
AcDbLine
 10
2432.9454585654
 20
636.5043978663
 30
0.0
 11
2436.4454585654
 21
636.5043978663
 31
0.0
  0
LINE
  5
95
330
1F
100
AcDbEntity
  8
0
  6
Continuous
 62
     7
370
    25
100
AcDbLine
 10
2436.4454585654
 20
2378.0043978663
 30
0.0
 11
2432.9454585654
 21
2378.0043978663
 31
0.0
  0
LINE
  5
96
330
1F
100
AcDbEntity
  8
0
  6
Continuous
 62
     7
370
    25
100
AcDbLine
 10
2816.4454585654
 20
1857.2543978663
 30
0.0
 11
2052.9454585654
 21
1857.2543978663
 31
0.0
  0
LINE
  5
97
330
1F
100
AcDbEntity
  8
0
  6
Continuous
 62
     7
370
    25
100
AcDbLine
 10
2436.4454585654
 20
1885.7543978663
 30
0.0
 11
2432.9454585654
 21
1885.7543978663
 31
0.0
  0
LINE
  5
98
330
1F
100
AcDbEntity
  8
0
  6
Continuous
 62
     7
370
    25
100
AcDbLine
 10
2816.4454585654
 20
1506.7543978663
 30
0.0
 11
2052.9454585654
 21
1506.7543978663
 31
0.0
  0
LINE
  5
99
330
1F
100
AcDbEntity
  8
0
  6
Continuous
 62
     7
370
    25
100
AcDbLine
 10
2436.4454585654
 20
1478.2543978663
 30
0.0
 11
2432.9454585654
 21
1478.2543978663
 31
0.0
  0
LINE
  5
9A
330
1F
100
AcDbEntity
  8
0
  6
Continuous
 62
     7
370
    25
100
AcDbLine
 10
2834.9454585654
 20
2378.2543978663
 30
0.0
 11
2832.4454585654
 21
2378.2543978663
 31
0.0
  0
LINE
  5
9B
330
1F
100
AcDbEntity
  8
0
  6
Continuous
 62
     7
370
    25
100
AcDbLine
 10
2436.4454585654
 20
2378.2543978663
 30
0.0
 11
2432.9454585654
 21
2378.2543978663
 31
0.0
  0
LINE
  5
9C
330
1F
100
AcDbEntity
  8
0
  6
Continuous
 62
     7
370
    25
100
AcDbLine
 10
2036.9454585654
 20
2378.2543978663
 30
0.0
 11
2034.4454585654
 21
2378.2543978663
 31
0.0
  0
LINE
  5
9D
330
1F
100
AcDbEntity
  8
0
  6
Continuous
 62
     7
370
    25
100
AcDbLine
 10
2034.4454585654
 20
2406.7543978663
 30
0.0
 11
2034.4454585654
 21
2378.2543978663
 31
0.0
  0
LINE
  5
9E
330
1F
100
AcDbEntity
  8
0
  6
Continuous
 62
     7
370
    25
100
AcDbLine
 10
2834.9454585654
 20
2406.7543978663
 30
0.0
 11
2034.4454585654
 21
2406.7543978663
 31
0.0
  0
LINE
  5
9F
330
1F
100
AcDbEntity
  8
0
  6
Continuous
 62
     7
370
    25
100
AcDbLine
 10
2834.9454585654
 20
2406.7543978663
 30
0.0
 11
2834.9454585654
 21
2378.2543978663
 31
0.0
  0
LINE
  5
A0
330
1F
100
AcDbEntity
  8
0
  6
Continuous
 62
     7
370
    25
100
AcDbLine
 10
2052.9454585654
 20
606.7543978663
 30
0.0
 11
2052.9454585654
 21
616.7543978663
 31
0.0
  0
LINE
  5
A1
330
1F
100
AcDbEntity
  8
0
  6
Continuous
 62
     7
370
    25
100
AcDbLine
 10
2052.9454585654
 20
1497.2543978663
 30
0.0
 11
2052.9454585654
 21
1866.2543978663
 31
0.0
  0
LINE
  5
A2
330
1F
100
AcDbEntity
  8
0
  6
Continuous
 62
     7
370
    25
100
AcDbLine
 10
2035.4454585654
 20
606.7543978663
 30
0.0
 11
2052.9454585654
 21
606.7543978663
 31
0.0
  0
LINE
  5
A3
330
1F
100
AcDbEntity
  8
0
  6
Continuous
 62
     7
370
    25
100
AcDbLine
 10
2035.4454585654
 20
2378.2543978663
 30
0.0
 11
2035.4454585654
 21
606.7543978663
 31
0.0
  0
LINE
  5
A4
330
1F
100
AcDbEntity
  8
0
  6
Continuous
 62
     7
370
    25
100
AcDbLine
 10
2816.4454585654
 20
606.7543978663
 30
0.0
 11
2833.9454585654
 21
606.7543978663
 31
0.0
  0
LINE
  5
A5
330
1F
100
AcDbEntity
  8
0
  6
Continuous
 62
     7
370
    25
100
AcDbLine
 10
2833.9454585654
 20
606.7543978663
 30
0.0
 11
2833.9454585654
 21
2378.2543978663
 31
0.0
  0
LINE
  5
A6
330
1F
100
AcDbEntity
  8
0
  6
Continuous
 62
     7
370
    25
100
AcDbLine
 10
2816.4454585654
 20
1866.2543978663
 30
0.0
 11
2816.4454585654
 21
1497.2543978663
 31
0.0
  0
LINE
  5
A7
330
1F
100
AcDbEntity
  8
0
  6
Continuous
 62
     7
370
    25
100
AcDbLine
 10
2816.4454585654
 20
616.7543978663
 30
0.0
 11
2816.4454585654
 21
606.7543978663
 31
0.0
  0
LINE
  5
A8
330
1F
100
AcDbEntity
  8
0
  6
Continuous
 62
     7
370
    25
100
AcDbLine
 10
2436.4454585654
 20
636.2543978663
 30
0.0
 11
2432.9454585654
 21
636.2543978663
 31
0.0
  0
LINE
  5
A9
330
1F
100
AcDbEntity
  8
0
  6
Continuous
 62
     7
370
    25
100
AcDbLine
 10
2816.4454585654
 20
607.7543978663
 30
0.0
 11
2052.9454585654
 21
607.7543978663
 31
0.0
  0
LINE
  5
AA
330
1F
100
AcDbEntity
  8
0
  6
Continuous
 62
     7
370
    25
100
AcDbLine
 10
2436.4454585654
 20
903.2543978663
 30
0.0
 11
2432.9454585654
 21
903.2543978663
 31
0.0
  0
LINE
  5
AB
330
1F
100
AcDbEntity
  8
0
  6
Continuous
 62
     7
370
    25
100
AcDbLine
 10
2432.9454585654
 20
915.2543978663
 30
0.0
 11
2436.4454585654
 21
915.2543978663
 31
0.0
  0
LINE
  5
AC
330
1F
100
AcDbEntity
  8
0
  6
Continuous
 62
     7
370
    25
100
AcDbLine
 10
2436.4454585654
 20
2241.9543978663
 30
0.0
 11
2432.9454585654
 21
2241.9543978663
 31
0.0
  0
LINE
  5
AD
330
1F
100
AcDbEntity
  8
0
  6
Continuous
 62
     7
370
    25
100
AcDbLine
 10
2432.9454585654
 20
2253.9543978663
 30
0.0
 11
2436.4454585654
 21
2253.9543978663
 31
0.0
  0
LINE
  5
AE
330
1F
100
AcDbEntity
  8
0
  6
Continuous
 62
     7
370
    25
100
AcDbLine
 10
2436.4454585654
 20
2121.9543978663
 30
0.0
 11
2432.9454585654
 21
2121.9543978663
 31
0.0
  0
LINE
  5
AF
330
1F
100
AcDbEntity
  8
0
  6
Continuous
 62
     7
370
    25
100
AcDbLine
 10
2432.9454585654
 20
2133.9543978663
 30
0.0
 11
2436.4454585654
 21
2133.9543978663
 31
0.0
  0
LINE
  5
B0
330
1F
100
AcDbEntity
  8
0
  6
Continuous
 62
     7
370
    25
100
AcDbLine
 10
2436.4454585654
 20
2001.9543978663
 30
0.0
 11
2432.9454585654
 21
2001.9543978663
 31
0.0
  0
LINE
  5
B1
330
1F
100
AcDbEntity
  8
0
  6
Continuous
 62
     7
370
    25
100
AcDbLine
 10
2432.9454585654
 20
2013.9543978663
 30
0.0
 11
2436.4454585654
 21
2013.9543978663
 31
0.0
  0
LINE
  5
B2
330
1F
100
AcDbEntity
  8
0
  6
Continuous
 62
     7
370
    25
100
AcDbLine
 10
2436.4454585654
 20
1360.2543978663
 30
0.0
 11
2432.9454585654
 21
1360.2543978663
 31
0.0
  0
LINE
  5
B3
330
1F
100
AcDbEntity
  8
0
  6
Continuous
 62
     7
370
    25
100
AcDbLine
 10
2432.9454585654
 20
1372.2543978663
 30
0.0
 11
2436.4454585654
 21
1372.2543978663
 31
0.0
  0
LINE
  5
B4
330
1F
100
AcDbEntity
  8
0
  6
Continuous
 62
     7
370
    25
100
AcDbLine
 10
2436.4454585654
 20
1090.2543978663
 30
0.0
 11
2432.9454585654
 21
1090.2543978663
 31
0.0
  0
LINE
  5
B5
330
1F
100
AcDbEntity
  8
0
  6
Continuous
 62
     7
370
    25
100
AcDbLine
 10
2432.9454585654
 20
1102.2543978663
 30
0.0
 11
2436.4454585654
 21
1102.2543978663
 31
0.0
  0
LINE
  5
B6
330
1F
100
AcDbEntity
  8
0
  6
Continuous
 62
     7
370
    25
100
AcDbLine
 10
2436.4454585654
 20
753.2543978663
 30
0.0
 11
2432.9454585654
 21
753.2543978663
 31
0.0
  0
LINE
  5
B7
330
1F
100
AcDbEntity
  8
0
  6
Continuous
 62
     7
370
    25
100
AcDbLine
 10
2432.9454585654
 20
765.2543978663
 30
0.0
 11
2436.4454585654
 21
765.2543978663
 31
0.0
  0
LINE
  5
B8
330
1F
100
AcDbEntity
  8
0
  6
Continuous
 62
     7
370
    25
100
AcDbLine
 10
2436.4454585654
 20
1240.2543978663
 30
0.0
 11
2432.9454585654
 21
1240.2543978663
 31
0.0
  0
LINE
  5
B9
330
1F
100
AcDbEntity
  8
0
  6
Continuous
 62
     7
370
    25
100
AcDbLine
 10
2432.9454585654
 20
1252.2543978663
 30
0.0
 11
2436.4454585654
 21
1252.2543978663
 31
0.0
  0
LINE
  5
BA
330
1F
100
AcDbEntity
  8
0
  6
Continuous
 62
     7
370
    25
100
AcDbLine
 10
2432.9454585654
 20
1497.0432491446
 30
0.0
 11
2432.9454585654
 21
1496.9543978663
 31
0.0
  0
LINE
  5
BB
330
1F
100
AcDbEntity
  8
0
  6
Continuous
 62
     7
370
    25
100
AcDbLine
 10
2432.7454585654
 20
1496.7543978663
 30
0.0
 11
2432.7454585654
 21
1497.2404619641
 31
0.0
  0
ARC
  5
BC
330
1F
100
AcDbEntity
  8
0
  6
Continuous
 62
     7
370
    25
100
AcDbCircle
 10
2432.7468424451
 20
1497.0418457066
 30
0.0
 40
0.1986210785919101
100
AcDbArc
 50
0.4048499762
 51
90.3992079348
  0
SPLINE
  5
BD
330
1F
100
AcDbEntity
  8
0
  6
Continuous
 62
     7
370
    25
100
AcDbSpline
210
0.0
220
0.0
230
1.0
 70
     8
 71
     3
 72
    13
 73
     9
 74
     0
 42
0.00000001
 43
0.00000001
 40
0.0
 40
0.0
 40
0.0
 40
0.0
 40
0.0075029974113267
 40
0.3818974549662932
 40
0.607001887327179
 40
0.7653769096344221
 40
0.8824605049809765
 40
1.0
 40
1.0
 40
1.0
 40
1.0
 10
2432.945458565369
 20
1496.954397866314
 30
0.0
 10
2432.945457609765
 20
1496.953959868419
 30
0.0
 10
2432.94540897015
 20
1496.931666074052
 30
0.0
 10
2432.939286865411
 20
1496.884781685835
 30
0.0
 10
2432.897270759937
 20
1496.818497248798
 30
0.0
 10
2432.848459957971
 20
1496.780235689626
 30
0.0
 10
2432.797729310655
 20
1496.75847991389
 30
0.0
 10
2432.762904703205
 20
1496.755760310341
 30
0.0
 10
2432.74545856537
 20
1496.754397866315
 30
0.0
  0
LINE
  5
BE
330
1F
100
AcDbEntity
  8
0
  6
Continuous
 62
     7
370
    25
100
AcDbLine
 10
2430.9454585654
 20
1497.2404619641
 30
0.0
 11
2430.9454585654
 21
1496.7543978663
 31
0.0
  0
LINE
  5
BF
330
1F
100
AcDbEntity
  8
0
  6
Continuous
 62
     7
370
    25
100
AcDbLine
 10
2432.7454585654
 20
1497.2404619641
 30
0.0
 11
2430.9454585654
 21
1497.2404619641
 31
0.0
  0
LINE
  5
C0
330
1F
100
AcDbEntity
  8
0
  6
Continuous
 62
     7
370
    25
100
AcDbLine
 10
2430.9454585654
 20
1497.2543978663
 30
0.0
 11
2430.9454585654
 21
1497.2404619641
 31
0.0
  0
LINE
  5
C1
330
1F
100
AcDbEntity
  8
0
  6
Continuous
 62
     7
370
    25
100
AcDbLine
 10
2432.9454585654
 20
1497.0543978663
 30
0.0
 11
2432.9454585654
 21
1497.0432491446
 31
0.0
  0
LINE
  5
C2
330
1F
100
AcDbEntity
  8
0
  6
Continuous
 62
     7
370
    25
100
AcDbLine
 10
2432.9454585654
 20
1496.9543978663
 30
0.0
 11
2432.9454585654
 21
1496.7543978663
 31
0.0
  0
LINE
  5
C3
330
1F
100
AcDbEntity
  8
0
  6
Continuous
 62
     7
370
    25
100
AcDbLine
 10
2036.9454585654
 20
1866.4655465881
 30
0.0
 11
2036.9454585654
 21
1866.5543978663
 31
0.0
  0
SPLINE
  5
C4
330
1F
100
AcDbEntity
  8
0
  6
Continuous
 62
     7
370
    25
100
AcDbSpline
210
0.0
220
0.0
230
1.0
 70
     8
 71
     3
 72
    13
 73
     9
 74
     0
 42
0.00000001
 43
0.00000001
 40
0.0
 40
0.0
 40
0.0
 40
0.0
 40
0.0075029974112279
 40
0.3818974549663422
 40
0.6070018873270995
 40
0.7653769096343526
 40
0.882460504981001
 40
1.0
 40
1.0
 40
1.0
 40
1.0
 10
2036.945458565365
 20
1866.554397866314
 30
0.0
 10
2036.945459520969
 20
1866.554835864209
 30
0.0
 10
2036.945508160585
 20
1866.577129658573
 30
0.0
 10
2036.951630265323
 20
1866.624014046795
 30
0.0
 10
2036.993646370798
 20
1866.69029848383
 30
0.0
 10
2037.042457172763
 20
1866.728560043003
 30
0.0
 10
2037.093187820078
 20
1866.750315818737
 30
0.0
 10
2037.128012427529
 20
1866.753035422288
 30
0.0
 10
2037.145458565365
 20
1866.754397866314
 30
0.0
  0
LINE
  5
C5
330
1F
100
AcDbEntity
  8
0
  6
Continuous
 62
     7
370
    25
100
AcDbLine
 10
2037.1454585654
 20
1866.7543978663
 30
0.0
 11
2037.1454585654
 21
1866.2683337685
 31
0.0
  0
ARC
  5
C6
330
1F
100
AcDbEntity
  8
0
  6
Continuous
 62
     7
370
    25
100
AcDbCircle
 10
2037.1440746856
 20
1866.466950026
 30
0.0
 40
0.1986210785928617
100
AcDbArc
 50
180.4048499763
 51
270.3992079345
  0
LINE
  5
C7
330
1F
100
AcDbEntity
  8
0
  6
Continuous
 62
     7
370
    25
100
AcDbLine
 10
2038.9454585654
 20
1866.2683337685
 30
0.0
 11
2038.9454585654
 21
1866.7543978663
 31
0.0
  0
LINE
  5
C8
330
1F
100
AcDbEntity
  8
0
  6
Continuous
 62
     7
370
    25
100
AcDbLine
 10
2037.1454585654
 20
1866.2683337685
 30
0.0
 11
2038.9454585654
 21
1866.2683337685
 31
0.0
  0
LINE
  5
C9
330
1F
100
AcDbEntity
  8
0
  6
Continuous
 62
     7
370
    25
100
AcDbLine
 10
2038.9454585654
 20
1866.2543978663
 30
0.0
 11
2038.9454585654
 21
1866.2683337685
 31
0.0
  0
LINE
  5
CA
330
1F
100
AcDbEntity
  8
0
  6
Continuous
 62
     7
370
    25
100
AcDbLine
 10
2036.9454585654
 20
1866.4543978663
 30
0.0
 11
2036.9454585654
 21
1866.4655465881
 31
0.0
  0
LINE
  5
CB
330
1F
100
AcDbEntity
  8
0
  6
Continuous
 62
     7
370
    25
100
AcDbLine
 10
2036.9454585654
 20
1866.5543978663
 30
0.0
 11
2036.9454585654
 21
1866.7543978663
 31
0.0
  0
LINE
  5
CC
330
1F
100
AcDbEntity
  8
0
  6
Continuous
 62
     7
370
    25
100
AcDbLine
 10
2832.4454585654
 20
1497.0432491446
 30
0.0
 11
2832.4454585654
 21
1496.9543978663
 31
0.0
  0
LINE
  5
CD
330
1F
100
AcDbEntity
  8
0
  6
Continuous
 62
     7
370
    25
100
AcDbLine
 10
2832.2454585654
 20
1496.7543978663
 30
0.0
 11
2832.2454585654
 21
1497.2404619641
 31
0.0
  0
ARC
  5
CE
330
1F
100
AcDbEntity
  8
0
  6
Continuous
 62
     7
370
    25
100
AcDbCircle
 10
2832.2468424451
 20
1497.0418457066
 30
0.0
 40
0.1986210785928196
100
AcDbArc
 50
0.4048499765
 51
90.3992079348
  0
SPLINE
  5
CF
330
1F
100
AcDbEntity
  8
0
  6
Continuous
 62
     7
370
    25
100
AcDbSpline
210
0.0
220
0.0
230
1.0
 70
     8
 71
     3
 72
    13
 73
     9
 74
     0
 42
0.00000001
 43
0.00000001
 40
0.0
 40
0.0
 40
0.0
 40
0.0
 40
0.0075029974113267
 40
0.3818974549662932
 40
0.607001887327179
 40
0.7653769096344221
 40
0.8824605049809765
 40
1.0
 40
1.0
 40
1.0
 40
1.0
 10
2832.44545856537
 20
1496.954397866314
 30
0.0
 10
2832.445457609765
 20
1496.953959868419
 30
0.0
 10
2832.44540897015
 20
1496.931666074052
 30
0.0
 10
2832.439286865411
 20
1496.884781685834
 30
0.0
 10
2832.397270759937
 20
1496.818497248798
 30
0.0
 10
2832.348459957971
 20
1496.780235689626
 30
0.0
 10
2832.297729310656
 20
1496.75847991389
 30
0.0
 10
2832.262904703205
 20
1496.755760310341
 30
0.0
 10
2832.24545856537
 20
1496.754397866314
 30
0.0
  0
LINE
  5
D0
330
1F
100
AcDbEntity
  8
0
  6
Continuous
 62
     7
370
    25
100
AcDbLine
 10
2830.4454585654
 20
1497.2404619641
 30
0.0
 11
2830.4454585654
 21
1496.7543978663
 31
0.0
  0
LINE
  5
D1
330
1F
100
AcDbEntity
  8
0
  6
Continuous
 62
     7
370
    25
100
AcDbLine
 10
2832.2454585654
 20
1497.2404619641
 30
0.0
 11
2830.4454585654
 21
1497.2404619641
 31
0.0
  0
LINE
  5
D2
330
1F
100
AcDbEntity
  8
0
  6
Continuous
 62
     7
370
    25
100
AcDbLine
 10
2832.4454585654
 20
1497.0543978663
 30
0.0
 11
2832.4454585654
 21
1497.0432491446
 31
0.0
  0
LINE
  5
D3
330
1F
100
AcDbEntity
  8
0
  6
Continuous
 62
     7
370
    25
100
AcDbLine
 10
2830.4454585654
 20
1497.2543978663
 30
0.0
 11
2830.4454585654
 21
1497.2404619641
 31
0.0
  0
LINE
  5
D4
330
1F
100
AcDbEntity
  8
0
  6
Continuous
 62
     7
370
    25
100
AcDbLine
 10
2832.4454585654
 20
1496.9543978663
 30
0.0
 11
2832.4454585654
 21
1496.7543978663
 31
0.0
  0
LINE
  5
D5
330
1F
100
AcDbEntity
  8
0
  6
Continuous
 62
     7
370
    25
100
AcDbLine
 10
2436.4454585654
 20
1866.4655465881
 30
0.0
 11
2436.4454585654
 21
1866.5543978663
 31
0.0
  0
LINE
  5
D6
330
1F
100
AcDbEntity
  8
0
  6
Continuous
 62
     7
370
    25
100
AcDbLine
 10
2436.6454585654
 20
1866.7543978663
 30
0.0
 11
2436.6454585654
 21
1866.2683337685
 31
0.0
  0
ARC
  5
D7
330
1F
100
AcDbEntity
  8
0
  6
Continuous
 62
     7
370
    25
100
AcDbCircle
 10
2436.6440746856
 20
1866.466950026
 30
0.0
 40
0.1986210785912621
100
AcDbArc
 50
180.404849976
 51
270.3992079349
  0
SPLINE
  5
D8
330
1F
100
AcDbEntity
  8
0
  6
Continuous
 62
     7
370
    25
100
AcDbSpline
210
0.0
220
0.0
230
1.0
 70
     8
 71
     3
 72
    13
 73
     9
 74
     0
 42
0.00000001
 43
0.00000001
 40
0.0
 40
0.0
 40
0.0
 40
0.0
 40
0.0075029974112287
 40
0.3818974549663839
 40
0.6070018873271658
 40
0.7653769096344362
 40
0.8824605049809241
 40
0.9999999999999999
 40
0.9999999999999999
 40
0.9999999999999999
 40
0.9999999999999999
 10
2436.445458565365
 20
1866.554397866314
 30
0.0
 10
2436.445459520969
 20
1866.554835864209
 30
0.0
 10
2436.445508160585
 20
1866.577129658577
 30
0.0
 10
2436.451630265323
 20
1866.624014046794
 30
0.0
 10
2436.493646370798
 20
1866.69029848383
 30
0.0
 10
2436.542457172764
 20
1866.728560043003
 30
0.0
 10
2436.593187820079
 20
1866.750315818738
 30
0.0
 10
2436.628012427529
 20
1866.753035422288
 30
0.0
 10
2436.645458565365
 20
1866.754397866314
 30
0.0
  0
LINE
  5
D9
330
1F
100
AcDbEntity
  8
0
  6
Continuous
 62
     7
370
    25
100
AcDbLine
 10
2438.4454585654
 20
1866.2683337685
 30
0.0
 11
2438.4454585654
 21
1866.7543978663
 31
0.0
  0
LINE
  5
DA
330
1F
100
AcDbEntity
  8
0
  6
Continuous
 62
     7
370
    25
100
AcDbLine
 10
2436.6454585654
 20
1866.2683337685
 30
0.0
 11
2438.4454585654
 21
1866.2683337685
 31
0.0
  0
LINE
  5
DB
330
1F
100
AcDbEntity
  8
0
  6
Continuous
 62
     7
370
    25
100
AcDbLine
 10
2438.4454585654
 20
1866.2543978663
 30
0.0
 11
2438.4454585654
 21
1866.2683337685
 31
0.0
  0
LINE
  5
DC
330
1F
100
AcDbEntity
  8
0
  6
Continuous
 62
     7
370
    25
100
AcDbLine
 10
2436.4454585654
 20
1866.4543978663
 30
0.0
 11
2436.4454585654
 21
1866.4655465881
 31
0.0
  0
LINE
  5
DD
330
1F
100
AcDbEntity
  8
0
  6
Continuous
 62
     7
370
    25
100
AcDbLine
 10
2436.4454585654
 20
1866.5543978663
 30
0.0
 11
2436.4454585654
 21
1866.7543978663
 31
0.0
  0
LINE
  5
DE
330
1F
100
AcDbEntity
  8
0
  6
Continuous
 62
     7
370
    25
100
AcDbLine
 10
2438.4454585654
 20
1866.2683337685
 30
0.0
 11
2830.4454585654
 21
1866.2683337685
 31
0.0
  0
LINE
  5
DF
330
1F
100
AcDbEntity
  8
0
  6
Continuous
 62
     7
370
    25
100
AcDbLine
 10
2830.4454585654
 20
1866.7543978663
 30
0.0
 11
2830.4454585654
 21
1866.2683337685
 31
0.0
  0
LINE
  5
E0
330
1F
100
AcDbEntity
  8
0
  6
Continuous
 62
     7
370
    25
100
AcDbLine
 10
2830.4454585654
 20
1866.2683337685
 30
0.0
 11
2830.4454585654
 21
1866.2543978663
 31
0.0
  0
LINE
  5
E1
330
1F
100
AcDbEntity
  8
0
  6
Continuous
 62
     7
370
    25
100
AcDbLine
 10
2830.4454585654
 20
1497.2404619641
 30
0.0
 11
2438.4454585654
 21
1497.2404619641
 31
0.0
  0
LINE
  5
E2
330
1F
100
AcDbEntity
  8
0
  6
Continuous
 62
     7
370
    25
100
AcDbLine
 10
2438.4454585654
 20
1496.7543978663
 30
0.0
 11
2438.4454585654
 21
1497.2404619641
 31
0.0
  0
LINE
  5
E3
330
1F
100
AcDbEntity
  8
0
  6
Continuous
 62
     7
370
    25
100
AcDbLine
 10
2438.4454585654
 20
1497.2404619641
 30
0.0
 11
2438.4454585654
 21
1497.2543978663
 31
0.0
  0
LINE
  5
E4
330
1F
100
AcDbEntity
  8
0
  6
Continuous
 62
     7
370
    25
100
AcDbLine
 10
2038.9454585654
 20
1866.2683337685
 30
0.0
 11
2430.9454585654
 21
1866.2683337685
 31
0.0
  0
LINE
  5
E5
330
1F
100
AcDbEntity
  8
0
  6
Continuous
 62
     7
370
    25
100
AcDbLine
 10
2430.9454585654
 20
1866.7543978663
 30
0.0
 11
2430.9454585654
 21
1866.2683337685
 31
0.0
  0
LINE
  5
E6
330
1F
100
AcDbEntity
  8
0
  6
Continuous
 62
     7
370
    25
100
AcDbLine
 10
2430.9454585654
 20
1866.2683337685
 30
0.0
 11
2430.9454585654
 21
1866.2543978663
 31
0.0
  0
LINE
  5
E7
330
1F
100
AcDbEntity
  8
0
  6
Continuous
 62
     7
370
    25
100
AcDbLine
 10
2430.9454585654
 20
1497.2404619641
 30
0.0
 11
2038.9454585654
 21
1497.2404619641
 31
0.0
  0
LINE
  5
E8
330
1F
100
AcDbEntity
  8
0
  6
Continuous
 62
     7
370
    25
100
AcDbLine
 10
2038.9454585654
 20
1496.7543978663
 30
0.0
 11
2038.9454585654
 21
1497.2404619641
 31
0.0
  0
LINE
  5
E9
330
1F
100
AcDbEntity
  8
0
  6
Continuous
 62
     7
370
    25
100
AcDbLine
 10
2038.9454585654
 20
1497.2404619641
 30
0.0
 11
2038.9454585654
 21
1497.2543978663
 31
0.0
  0
LINE
  5
EA
330
1F
100
AcDbEntity
  8
0
  6
Continuous
 62
     7
370
    25
100
AcDbLine
 10
2432.9454585654
 20
1866.5543978663
 30
0.0
 11
2432.9454585654
 21
1866.4655465881
 31
0.0
  0
ARC
  5
EB
330
1F
100
AcDbEntity
  8
0
  6
Continuous
 62
     7
370
    25
100
AcDbCircle
 10
2432.7468424451
 20
1866.466950026
 30
0.0
 40
0.1986210785921764
100
AcDbArc
 50
269.6007920653
 51
359.5951500238
  0
LINE
  5
EC
330
1F
100
AcDbEntity
  8
0
  6
Continuous
 62
     7
370
    25
100
AcDbLine
 10
2432.7454585654
 20
1866.2683337685
 30
0.0
 11
2432.7454585654
 21
1866.7543978663
 31
0.0
  0
SPLINE
  5
ED
330
1F
100
AcDbEntity
  8
0
  6
Continuous
 62
     7
370
    25
100
AcDbSpline
210
0.0
220
0.0
230
1.0
 70
     8
 71
     3
 72
    13
 73
     9
 74
     0
 42
0.00000001
 43
0.00000001
 40
0.0
 40
0.0
 40
0.0
 40
0.0
 40
0.0075029974114252
 40
0.3818974549658932
 40
0.6070018873269021
 40
0.7653769096341355
 40
0.8824605049807694
 40
1.0
 40
1.0
 40
1.0
 40
1.0
 10
2432.945458565369
 20
1866.554397866315
 30
0.0
 10
2432.945457609765
 20
1866.55483586421
 30
0.0
 10
2432.945408970152
 20
1866.577129658584
 30
0.0
 10
2432.93928686541
 20
1866.624014046794
 30
0.0
 10
2432.897270759937
 20
1866.690298483831
 30
0.0
 10
2432.84845995797
 20
1866.728560043004
 30
0.0
 10
2432.797729310655
 20
1866.750315818739
 30
0.0
 10
2432.762904703205
 20
1866.753035422288
 30
0.0
 10
2432.745458565369
 20
1866.754397866315
 30
0.0
  0
LINE
  5
EE
330
1F
100
AcDbEntity
  8
0
  6
Continuous
 62
     7
370
    25
100
AcDbLine
 10
2430.9454585654
 20
1866.2683337685
 30
0.0
 11
2432.7454585654
 21
1866.2683337685
 31
0.0
  0
LINE
  5
EF
330
1F
100
AcDbEntity
  8
0
  6
Continuous
 62
     7
370
    25
100
AcDbLine
 10
2432.9454585654
 20
1866.4655465881
 30
0.0
 11
2432.9454585654
 21
1866.4543978663
 31
0.0
  0
LINE
  5
F0
330
1F
100
AcDbEntity
  8
0
  6
Continuous
 62
     7
370
    25
100
AcDbLine
 10
2432.9454585654
 20
1866.7543978663
 30
0.0
 11
2432.9454585654
 21
1866.5543978663
 31
0.0
  0
LINE
  5
F1
330
1F
100
AcDbEntity
  8
0
  6
Continuous
 62
     7
370
    25
100
AcDbLine
 10
2436.4454585654
 20
1496.9543978663
 30
0.0
 11
2436.4454585654
 21
1497.0432491446
 31
0.0
  0
ARC
  5
F2
330
1F
100
AcDbEntity
  8
0
  6
Continuous
 62
     7
370
    25
100
AcDbCircle
 10
2436.6440746856
 20
1497.0418457066
 30
0.0
 40
0.198621078592636
100
AcDbArc
 50
89.6007920655
 51
179.5951500236
  0
LINE
  5
F3
330
1F
100
AcDbEntity
  8
0
  6
Continuous
 62
     7
370
    25
100
AcDbLine
 10
2436.6454585654
 20
1497.2404619641
 30
0.0
 11
2436.6454585654
 21
1496.7543978663
 31
0.0
  0
SPLINE
  5
F4
330
1F
100
AcDbEntity
  8
0
  6
Continuous
 62
     7
370
    25
100
AcDbSpline
210
0.0
220
0.0
230
1.0
 70
     8
 71
     3
 72
    13
 73
     9
 74
     0
 42
0.00000001
 43
0.00000001
 40
0.0
 40
0.0
 40
0.0
 40
0.0
 40
0.007502997411325
 40
0.3818974549657504
 40
0.6070018873268762
 40
0.7653769096342168
 40
0.8824605049807508
 40
1.0
 40
1.0
 40
1.0
 40
1.0
 10
2436.445458565365
 20
1496.954397866314
 30
0.0
 10
2436.44545952097
 20
1496.953959868419
 30
0.0
 10
2436.445508160583
 20
1496.931666074051
 30
0.0
 10
2436.451630265324
 20
1496.884781685834
 30
0.0
 10
2436.493646370798
 20
1496.818497248799
 30
0.0
 10
2436.542457172764
 20
1496.780235689626
 30
0.0
 10
2436.593187820079
 20
1496.75847991389
 30
0.0
 10
2436.628012427529
 20
1496.75576031034
 30
0.0
 10
2436.645458565365
 20
1496.754397866314
 30
0.0
  0
LINE
  5
F5
330
1F
100
AcDbEntity
  8
0
  6
Continuous
 62
     7
370
    25
100
AcDbLine
 10
2438.4454585654
 20
1497.2404619641
 30
0.0
 11
2436.6454585654
 21
1497.2404619641
 31
0.0
  0
LINE
  5
F6
330
1F
100
AcDbEntity
  8
0
  6
Continuous
 62
     7
370
    25
100
AcDbLine
 10
2436.4454585654
 20
1497.0432491446
 30
0.0
 11
2436.4454585654
 21
1497.0543978663
 31
0.0
  0
LINE
  5
F7
330
1F
100
AcDbEntity
  8
0
  6
Continuous
 62
     7
370
    25
100
AcDbLine
 10
2436.4454585654
 20
1496.7543978663
 30
0.0
 11
2436.4454585654
 21
1496.9543978663
 31
0.0
  0
LINE
  5
F8
330
1F
100
AcDbEntity
  8
0
  6
Continuous
 62
     7
370
    25
100
AcDbLine
 10
2832.4454585654
 20
1866.5543978663
 30
0.0
 11
2832.4454585654
 21
1866.4655465881
 31
0.0
  0
ARC
  5
F9
330
1F
100
AcDbEntity
  8
0
  6
Continuous
 62
     7
370
    25
100
AcDbCircle
 10
2832.2468424451
 20
1866.466950026
 30
0.0
 40
0.1986210785930891
100
AcDbArc
 50
269.6007920655
 51
359.5951500237
  0
LINE
  5
FA
330
1F
100
AcDbEntity
  8
0
  6
Continuous
 62
     7
370
    25
100
AcDbLine
 10
2832.2454585654
 20
1866.2683337685
 30
0.0
 11
2832.2454585654
 21
1866.7543978663
 31
0.0
  0
SPLINE
  5
FB
330
1F
100
AcDbEntity
  8
0
  6
Continuous
 62
     7
370
    25
100
AcDbSpline
210
0.0
220
0.0
230
1.0
 70
     8
 71
     3
 72
    13
 73
     9
 74
     0
 42
0.00000001
 43
0.00000001
 40
0.0
 40
0.0
 40
0.0
 40
0.0
 40
0.0075029974114252
 40
0.3818974549658932
 40
0.6070018873269021
 40
0.7653769096341355
 40
0.8824605049807694
 40
1.0
 40
1.0
 40
1.0
 40
1.0
 10
2832.44545856537
 20
1866.554397866313
 30
0.0
 10
2832.445457609765
 20
1866.554835864208
 30
0.0
 10
2832.445408970152
 20
1866.57712965858
 30
0.0
 10
2832.43928686541
 20
1866.624014046792
 30
0.0
 10
2832.397270759937
 20
1866.690298483829
 30
0.0
 10
2832.348459957971
 20
1866.728560043002
 30
0.0
 10
2832.297729310656
 20
1866.750315818737
 30
0.0
 10
2832.262904703205
 20
1866.753035422286
 30
0.0
 10
2832.245458565369
 20
1866.754397866312
 30
0.0
  0
LINE
  5
FC
330
1F
100
AcDbEntity
  8
0
  6
Continuous
 62
     7
370
    25
100
AcDbLine
 10
2830.4454585654
 20
1866.2683337685
 30
0.0
 11
2832.2454585654
 21
1866.2683337685
 31
0.0
  0
LINE
  5
FD
330
1F
100
AcDbEntity
  8
0
  6
Continuous
 62
     7
370
    25
100
AcDbLine
 10
2832.4454585654
 20
1866.4655465881
 30
0.0
 11
2832.4454585654
 21
1866.4543978663
 31
0.0
  0
LINE
  5
FE
330
1F
100
AcDbEntity
  8
0
  6
Continuous
 62
     7
370
    25
100
AcDbLine
 10
2832.4454585654
 20
1866.7543978663
 30
0.0
 11
2832.4454585654
 21
1866.5543978663
 31
0.0
  0
LINE
  5
FF
330
1F
100
AcDbEntity
  8
0
  6
Continuous
 62
     7
370
    25
100
AcDbLine
 10
2036.9454585654
 20
1496.9543978663
 30
0.0
 11
2036.9454585654
 21
1497.0432491446
 31
0.0
  0
ARC
  5
100
330
1F
100
AcDbEntity
  8
0
  6
Continuous
 62
     7
370
    25
100
AcDbCircle
 10
2037.1440746856
 20
1497.0418457066
 30
0.0
 40
0.1986210785924054
100
AcDbArc
 50
89.6007920653
 51
179.5951500237
  0
LINE
  5
101
330
1F
100
AcDbEntity
  8
0
  6
Continuous
 62
     7
370
    25
100
AcDbLine
 10
2037.1454585654
 20
1497.2404619641
 30
0.0
 11
2037.1454585654
 21
1496.7543978663
 31
0.0
  0
SPLINE
  5
102
330
1F
100
AcDbEntity
  8
0
  6
Continuous
 62
     7
370
    25
100
AcDbSpline
210
0.0
220
0.0
230
1.0
 70
     8
 71
     3
 72
    13
 73
     9
 74
     0
 42
0.00000001
 43
0.00000001
 40
0.0
 40
0.0
 40
0.0
 40
0.0
 40
0.007502997411325
 40
0.3818974549657503
 40
0.6070018873268762
 40
0.7653769096342168
 40
0.8824605049807507
 40
0.9999999999999999
 40
0.9999999999999999
 40
0.9999999999999999
 40
0.9999999999999999
 10
2036.945458565365
 20
1496.954397866315
 30
0.0
 10
2036.945459520969
 20
1496.953959868419
 30
0.0
 10
2036.945508160583
 20
1496.931666074053
 30
0.0
 10
2036.951630265324
 20
1496.884781685833
 30
0.0
 10
2036.993646370798
 20
1496.818497248799
 30
0.0
 10
2037.042457172763
 20
1496.780235689626
 30
0.0
 10
2037.093187820079
 20
1496.75847991389
 30
0.0
 10
2037.128012427529
 20
1496.755760310341
 30
0.0
 10
2037.145458565365
 20
1496.754397866314
 30
0.0
  0
LINE
  5
103
330
1F
100
AcDbEntity
  8
0
  6
Continuous
 62
     7
370
    25
100
AcDbLine
 10
2038.9454585654
 20
1497.2404619641
 30
0.0
 11
2037.1454585654
 21
1497.2404619641
 31
0.0
  0
LINE
  5
104
330
1F
100
AcDbEntity
  8
0
  6
Continuous
 62
     7
370
    25
100
AcDbLine
 10
2036.9454585654
 20
1497.0432491446
 30
0.0
 11
2036.9454585654
 21
1497.0543978663
 31
0.0
  0
LINE
  5
105
330
1F
100
AcDbEntity
  8
0
  6
Continuous
 62
     7
370
    25
100
AcDbLine
 10
2036.9454585654
 20
1496.7543978663
 30
0.0
 11
2036.9454585654
 21
1496.9543978663
 31
0.0
  0
LINE
  5
106
330
1F
100
AcDbEntity
  8
0
  6
Continuous
 62
     7
370
    25
100
AcDbLine
 10
2432.7454585654
 20
1497.2404619641
 30
0.0
 11
2432.7454585654
 21
1497.2543978663
 31
0.0
  0
LINE
  5
107
330
1F
100
AcDbEntity
  8
0
  6
Continuous
 62
     7
370
    25
100
AcDbLine
 10
2037.1454585654
 20
1866.2683337685
 30
0.0
 11
2037.1454585654
 21
1866.2543978663
 31
0.0
  0
LINE
  5
108
330
1F
100
AcDbEntity
  8
0
  6
Continuous
 62
     7
370
    25
100
AcDbLine
 10
2832.2454585654
 20
1497.2404619641
 30
0.0
 11
2832.2454585654
 21
1497.2543978663
 31
0.0
  0
LINE
  5
109
330
1F
100
AcDbEntity
  8
0
  6
Continuous
 62
     7
370
    25
100
AcDbLine
 10
2436.6454585654
 20
1866.2683337685
 30
0.0
 11
2436.6454585654
 21
1866.2543978663
 31
0.0
  0
LINE
  5
10A
330
1F
100
AcDbEntity
  8
0
  6
Continuous
 62
     7
370
    25
100
AcDbLine
 10
2432.7454585654
 20
1866.2543978663
 30
0.0
 11
2432.7454585654
 21
1866.2683337685
 31
0.0
  0
LINE
  5
10B
330
1F
100
AcDbEntity
  8
0
  6
Continuous
 62
     7
370
    25
100
AcDbLine
 10
2436.6454585654
 20
1497.2543978663
 30
0.0
 11
2436.6454585654
 21
1497.2404619641
 31
0.0
  0
LINE
  5
10C
330
1F
100
AcDbEntity
  8
0
  6
Continuous
 62
     7
370
    25
100
AcDbLine
 10
2832.2454585654
 20
1866.2543978663
 30
0.0
 11
2832.2454585654
 21
1866.2683337685
 31
0.0
  0
LINE
  5
10D
330
1F
100
AcDbEntity
  8
0
  6
Continuous
 62
     7
370
    25
100
AcDbLine
 10
2037.1454585654
 20
1497.2543978663
 30
0.0
 11
2037.1454585654
 21
1497.2404619641
 31
0.0
  0
LINE
  5
10E
330
1F
100
AcDbEntity
  8
0
  6
Continuous
 62
     7
370
    25
100
AcDbLine
 10
755.7831445376
 20
2309.2767567878
 30
0.0
 11
757.7608646997
 21
2309.2249683628
 31
0.0
  0
LINE
  5
10F
330
1F
100
AcDbEntity
  8
0
  6
Continuous
 62
     7
370
    25
100
AcDbLine
 10
757.7608646997
 20
2314.7268537215
 30
0.0
 11
755.9271177533
 21
2314.7748720752
 31
0.0
  0
ARC
  5
110
330
1F
100
AcDbEntity
  8
0
  6
Continuous
 62
     7
370
    25
100
AcDbCircle
 10
755.7909976221
 20
2309.5766539853
 30
0.0
 40
0.2999999999999837
100
AcDbArc
 50
178.5000000001
 51
268.5000000001
  0
ARC
  5
111
330
1F
100
AcDbEntity
  8
0
  6
Continuous
 62
     7
370
    25
100
AcDbCircle
 10
755.9192646688
 20
2314.4749748777
 30
0.0
 40
0.2999999999999956
100
AcDbArc
 50
88.5
 51
178.5
  0
ARC
  5
112
330
1F
100
AcDbEntity
  8
0
  6
Continuous
 62
     7
370
    25
100
AcDbCircle
 10
754.280819647
 20
2337.8758832752
 30
0.0
 40
1.200000000000043
100
AcDbArc
 50
88.5000000001
 51
173.500000003
  0
ARC
  5
113
330
1F
100
AcDbEntity
  8
0
  6
Continuous
 62
     7
370
    25
100
AcDbCircle
 10
753.8201053568
 20
2320.2819143556
 30
0.0
 40
1.200000000000431
100
AcDbArc
 50
183.4999999971
 51
268.5000000001
  0
LINE
  5
114
330
1F
100
AcDbEntity
  8
0
  6
Continuous
 62
     7
370
    25
100
AcDbLine
 10
755.0624227623
 20
2339.0558276283
 30
0.0
 11
754.3122319849
 21
2339.0754720652
 31
0.0
  0
LINE
  5
115
330
1F
100
AcDbEntity
  8
0
  6
Continuous
 62
     7
370
    25
100
AcDbLine
 10
753.7886930188
 20
2319.0823255657
 30
0.0
 11
754.5388837961
 21
2319.0626811288
 31
0.0
  0
ARC
  5
116
330
1F
100
AcDbEntity
  8
0
  6
Continuous
 62
     7
370
    25
100
AcDbCircle
 10
755.0571873726
 20
2338.8558961633
 30
0.0
 40
0.2000000000000718
100
AcDbArc
 50
358.5000000001
 51
88.5000000001
  0
ARC
  5
117
330
1F
100
AcDbEntity
  8
0
  6
Continuous
 62
     7
370
    25
100
AcDbCircle
 10
754.5441191858
 20
2319.2626125938
 30
0.0
 40
0.2000000000000629
100
AcDbArc
 50
268.5000000002
 51
358.5000000001
  0
LINE
  5
118
330
1F
100
AcDbEntity
  8
0
  6
Continuous
 62
     7
370
    25
100
AcDbLine
 10
753.0885334202
 20
2338.0117271317
 30
0.0
 11
752.9067456257
 21
2336.4161961367
 31
0.0
  0
LINE
  5
119
330
1F
100
AcDbEntity
  8
0
  6
Continuous
 62
     7
370
    25
100
AcDbLine
 10
752.5243085784
 20
2321.8115145215
 30
0.0
 11
752.6223435987
 21
2320.2086561083
 31
0.0
  0
ARC
  5
11A
330
1F
100
AcDbEntity
  8
0
  6
Continuous
 62
     7
370
    25
100
AcDbCircle
 10
782.713901296
 20
2333.0200997237
 30
0.0
 40
30.00000000000199
100
AcDbArc
 50
173.5
 51
178.5000000001
  0
ARC
  5
11B
330
1F
100
AcDbEntity
  8
0
  6
Continuous
 62
     7
370
    25
100
AcDbCircle
 10
782.468352531
 20
2323.6429707076
 30
0.0
 40
30.00000000000214
100
AcDbArc
 50
178.5000000001
 51
183.5000000001
  0
SPLINE
  5
11C
330
1F
100
AcDbEntity
  8
0
  6
Continuous
 62
     7
370
    25
100
AcDbSpline
210
0.0
220
0.0
230
1.0
 70
     8
 71
     3
 72
    13
 73
     9
 74
     0
 42
0.00000001
 43
0.00000001
 40
0.0
 40
0.0
 40
0.0
 40
0.0
 40
0.2397374167688306
 40
0.3685398007314657
 40
0.5000035787040282
 40
0.6314571620063314
 40
0.7602371999081101
 40
1.0
 40
1.0
 40
1.0
 40
1.0
 10
755.6182095108035
 20
2333.53938224284
 30
0.0
 10
755.5551483398609
 20
2333.547732001868
 30
0.0
 10
755.4582066455426
 20
2333.560567789331
 30
0.0
 10
755.3427620111606
 20
2333.626504447249
 30
0.0
 10
755.2641552458501
 20
2333.693613842777
 30
0.0
 10
755.2018152157362
 20
2333.775852176286
 30
0.0
 10
755.1429820569382
 20
2333.894464357312
 30
0.0
 10
755.1360317651645
 20
2333.991032751231
 30
0.0
 10
755.1315101159956
 20
2334.053857221387
 30
0.0
  0
SPLINE
  5
11D
330
1F
100
AcDbEntity
  8
0
  6
Continuous
 62
     7
370
    25
100
AcDbSpline
210
0.0
220
0.0
230
1.0
 70
     8
 71
     3
 72
    13
 73
     9
 74
     0
 42
0.00000001
 43
0.00000001
 40
0.0
 40
0.0
 40
0.0
 40
0.0
 40
0.2397628000982605
 40
0.368542838002835
 40
0.4999964213062924
 40
0.6314601992780048
 40
0.7602625832377824
 40
1.0
 40
1.0
 40
1.0
 40
1.0
 10
754.8696593723765
 20
2324.054180756408
 30
0.0
 10
754.8774628035035
 20
2324.11668248298
 30
0.0
 10
754.8894575693823
 20
2324.21275478311
 30
0.0
 10
754.9544177812965
 20
2324.328125320644
 30
0.0
 10
755.0209763983895
 20
2324.406988324294
 30
0.0
 10
755.1029876702476
 20
2324.4698917885
 30
0.0
 10
755.2217249498143
 20
2324.529696177187
 30
0.0
 10
755.3192055621209
 20
2324.537440837371
 30
0.0
 10
755.3826173025435
 20
2324.542478786658
 30
0.0
  0
LINE
  5
11E
330
1F
100
AcDbEntity
  8
0
  6
Continuous
 62
     7
370
    25
100
AcDbLine
 10
757.7608646997
 20
2333.4832810807
 30
0.0
 11
755.6182096741
 21
2333.5393884771
 31
0.0
  0
LINE
  5
11F
330
1F
100
AcDbEntity
  8
0
  6
Continuous
 62
     7
370
    25
100
AcDbLine
 10
755.3826171393
 20
2324.5424725524
 30
0.0
 11
757.7608646997
 21
2324.4801959483
 31
0.0
  0
LINE
  5
120
330
1F
100
AcDbEntity
  8
0
  6
Continuous
 62
     7
370
    25
100
AcDbLine
 10
1139.7608646997
 20
1483.7543978663
 30
0.0
 11
1139.7608646997
 21
1463.2543978663
 31
0.0
  0
LINE
  5
121
330
1F
100
AcDbEntity
  8
0
  6
Continuous
 62
     7
370
    25
100
AcDbLine
 10
1152.2608646997
 20
1483.7543978663
 30
0.0
 11
1139.7608646997
 21
1483.7543978663
 31
0.0
  0
LINE
  5
122
330
1F
100
AcDbEntity
  8
0
  6
Continuous
 62
     7
370
    25
100
AcDbLine
 10
1152.2608646997
 20
1496.7543978663
 30
0.0
 11
1152.2608646997
 21
1483.7543978663
 31
0.0
  0
LINE
  5
123
330
1F
100
AcDbEntity
  8
0
  6
Continuous
 62
     7
370
    25
100
AcDbLine
 10
1156.2608646997
 20
1496.7543978663
 30
0.0
 11
1152.2608646997
 21
1496.7543978663
 31
0.0
  0
LINE
  5
124
330
1F
100
AcDbEntity
  8
0
  6
Continuous
 62
     7
370
    25
100
AcDbLine
 10
1156.2608646997
 20
1496.7543978663
 30
0.0
 11
1156.2608646997
 21
616.7543978663
 31
0.0
  0
LINE
  5
125
330
1F
100
AcDbEntity
  8
0
  6
Continuous
 62
     7
370
    25
100
AcDbLine
 10
1156.2608646997
 20
616.7543978663
 30
0.0
 11
1138.2608646997
 21
616.7543978663
 31
0.0
  0
LINE
  5
126
330
1F
100
AcDbEntity
  8
0
  6
Continuous
 62
     7
370
    25
100
AcDbLine
 10
1138.2608646997
 20
1463.2543978663
 30
0.0
 11
1138.2608646997
 21
616.7543978663
 31
0.0
  0
LINE
  5
127
330
1F
100
AcDbEntity
  8
0
  6
Continuous
 62
     7
370
    25
100
AcDbLine
 10
1139.7608646997
 20
1463.2543978663
 30
0.0
 11
1138.2608646997
 21
1463.2543978663
 31
0.0
  0
LINE
  5
128
330
1F
100
AcDbEntity
  8
0
  6
Continuous
 62
     7
370
    25
100
AcDbLine
 10
1138.2608646997
 20
2396.7543978663
 30
0.0
 11
1138.2608646997
 21
1900.2543978663
 31
0.0
  0
LINE
  5
129
330
1F
100
AcDbEntity
  8
0
  6
Continuous
 62
     7
370
    25
100
AcDbLine
 10
1156.2608646997
 20
2396.7543978663
 30
0.0
 11
1156.2608646997
 21
1866.7543978663
 31
0.0
  0
LINE
  5
12A
330
1F
100
AcDbEntity
  8
0
  6
Continuous
 62
     7
370
    25
100
AcDbLine
 10
1156.2608646997
 20
1866.7543978663
 30
0.0
 11
1152.2608646997
 21
1866.7543978663
 31
0.0
  0
LINE
  5
12B
330
1F
100
AcDbEntity
  8
0
  6
Continuous
 62
     7
370
    25
100
AcDbLine
 10
1152.2608646997
 20
1879.7543978663
 30
0.0
 11
1152.2608646997
 21
1866.7543978663
 31
0.0
  0
LINE
  5
12C
330
1F
100
AcDbEntity
  8
0
  6
Continuous
 62
     7
370
    25
100
AcDbLine
 10
1139.7608646997
 20
1879.7543978663
 30
0.0
 11
1152.2608646997
 21
1879.7543978663
 31
0.0
  0
LINE
  5
12D
330
1F
100
AcDbEntity
  8
0
  6
Continuous
 62
     7
370
    25
100
AcDbLine
 10
1139.7608646997
 20
1900.2543978663
 30
0.0
 11
1139.7608646997
 21
1879.7543978663
 31
0.0
  0
LINE
  5
12E
330
1F
100
AcDbEntity
  8
0
  6
Continuous
 62
     7
370
    25
100
AcDbLine
 10
1156.2608646997
 20
2396.7543978663
 30
0.0
 11
1138.2608646997
 21
2396.7543978663
 31
0.0
  0
LINE
  5
12F
330
1F
100
AcDbEntity
  8
0
  6
Continuous
 62
     7
370
    25
100
AcDbLine
 10
1138.2608646997
 20
1900.2543978663
 30
0.0
 11
1139.7608646997
 21
1900.2543978663
 31
0.0
  0
LINE
  5
130
330
1F
100
AcDbEntity
  8
0
  6
Continuous
 62
     7
370
    25
100
AcDbLine
 10
1136.7608646997
 20
2406.7543978663
 30
0.0
 11
1136.7608646997
 21
2378.2543978663
 31
0.0
  0
LINE
  5
131
330
1F
100
AcDbEntity
  8
0
  6
Continuous
 62
     7
370
    25
100
AcDbLine
 10
1136.7608646997
 20
2378.2543978663
 30
0.0
 11
757.7608646997
 21
2378.2543978663
 31
0.0
  0
LINE
  5
132
330
1F
100
AcDbEntity
  8
0
  6
Continuous
 62
     7
370
    25
100
AcDbLine
 10
757.7608646997
 20
2378.2543978663
 30
0.0
 11
757.7608646997
 21
2406.7543978663
 31
0.0
  0
LINE
  5
133
330
1F
100
AcDbEntity
  8
0
  6
Continuous
 62
     7
370
    25
100
AcDbLine
 10
757.7608646997
 20
2406.7543978663
 30
0.0
 11
1136.7608646997
 21
2406.7543978663
 31
0.0
  0
LINE
  5
134
330
1F
100
AcDbEntity
  8
0
  6
Continuous
 62
     7
370
    25
100
AcDbLine
 10
1136.2608646997
 20
2378.2543978663
 30
0.0
 11
1136.2608646997
 21
606.7543978663
 31
0.0
  0
LINE
  5
135
330
1F
100
AcDbEntity
  8
0
  6
Continuous
 62
     7
370
    25
100
AcDbLine
 10
1136.2608646997
 20
606.7543978663
 30
0.0
 11
757.7608646997
 21
606.7543978663
 31
0.0
  0
LINE
  5
136
330
1F
100
AcDbEntity
  8
0
  6
Continuous
 62
     7
370
    25
100
AcDbLine
 10
757.7608646997
 20
2378.2543978663
 30
0.0
 11
757.7608646997
 21
606.7543978663
 31
0.0
  0
SPLINE
  5
137
330
1F
100
AcDbEntity
  8
0
  6
Continuous
 62
     7
370
    25
100
AcDbSpline
210
0.0
220
0.0
230
1.0
 70
     8
 71
     3
 72
    11
 73
     7
 74
     0
 42
0.00000001
 43
0.00000001
 40
0.0
 40
0.0
 40
0.0
 40
0.0
 40
0.2382247349847825
 40
0.492137690458765
 40
0.7460575595466308
 40
1.0
 40
1.0
 40
1.0
 40
1.0
 10
755.4913742188656
 20
2309.594962851274
 30
0.0
 10
755.492046603112
 20
2309.620640170789
 30
0.0
 10
755.4934356512736
 20
2309.673685782213
 30
0.0
 10
755.5069732494363
 20
2310.190665780935
 30
0.0
 10
755.527073837202
 20
2310.958276326894
 30
0.0
 10
755.5434574874807
 20
2311.583942518922
 30
0.0
 10
755.5516496766966
 20
2311.896789518447
 30
0.0
  0
LINE
  5
138
330
1F
100
AcDbEntity
  8
0
  6
Continuous
 62
     7
370
    25
100
AcDbLine
 10
755.5516496767
 20
2311.8967895184
 30
0.0
 11
755.5552339479
 21
2312.033667516
 31
0.0
  0
SPLINE
  5
139
330
1F
100
AcDbEntity
  8
0
  6
Continuous
 62
     7
370
    25
100
AcDbSpline
210
0.0
220
0.0
230
1.0
 70
    24
 71
     3
 72
    12
 73
     8
 74
     0
 42
0.00000001
 43
0.00000001
 40
0.0
 40
0.0
 40
0.0
 40
0.0
 40
0.2460973337377294
 40
0.4921955654186699
 40
0.7383025770435995
 40
0.9844160040481821
 40
0.9999999999999999
 40
0.9999999999999999
 40
0.9999999999999999
 40
0.9999999999999999
 10
755.5552339479451
 20
2312.033667516024
 30
0.0
 10
755.5634634249459
 20
2312.347938563519
 30
0.0
 10
755.5799224089744
 20
2312.976481805201
 30
0.0
 10
755.6012384120842
 20
2313.790507122361
 30
0.0
 10
755.6147786748296
 20
2314.307588895109
 30
0.0
 10
755.6206981519127
 20
2314.533644604761
 30
0.0
 10
755.619177921574
 20
2314.47558935035
 30
0.0
 10
755.6190873923545
 20
2314.472132178936
 30
0.0
  0
SPLINE
  5
13A
330
1F
100
AcDbEntity
  8
0
  6
Continuous
 62
     7
370
    25
100
AcDbSpline
210
0.0
220
0.0
230
1.0
 70
    24
 71
     3
 72
    13
 73
     9
 74
     0
 42
0.00000001
 43
0.00000001
 40
0.0
 40
0.0
 40
0.0
 40
0.0
 40
0.153858158365178
 40
0.3079676862452413
 40
0.4535077802384458
 40
0.5878340078344887
 40
0.8177872163812496
 40
1.0
 40
1.0
 40
1.0
 40
1.0
 10
755.2568851491467
 20
2338.841736571941
 30
0.0
 10
755.2555656725033
 20
2338.791347791849
 30
0.0
 10
755.2529245634894
 20
2338.690487907768
 30
0.0
 10
755.2306977780771
 20
2337.841681217712
 30
0.0
 10
755.1985297677808
 20
2336.613234465797
 30
0.0
 10
755.1492668361929
 20
2334.731959007924
 30
0.0
 10
755.0834475074535
 20
2332.218420251293
 30
0.0
 10
755.0287224443059
 20
2330.128554404703
 30
0.0
 10
755.0045292641811
 20
2329.204654130213
 30
0.0
  0
SPLINE
  5
13B
330
1F
100
AcDbEntity
  8
0
  6
Continuous
 62
     7
370
    25
100
AcDbSpline
210
0.0
220
0.0
230
1.0
 70
    24
 71
     3
 72
    13
 73
     9
 74
     0
 42
0.00000001
 43
0.00000001
 40
0.0
 40
0.0
 40
0.0
 40
0.0
 40
0.181320153790565
 40
0.4101468448378936
 40
0.5438150184963866
 40
0.688642123887495
 40
0.841996687412648
 40
1.0
 40
1.0
 40
1.0
 40
1.0
 10
755.0005847441852
 20
2329.0540189889
 30
0.0
 10
754.9763578705428
 20
2328.12883201086
 30
0.0
 10
754.9215565945839
 20
2326.036055714375
 30
0.0
 10
754.8551963635614
 20
2323.501860732941
 30
0.0
 10
754.8052253470083
 20
2321.593544601197
 30
0.0
 10
754.7723032582928
 20
2320.336300756266
 30
0.0
 10
754.7490210995664
 20
2319.44719098536
 30
0.0
 10
754.7457289061574
 20
2319.321467191362
 30
0.0
 10
754.7440582322988
 20
2319.257666730712
 30
0.0
  0
LINE
  5
13C
330
1F
100
AcDbEntity
  8
0
  6
Continuous
 62
     7
370
    25
100
AcDbLine
 10
752.4786327818
 20
2324.4282791568
 30
0.0
 11
752.7241815467
 21
2333.8054081729
 31
0.0
  0
SPLINE
  5
13D
330
1F
100
AcDbEntity
  8
0
  6
Continuous
 62
     7
370
    25
100
AcDbSpline
210
0.0
220
0.0
230
1.0
 70
     8
 71
     3
 72
    11
 73
     7
 74
     0
 42
0.00000001
 43
0.00000001
 40
0.0
 40
0.0
 40
0.0
 40
0.0
 40
0.2702619356887902
 40
0.56243054861889
 40
0.7897374073728177
 40
1.0
 40
1.0
 40
1.0
 40
1.0
 10
755.4965437889186
 20
2328.893155774597
 30
0.0
 10
755.4257065946308
 20
2328.894721041444
 30
0.0
 10
755.2782903410459
 20
2328.897978451293
 30
0.0
 10
755.1105191258894
 20
2328.897927095701
 30
0.0
 10
755.0127956957903
 20
2328.89495861019
 30
0.0
 10
755.0016438762285
 20
2328.891490841423
 30
0.0
 10
754.9962851600609
 20
2328.889824495546
 30
0.0
  0
LINE
  5
13E
330
1F
100
AcDbEntity
  8
0
  6
Continuous
 62
     7
370
    25
100
AcDbLine
 10
1152.0608646997
 20
1866.5543978663
 30
0.0
 11
1152.0608646997
 21
1879.5543978663
 31
0.0
  0
LINE
  5
13F
330
1F
100
AcDbEntity
  8
0
  6
Continuous
 62
     7
370
    25
100
AcDbLine
 10
1152.4780763832
 20
1866.5543978663
 30
0.0
 11
1152.0608646997
 21
1866.5543978663
 31
0.0
  0
ARC
  5
140
330
1F
100
AcDbEntity
  8
0
  6
Continuous
 62
     7
370
    25
100
AcDbCircle
 10
1152.2609030256
 20
1866.7613658174
 30
0.0
 40
0.300000000000115
100
AcDbArc
 50
279.5765884811
 51
316.3783470328
  0
ARC
  5
141
330
1F
100
AcDbEntity
  8
0
  6
Continuous
 62
     7
370
    25
100
AcDbCircle
 10
1152.1777201022
 20
1867.2543978663
 30
0.0
 40
0.8000000000001872
100
AcDbArc
 50
184.9699465947
 51
279.576588481
  0
LINE
  5
142
330
1F
100
AcDbEntity
  8
0
  6
Continuous
 62
     7
370
    25
100
AcDbLine
 10
1150.539539262
 20
1876.8583577014
 30
0.0
 11
1151.3807278807
 21
1867.1850913096
 31
0.0
  0
ARC
  5
143
330
1F
100
AcDbEntity
  8
0
  6
Continuous
 62
     7
370
    25
100
AcDbCircle
 10
1149.3440509297
 20
1876.7543978663
 30
0.0
 40
1.200000000000045
100
AcDbArc
 50
4.9699465947
 51
90.0
  0
LINE
  5
144
330
1F
100
AcDbEntity
  8
0
  6
Continuous
 62
     7
370
    25
100
AcDbLine
 10
1138.9608646997
 20
1877.9543978663
 30
0.0
 11
1149.3440509297
 21
1877.9543978663
 31
0.0
  0
ARC
  5
145
330
1F
100
AcDbEntity
  8
0
  6
Continuous
 62
     7
370
    25
100
AcDbCircle
 10
1138.9608646997
 20
1878.7543978663
 30
0.0
 40
0.8000000000001819
100
AcDbArc
 50
180.0
 51
270.0
  0
LINE
  5
146
330
1F
100
AcDbEntity
  8
0
  6
Continuous
 62
     7
370
    25
100
AcDbLine
 10
1138.1608646997
 20
1899.5543978663
 30
0.0
 11
1138.1608646997
 21
1878.7543978663
 31
0.0
  0
LINE
  5
147
330
1F
100
AcDbEntity
  8
0
  6
Continuous
 62
     7
370
    25
100
AcDbLine
 10
1139.5608646997
 20
1899.5543978663
 30
0.0
 11
1138.1608646997
 21
1899.5543978663
 31
0.0
  0
LINE
  5
148
330
1F
100
AcDbEntity
  8
0
  6
Continuous
 62
     7
370
    25
100
AcDbLine
 10
1139.5608646997
 20
1879.5543978663
 30
0.0
 11
1139.5608646997
 21
1899.5543978663
 31
0.0
  0
LINE
  5
149
330
1F
100
AcDbEntity
  8
0
  6
Continuous
 62
     7
370
    25
100
AcDbLine
 10
1152.0608646997
 20
1879.5543978663
 30
0.0
 11
1139.5608646997
 21
1879.5543978663
 31
0.0
  0
LINE
  5
14A
330
1F
100
AcDbEntity
  8
0
  6
Continuous
 62
     7
370
    25
100
AcDbLine
 10
1151.1814798253
 20
1867.1677646704
 30
0.0
 11
1150.3402912066
 21
1876.8410310622
 31
0.0
  0
LINE
  5
14B
330
1F
100
AcDbEntity
  8
0
  6
Continuous
 62
     7
370
    25
100
AcDbLine
 10
1150.3402912066
 20
1876.8410310622
 30
0.0
 11
1150.539539262
 21
1876.8583577014
 31
0.0
  0
LINE
  5
14C
330
1F
100
AcDbEntity
  8
0
  6
Continuous
 62
     7
370
    25
100
AcDbLine
 10
1151.3807278807
 20
1867.1850913096
 30
0.0
 11
1151.1814798253
 21
1867.1677646704
 31
0.0
  0
LINE
  5
14D
330
1F
100
AcDbEntity
  8
0
  6
Continuous
 62
     7
370
    25
100
AcDbLine
 10
1152.0608646997
 20
1879.5543978663
 30
0.0
 11
1152.2608646997
 21
1879.7543978663
 31
0.0
  0
LINE
  5
14E
330
1F
100
AcDbEntity
  8
0
  6
Continuous
 62
     7
370
    25
100
AcDbLine
 10
1152.0608646997
 20
1866.5543978663
 30
0.0
 11
1152.2608646997
 21
1866.7543978663
 31
0.0
  0
LINE
  5
14F
330
1F
100
AcDbEntity
  8
0
  6
Continuous
 62
     7
370
    25
100
AcDbLine
 10
1152.3108127797
 20
1866.4655465881
 30
0.0
 11
1152.3440859491
 21
1866.2683337685
 31
0.0
  0
ARC
  5
150
330
1F
100
AcDbEntity
  8
0
  6
Continuous
 62
     7
370
    25
100
AcDbCircle
 10
1152.1777201022
 20
1867.2543978663
 30
0.0
 40
1.000000000000197
100
AcDbArc
 50
184.9699465947
 51
279.5765884811
  0
SPLINE
  5
151
330
1F
100
AcDbEntity
  8
0
  6
Continuous
 62
     7
370
    25
100
AcDbSpline
210
0.0
220
0.0
230
1.0
 70
     8
 71
     3
 72
    13
 73
     9
 74
     0
 42
0.00000001
 43
0.00000001
 40
0.0
 40
0.0
 40
0.0
 40
0.0
 40
0.0075029974112279
 40
0.3818974549663422
 40
0.6070018873270995
 40
0.7653769096343526
 40
0.882460504981001
 40
1.0
 40
1.0
 40
1.0
 40
1.0
 10
1152.478076383159
 20
1866.554397866314
 30
0.0
 10
1152.479094159775
 20
1866.554835864209
 30
0.0
 10
1152.530898295915
 20
1866.577129658573
 30
0.0
 10
1152.609483661282
 20
1866.624014046795
 30
0.0
 10
1152.692123125314
 20
1866.69029848383
 30
0.0
 10
1152.734219243413
 20
1866.728560043003
 30
0.0
 10
1152.756742670248
 20
1866.750315818737
 30
0.0
 10
1152.759482096362
 20
1866.753035422288
 30
0.0
 10
1152.76085447093
 20
1866.754397866314
 30
0.0
  0
ARC
  5
152
330
1F
100
AcDbEntity
  8
0
  6
Continuous
 62
     7
370
    25
100
AcDbCircle
 10
1152.2609030256
 20
1866.7613658174
 30
0.0
 40
0.5000000000001923
100
AcDbArc
 50
279.5765884811
 51
359.2015057739
  0
LINE
  5
153
330
1F
100
AcDbEntity
  8
0
  6
Continuous
 62
     7
370
    25
100
AcDbLine
 10
1139.7608646997
 20
1899.7543978663
 30
0.0
 11
1139.5608646997
 21
1899.5543978663
 31
0.0
  0
LINE
  5
154
330
1F
100
AcDbEntity
  8
0
  6
Continuous
 62
     7
370
    25
100
AcDbLine
 10
1139.5608646997
 20
1879.5543978663
 30
0.0
 11
1139.7608646997
 21
1879.7543978663
 31
0.0
  0
ARC
  5
155
330
1F
100
AcDbEntity
  8
0
  6
Continuous
 62
     7
370
    25
100
AcDbCircle
 10
1138.9608646997
 20
1878.7543978663
 30
0.0
 40
1.000000000000227
100
AcDbArc
 50
180.0
 51
270.0
  0
LINE
  5
156
330
1F
100
AcDbEntity
  8
0
  6
Continuous
 62
     7
370
    25
100
AcDbLine
 10
1137.9608646997
 20
1878.7543978663
 30
0.0
 11
1138.1608646997
 21
1878.7543978663
 31
0.0
  0
LINE
  5
157
330
1F
100
AcDbEntity
  8
0
  6
Continuous
 62
     7
370
    25
100
AcDbLine
 10
1138.9608646997
 20
1877.7543978663
 30
0.0
 11
1138.9608646997
 21
1877.9543978663
 31
0.0
  0
LINE
  5
158
330
1F
100
AcDbEntity
  8
0
  6
Continuous
 62
     7
370
    25
100
AcDbLine
 10
1149.3440509297
 20
1877.7543978663
 30
0.0
 11
1138.9608646997
 21
1877.7543978663
 31
0.0
  0
LINE
  5
159
330
1F
100
AcDbEntity
  8
0
  6
Continuous
 62
     7
370
    25
100
AcDbLine
 10
1149.3440509297
 20
1877.7543978663
 30
0.0
 11
1149.3440509297
 21
1877.9543978663
 31
0.0
  0
ARC
  5
15A
330
1F
100
AcDbEntity
  8
0
  6
Continuous
 62
     7
370
    25
100
AcDbCircle
 10
1149.3440509297
 20
1876.7543978663
 30
0.0
 40
1.000000000000227
100
AcDbArc
 50
4.9699465947
 51
90.0
  0
LINE
  5
15B
330
1F
100
AcDbEntity
  8
0
  6
Continuous
 62
     7
370
    25
100
AcDbLine
 10
1137.9608646997
 20
1878.7543978663
 30
0.0
 11
1137.9608646997
 21
1899.5543978663
 31
0.0
  0
LINE
  5
15C
330
1F
100
AcDbEntity
  8
0
  6
Continuous
 62
     7
370
    25
100
AcDbLine
 10
1137.9608646997
 20
1899.5543978663
 30
0.0
 11
1138.1608646997
 21
1899.5543978663
 31
0.0
  0
LINE
  5
15D
330
1F
100
AcDbEntity
  8
0
  6
Continuous
 62
     7
370
    25
100
AcDbLine
 10
1138.1608646997
 20
1899.7543978663
 30
0.0
 11
1138.1608646997
 21
1899.5543978663
 31
0.0
  0
ARC
  5
15E
330
1F
100
AcDbEntity
  8
0
  6
Continuous
 62
     7
370
    25
100
AcDbCircle
 10
1138.1608646997
 20
1899.5543978663
 30
0.0
 40
0.2000000000000455
100
AcDbArc
 50
90.0
 51
180.0
  0
LINE
  5
15F
330
1F
100
AcDbEntity
  8
0
  6
Continuous
 62
     7
370
    25
100
AcDbLine
 10
1138.1608646997
 20
1899.7543978663
 30
0.0
 11
1139.7608646997
 21
1899.7543978663
 31
0.0
  0
ARC
  5
160
330
1F
100
AcDbEntity
  8
0
  6
Continuous
 62
     7
370
    25
100
AcDbCircle
 10
1149.3440509297
 20
1486.7543978663
 30
0.0
 40
1.200000000000273
100
AcDbArc
 50
270.0
 51
355.0300534053
  0
LINE
  5
161
330
1F
100
AcDbEntity
  8
0
  6
Continuous
 62
     7
370
    25
100
AcDbLine
 10
1151.3807278807
 20
1496.323704423
 30
0.0
 11
1150.539539262
 21
1486.6504380312
 31
0.0
  0
ARC
  5
162
330
1F
100
AcDbEntity
  8
0
  6
Continuous
 62
     7
370
    25
100
AcDbCircle
 10
1152.1777201022
 20
1496.2543978663
 30
0.0
 40
0.8000000000001872
100
AcDbArc
 50
80.423411519
 51
175.0300534053
  0
ARC
  5
163
330
1F
100
AcDbEntity
  8
0
  6
Continuous
 62
     7
370
    25
100
AcDbCircle
 10
1152.2609030256
 20
1496.7474299152
 30
0.0
 40
0.300000000000115
100
AcDbArc
 50
43.6216529672
 51
80.4234115189
  0
LINE
  5
164
330
1F
100
AcDbEntity
  8
0
  6
Continuous
 62
     7
370
    25
100
AcDbLine
 10
1152.0608646997
 20
1496.9543978663
 30
0.0
 11
1152.4780763832
 21
1496.9543978663
 31
0.0
  0
LINE
  5
165
330
1F
100
AcDbEntity
  8
0
  6
Continuous
 62
     7
370
    25
100
AcDbLine
 10
1152.0608646997
 20
1483.9543978663
 30
0.0
 11
1152.0608646997
 21
1496.9543978663
 31
0.0
  0
LINE
  5
166
330
1F
100
AcDbEntity
  8
0
  6
Continuous
 62
     7
370
    25
100
AcDbLine
 10
1139.5608646997
 20
1483.9543978663
 30
0.0
 11
1152.0608646997
 21
1483.9543978663
 31
0.0
  0
LINE
  5
167
330
1F
100
AcDbEntity
  8
0
  6
Continuous
 62
     7
370
    25
100
AcDbLine
 10
1139.5608646997
 20
1463.9543978663
 30
0.0
 11
1139.5608646997
 21
1483.9543978663
 31
0.0
  0
LINE
  5
168
330
1F
100
AcDbEntity
  8
0
  6
Continuous
 62
     7
370
    25
100
AcDbLine
 10
1138.1608646997
 20
1463.9543978663
 30
0.0
 11
1139.5608646997
 21
1463.9543978663
 31
0.0
  0
LINE
  5
169
330
1F
100
AcDbEntity
  8
0
  6
Continuous
 62
     7
370
    25
100
AcDbLine
 10
1138.1608646997
 20
1484.7543978663
 30
0.0
 11
1138.1608646997
 21
1463.9543978663
 31
0.0
  0
ARC
  5
16A
330
1F
100
AcDbEntity
  8
0
  6
Continuous
 62
     7
370
    25
100
AcDbCircle
 10
1138.9608646997
 20
1484.7543978663
 30
0.0
 40
0.7999999999999545
100
AcDbArc
 50
90.0
 51
180.0
  0
LINE
  5
16B
330
1F
100
AcDbEntity
  8
0
  6
Continuous
 62
     7
370
    25
100
AcDbLine
 10
1149.3440509297
 20
1485.5543978663
 30
0.0
 11
1138.9608646997
 21
1485.5543978663
 31
0.0
  0
LINE
  5
16C
330
1F
100
AcDbEntity
  8
0
  6
Continuous
 62
     7
370
    25
100
AcDbLine
 10
1150.539539262
 20
1486.6504380312
 30
0.0
 11
1150.3402912066
 21
1486.6677646704
 31
0.0
  0
LINE
  5
16D
330
1F
100
AcDbEntity
  8
0
  6
Continuous
 62
     7
370
    25
100
AcDbLine
 10
1150.3402912066
 20
1486.6677646704
 30
0.0
 11
1151.1814798253
 21
1496.3410310622
 31
0.0
  0
LINE
  5
16E
330
1F
100
AcDbEntity
  8
0
  6
Continuous
 62
     7
370
    25
100
AcDbLine
 10
1151.3807278807
 20
1496.323704423
 30
0.0
 11
1151.1814798253
 21
1496.3410310622
 31
0.0
  0
ARC
  5
16F
330
1F
100
AcDbEntity
  8
0
  6
Continuous
 62
     7
370
    25
100
AcDbCircle
 10
1152.1777201022
 20
1496.2543978663
 30
0.0
 40
1.000000000000177
100
AcDbArc
 50
80.4234115189
 51
175.0300534053
  0
LINE
  5
170
330
1F
100
AcDbEntity
  8
0
  6
Continuous
 62
     7
370
    25
100
AcDbLine
 10
1152.3108127797
 20
1497.0432491446
 30
0.0
 11
1152.3440859491
 21
1497.2404619641
 31
0.0
  0
LINE
  5
171
330
1F
100
AcDbEntity
  8
0
  6
Continuous
 62
     7
370
    25
100
AcDbLine
 10
1152.2608646997
 20
1496.7543978663
 30
0.0
 11
1152.0608646997
 21
1496.9543978663
 31
0.0
  0
SPLINE
  5
172
330
1F
100
AcDbEntity
  8
0
  6
Continuous
 62
     7
370
    25
100
AcDbSpline
210
0.0
220
0.0
230
1.0
 70
     8
 71
     3
 72
    13
 73
     9
 74
     0
 42
0.00000001
 43
0.00000001
 40
0.0
 40
0.0
 40
0.0
 40
0.0
 40
0.007502997411325
 40
0.3818974549657503
 40
0.6070018873268762
 40
0.7653769096342168
 40
0.8824605049807507
 40
0.9999999999999999
 40
0.9999999999999999
 40
0.9999999999999999
 40
0.9999999999999999
 10
1152.47807638316
 20
1496.954397866315
 30
0.0
 10
1152.479094159776
 20
1496.953959868419
 30
0.0
 10
1152.530898295918
 20
1496.931666074053
 30
0.0
 10
1152.609483661281
 20
1496.884781685833
 30
0.0
 10
1152.692123125315
 20
1496.818497248799
 30
0.0
 10
1152.734219243413
 20
1496.780235689626
 30
0.0
 10
1152.756742670249
 20
1496.75847991389
 30
0.0
 10
1152.759482096363
 20
1496.755760310341
 30
0.0
 10
1152.76085447093
 20
1496.754397866314
 30
0.0
  0
LINE
  5
173
330
1F
100
AcDbEntity
  8
0
  6
Continuous
 62
     7
370
    25
100
AcDbLine
 10
1152.2608646997
 20
1483.7543978663
 30
0.0
 11
1152.0608646997
 21
1483.9543978663
 31
0.0
  0
ARC
  5
174
330
1F
100
AcDbEntity
  8
0
  6
Continuous
 62
     7
370
    25
100
AcDbCircle
 10
1152.2609030256
 20
1496.7474299152
 30
0.0
 40
0.5000000000000815
100
AcDbArc
 50
0.7984942261
 51
80.4234115189
  0
LINE
  5
175
330
1F
100
AcDbEntity
  8
0
  6
Continuous
 62
     7
370
    25
100
AcDbLine
 10
1137.9608646997
 20
1484.7543978663
 30
0.0
 11
1138.1608646997
 21
1484.7543978663
 31
0.0
  0
ARC
  5
176
330
1F
100
AcDbEntity
  8
0
  6
Continuous
 62
     7
370
    25
100
AcDbCircle
 10
1138.9608646997
 20
1484.7543978663
 30
0.0
 40
1.0
100
AcDbArc
 50
90.0
 51
180.0
  0
LINE
  5
177
330
1F
100
AcDbEntity
  8
0
  6
Continuous
 62
     7
370
    25
100
AcDbLine
 10
1138.9608646997
 20
1485.5543978663
 30
0.0
 11
1138.9608646997
 21
1485.7543978663
 31
0.0
  0
LINE
  5
178
330
1F
100
AcDbEntity
  8
0
  6
Continuous
 62
     7
370
    25
100
AcDbLine
 10
1137.9608646997
 20
1463.9543978663
 30
0.0
 11
1137.9608646997
 21
1484.7543978663
 31
0.0
  0
LINE
  5
179
330
1F
100
AcDbEntity
  8
0
  6
Continuous
 62
     7
370
    25
100
AcDbLine
 10
1137.9608646997
 20
1463.9543978663
 30
0.0
 11
1138.1608646997
 21
1463.9543978663
 31
0.0
  0
LINE
  5
17A
330
1F
100
AcDbEntity
  8
0
  6
Continuous
 62
     7
370
    25
100
AcDbLine
 10
1139.7608646997
 20
1463.7543978663
 30
0.0
 11
1139.5608646997
 21
1463.9543978663
 31
0.0
  0
LINE
  5
17B
330
1F
100
AcDbEntity
  8
0
  6
Continuous
 62
     7
370
    25
100
AcDbLine
 10
1139.7608646997
 20
1483.7543978663
 30
0.0
 11
1139.5608646997
 21
1483.9543978663
 31
0.0
  0
LINE
  5
17C
330
1F
100
AcDbEntity
  8
0
  6
Continuous
 62
     7
370
    25
100
AcDbLine
 10
1138.1608646997
 20
1463.7543978663
 30
0.0
 11
1138.1608646997
 21
1463.9543978663
 31
0.0
  0
ARC
  5
17D
330
1F
100
AcDbEntity
  8
0
  6
Continuous
 62
     7
370
    25
100
AcDbCircle
 10
1138.1608646997
 20
1463.9543978663
 30
0.0
 40
0.2000000000000455
100
AcDbArc
 50
180.0
 51
270.0
  0
LINE
  5
17E
330
1F
100
AcDbEntity
  8
0
  6
Continuous
 62
     7
370
    25
100
AcDbLine
 10
1139.7608646997
 20
1463.7543978663
 30
0.0
 11
1138.1608646997
 21
1463.7543978663
 31
0.0
  0
LINE
  5
17F
330
1F
100
AcDbEntity
  8
0
  6
Continuous
 62
     7
370
    25
100
AcDbLine
 10
1149.3440509297
 20
1485.5543978663
 30
0.0
 11
1149.3440509297
 21
1485.7543978663
 31
0.0
  0
ARC
  5
180
330
1F
100
AcDbEntity
  8
0
  6
Continuous
 62
     7
370
    25
100
AcDbCircle
 10
1149.3440509297
 20
1486.7543978663
 30
0.0
 40
1.000000000000227
100
AcDbArc
 50
270.0
 51
355.0300534053
  0
LINE
  5
181
330
1F
100
AcDbEntity
  8
0
  6
Continuous
 62
     7
370
    25
100
AcDbLine
 10
1138.9608646997
 20
1485.7543978663
 30
0.0
 11
1149.3440509297
 21
1485.7543978663
 31
0.0
  0
LINE
  5
182
330
1F
100
AcDbEntity
  8
0
  6
Continuous
 62
     7
370
    25
100
AcDbLine
 10
1137.0608646997
 20
2364.0543978663
 30
0.0
 11
1137.0608646997
 21
2365.2543978663
 31
0.0
  0
LINE
  5
183
330
1F
100
AcDbEntity
  8
0
  6
Continuous
 62
     7
370
    25
100
AcDbLine
 10
1136.2608646997
 20
2365.2543978663
 30
0.0
 11
1137.0608646997
 21
2365.2543978663
 31
0.0
  0
LINE
  5
184
330
1F
100
AcDbEntity
  8
0
  6
Continuous
 62
     7
370
    25
100
AcDbLine
 10
1136.2608646997
 20
2364.0543978663
 30
0.0
 11
1137.0608646997
 21
2364.0543978663
 31
0.0
  0
LINE
  5
185
330
1F
100
AcDbEntity
  8
0
  6
Continuous
 62
     7
370
    25
100
AcDbLine
 10
1137.0608646997
 20
2365.2543978663
 30
0.0
 11
1138.2608646997
 21
2365.2543978663
 31
0.0
  0
LINE
  5
186
330
1F
100
AcDbEntity
  8
0
  6
Continuous
 62
     7
370
    25
100
AcDbLine
 10
1137.0608646997
 20
2364.0543978663
 30
0.0
 11
1138.2608646997
 21
2364.0543978663
 31
0.0
  0
LINE
  5
187
330
1F
100
AcDbEntity
  8
0
  6
Continuous
 62
     7
370
    25
100
AcDbLine
 10
1137.0608646997
 20
1464.0543978663
 30
0.0
 11
1137.0608646997
 21
1465.2543978663
 31
0.0
  0
LINE
  5
188
330
1F
100
AcDbEntity
  8
0
  6
Continuous
 62
     7
370
    25
100
AcDbLine
 10
1136.2608646997
 20
1465.2543978663
 30
0.0
 11
1137.0608646997
 21
1465.2543978663
 31
0.0
  0
LINE
  5
189
330
1F
100
AcDbEntity
  8
0
  6
Continuous
 62
     7
370
    25
100
AcDbLine
 10
1136.2608646997
 20
1464.0543978663
 30
0.0
 11
1137.0608646997
 21
1464.0543978663
 31
0.0
  0
LINE
  5
18A
330
1F
100
AcDbEntity
  8
0
  6
Continuous
 62
     7
370
    25
100
AcDbLine
 10
1137.0608646997
 20
1465.2543978663
 30
0.0
 11
1137.9608646997
 21
1465.2543978663
 31
0.0
  0
LINE
  5
18B
330
1F
100
AcDbEntity
  8
0
  6
Continuous
 62
     7
370
    25
100
AcDbLine
 10
1137.0608646997
 20
1464.0543978663
 30
0.0
 11
1137.9608646997
 21
1464.0543978663
 31
0.0
  0
LINE
  5
18C
330
1F
100
AcDbEntity
  8
0
  6
Continuous
 62
     7
370
    25
100
AcDbLine
 10
1137.0608646997
 20
2345.2510784443
 30
0.0
 11
1137.0608646997
 21
2346.2543978663
 31
0.0
  0
LINE
  5
18D
330
1F
100
AcDbEntity
  8
0
  6
Continuous
 62
     7
370
    25
100
AcDbLine
 10
1137.0608646997
 20
2346.2543978663
 30
0.0
 11
1138.2608646997
 21
2346.2543978663
 31
0.0
  0
LINE
  5
18E
330
1F
100
AcDbEntity
  8
0
  6
Continuous
 62
     7
370
    25
100
AcDbLine
 10
1137.0608646997
 20
2346.2543978663
 30
0.0
 11
1137.0608646997
 21
2364.0543978663
 31
0.0
  0
LINE
  5
18F
330
1F
100
AcDbEntity
  8
0
  6
Continuous
 62
     7
370
    25
100
AcDbLine
 10
1137.0608646997
 20
1446.2543978663
 30
0.0
 11
1138.2608646997
 21
1446.2543978663
 31
0.0
  0
LINE
  5
190
330
1F
100
AcDbEntity
  8
0
  6
Continuous
 62
     7
370
    25
100
AcDbLine
 10
1137.0608646997
 20
1445.2510784443
 30
0.0
 11
1137.0608646997
 21
1446.2543978663
 31
0.0
  0
LINE
  5
191
330
1F
100
AcDbEntity
  8
0
  6
Continuous
 62
     7
370
    25
100
AcDbLine
 10
1138.2608646997
 20
1463.2543978663
 30
0.0
 11
1138.2608646997
 21
1463.7543978663
 31
0.0
  0
LINE
  5
192
330
1F
100
AcDbEntity
  8
0
  6
Continuous
 62
     7
370
    25
100
AcDbLine
 10
1137.0608646997
 20
1446.2543978663
 30
0.0
 11
1137.0608646997
 21
1464.0543978663
 31
0.0
  0
LINE
  5
193
330
1F
100
AcDbEntity
  8
0
  6
Continuous
 62
     7
370
    25
100
AcDbLine
 10
1137.7608646997
 20
1955.7103560054
 30
0.0
 11
1138.2608646997
 21
1955.7103560054
 31
0.0
  0
LINE
  5
194
330
1F
100
AcDbEntity
  8
0
  6
Continuous
 62
     7
370
    25
100
AcDbLine
 10
1137.7608646997
 20
1954.1543978661
 30
0.0
 11
1138.2608646997
 21
1954.1543978661
 31
0.0
  0
LINE
  5
195
330
1F
100
AcDbEntity
  8
0
  6
Continuous
 62
     7
370
    25
100
AcDbLine
 10
1137.7608646997
 20
1954.1543978661
 30
0.0
 11
1137.7608646997
 21
1955.7103560054
 31
0.0
  0
LINE
  5
196
330
1F
100
AcDbEntity
  8
0
  6
Continuous
 62
     7
370
    25
100
AcDbLine
 10
1138.2608646997
 20
1937.7984397272
 30
0.0
 11
1137.7608646997
 21
1937.7984397272
 31
0.0
  0
LINE
  5
197
330
1F
100
AcDbEntity
  8
0
  6
Continuous
 62
     7
370
    25
100
AcDbLine
 10
1137.7608646997
 20
1937.7984397272
 30
0.0
 11
1137.7608646997
 21
1939.3543978665
 31
0.0
  0
LINE
  5
198
330
1F
100
AcDbEntity
  8
0
  6
Continuous
 62
     7
370
    25
100
AcDbLine
 10
1138.2608646997
 20
1939.3543978665
 30
0.0
 11
1137.7608646997
 21
1939.3543978665
 31
0.0
  0
LINE
  5
199
330
1F
100
AcDbEntity
  8
0
  6
Continuous
 62
     7
370
    25
100
AcDbLine
 10
1138.0608646997
 20
1965.1459720241
 30
0.0
 11
1137.7608646997
 21
1965.1459720241
 31
0.0
  0
LINE
  5
19A
330
1F
100
AcDbEntity
  8
0
  6
Continuous
 62
     7
370
    25
100
AcDbLine
 10
1138.2608646997
 20
1965.1459720241
 30
0.0
 11
1138.0608646997
 21
1965.1459720241
 31
0.0
  0
LINE
  5
19B
330
1F
100
AcDbEntity
  8
0
  6
Continuous
 62
     7
370
    25
100
AcDbLine
 10
1137.7608646997
 20
1965.1459720241
 30
0.0
 11
1137.7608646997
 21
1955.7103560054
 31
0.0
  0
LINE
  5
19C
330
1F
100
AcDbEntity
  8
0
  6
Continuous
 62
     7
370
    25
100
AcDbLine
 10
1138.0608646997
 20
1928.3628237086
 30
0.0
 11
1138.2608646997
 21
1928.3628237086
 31
0.0
  0
LINE
  5
19D
330
1F
100
AcDbEntity
  8
0
  6
Continuous
 62
     7
370
    25
100
AcDbLine
 10
1137.7608646997
 20
1928.3628237086
 30
0.0
 11
1138.0608646997
 21
1928.3628237086
 31
0.0
  0
LINE
  5
19E
330
1F
100
AcDbEntity
  8
0
  6
Continuous
 62
     7
370
    25
100
AcDbLine
 10
1137.7608646997
 20
1937.7984397272
 30
0.0
 11
1137.7608646997
 21
1928.3628237086
 31
0.0
  0
SPLINE
  5
19F
330
1F
100
AcDbEntity
  8
0
  6
Continuous
 62
     7
370
    25
100
AcDbSpline
210
0.0
220
0.0
230
1.0
 70
    24
 71
     3
 72
    12
 73
     8
 74
     0
 42
0.00000001
 43
0.00000001
 40
0.0
 40
0.0
 40
0.0
 40
0.0
 40
0.1234882189611886
 40
0.3047574776071565
 40
0.4857888495161387
 40
0.6670582153997382
 40
1.0
 40
1.0
 40
1.0
 40
1.0
 10
1136.260864699699
 20
1975.254397866311
 30
0.0
 10
1136.300611268735
 20
1975.254397866311
 30
0.0
 10
1136.398702116793
 20
1975.254397866311
 30
0.0
 10
1136.638675405153
 20
1975.254397866311
 30
0.0
 10
1136.954289593648
 20
1975.254397866312
 30
0.0
 10
1137.421199682747
 20
1975.254397866311
 30
0.0
 10
1137.809468282984
 20
1975.254397866313
 30
0.0
 10
1138.060864699701
 20
1975.254397866314
 30
0.0
  0
LINE
  5
1A0
330
1F
100
AcDbEntity
  8
0
  6
Continuous
 62
     7
370
    25
100
AcDbLine
 10
1138.0608646997
 20
1974.2543978663
 30
0.0
 11
1138.0608646997
 21
1975.2543978663
 31
0.0
  0
SPLINE
  5
1A1
330
1F
100
AcDbEntity
  8
0
  6
Continuous
 62
     7
370
    25
100
AcDbSpline
210
0.0
220
0.0
230
1.0
 70
    24
 71
     3
 72
    12
 73
     8
 74
     0
 42
0.00000001
 43
0.00000001
 40
0.0
 40
0.0
 40
0.0
 40
0.0
 40
0.3329369653741618
 40
0.5139656098127222
 40
0.6952322446443113
 40
0.8762609961848447
 40
1.0
 40
1.0
 40
1.0
 40
1.0
 10
1138.060864699707
 20
1918.254397866315
 30
0.0
 10
1137.809467286564
 20
1918.254397866314
 30
0.0
 10
1137.421376932566
 20
1918.254397866312
 30
0.0
 10
1136.954447662892
 20
1918.254397866312
 30
0.0
 10
1136.63892877387
 20
1918.254397866312
 30
0.0
 10
1136.398804555353
 20
1918.254397866313
 30
0.0
 10
1136.300697304342
 20
1918.254397866312
 30
0.0
 10
1136.260864699699
 20
1918.254397866312
 30
0.0
  0
LINE
  5
1A2
330
1F
100
AcDbEntity
  8
0
  6
Continuous
 62
     7
370
    25
100
AcDbLine
 10
1138.0608646997
 20
1919.2543978663
 30
0.0
 11
1138.0608646997
 21
1918.2543978663
 31
0.0
  0
LINE
  5
1A3
330
1F
100
AcDbEntity
  8
0
  6
Continuous
 62
     7
370
    25
100
AcDbLine
 10
1138.2608646997
 20
1974.2543978663
 30
0.0
 11
1138.0608646997
 21
1974.2543978663
 31
0.0
  0
LINE
  5
1A4
330
1F
100
AcDbEntity
  8
0
  6
Continuous
 62
     7
370
    25
100
AcDbLine
 10
1138.0608646997
 20
1974.2543978663
 30
0.0
 11
1138.0608646997
 21
1965.1459720241
 31
0.0
  0
SPLINE
  5
1A5
330
1F
100
AcDbEntity
  8
0
  6
Continuous
 62
     7
370
    25
100
AcDbSpline
210
0.0
220
0.0
230
1.0
 70
     8
 71
     3
 72
    10
 73
     6
 74
     0
 42
0.00000001
 43
0.00000001
 40
0.0
 40
0.0
 40
0.0
 40
0.0
 40
0.0371311943385992
 40
0.5486628195570118
 40
1.0
 40
1.0
 40
1.0
 40
1.0
 10
1136.260864699699
 20
1957.000162206484
 30
0.0
 10
1136.266487551912
 20
1956.993443859058
 30
0.0
 10
1136.349572677618
 20
1956.894171333439
 30
0.0
 10
1136.571128650202
 20
1956.793742420241
 30
0.0
 10
1136.802439539448
 20
1956.766954495412
 30
0.0
 10
1136.910864699703
 20
1956.754397866315
 30
0.0
  0
LINE
  5
1A6
330
1F
100
AcDbEntity
  8
0
  6
Continuous
 62
     7
370
    25
100
AcDbLine
 10
1137.7608646997
 20
1956.7543978663
 30
0.0
 11
1136.9108646997
 21
1956.7543978663
 31
0.0
  0
LINE
  5
1A7
330
1F
100
AcDbEntity
  8
0
  6
Continuous
 62
     7
370
    25
100
AcDbLine
 10
1138.2608646997
 20
1919.2543978663
 30
0.0
 11
1138.0608646997
 21
1919.2543978663
 31
0.0
  0
LINE
  5
1A8
330
1F
100
AcDbEntity
  8
0
  6
Continuous
 62
     7
370
    25
100
AcDbLine
 10
1138.0608646997
 20
1928.3628237086
 30
0.0
 11
1138.0608646997
 21
1919.2543978663
 31
0.0
  0
SPLINE
  5
1A9
330
1F
100
AcDbEntity
  8
0
  6
Continuous
 62
     7
370
    25
100
AcDbSpline
210
0.0
220
0.0
230
1.0
 70
     8
 71
     3
 72
     9
 73
     5
 74
     0
 42
0.00000001
 43
0.00000001
 40
0.0
 40
0.0
 40
0.0
 40
0.0
 40
0.5050081268937952
 40
1.0
 40
1.0
 40
1.0
 40
1.0
 10
1136.910864699705
 20
1936.754397866314
 30
0.0
 10
1136.787568427837
 20
1936.742178006931
 30
0.0
 10
1136.543421323462
 20
1936.717980654981
 30
0.0
 10
1136.354419209908
 20
1936.580904581718
 30
0.0
 10
1136.260864699699
 20
1936.513053039456
 30
0.0
  0
LINE
  5
1AA
330
1F
100
AcDbEntity
  8
0
  6
Continuous
 62
     7
370
    25
100
AcDbLine
 10
1136.9108646997
 20
1936.7543978663
 30
0.0
 11
1137.7608646997
 21
1936.7543978663
 31
0.0
  0
LINE
  5
1AB
330
1F
100
AcDbEntity
  8
0
  6
Continuous
 62
     7
370
    25
100
AcDbLine
 10
1138.2608646997
 20
1975.2543978663
 30
0.0
 11
1138.0608646997
 21
1975.2543978663
 31
0.0
  0
LINE
  5
1AC
330
1F
100
AcDbEntity
  8
0
  6
Continuous
 62
     7
370
    25
100
AcDbLine
 10
1138.2608646997
 20
1918.2543978663
 30
0.0
 11
1138.0608646997
 21
1918.2543978663
 31
0.0
  0
LINE
  5
1AD
330
1F
100
AcDbEntity
  8
0
  6
Continuous
 62
     7
370
    25
100
AcDbLine
 10
1137.7608646997
 20
2325.7103560054
 30
0.0
 11
1138.2608646997
 21
2325.7103560054
 31
0.0
  0
LINE
  5
1AE
330
1F
100
AcDbEntity
  8
0
  6
Continuous
 62
     7
370
    25
100
AcDbLine
 10
1137.7608646997
 20
2324.1543978661
 30
0.0
 11
1138.2608646997
 21
2324.1543978661
 31
0.0
  0
LINE
  5
1AF
330
1F
100
AcDbEntity
  8
0
  6
Continuous
 62
     7
370
    25
100
AcDbLine
 10
1137.7608646997
 20
2324.1543978661
 30
0.0
 11
1137.7608646997
 21
2325.7103560054
 31
0.0
  0
LINE
  5
1B0
330
1F
100
AcDbEntity
  8
0
  6
Continuous
 62
     7
370
    25
100
AcDbLine
 10
1138.2608646997
 20
2307.7984397272
 30
0.0
 11
1137.7608646997
 21
2307.7984397272
 31
0.0
  0
LINE
  5
1B1
330
1F
100
AcDbEntity
  8
0
  6
Continuous
 62
     7
370
    25
100
AcDbLine
 10
1137.7608646997
 20
2307.7984397272
 30
0.0
 11
1137.7608646997
 21
2309.3543978665
 31
0.0
  0
LINE
  5
1B2
330
1F
100
AcDbEntity
  8
0
  6
Continuous
 62
     7
370
    25
100
AcDbLine
 10
1138.2608646997
 20
2309.3543978665
 30
0.0
 11
1137.7608646997
 21
2309.3543978665
 31
0.0
  0
LINE
  5
1B3
330
1F
100
AcDbEntity
  8
0
  6
Continuous
 62
     7
370
    25
100
AcDbLine
 10
1138.0608646997
 20
2335.1459720241
 30
0.0
 11
1137.7608646997
 21
2335.1459720241
 31
0.0
  0
LINE
  5
1B4
330
1F
100
AcDbEntity
  8
0
  6
Continuous
 62
     7
370
    25
100
AcDbLine
 10
1138.2608646997
 20
2335.1459720241
 30
0.0
 11
1138.0608646997
 21
2335.1459720241
 31
0.0
  0
LINE
  5
1B5
330
1F
100
AcDbEntity
  8
0
  6
Continuous
 62
     7
370
    25
100
AcDbLine
 10
1137.7608646997
 20
2335.1459720241
 30
0.0
 11
1137.7608646997
 21
2325.7103560054
 31
0.0
  0
LINE
  5
1B6
330
1F
100
AcDbEntity
  8
0
  6
Continuous
 62
     7
370
    25
100
AcDbLine
 10
1138.0608646997
 20
2298.3628237086
 30
0.0
 11
1138.2608646997
 21
2298.3628237086
 31
0.0
  0
LINE
  5
1B7
330
1F
100
AcDbEntity
  8
0
  6
Continuous
 62
     7
370
    25
100
AcDbLine
 10
1137.7608646997
 20
2298.3628237086
 30
0.0
 11
1138.0608646997
 21
2298.3628237086
 31
0.0
  0
LINE
  5
1B8
330
1F
100
AcDbEntity
  8
0
  6
Continuous
 62
     7
370
    25
100
AcDbLine
 10
1137.7608646997
 20
2307.7984397272
 30
0.0
 11
1137.7608646997
 21
2298.3628237086
 31
0.0
  0
SPLINE
  5
1B9
330
1F
100
AcDbEntity
  8
0
  6
Continuous
 62
     7
370
    25
100
AcDbSpline
210
0.0
220
0.0
230
1.0
 70
    24
 71
     3
 72
    12
 73
     8
 74
     0
 42
0.00000001
 43
0.00000001
 40
0.0
 40
0.0
 40
0.0
 40
0.0
 40
0.1234882189610191
 40
0.3047574776070057
 40
0.4857888495160402
 40
0.6670582153996515
 40
1.0
 40
1.0
 40
1.0
 40
1.0
 10
1136.260864699699
 20
2345.254397866311
 30
0.0
 10
1136.300611268735
 20
2345.254397866311
 30
0.0
 10
1136.398702116793
 20
2345.25439786631
 30
0.0
 10
1136.638675405153
 20
2345.254397866311
 30
0.0
 10
1136.954289593647
 20
2345.25439786631
 30
0.0
 10
1137.421199682747
 20
2345.25439786631
 30
0.0
 10
1137.809468282984
 20
2345.254397866313
 30
0.0
 10
1138.0608646997
 20
2345.254397866314
 30
0.0
  0
LINE
  5
1BA
330
1F
100
AcDbEntity
  8
0
  6
Continuous
 62
     7
370
    25
100
AcDbLine
 10
1138.0608646997
 20
2344.2543978663
 30
0.0
 11
1138.0608646997
 21
2345.2543978663
 31
0.0
  0
SPLINE
  5
1BB
330
1F
100
AcDbEntity
  8
0
  6
Continuous
 62
     7
370
    25
100
AcDbSpline
210
0.0
220
0.0
230
1.0
 70
    24
 71
     3
 72
    12
 73
     8
 74
     0
 42
0.00000001
 43
0.00000001
 40
0.0
 40
0.0
 40
0.0
 40
0.0
 40
0.3329369653742251
 40
0.5139656098128197
 40
0.6952322446444438
 40
0.8762609961850107
 40
1.0
 40
1.0
 40
1.0
 40
1.0
 10
1138.060864699707
 20
2288.254397866315
 30
0.0
 10
1137.809467286564
 20
2288.254397866314
 30
0.0
 10
1137.421376932566
 20
2288.254397866311
 30
0.0
 10
1136.954447662891
 20
2288.254397866312
 30
0.0
 10
1136.63892877387
 20
2288.254397866312
 30
0.0
 10
1136.398804555353
 20
2288.254397866313
 30
0.0
 10
1136.300697304342
 20
2288.254397866312
 30
0.0
 10
1136.260864699699
 20
2288.254397866312
 30
0.0
  0
LINE
  5
1BC
330
1F
100
AcDbEntity
  8
0
  6
Continuous
 62
     7
370
    25
100
AcDbLine
 10
1138.0608646997
 20
2289.2543978663
 30
0.0
 11
1138.0608646997
 21
2288.2543978663
 31
0.0
  0
SPLINE
  5
1BD
330
1F
100
AcDbEntity
  8
0
  6
Continuous
 62
     7
370
    25
100
AcDbSpline
210
0.0
220
0.0
230
1.0
 70
     8
 71
     3
 72
    10
 73
     6
 74
     0
 42
0.00000001
 43
0.00000001
 40
0.0
 40
0.0
 40
0.0
 40
0.0
 40
0.0371311943382287
 40
0.5486628195568382
 40
1.0
 40
1.0
 40
1.0
 40
1.0
 10
1136.260864699699
 20
2327.000162206484
 30
0.0
 10
1136.266487551912
 20
2326.993443859058
 30
0.0
 10
1136.349572677618
 20
2326.894171333438
 30
0.0
 10
1136.571128650202
 20
2326.793742420242
 30
0.0
 10
1136.802439539448
 20
2326.766954495412
 30
0.0
 10
1136.910864699703
 20
2326.754397866315
 30
0.0
  0
LINE
  5
1BE
330
1F
100
AcDbEntity
  8
0
  6
Continuous
 62
     7
370
    25
100
AcDbLine
 10
1138.0608646997
 20
2344.2543978663
 30
0.0
 11
1138.0608646997
 21
2335.1459720241
 31
0.0
  0
LINE
  5
1BF
330
1F
100
AcDbEntity
  8
0
  6
Continuous
 62
     7
370
    25
100
AcDbLine
 10
1137.7608646997
 20
2326.7543978663
 30
0.0
 11
1136.9108646997
 21
2326.7543978663
 31
0.0
  0
LINE
  5
1C0
330
1F
100
AcDbEntity
  8
0
  6
Continuous
 62
     7
370
    25
100
AcDbLine
 10
1138.2608646997
 20
2344.2543978663
 30
0.0
 11
1138.0608646997
 21
2344.2543978663
 31
0.0
  0
SPLINE
  5
1C1
330
1F
100
AcDbEntity
  8
0
  6
Continuous
 62
     7
370
    25
100
AcDbSpline
210
0.0
220
0.0
230
1.0
 70
     8
 71
     3
 72
     9
 73
     5
 74
     0
 42
0.00000001
 43
0.00000001
 40
0.0
 40
0.0
 40
0.0
 40
0.0
 40
0.5050081268939067
 40
1.0
 40
1.0
 40
1.0
 40
1.0
 10
1136.910864699705
 20
2306.754397866314
 30
0.0
 10
1136.787568427837
 20
2306.74217800693
 30
0.0
 10
1136.543421323461
 20
2306.717980654981
 30
0.0
 10
1136.354419209908
 20
2306.580904581718
 30
0.0
 10
1136.260864699699
 20
2306.513053039456
 30
0.0
  0
LINE
  5
1C2
330
1F
100
AcDbEntity
  8
0
  6
Continuous
 62
     7
370
    25
100
AcDbLine
 10
1138.0608646997
 20
2298.3628237086
 30
0.0
 11
1138.0608646997
 21
2289.2543978663
 31
0.0
  0
LINE
  5
1C3
330
1F
100
AcDbEntity
  8
0
  6
Continuous
 62
     7
370
    25
100
AcDbLine
 10
1136.9108646997
 20
2306.7543978663
 30
0.0
 11
1137.7608646997
 21
2306.7543978663
 31
0.0
  0
LINE
  5
1C4
330
1F
100
AcDbEntity
  8
0
  6
Continuous
 62
     7
370
    25
100
AcDbLine
 10
1138.2608646997
 20
2289.2543978663
 30
0.0
 11
1138.0608646997
 21
2289.2543978663
 31
0.0
  0
LINE
  5
1C5
330
1F
100
AcDbEntity
  8
0
  6
Continuous
 62
     7
370
    25
100
AcDbLine
 10
1138.2608646997
 20
2345.2543978663
 30
0.0
 11
1138.0608646997
 21
2345.2543978663
 31
0.0
  0
LINE
  5
1C6
330
1F
100
AcDbEntity
  8
0
  6
Continuous
 62
     7
370
    25
100
AcDbLine
 10
1138.2608646997
 20
2288.2543978663
 30
0.0
 11
1138.0608646997
 21
2288.2543978663
 31
0.0
  0
LINE
  5
1C7
330
1F
100
AcDbEntity
  8
0
  6
Continuous
 62
     7
370
    25
100
AcDbLine
 10
1137.7608646997
 20
1065.7103560054
 30
0.0
 11
1138.2608646997
 21
1065.7103560054
 31
0.0
  0
LINE
  5
1C8
330
1F
100
AcDbEntity
  8
0
  6
Continuous
 62
     7
370
    25
100
AcDbLine
 10
1137.7608646997
 20
1064.1543978661
 30
0.0
 11
1138.2608646997
 21
1064.1543978661
 31
0.0
  0
LINE
  5
1C9
330
1F
100
AcDbEntity
  8
0
  6
Continuous
 62
     7
370
    25
100
AcDbLine
 10
1137.7608646997
 20
1064.1543978661
 30
0.0
 11
1137.7608646997
 21
1065.7103560054
 31
0.0
  0
LINE
  5
1CA
330
1F
100
AcDbEntity
  8
0
  6
Continuous
 62
     7
370
    25
100
AcDbLine
 10
1138.2608646997
 20
1047.7984397272
 30
0.0
 11
1137.7608646997
 21
1047.7984397272
 31
0.0
  0
LINE
  5
1CB
330
1F
100
AcDbEntity
  8
0
  6
Continuous
 62
     7
370
    25
100
AcDbLine
 10
1137.7608646997
 20
1047.7984397272
 30
0.0
 11
1137.7608646997
 21
1049.3543978665
 31
0.0
  0
LINE
  5
1CC
330
1F
100
AcDbEntity
  8
0
  6
Continuous
 62
     7
370
    25
100
AcDbLine
 10
1138.2608646997
 20
1049.3543978665
 30
0.0
 11
1137.7608646997
 21
1049.3543978665
 31
0.0
  0
LINE
  5
1CD
330
1F
100
AcDbEntity
  8
0
  6
Continuous
 62
     7
370
    25
100
AcDbLine
 10
1138.0608646997
 20
1075.1459720241
 30
0.0
 11
1137.7608646997
 21
1075.1459720241
 31
0.0
  0
LINE
  5
1CE
330
1F
100
AcDbEntity
  8
0
  6
Continuous
 62
     7
370
    25
100
AcDbLine
 10
1138.2608646997
 20
1075.1459720241
 30
0.0
 11
1138.0608646997
 21
1075.1459720241
 31
0.0
  0
LINE
  5
1CF
330
1F
100
AcDbEntity
  8
0
  6
Continuous
 62
     7
370
    25
100
AcDbLine
 10
1137.7608646997
 20
1075.1459720241
 30
0.0
 11
1137.7608646997
 21
1065.7103560054
 31
0.0
  0
LINE
  5
1D0
330
1F
100
AcDbEntity
  8
0
  6
Continuous
 62
     7
370
    25
100
AcDbLine
 10
1138.0608646997
 20
1038.3628237086
 30
0.0
 11
1138.2608646997
 21
1038.3628237086
 31
0.0
  0
LINE
  5
1D1
330
1F
100
AcDbEntity
  8
0
  6
Continuous
 62
     7
370
    25
100
AcDbLine
 10
1137.7608646997
 20
1038.3628237086
 30
0.0
 11
1138.0608646997
 21
1038.3628237086
 31
0.0
  0
LINE
  5
1D2
330
1F
100
AcDbEntity
  8
0
  6
Continuous
 62
     7
370
    25
100
AcDbLine
 10
1137.7608646997
 20
1047.7984397272
 30
0.0
 11
1137.7608646997
 21
1038.3628237086
 31
0.0
  0
SPLINE
  5
1D3
330
1F
100
AcDbEntity
  8
0
  6
Continuous
 62
     7
370
    25
100
AcDbSpline
210
0.0
220
0.0
230
1.0
 70
    24
 71
     3
 72
    12
 73
     8
 74
     0
 42
0.00000001
 43
0.00000001
 40
0.0
 40
0.0
 40
0.0
 40
0.0
 40
0.1234882189612345
 40
0.3047574776071929
 40
0.4857888495161656
 40
0.6670582153997556
 40
1.0
 40
1.0
 40
1.0
 40
1.0
 10
1136.260864699699
 20
1085.254397866311
 30
0.0
 10
1136.300611268735
 20
1085.254397866311
 30
0.0
 10
1136.398702116793
 20
1085.254397866311
 30
0.0
 10
1136.638675405153
 20
1085.254397866311
 30
0.0
 10
1136.954289593648
 20
1085.254397866311
 30
0.0
 10
1137.421199682748
 20
1085.254397866311
 30
0.0
 10
1137.809468282984
 20
1085.254397866313
 30
0.0
 10
1138.060864699701
 20
1085.254397866314
 30
0.0
  0
LINE
  5
1D4
330
1F
100
AcDbEntity
  8
0
  6
Continuous
 62
     7
370
    25
100
AcDbLine
 10
1138.0608646997
 20
1084.2543978663
 30
0.0
 11
1138.0608646997
 21
1085.2543978663
 31
0.0
  0
SPLINE
  5
1D5
330
1F
100
AcDbEntity
  8
0
  6
Continuous
 62
     7
370
    25
100
AcDbSpline
210
0.0
220
0.0
230
1.0
 70
    24
 71
     3
 72
    12
 73
     8
 74
     0
 42
0.00000001
 43
0.00000001
 40
0.0
 40
0.0
 40
0.0
 40
0.0
 40
0.3329369653741572
 40
0.5139656098127153
 40
0.695232244644303
 40
0.8762609961848339
 40
1.0
 40
1.0
 40
1.0
 40
1.0
 10
1138.060864699707
 20
1028.254397866315
 30
0.0
 10
1137.809467286564
 20
1028.254397866314
 30
0.0
 10
1137.421376932566
 20
1028.254397866311
 30
0.0
 10
1136.954447662892
 20
1028.254397866312
 30
0.0
 10
1136.63892877387
 20
1028.254397866312
 30
0.0
 10
1136.398804555353
 20
1028.254397866312
 30
0.0
 10
1136.300697304342
 20
1028.254397866312
 30
0.0
 10
1136.260864699699
 20
1028.254397866312
 30
0.0
  0
LINE
  5
1D6
330
1F
100
AcDbEntity
  8
0
  6
Continuous
 62
     7
370
    25
100
AcDbLine
 10
1138.0608646997
 20
1029.2543978663
 30
0.0
 11
1138.0608646997
 21
1028.2543978663
 31
0.0
  0
LINE
  5
1D7
330
1F
100
AcDbEntity
  8
0
  6
Continuous
 62
     7
370
    25
100
AcDbLine
 10
1138.2608646997
 20
1084.2543978663
 30
0.0
 11
1138.0608646997
 21
1084.2543978663
 31
0.0
  0
LINE
  5
1D8
330
1F
100
AcDbEntity
  8
0
  6
Continuous
 62
     7
370
    25
100
AcDbLine
 10
1138.0608646997
 20
1084.2543978663
 30
0.0
 11
1138.0608646997
 21
1075.1459720241
 31
0.0
  0
SPLINE
  5
1D9
330
1F
100
AcDbEntity
  8
0
  6
Continuous
 62
     7
370
    25
100
AcDbSpline
210
0.0
220
0.0
230
1.0
 70
     8
 71
     3
 72
    10
 73
     6
 74
     0
 42
0.00000001
 43
0.00000001
 40
0.0
 40
0.0
 40
0.0
 40
0.0
 40
0.0371311943387526
 40
0.5486628195570837
 40
1.0
 40
1.0
 40
1.0
 40
1.0
 10
1136.260864699699
 20
1067.000162206484
 30
0.0
 10
1136.266487551912
 20
1066.993443859059
 30
0.0
 10
1136.349572677617
 20
1066.894171333436
 30
0.0
 10
1136.571128650203
 20
1066.793742420243
 30
0.0
 10
1136.802439539448
 20
1066.766954495413
 30
0.0
 10
1136.910864699703
 20
1066.754397866315
 30
0.0
  0
LINE
  5
1DA
330
1F
100
AcDbEntity
  8
0
  6
Continuous
 62
     7
370
    25
100
AcDbLine
 10
1137.7608646997
 20
1066.7543978663
 30
0.0
 11
1136.9108646997
 21
1066.7543978663
 31
0.0
  0
LINE
  5
1DB
330
1F
100
AcDbEntity
  8
0
  6
Continuous
 62
     7
370
    25
100
AcDbLine
 10
1138.2608646997
 20
1029.2543978663
 30
0.0
 11
1138.0608646997
 21
1029.2543978663
 31
0.0
  0
LINE
  5
1DC
330
1F
100
AcDbEntity
  8
0
  6
Continuous
 62
     7
370
    25
100
AcDbLine
 10
1138.0608646997
 20
1038.3628237086
 30
0.0
 11
1138.0608646997
 21
1029.2543978663
 31
0.0
  0
SPLINE
  5
1DD
330
1F
100
AcDbEntity
  8
0
  6
Continuous
 62
     7
370
    25
100
AcDbSpline
210
0.0
220
0.0
230
1.0
 70
     8
 71
     3
 72
     9
 73
     5
 74
     0
 42
0.00000001
 43
0.00000001
 40
0.0
 40
0.0
 40
0.0
 40
0.0
 40
0.5050081268937402
 40
1.0
 40
1.0
 40
1.0
 40
1.0
 10
1136.910864699705
 20
1046.754397866314
 30
0.0
 10
1136.787568427837
 20
1046.74217800693
 30
0.0
 10
1136.543421323461
 20
1046.717980654981
 30
0.0
 10
1136.354419209908
 20
1046.580904581718
 30
0.0
 10
1136.260864699699
 20
1046.513053039456
 30
0.0
  0
LINE
  5
1DE
330
1F
100
AcDbEntity
  8
0
  6
Continuous
 62
     7
370
    25
100
AcDbLine
 10
1136.9108646997
 20
1046.7543978663
 30
0.0
 11
1137.7608646997
 21
1046.7543978663
 31
0.0
  0
LINE
  5
1DF
330
1F
100
AcDbEntity
  8
0
  6
Continuous
 62
     7
370
    25
100
AcDbLine
 10
1138.2608646997
 20
1085.2543978663
 30
0.0
 11
1138.0608646997
 21
1085.2543978663
 31
0.0
  0
LINE
  5
1E0
330
1F
100
AcDbEntity
  8
0
  6
Continuous
 62
     7
370
    25
100
AcDbLine
 10
1138.2608646997
 20
1028.2543978663
 30
0.0
 11
1138.0608646997
 21
1028.2543978663
 31
0.0
  0
LINE
  5
1E1
330
1F
100
AcDbEntity
  8
0
  6
Continuous
 62
     7
370
    25
100
AcDbLine
 10
1137.7608646997
 20
1425.7103560054
 30
0.0
 11
1138.2608646997
 21
1425.7103560054
 31
0.0
  0
LINE
  5
1E2
330
1F
100
AcDbEntity
  8
0
  6
Continuous
 62
     7
370
    25
100
AcDbLine
 10
1137.7608646997
 20
1424.1543978661
 30
0.0
 11
1138.2608646997
 21
1424.1543978661
 31
0.0
  0
LINE
  5
1E3
330
1F
100
AcDbEntity
  8
0
  6
Continuous
 62
     7
370
    25
100
AcDbLine
 10
1137.7608646997
 20
1424.1543978661
 30
0.0
 11
1137.7608646997
 21
1425.7103560054
 31
0.0
  0
LINE
  5
1E4
330
1F
100
AcDbEntity
  8
0
  6
Continuous
 62
     7
370
    25
100
AcDbLine
 10
1138.2608646997
 20
1407.7984397272
 30
0.0
 11
1137.7608646997
 21
1407.7984397272
 31
0.0
  0
LINE
  5
1E5
330
1F
100
AcDbEntity
  8
0
  6
Continuous
 62
     7
370
    25
100
AcDbLine
 10
1137.7608646997
 20
1407.7984397272
 30
0.0
 11
1137.7608646997
 21
1409.3543978665
 31
0.0
  0
LINE
  5
1E6
330
1F
100
AcDbEntity
  8
0
  6
Continuous
 62
     7
370
    25
100
AcDbLine
 10
1138.2608646997
 20
1409.3543978665
 30
0.0
 11
1137.7608646997
 21
1409.3543978665
 31
0.0
  0
LINE
  5
1E7
330
1F
100
AcDbEntity
  8
0
  6
Continuous
 62
     7
370
    25
100
AcDbLine
 10
1138.0608646997
 20
1435.1459720241
 30
0.0
 11
1137.7608646997
 21
1435.1459720241
 31
0.0
  0
LINE
  5
1E8
330
1F
100
AcDbEntity
  8
0
  6
Continuous
 62
     7
370
    25
100
AcDbLine
 10
1138.2608646997
 20
1435.1459720241
 30
0.0
 11
1138.0608646997
 21
1435.1459720241
 31
0.0
  0
LINE
  5
1E9
330
1F
100
AcDbEntity
  8
0
  6
Continuous
 62
     7
370
    25
100
AcDbLine
 10
1137.7608646997
 20
1435.1459720241
 30
0.0
 11
1137.7608646997
 21
1425.7103560054
 31
0.0
  0
LINE
  5
1EA
330
1F
100
AcDbEntity
  8
0
  6
Continuous
 62
     7
370
    25
100
AcDbLine
 10
1138.0608646997
 20
1398.3628237086
 30
0.0
 11
1138.2608646997
 21
1398.3628237086
 31
0.0
  0
LINE
  5
1EB
330
1F
100
AcDbEntity
  8
0
  6
Continuous
 62
     7
370
    25
100
AcDbLine
 10
1137.7608646997
 20
1398.3628237086
 30
0.0
 11
1138.0608646997
 21
1398.3628237086
 31
0.0
  0
LINE
  5
1EC
330
1F
100
AcDbEntity
  8
0
  6
Continuous
 62
     7
370
    25
100
AcDbLine
 10
1137.7608646997
 20
1407.7984397272
 30
0.0
 11
1137.7608646997
 21
1398.3628237086
 31
0.0
  0
SPLINE
  5
1ED
330
1F
100
AcDbEntity
  8
0
  6
Continuous
 62
     7
370
    25
100
AcDbSpline
210
0.0
220
0.0
230
1.0
 70
    24
 71
     3
 72
    12
 73
     8
 74
     0
 42
0.00000001
 43
0.00000001
 40
0.0
 40
0.0
 40
0.0
 40
0.0
 40
0.1234882189610676
 40
0.3047574776070432
 40
0.4857888495160689
 40
0.6670582153996697
 40
1.0
 40
1.0
 40
1.0
 40
1.0
 10
1136.260864699699
 20
1445.254397866311
 30
0.0
 10
1136.300611268735
 20
1445.254397866312
 30
0.0
 10
1136.398702116793
 20
1445.254397866311
 30
0.0
 10
1136.638675405153
 20
1445.254397866312
 30
0.0
 10
1136.954289593648
 20
1445.254397866312
 30
0.0
 10
1137.421199682747
 20
1445.254397866311
 30
0.0
 10
1137.809468282984
 20
1445.254397866313
 30
0.0
 10
1138.060864699701
 20
1445.254397866314
 30
0.0
  0
LINE
  5
1EE
330
1F
100
AcDbEntity
  8
0
  6
Continuous
 62
     7
370
    25
100
AcDbLine
 10
1138.0608646997
 20
1444.2543978663
 30
0.0
 11
1138.0608646997
 21
1445.2543978663
 31
0.0
  0
SPLINE
  5
1EF
330
1F
100
AcDbEntity
  8
0
  6
Continuous
 62
     7
370
    25
100
AcDbSpline
210
0.0
220
0.0
230
1.0
 70
    24
 71
     3
 72
    12
 73
     8
 74
     0
 42
0.00000001
 43
0.00000001
 40
0.0
 40
0.0
 40
0.0
 40
0.0
 40
0.3329369653742076
 40
0.5139656098127928
 40
0.6952322446444074
 40
0.8762609961849648
 40
1.0
 40
1.0
 40
1.0
 40
1.0
 10
1138.060864699707
 20
1388.254397866315
 30
0.0
 10
1137.809467286564
 20
1388.254397866314
 30
0.0
 10
1137.421376932566
 20
1388.254397866312
 30
0.0
 10
1136.954447662891
 20
1388.254397866312
 30
0.0
 10
1136.63892877387
 20
1388.254397866312
 30
0.0
 10
1136.398804555353
 20
1388.254397866312
 30
0.0
 10
1136.300697304342
 20
1388.254397866312
 30
0.0
 10
1136.260864699699
 20
1388.254397866312
 30
0.0
  0
LINE
  5
1F0
330
1F
100
AcDbEntity
  8
0
  6
Continuous
 62
     7
370
    25
100
AcDbLine
 10
1138.0608646997
 20
1389.2543978663
 30
0.0
 11
1138.0608646997
 21
1388.2543978663
 31
0.0
  0
SPLINE
  5
1F1
330
1F
100
AcDbEntity
  8
0
  6
Continuous
 62
     7
370
    25
100
AcDbSpline
210
0.0
220
0.0
230
1.0
 70
     8
 71
     3
 72
    10
 73
     6
 74
     0
 42
0.00000001
 43
0.00000001
 40
0.0
 40
0.0
 40
0.0
 40
0.0
 40
0.0371311943383821
 40
0.5486628195569101
 40
0.9999999999999999
 40
0.9999999999999999
 40
0.9999999999999999
 40
0.9999999999999999
 10
1136.260864699699
 20
1427.000162206484
 30
0.0
 10
1136.266487551912
 20
1426.993443859058
 30
0.0
 10
1136.349572677618
 20
1426.894171333438
 30
0.0
 10
1136.571128650202
 20
1426.793742420243
 30
0.0
 10
1136.802439539448
 20
1426.766954495413
 30
0.0
 10
1136.910864699703
 20
1426.754397866315
 30
0.0
  0
LINE
  5
1F2
330
1F
100
AcDbEntity
  8
0
  6
Continuous
 62
     7
370
    25
100
AcDbLine
 10
1138.0608646997
 20
1444.2543978663
 30
0.0
 11
1138.0608646997
 21
1435.1459720241
 31
0.0
  0
LINE
  5
1F3
330
1F
100
AcDbEntity
  8
0
  6
Continuous
 62
     7
370
    25
100
AcDbLine
 10
1137.7608646997
 20
1426.7543978663
 30
0.0
 11
1136.9108646997
 21
1426.7543978663
 31
0.0
  0
LINE
  5
1F4
330
1F
100
AcDbEntity
  8
0
  6
Continuous
 62
     7
370
    25
100
AcDbLine
 10
1138.2608646997
 20
1444.2543978663
 30
0.0
 11
1138.0608646997
 21
1444.2543978663
 31
0.0
  0
SPLINE
  5
1F5
330
1F
100
AcDbEntity
  8
0
  6
Continuous
 62
     7
370
    25
100
AcDbSpline
210
0.0
220
0.0
230
1.0
 70
     8
 71
     3
 72
     9
 73
     5
 74
     0
 42
0.00000001
 43
0.00000001
 40
0.0
 40
0.0
 40
0.0
 40
0.0
 40
0.5050081268938685
 40
1.0
 40
1.0
 40
1.0
 40
1.0
 10
1136.910864699705
 20
1406.754397866314
 30
0.0
 10
1136.787568427837
 20
1406.742178006931
 30
0.0
 10
1136.543421323461
 20
1406.717980654981
 30
0.0
 10
1136.354419209908
 20
1406.580904581719
 30
0.0
 10
1136.260864699699
 20
1406.513053039456
 30
0.0
  0
LINE
  5
1F6
330
1F
100
AcDbEntity
  8
0
  6
Continuous
 62
     7
370
    25
100
AcDbLine
 10
1138.0608646997
 20
1398.3628237086
 30
0.0
 11
1138.0608646997
 21
1389.2543978663
 31
0.0
  0
LINE
  5
1F7
330
1F
100
AcDbEntity
  8
0
  6
Continuous
 62
     7
370
    25
100
AcDbLine
 10
1136.9108646997
 20
1406.7543978663
 30
0.0
 11
1137.7608646997
 21
1406.7543978663
 31
0.0
  0
LINE
  5
1F8
330
1F
100
AcDbEntity
  8
0
  6
Continuous
 62
     7
370
    25
100
AcDbLine
 10
1138.2608646997
 20
1389.2543978663
 30
0.0
 11
1138.0608646997
 21
1389.2543978663
 31
0.0
  0
LINE
  5
1F9
330
1F
100
AcDbEntity
  8
0
  6
Continuous
 62
     7
370
    25
100
AcDbLine
 10
1138.2608646997
 20
1445.2543978663
 30
0.0
 11
1138.0608646997
 21
1445.2543978663
 31
0.0
  0
LINE
  5
1FA
330
1F
100
AcDbEntity
  8
0
  6
Continuous
 62
     7
370
    25
100
AcDbLine
 10
1138.2608646997
 20
1388.2543978663
 30
0.0
 11
1138.0608646997
 21
1388.2543978663
 31
0.0
  0
LINE
  5
1FB
330
1F
100
AcDbEntity
  8
0
  6
Continuous
 62
     7
370
    25
100
AcDbLine
 10
1137.7608646997
 20
705.7103560054
 30
0.0
 11
1138.2608646997
 21
705.7103560054
 31
0.0
  0
LINE
  5
1FC
330
1F
100
AcDbEntity
  8
0
  6
Continuous
 62
     7
370
    25
100
AcDbLine
 10
1137.7608646997
 20
704.1543978661
 30
0.0
 11
1138.2608646997
 21
704.1543978661
 31
0.0
  0
LINE
  5
1FD
330
1F
100
AcDbEntity
  8
0
  6
Continuous
 62
     7
370
    25
100
AcDbLine
 10
1137.7608646997
 20
704.1543978661
 30
0.0
 11
1137.7608646997
 21
705.7103560054
 31
0.0
  0
LINE
  5
1FE
330
1F
100
AcDbEntity
  8
0
  6
Continuous
 62
     7
370
    25
100
AcDbLine
 10
1138.2608646997
 20
687.7984397272
 30
0.0
 11
1137.7608646997
 21
687.7984397272
 31
0.0
  0
LINE
  5
1FF
330
1F
100
AcDbEntity
  8
0
  6
Continuous
 62
     7
370
    25
100
AcDbLine
 10
1137.7608646997
 20
687.7984397272
 30
0.0
 11
1137.7608646997
 21
689.3543978665
 31
0.0
  0
LINE
  5
200
330
1F
100
AcDbEntity
  8
0
  6
Continuous
 62
     7
370
    25
100
AcDbLine
 10
1138.2608646997
 20
689.3543978665
 30
0.0
 11
1137.7608646997
 21
689.3543978665
 31
0.0
  0
LINE
  5
201
330
1F
100
AcDbEntity
  8
0
  6
Continuous
 62
     7
370
    25
100
AcDbLine
 10
1138.0608646997
 20
715.1459720241
 30
0.0
 11
1137.7608646997
 21
715.1459720241
 31
0.0
  0
LINE
  5
202
330
1F
100
AcDbEntity
  8
0
  6
Continuous
 62
     7
370
    25
100
AcDbLine
 10
1138.2608646997
 20
715.1459720241
 30
0.0
 11
1138.0608646997
 21
715.1459720241
 31
0.0
  0
LINE
  5
203
330
1F
100
AcDbEntity
  8
0
  6
Continuous
 62
     7
370
    25
100
AcDbLine
 10
1137.7608646997
 20
715.1459720241
 30
0.0
 11
1137.7608646997
 21
705.7103560054
 31
0.0
  0
LINE
  5
204
330
1F
100
AcDbEntity
  8
0
  6
Continuous
 62
     7
370
    25
100
AcDbLine
 10
1138.0608646997
 20
678.3628237086
 30
0.0
 11
1138.2608646997
 21
678.3628237086
 31
0.0
  0
LINE
  5
205
330
1F
100
AcDbEntity
  8
0
  6
Continuous
 62
     7
370
    25
100
AcDbLine
 10
1137.7608646997
 20
678.3628237086
 30
0.0
 11
1138.0608646997
 21
678.3628237086
 31
0.0
  0
LINE
  5
206
330
1F
100
AcDbEntity
  8
0
  6
Continuous
 62
     7
370
    25
100
AcDbLine
 10
1137.7608646997
 20
687.7984397272
 30
0.0
 11
1137.7608646997
 21
678.3628237086
 31
0.0
  0
SPLINE
  5
207
330
1F
100
AcDbEntity
  8
0
  6
Continuous
 62
     7
370
    25
100
AcDbSpline
210
0.0
220
0.0
230
1.0
 70
    24
 71
     3
 72
    12
 73
     8
 74
     0
 42
0.00000001
 43
0.00000001
 40
0.0
 40
0.0
 40
0.0
 40
0.0
 40
0.1234882189612344
 40
0.3047574776071927
 40
0.4857888495161664
 40
0.6670582153997557
 40
1.0
 40
1.0
 40
1.0
 40
1.0
 10
1136.260864699699
 20
725.2543978663113
 30
0.0
 10
1136.300611268735
 20
725.2543978663113
 30
0.0
 10
1136.398702116793
 20
725.2543978663113
 30
0.0
 10
1136.638675405154
 20
725.2543978663113
 30
0.0
 10
1136.954289593648
 20
725.2543978663113
 30
0.0
 10
1137.421199682748
 20
725.2543978663108
 30
0.0
 10
1137.809468282984
 20
725.254397866313
 30
0.0
 10
1138.060864699701
 20
725.2543978663143
 30
0.0
  0
LINE
  5
208
330
1F
100
AcDbEntity
  8
0
  6
Continuous
 62
     7
370
    25
100
AcDbLine
 10
1138.0608646997
 20
724.2543978663
 30
0.0
 11
1138.0608646997
 21
725.2543978663
 31
0.0
  0
SPLINE
  5
209
330
1F
100
AcDbEntity
  8
0
  6
Continuous
 62
     7
370
    25
100
AcDbSpline
210
0.0
220
0.0
230
1.0
 70
    24
 71
     3
 72
    12
 73
     8
 74
     0
 42
0.00000001
 43
0.00000001
 40
0.0
 40
0.0
 40
0.0
 40
0.0
 40
0.3329369653741434
 40
0.513965609812694
 40
0.6952322446442742
 40
0.8762609961847976
 40
1.0
 40
1.0
 40
1.0
 40
1.0
 10
1138.060864699707
 20
668.2543978663152
 30
0.0
 10
1137.809467286564
 20
668.2543978663138
 30
0.0
 10
1137.421376932566
 20
668.2543978663116
 30
0.0
 10
1136.954447662892
 20
668.2543978663122
 30
0.0
 10
1136.63892877387
 20
668.254397866312
 30
0.0
 10
1136.398804555353
 20
668.254397866312
 30
0.0
 10
1136.300697304342
 20
668.254397866312
 30
0.0
 10
1136.260864699699
 20
668.254397866312
 30
0.0
  0
LINE
  5
20A
330
1F
100
AcDbEntity
  8
0
  6
Continuous
 62
     7
370
    25
100
AcDbLine
 10
1138.0608646997
 20
669.2543978663
 30
0.0
 11
1138.0608646997
 21
668.2543978663
 31
0.0
  0
LINE
  5
20B
330
1F
100
AcDbEntity
  8
0
  6
Continuous
 62
     7
370
    25
100
AcDbLine
 10
1138.2608646997
 20
724.2543978663
 30
0.0
 11
1138.0608646997
 21
724.2543978663
 31
0.0
  0
LINE
  5
20C
330
1F
100
AcDbEntity
  8
0
  6
Continuous
 62
     7
370
    25
100
AcDbLine
 10
1138.0608646997
 20
724.2543978663
 30
0.0
 11
1138.0608646997
 21
715.1459720241
 31
0.0
  0
SPLINE
  5
20D
330
1F
100
AcDbEntity
  8
0
  6
Continuous
 62
     7
370
    25
100
AcDbSpline
210
0.0
220
0.0
230
1.0
 70
     8
 71
     3
 72
    10
 73
     6
 74
     0
 42
0.00000001
 43
0.00000001
 40
0.0
 40
0.0
 40
0.0
 40
0.0
 40
0.0371311943387302
 40
0.5486628195570752
 40
1.0
 40
1.0
 40
1.0
 40
1.0
 10
1136.260864699699
 20
707.0001622064841
 30
0.0
 10
1136.266487551912
 20
706.9934438590584
 30
0.0
 10
1136.349572677618
 20
706.8941713334368
 30
0.0
 10
1136.571128650203
 20
706.7937424202429
 30
0.0
 10
1136.802439539448
 20
706.7669544954128
 30
0.0
 10
1136.910864699703
 20
706.7543978663148
 30
0.0
  0
LINE
  5
20E
330
1F
100
AcDbEntity
  8
0
  6
Continuous
 62
     7
370
    25
100
AcDbLine
 10
1137.7608646997
 20
706.7543978663
 30
0.0
 11
1136.9108646997
 21
706.7543978663
 31
0.0
  0
LINE
  5
20F
330
1F
100
AcDbEntity
  8
0
  6
Continuous
 62
     7
370
    25
100
AcDbLine
 10
1138.2608646997
 20
669.2543978663
 30
0.0
 11
1138.0608646997
 21
669.2543978663
 31
0.0
  0
LINE
  5
210
330
1F
100
AcDbEntity
  8
0
  6
Continuous
 62
     7
370
    25
100
AcDbLine
 10
1138.0608646997
 20
678.3628237086
 30
0.0
 11
1138.0608646997
 21
669.2543978663
 31
0.0
  0
SPLINE
  5
211
330
1F
100
AcDbEntity
  8
0
  6
Continuous
 62
     7
370
    25
100
AcDbSpline
210
0.0
220
0.0
230
1.0
 70
     8
 71
     3
 72
     9
 73
     5
 74
     0
 42
0.00000001
 43
0.00000001
 40
0.0
 40
0.0
 40
0.0
 40
0.0
 40
0.5050081268937391
 40
1.0
 40
1.0
 40
1.0
 40
1.0
 10
1136.910864699705
 20
686.7543978663143
 30
0.0
 10
1136.787568427837
 20
686.7421780069305
 30
0.0
 10
1136.543421323462
 20
686.7179806549808
 30
0.0
 10
1136.354419209908
 20
686.5809045817183
 30
0.0
 10
1136.260864699699
 20
686.5130530394558
 30
0.0
  0
LINE
  5
212
330
1F
100
AcDbEntity
  8
0
  6
Continuous
 62
     7
370
    25
100
AcDbLine
 10
1136.9108646997
 20
686.7543978663
 30
0.0
 11
1137.7608646997
 21
686.7543978663
 31
0.0
  0
LINE
  5
213
330
1F
100
AcDbEntity
  8
0
  6
Continuous
 62
     7
370
    25
100
AcDbLine
 10
1138.2608646997
 20
725.2543978663
 30
0.0
 11
1138.0608646997
 21
725.2543978663
 31
0.0
  0
LINE
  5
214
330
1F
100
AcDbEntity
  8
0
  6
Continuous
 62
     7
370
    25
100
AcDbLine
 10
1138.2608646997
 20
668.2543978663
 30
0.0
 11
1138.0608646997
 21
668.2543978663
 31
0.0
  0
LINE
  5
215
330
1F
100
AcDbEntity
  8
0
  6
Continuous
 62
     7
370
    25
100
AcDbLine
 10
1136.3956797746
 20
1065.1293978663
 30
0.0
 11
1136.3956797746
 21
1064.2043978663
 31
0.0
  0
LINE
  5
216
330
1F
100
AcDbEntity
  8
0
  6
Continuous
 62
     7
370
    25
100
AcDbLine
 10
1136.3956797746
 20
1049.3043978663
 30
0.0
 11
1136.3956797746
 21
1048.3793978663
 31
0.0
  0
LINE
  5
217
330
1F
100
AcDbEntity
  8
0
  6
Continuous
 62
     7
370
    25
100
AcDbLine
 10
1136.3956797746
 20
1048.3793978663
 30
0.0
 11
1136.2608646997
 21
1048.3793978663
 31
0.0
  0
LINE
  5
218
330
1F
100
AcDbEntity
  8
0
  6
Continuous
 62
     7
370
    25
100
AcDbLine
 10
1136.2608646997
 20
1065.1293978663
 30
0.0
 11
1136.3956797746
 21
1065.1293978663
 31
0.0
  0
LINE
  5
219
330
1F
100
AcDbEntity
  8
0
  6
Continuous
 62
     7
370
    25
100
AcDbLine
 10
1137.7608646997
 20
1048.3793978663
 30
0.0
 11
1136.3956797746
 21
1048.3793978663
 31
0.0
  0
LINE
  5
21A
330
1F
100
AcDbEntity
  8
0
  6
Continuous
 62
     7
370
    25
100
AcDbLine
 10
1136.3956797746
 20
1065.1293978663
 30
0.0
 11
1137.7608646997
 21
1065.1293978663
 31
0.0
  0
LINE
  5
21B
330
1F
100
AcDbEntity
  8
0
  6
Continuous
 62
     7
370
    25
100
AcDbLine
 10
1136.3956797746
 20
705.1293978663
 30
0.0
 11
1136.3956797746
 21
704.2043978663
 31
0.0
  0
LINE
  5
21C
330
1F
100
AcDbEntity
  8
0
  6
Continuous
 62
     7
370
    25
100
AcDbLine
 10
1136.3956797746
 20
689.3043978663
 30
0.0
 11
1136.3956797746
 21
688.3793978663
 31
0.0
  0
LINE
  5
21D
330
1F
100
AcDbEntity
  8
0
  6
Continuous
 62
     7
370
    25
100
AcDbLine
 10
1136.3956797746
 20
688.3793978663
 30
0.0
 11
1136.2608646997
 21
688.3793978663
 31
0.0
  0
LINE
  5
21E
330
1F
100
AcDbEntity
  8
0
  6
Continuous
 62
     7
370
    25
100
AcDbLine
 10
1136.2608646997
 20
705.1293978663
 30
0.0
 11
1136.3956797746
 21
705.1293978663
 31
0.0
  0
LINE
  5
21F
330
1F
100
AcDbEntity
  8
0
  6
Continuous
 62
     7
370
    25
100
AcDbLine
 10
1137.7608646997
 20
688.3793978663
 30
0.0
 11
1136.3956797746
 21
688.3793978663
 31
0.0
  0
LINE
  5
220
330
1F
100
AcDbEntity
  8
0
  6
Continuous
 62
     7
370
    25
100
AcDbLine
 10
1136.3956797746
 20
705.1293978663
 30
0.0
 11
1137.7608646997
 21
705.1293978663
 31
0.0
  0
LINE
  5
221
330
1F
100
AcDbEntity
  8
0
  6
Continuous
 62
     7
370
    25
100
AcDbLine
 10
1136.3956797746
 20
1425.1293978663
 30
0.0
 11
1136.3956797746
 21
1424.2043978663
 31
0.0
  0
LINE
  5
222
330
1F
100
AcDbEntity
  8
0
  6
Continuous
 62
     7
370
    25
100
AcDbLine
 10
1136.3956797746
 20
1409.3043978663
 30
0.0
 11
1136.3956797746
 21
1408.3793978663
 31
0.0
  0
LINE
  5
223
330
1F
100
AcDbEntity
  8
0
  6
Continuous
 62
     7
370
    25
100
AcDbLine
 10
1136.3956797746
 20
1408.3793978663
 30
0.0
 11
1136.2608646997
 21
1408.3793978663
 31
0.0
  0
LINE
  5
224
330
1F
100
AcDbEntity
  8
0
  6
Continuous
 62
     7
370
    25
100
AcDbLine
 10
1136.2608646997
 20
1425.1293978663
 30
0.0
 11
1136.3956797746
 21
1425.1293978663
 31
0.0
  0
LINE
  5
225
330
1F
100
AcDbEntity
  8
0
  6
Continuous
 62
     7
370
    25
100
AcDbLine
 10
1137.7608646997
 20
1408.3793978663
 30
0.0
 11
1136.3956797746
 21
1408.3793978663
 31
0.0
  0
LINE
  5
226
330
1F
100
AcDbEntity
  8
0
  6
Continuous
 62
     7
370
    25
100
AcDbLine
 10
1136.3956797746
 20
1425.1293978663
 30
0.0
 11
1137.7608646997
 21
1425.1293978663
 31
0.0
  0
LINE
  5
227
330
1F
100
AcDbEntity
  8
0
  6
Continuous
 62
     7
370
    25
100
AcDbLine
 10
1136.3956797746
 20
2325.1293978663
 30
0.0
 11
1136.3956797746
 21
2324.2043978663
 31
0.0
  0
LINE
  5
228
330
1F
100
AcDbEntity
  8
0
  6
Continuous
 62
     7
370
    25
100
AcDbLine
 10
1136.3956797746
 20
2309.3043978663
 30
0.0
 11
1136.3956797746
 21
2308.3793978663
 31
0.0
  0
LINE
  5
229
330
1F
100
AcDbEntity
  8
0
  6
Continuous
 62
     7
370
    25
100
AcDbLine
 10
1136.3956797746
 20
2308.3793978663
 30
0.0
 11
1136.2608646997
 21
2308.3793978663
 31
0.0
  0
LINE
  5
22A
330
1F
100
AcDbEntity
  8
0
  6
Continuous
 62
     7
370
    25
100
AcDbLine
 10
1136.2608646997
 20
2325.1293978663
 30
0.0
 11
1136.3956797746
 21
2325.1293978663
 31
0.0
  0
LINE
  5
22B
330
1F
100
AcDbEntity
  8
0
  6
Continuous
 62
     7
370
    25
100
AcDbLine
 10
1137.7608646997
 20
2308.3793978663
 30
0.0
 11
1136.3956797746
 21
2308.3793978663
 31
0.0
  0
LINE
  5
22C
330
1F
100
AcDbEntity
  8
0
  6
Continuous
 62
     7
370
    25
100
AcDbLine
 10
1136.3956797746
 20
2325.1293978663
 30
0.0
 11
1137.7608646997
 21
2325.1293978663
 31
0.0
  0
LINE
  5
22D
330
1F
100
AcDbEntity
  8
0
  6
Continuous
 62
     7
370
    25
100
AcDbLine
 10
1136.3956797746
 20
1955.1293978663
 30
0.0
 11
1136.3956797746
 21
1954.2043978663
 31
0.0
  0
LINE
  5
22E
330
1F
100
AcDbEntity
  8
0
  6
Continuous
 62
     7
370
    25
100
AcDbLine
 10
1136.3956797746
 20
1939.3043978663
 30
0.0
 11
1136.3956797746
 21
1938.3793978663
 31
0.0
  0
LINE
  5
22F
330
1F
100
AcDbEntity
  8
0
  6
Continuous
 62
     7
370
    25
100
AcDbLine
 10
1136.3956797746
 20
1938.3793978663
 30
0.0
 11
1136.2608646997
 21
1938.3793978663
 31
0.0
  0
LINE
  5
230
330
1F
100
AcDbEntity
  8
0
  6
Continuous
 62
     7
370
    25
100
AcDbLine
 10
1136.2608646997
 20
1955.1293978663
 30
0.0
 11
1136.3956797746
 21
1955.1293978663
 31
0.0
  0
LINE
  5
231
330
1F
100
AcDbEntity
  8
0
  6
Continuous
 62
     7
370
    25
100
AcDbLine
 10
1137.7608646997
 20
1938.3793978663
 30
0.0
 11
1136.3956797746
 21
1938.3793978663
 31
0.0
  0
LINE
  5
232
330
1F
100
AcDbEntity
  8
0
  6
Continuous
 62
     7
370
    25
100
AcDbLine
 10
1136.3956797746
 20
1955.1293978663
 30
0.0
 11
1137.7608646997
 21
1955.1293978663
 31
0.0
  0
LINE
  5
233
330
1F
100
AcDbEntity
  8
0
  6
Continuous
 62
     7
370
    25
100
AcDbLine
 10
1136.2608646997
 20
703.2543978663
 30
0.0
 11
1138.2608646997
 21
703.2543978663
 31
0.0
  0
LINE
  5
234
330
1F
100
AcDbEntity
  8
0
  6
Continuous
 62
     7
370
    25
100
AcDbLine
 10
1138.2608646997
 20
690.2543978663
 30
0.0
 11
1136.2608646997
 21
690.2543978663
 31
0.0
  0
LINE
  5
235
330
1F
100
AcDbEntity
  8
0
  6
Continuous
 62
     7
370
    25
100
AcDbLine
 10
1136.9895821545
 20
689.3043978663
 30
0.0
 11
1136.9895821545
 21
690.2543978663
 31
0.0
  0
LINE
  5
236
330
1F
100
AcDbEntity
  8
0
  6
Continuous
 62
     7
370
    25
100
AcDbLine
 10
1136.9895821545
 20
703.2543978663
 30
0.0
 11
1136.9895821545
 21
704.2043978663
 31
0.0
  0
LINE
  5
237
330
1F
100
AcDbEntity
  8
0
  6
Continuous
 62
     7
370
    25
100
AcDbLine
 10
1136.9895821545
 20
689.3043978663
 30
0.0
 11
1136.2608646997
 21
689.3043978663
 31
0.0
  0
LINE
  5
238
330
1F
100
AcDbEntity
  8
0
  6
Continuous
 62
     7
370
    25
100
AcDbLine
 10
1136.9895821545
 20
704.2043978663
 30
0.0
 11
1136.2608646997
 21
704.2043978663
 31
0.0
  0
LINE
  5
239
330
1F
100
AcDbEntity
  8
0
  6
Continuous
 62
     7
370
    25
100
AcDbLine
 10
1137.0509516501
 20
689.3043978663
 30
0.0
 11
1137.0509516501
 21
690.2543978663
 31
0.0
  0
LINE
  5
23A
330
1F
100
AcDbEntity
  8
0
  6
Continuous
 62
     7
370
    25
100
AcDbLine
 10
1137.0509516501
 20
703.2543978663
 30
0.0
 11
1137.0509516501
 21
704.2043978663
 31
0.0
  0
LINE
  5
23B
330
1F
100
AcDbEntity
  8
0
  6
Continuous
 62
     7
370
    25
100
AcDbLine
 10
1137.0509516501
 20
689.3043978663
 30
0.0
 11
1136.9895821545
 21
689.3043978663
 31
0.0
  0
LINE
  5
23C
330
1F
100
AcDbEntity
  8
0
  6
Continuous
 62
     7
370
    25
100
AcDbLine
 10
1137.0509516501
 20
704.2043978663
 30
0.0
 11
1136.9895821545
 21
704.2043978663
 31
0.0
  0
LINE
  5
23D
330
1F
100
AcDbEntity
  8
0
  6
Continuous
 62
     7
370
    25
100
AcDbLine
 10
1136.2608646997
 20
2323.2543978663
 30
0.0
 11
1138.2608646997
 21
2323.2543978663
 31
0.0
  0
LINE
  5
23E
330
1F
100
AcDbEntity
  8
0
  6
Continuous
 62
     7
370
    25
100
AcDbLine
 10
1138.2608646997
 20
2310.2543978663
 30
0.0
 11
1136.2608646997
 21
2310.2543978663
 31
0.0
  0
LINE
  5
23F
330
1F
100
AcDbEntity
  8
0
  6
Continuous
 62
     7
370
    25
100
AcDbLine
 10
1136.9895821545
 20
2309.3043978663
 30
0.0
 11
1136.9895821545
 21
2310.2543978663
 31
0.0
  0
LINE
  5
240
330
1F
100
AcDbEntity
  8
0
  6
Continuous
 62
     7
370
    25
100
AcDbLine
 10
1136.9895821545
 20
2323.2543978663
 30
0.0
 11
1136.9895821545
 21
2324.2043978663
 31
0.0
  0
LINE
  5
241
330
1F
100
AcDbEntity
  8
0
  6
Continuous
 62
     7
370
    25
100
AcDbLine
 10
1136.9895821545
 20
2309.3043978663
 30
0.0
 11
1136.2608646997
 21
2309.3043978663
 31
0.0
  0
LINE
  5
242
330
1F
100
AcDbEntity
  8
0
  6
Continuous
 62
     7
370
    25
100
AcDbLine
 10
1136.9895821545
 20
2324.2043978663
 30
0.0
 11
1136.2608646997
 21
2324.2043978663
 31
0.0
  0
LINE
  5
243
330
1F
100
AcDbEntity
  8
0
  6
Continuous
 62
     7
370
    25
100
AcDbLine
 10
1137.0509516501
 20
2309.3043978663
 30
0.0
 11
1137.0509516501
 21
2310.2543978663
 31
0.0
  0
LINE
  5
244
330
1F
100
AcDbEntity
  8
0
  6
Continuous
 62
     7
370
    25
100
AcDbLine
 10
1137.0509516501
 20
2323.2543978663
 30
0.0
 11
1137.0509516501
 21
2324.2043978663
 31
0.0
  0
LINE
  5
245
330
1F
100
AcDbEntity
  8
0
  6
Continuous
 62
     7
370
    25
100
AcDbLine
 10
1137.0509516501
 20
2309.3043978663
 30
0.0
 11
1136.9895821545
 21
2309.3043978663
 31
0.0
  0
LINE
  5
246
330
1F
100
AcDbEntity
  8
0
  6
Continuous
 62
     7
370
    25
100
AcDbLine
 10
1137.0509516501
 20
2324.2043978663
 30
0.0
 11
1136.9895821545
 21
2324.2043978663
 31
0.0
  0
LINE
  5
247
330
1F
100
AcDbEntity
  8
0
  6
Continuous
 62
     7
370
    25
100
AcDbLine
 10
1136.2608646997
 20
1953.2543978663
 30
0.0
 11
1138.2608646997
 21
1953.2543978663
 31
0.0
  0
LINE
  5
248
330
1F
100
AcDbEntity
  8
0
  6
Continuous
 62
     7
370
    25
100
AcDbLine
 10
1138.2608646997
 20
1940.2543978663
 30
0.0
 11
1136.2608646997
 21
1940.2543978663
 31
0.0
  0
LINE
  5
249
330
1F
100
AcDbEntity
  8
0
  6
Continuous
 62
     7
370
    25
100
AcDbLine
 10
1136.9895821545
 20
1939.3043978663
 30
0.0
 11
1136.9895821545
 21
1940.2543978663
 31
0.0
  0
LINE
  5
24A
330
1F
100
AcDbEntity
  8
0
  6
Continuous
 62
     7
370
    25
100
AcDbLine
 10
1136.9895821545
 20
1953.2543978663
 30
0.0
 11
1136.9895821545
 21
1954.2043978663
 31
0.0
  0
LINE
  5
24B
330
1F
100
AcDbEntity
  8
0
  6
Continuous
 62
     7
370
    25
100
AcDbLine
 10
1136.9895821545
 20
1939.3043978663
 30
0.0
 11
1136.2608646997
 21
1939.3043978663
 31
0.0
  0
LINE
  5
24C
330
1F
100
AcDbEntity
  8
0
  6
Continuous
 62
     7
370
    25
100
AcDbLine
 10
1136.9895821545
 20
1954.2043978663
 30
0.0
 11
1136.2608646997
 21
1954.2043978663
 31
0.0
  0
LINE
  5
24D
330
1F
100
AcDbEntity
  8
0
  6
Continuous
 62
     7
370
    25
100
AcDbLine
 10
1137.0509516501
 20
1939.3043978663
 30
0.0
 11
1137.0509516501
 21
1940.2543978663
 31
0.0
  0
LINE
  5
24E
330
1F
100
AcDbEntity
  8
0
  6
Continuous
 62
     7
370
    25
100
AcDbLine
 10
1137.0509516501
 20
1953.2543978663
 30
0.0
 11
1137.0509516501
 21
1954.2043978663
 31
0.0
  0
LINE
  5
24F
330
1F
100
AcDbEntity
  8
0
  6
Continuous
 62
     7
370
    25
100
AcDbLine
 10
1137.0509516501
 20
1939.3043978663
 30
0.0
 11
1136.9895821545
 21
1939.3043978663
 31
0.0
  0
LINE
  5
250
330
1F
100
AcDbEntity
  8
0
  6
Continuous
 62
     7
370
    25
100
AcDbLine
 10
1137.0509516501
 20
1954.2043978663
 30
0.0
 11
1136.9895821545
 21
1954.2043978663
 31
0.0
  0
LINE
  5
251
330
1F
100
AcDbEntity
  8
0
  6
Continuous
 62
     7
370
    25
100
AcDbLine
 10
1136.2608646997
 20
1423.2543978663
 30
0.0
 11
1138.2608646997
 21
1423.2543978663
 31
0.0
  0
LINE
  5
252
330
1F
100
AcDbEntity
  8
0
  6
Continuous
 62
     7
370
    25
100
AcDbLine
 10
1138.2608646997
 20
1410.2543978663
 30
0.0
 11
1136.2608646997
 21
1410.2543978663
 31
0.0
  0
LINE
  5
253
330
1F
100
AcDbEntity
  8
0
  6
Continuous
 62
     7
370
    25
100
AcDbLine
 10
1136.9895821545
 20
1409.3043978663
 30
0.0
 11
1136.9895821545
 21
1410.2543978663
 31
0.0
  0
LINE
  5
254
330
1F
100
AcDbEntity
  8
0
  6
Continuous
 62
     7
370
    25
100
AcDbLine
 10
1136.9895821545
 20
1423.2543978663
 30
0.0
 11
1136.9895821545
 21
1424.2043978663
 31
0.0
  0
LINE
  5
255
330
1F
100
AcDbEntity
  8
0
  6
Continuous
 62
     7
370
    25
100
AcDbLine
 10
1136.9895821545
 20
1409.3043978663
 30
0.0
 11
1136.2608646997
 21
1409.3043978663
 31
0.0
  0
LINE
  5
256
330
1F
100
AcDbEntity
  8
0
  6
Continuous
 62
     7
370
    25
100
AcDbLine
 10
1136.9895821545
 20
1424.2043978663
 30
0.0
 11
1136.2608646997
 21
1424.2043978663
 31
0.0
  0
LINE
  5
257
330
1F
100
AcDbEntity
  8
0
  6
Continuous
 62
     7
370
    25
100
AcDbLine
 10
1137.0509516501
 20
1409.3043978663
 30
0.0
 11
1137.0509516501
 21
1410.2543978663
 31
0.0
  0
LINE
  5
258
330
1F
100
AcDbEntity
  8
0
  6
Continuous
 62
     7
370
    25
100
AcDbLine
 10
1137.0509516501
 20
1423.2543978663
 30
0.0
 11
1137.0509516501
 21
1424.2043978663
 31
0.0
  0
LINE
  5
259
330
1F
100
AcDbEntity
  8
0
  6
Continuous
 62
     7
370
    25
100
AcDbLine
 10
1137.0509516501
 20
1409.3043978663
 30
0.0
 11
1136.9895821545
 21
1409.3043978663
 31
0.0
  0
LINE
  5
25A
330
1F
100
AcDbEntity
  8
0
  6
Continuous
 62
     7
370
    25
100
AcDbLine
 10
1137.0509516501
 20
1424.2043978663
 30
0.0
 11
1136.9895821545
 21
1424.2043978663
 31
0.0
  0
LINE
  5
25B
330
1F
100
AcDbEntity
  8
0
  6
Continuous
 62
     7
370
    25
100
AcDbLine
 10
1136.2608646997
 20
1063.2543978663
 30
0.0
 11
1138.2608646997
 21
1063.2543978663
 31
0.0
  0
LINE
  5
25C
330
1F
100
AcDbEntity
  8
0
  6
Continuous
 62
     7
370
    25
100
AcDbLine
 10
1138.2608646997
 20
1050.2543978663
 30
0.0
 11
1136.2608646997
 21
1050.2543978663
 31
0.0
  0
LINE
  5
25D
330
1F
100
AcDbEntity
  8
0
  6
Continuous
 62
     7
370
    25
100
AcDbLine
 10
1136.9895821545
 20
1049.3043978663
 30
0.0
 11
1136.9895821545
 21
1050.2543978663
 31
0.0
  0
LINE
  5
25E
330
1F
100
AcDbEntity
  8
0
  6
Continuous
 62
     7
370
    25
100
AcDbLine
 10
1136.9895821545
 20
1063.2543978663
 30
0.0
 11
1136.9895821545
 21
1064.2043978663
 31
0.0
  0
LINE
  5
25F
330
1F
100
AcDbEntity
  8
0
  6
Continuous
 62
     7
370
    25
100
AcDbLine
 10
1136.9895821545
 20
1049.3043978663
 30
0.0
 11
1136.2608646997
 21
1049.3043978663
 31
0.0
  0
LINE
  5
260
330
1F
100
AcDbEntity
  8
0
  6
Continuous
 62
     7
370
    25
100
AcDbLine
 10
1136.9895821545
 20
1064.2043978663
 30
0.0
 11
1136.2608646997
 21
1064.2043978663
 31
0.0
  0
LINE
  5
261
330
1F
100
AcDbEntity
  8
0
  6
Continuous
 62
     7
370
    25
100
AcDbLine
 10
1137.0509516501
 20
1049.3043978663
 30
0.0
 11
1137.0509516501
 21
1050.2543978663
 31
0.0
  0
LINE
  5
262
330
1F
100
AcDbEntity
  8
0
  6
Continuous
 62
     7
370
    25
100
AcDbLine
 10
1137.0509516501
 20
1063.2543978663
 30
0.0
 11
1137.0509516501
 21
1064.2043978663
 31
0.0
  0
LINE
  5
263
330
1F
100
AcDbEntity
  8
0
  6
Continuous
 62
     7
370
    25
100
AcDbLine
 10
1137.0509516501
 20
1049.3043978663
 30
0.0
 11
1136.9895821545
 21
1049.3043978663
 31
0.0
  0
LINE
  5
264
330
1F
100
AcDbEntity
  8
0
  6
Continuous
 62
     7
370
    25
100
AcDbLine
 10
1137.0509516501
 20
1064.2043978663
 30
0.0
 11
1136.9895821545
 21
1064.2043978663
 31
0.0
  0
LINE
  5
265
330
1F
100
AcDbEntity
  8
0
  6
Continuous
 62
     7
370
    25
100
AcDbLine
 10
1137.7608646997
 20
1939.2793978663
 30
0.0
 11
1137.4492988969
 21
1939.2793978663
 31
0.0
  0
LINE
  5
266
330
1F
100
AcDbEntity
  8
0
  6
Continuous
 62
     7
370
    25
100
AcDbLine
 10
1137.4492988969
 20
1954.2293978663
 30
0.0
 11
1137.4492988969
 21
1953.2543978663
 31
0.0
  0
LINE
  5
267
330
1F
100
AcDbEntity
  8
0
  6
Continuous
 62
     7
370
    25
100
AcDbLine
 10
1137.4492988969
 20
1940.2543978663
 30
0.0
 11
1137.4492988969
 21
1939.2793978663
 31
0.0
  0
LINE
  5
268
330
1F
100
AcDbEntity
  8
0
  6
Continuous
 62
     7
370
    25
100
AcDbLine
 10
1137.7608646997
 20
1954.2293978663
 30
0.0
 11
1137.4492988969
 21
1954.2293978663
 31
0.0
  0
LINE
  5
269
330
1F
100
AcDbEntity
  8
0
  6
Continuous
 62
     7
370
    25
100
AcDbLine
 10
1137.4492988969
 20
1939.2793978663
 30
0.0
 11
1137.4101563024
 21
1939.2793978663
 31
0.0
  0
LINE
  5
26A
330
1F
100
AcDbEntity
  8
0
  6
Continuous
 62
     7
370
    25
100
AcDbLine
 10
1137.4492988969
 20
1954.2293978663
 30
0.0
 11
1137.4101563024
 21
1954.2293978663
 31
0.0
  0
LINE
  5
26B
330
1F
100
AcDbEntity
  8
0
  6
Continuous
 62
     7
370
    25
100
AcDbLine
 10
1137.7608646997
 20
1049.2793978663
 30
0.0
 11
1137.4492988969
 21
1049.2793978663
 31
0.0
  0
LINE
  5
26C
330
1F
100
AcDbEntity
  8
0
  6
Continuous
 62
     7
370
    25
100
AcDbLine
 10
1137.4492988969
 20
1064.2293978663
 30
0.0
 11
1137.4492988969
 21
1063.2543978663
 31
0.0
  0
LINE
  5
26D
330
1F
100
AcDbEntity
  8
0
  6
Continuous
 62
     7
370
    25
100
AcDbLine
 10
1137.4492988969
 20
1050.2543978663
 30
0.0
 11
1137.4492988969
 21
1049.2793978663
 31
0.0
  0
LINE
  5
26E
330
1F
100
AcDbEntity
  8
0
  6
Continuous
 62
     7
370
    25
100
AcDbLine
 10
1137.7608646997
 20
1064.2293978663
 30
0.0
 11
1137.4492988969
 21
1064.2293978663
 31
0.0
  0
LINE
  5
26F
330
1F
100
AcDbEntity
  8
0
  6
Continuous
 62
     7
370
    25
100
AcDbLine
 10
1137.4492988969
 20
1049.2793978663
 30
0.0
 11
1137.4101563024
 21
1049.2793978663
 31
0.0
  0
LINE
  5
270
330
1F
100
AcDbEntity
  8
0
  6
Continuous
 62
     7
370
    25
100
AcDbLine
 10
1137.4492988969
 20
1064.2293978663
 30
0.0
 11
1137.4101563024
 21
1064.2293978663
 31
0.0
  0
LINE
  5
271
330
1F
100
AcDbEntity
  8
0
  6
Continuous
 62
     7
370
    25
100
AcDbLine
 10
1137.7608646997
 20
689.2793978663
 30
0.0
 11
1137.4492988969
 21
689.2793978663
 31
0.0
  0
LINE
  5
272
330
1F
100
AcDbEntity
  8
0
  6
Continuous
 62
     7
370
    25
100
AcDbLine
 10
1137.4492988969
 20
704.2293978663
 30
0.0
 11
1137.4492988969
 21
703.2543978663
 31
0.0
  0
LINE
  5
273
330
1F
100
AcDbEntity
  8
0
  6
Continuous
 62
     7
370
    25
100
AcDbLine
 10
1137.4492988969
 20
690.2543978663
 30
0.0
 11
1137.4492988969
 21
689.2793978663
 31
0.0
  0
LINE
  5
274
330
1F
100
AcDbEntity
  8
0
  6
Continuous
 62
     7
370
    25
100
AcDbLine
 10
1137.7608646997
 20
704.2293978663
 30
0.0
 11
1137.4492988969
 21
704.2293978663
 31
0.0
  0
LINE
  5
275
330
1F
100
AcDbEntity
  8
0
  6
Continuous
 62
     7
370
    25
100
AcDbLine
 10
1137.4492988969
 20
689.2793978663
 30
0.0
 11
1137.4101563024
 21
689.2793978663
 31
0.0
  0
LINE
  5
276
330
1F
100
AcDbEntity
  8
0
  6
Continuous
 62
     7
370
    25
100
AcDbLine
 10
1137.4492988969
 20
704.2293978663
 30
0.0
 11
1137.4101563024
 21
704.2293978663
 31
0.0
  0
LINE
  5
277
330
1F
100
AcDbEntity
  8
0
  6
Continuous
 62
     7
370
    25
100
AcDbLine
 10
1137.7608646997
 20
2309.2793978663
 30
0.0
 11
1137.4492988969
 21
2309.2793978663
 31
0.0
  0
LINE
  5
278
330
1F
100
AcDbEntity
  8
0
  6
Continuous
 62
     7
370
    25
100
AcDbLine
 10
1137.4492988969
 20
2324.2293978663
 30
0.0
 11
1137.4492988969
 21
2323.2543978663
 31
0.0
  0
LINE
  5
279
330
1F
100
AcDbEntity
  8
0
  6
Continuous
 62
     7
370
    25
100
AcDbLine
 10
1137.4492988969
 20
2310.2543978663
 30
0.0
 11
1137.4492988969
 21
2309.2793978663
 31
0.0
  0
LINE
  5
27A
330
1F
100
AcDbEntity
  8
0
  6
Continuous
 62
     7
370
    25
100
AcDbLine
 10
1137.7608646997
 20
2324.2293978663
 30
0.0
 11
1137.4492988969
 21
2324.2293978663
 31
0.0
  0
LINE
  5
27B
330
1F
100
AcDbEntity
  8
0
  6
Continuous
 62
     7
370
    25
100
AcDbLine
 10
1137.4492988969
 20
2309.2793978663
 30
0.0
 11
1137.4101563024
 21
2309.2793978663
 31
0.0
  0
LINE
  5
27C
330
1F
100
AcDbEntity
  8
0
  6
Continuous
 62
     7
370
    25
100
AcDbLine
 10
1137.4492988969
 20
2324.2293978663
 30
0.0
 11
1137.4101563024
 21
2324.2293978663
 31
0.0
  0
LINE
  5
27D
330
1F
100
AcDbEntity
  8
0
  6
Continuous
 62
     7
370
    25
100
AcDbLine
 10
1137.7608646997
 20
1409.2793978663
 30
0.0
 11
1137.4492988969
 21
1409.2793978663
 31
0.0
  0
LINE
  5
27E
330
1F
100
AcDbEntity
  8
0
  6
Continuous
 62
     7
370
    25
100
AcDbLine
 10
1137.4492988969
 20
1424.2293978663
 30
0.0
 11
1137.4492988969
 21
1423.2543978663
 31
0.0
  0
LINE
  5
27F
330
1F
100
AcDbEntity
  8
0
  6
Continuous
 62
     7
370
    25
100
AcDbLine
 10
1137.4492988969
 20
1410.2543978663
 30
0.0
 11
1137.4492988969
 21
1409.2793978663
 31
0.0
  0
LINE
  5
280
330
1F
100
AcDbEntity
  8
0
  6
Continuous
 62
     7
370
    25
100
AcDbLine
 10
1137.7608646997
 20
1424.2293978663
 30
0.0
 11
1137.4492988969
 21
1424.2293978663
 31
0.0
  0
LINE
  5
281
330
1F
100
AcDbEntity
  8
0
  6
Continuous
 62
     7
370
    25
100
AcDbLine
 10
1137.4492988969
 20
1409.2793978663
 30
0.0
 11
1137.4101563024
 21
1409.2793978663
 31
0.0
  0
LINE
  5
282
330
1F
100
AcDbEntity
  8
0
  6
Continuous
 62
     7
370
    25
100
AcDbLine
 10
1137.4492988969
 20
1424.2293978663
 30
0.0
 11
1137.4101563024
 21
1424.2293978663
 31
0.0
  0
LINE
  5
283
330
1F
100
AcDbEntity
  8
0
  6
Continuous
 62
     7
370
    25
100
AcDbLine
 10
755.9271177533
 20
2314.7748720752
 30
0.0
 11
755.7831445376
 21
2309.2767567878
 31
0.0
  0
LINE
  5
284
330
1F
100
AcDbEntity
  8
0
  6
Continuous
 62
     7
370
    25
100
AcDbLine
 10
754.3122319849
 20
2339.0754720652
 30
0.0
 11
753.7886930188
 21
2319.0823255657
 31
0.0
  0
LINE
  5
285
330
1F
100
AcDbEntity
  8
0
  6
Continuous
 62
     7
370
    25
100
AcDbLine
 10
752.6223435987
 20
2320.2086561083
 30
0.0
 11
753.0885334202
 21
2338.0117271317
 31
0.0
  0
LINE
  5
286
330
1F
100
AcDbEntity
  8
0
  6
Continuous
 62
     7
370
    25
100
AcDbLine
 10
754.8081328374
 20
2329.3448871838
 30
0.0
 11
755.0624227623
 21
2339.0558276283
 31
0.0
  0
LINE
  5
287
330
1F
100
AcDbEntity
  8
0
  6
Continuous
 62
     7
370
    25
100
AcDbLine
 10
752.9067456257
 20
2336.4161961367
 30
0.0
 11
752.5243085784
 21
2321.8115145215
 31
0.0
  0
LINE
  5
288
330
1F
100
AcDbEntity
  8
0
  6
Continuous
 62
     7
370
    25
100
AcDbLine
 10
755.6182085764
 20
2333.5393465579
 30
0.0
 11
755.4965437888
 21
2328.8931557708
 31
0.0
  0
LINE
  5
289
330
1F
100
AcDbEntity
  8
0
  6
Continuous
 62
     7
370
    25
100
AcDbLine
 10
755.4965437888
 20
2328.8931557708
 30
0.0
 11
755.382618237
 21
2324.5425144716
 31
0.0
  0
LINE
  5
28A
330
1F
100
AcDbEntity
  8
0
  6
Continuous
 62
     7
370
    25
100
AcDbLine
 10
1138.0608646997
 20
1974.2543978663
 30
0.0
 11
1136.2608646997
 21
1974.2543978663
 31
0.0
  0
LINE
  5
28B
330
1F
100
AcDbEntity
  8
0
  6
Continuous
 62
     7
370
    25
100
AcDbLine
 10
1138.0608646997
 20
1919.2543978663
 30
0.0
 11
1136.2608646997
 21
1919.2543978663
 31
0.0
  0
LINE
  5
28C
330
1F
100
AcDbEntity
  8
0
  6
Continuous
 62
     7
370
    25
100
AcDbLine
 10
1136.9108646997
 20
1955.1293978663
 30
0.0
 11
1136.9108646997
 21
1956.7543978663
 31
0.0
  0
LINE
  5
28D
330
1F
100
AcDbEntity
  8
0
  6
Continuous
 62
     7
370
    25
100
AcDbLine
 10
1136.9108646997
 20
1936.7543978663
 30
0.0
 11
1136.9108646997
 21
1938.3793978663
 31
0.0
  0
LINE
  5
28E
330
1F
100
AcDbEntity
  8
0
  6
Continuous
 62
     7
370
    25
100
AcDbLine
 10
1138.0608646997
 20
2344.2543978663
 30
0.0
 11
1136.2608646997
 21
2344.2543978663
 31
0.0
  0
LINE
  5
28F
330
1F
100
AcDbEntity
  8
0
  6
Continuous
 62
     7
370
    25
100
AcDbLine
 10
1138.0608646997
 20
2289.2543978663
 30
0.0
 11
1136.2608646997
 21
2289.2543978663
 31
0.0
  0
LINE
  5
290
330
1F
100
AcDbEntity
  8
0
  6
Continuous
 62
     7
370
    25
100
AcDbLine
 10
1136.9108646997
 20
2325.1293978663
 30
0.0
 11
1136.9108646997
 21
2326.7543978663
 31
0.0
  0
LINE
  5
291
330
1F
100
AcDbEntity
  8
0
  6
Continuous
 62
     7
370
    25
100
AcDbLine
 10
1136.9108646997
 20
2306.7543978663
 30
0.0
 11
1136.9108646997
 21
2308.3793978663
 31
0.0
  0
LINE
  5
292
330
1F
100
AcDbEntity
  8
0
  6
Continuous
 62
     7
370
    25
100
AcDbLine
 10
1138.0608646997
 20
1084.2543978663
 30
0.0
 11
1136.2608646997
 21
1084.2543978663
 31
0.0
  0
LINE
  5
293
330
1F
100
AcDbEntity
  8
0
  6
Continuous
 62
     7
370
    25
100
AcDbLine
 10
1138.0608646997
 20
1029.2543978663
 30
0.0
 11
1136.2608646997
 21
1029.2543978663
 31
0.0
  0
LINE
  5
294
330
1F
100
AcDbEntity
  8
0
  6
Continuous
 62
     7
370
    25
100
AcDbLine
 10
1136.9108646997
 20
1065.1293978663
 30
0.0
 11
1136.9108646997
 21
1066.7543978663
 31
0.0
  0
LINE
  5
295
330
1F
100
AcDbEntity
  8
0
  6
Continuous
 62
     7
370
    25
100
AcDbLine
 10
1136.9108646997
 20
1046.7543978663
 30
0.0
 11
1136.9108646997
 21
1048.3793978663
 31
0.0
  0
LINE
  5
296
330
1F
100
AcDbEntity
  8
0
  6
Continuous
 62
     7
370
    25
100
AcDbLine
 10
1138.0608646997
 20
1444.2543978663
 30
0.0
 11
1136.2608646997
 21
1444.2543978663
 31
0.0
  0
LINE
  5
297
330
1F
100
AcDbEntity
  8
0
  6
Continuous
 62
     7
370
    25
100
AcDbLine
 10
1138.0608646997
 20
1389.2543978663
 30
0.0
 11
1136.2608646997
 21
1389.2543978663
 31
0.0
  0
LINE
  5
298
330
1F
100
AcDbEntity
  8
0
  6
Continuous
 62
     7
370
    25
100
AcDbLine
 10
1136.9108646997
 20
1425.1293978663
 30
0.0
 11
1136.9108646997
 21
1426.7543978663
 31
0.0
  0
LINE
  5
299
330
1F
100
AcDbEntity
  8
0
  6
Continuous
 62
     7
370
    25
100
AcDbLine
 10
1136.9108646997
 20
1406.7543978663
 30
0.0
 11
1136.9108646997
 21
1408.3793978663
 31
0.0
  0
LINE
  5
29A
330
1F
100
AcDbEntity
  8
0
  6
Continuous
 62
     7
370
    25
100
AcDbLine
 10
1138.0608646997
 20
724.2543978663
 30
0.0
 11
1136.2608646997
 21
724.2543978663
 31
0.0
  0
LINE
  5
29B
330
1F
100
AcDbEntity
  8
0
  6
Continuous
 62
     7
370
    25
100
AcDbLine
 10
1138.0608646997
 20
669.2543978663
 30
0.0
 11
1136.2608646997
 21
669.2543978663
 31
0.0
  0
LINE
  5
29C
330
1F
100
AcDbEntity
  8
0
  6
Continuous
 62
     7
370
    25
100
AcDbLine
 10
1136.9108646997
 20
705.1293978663
 30
0.0
 11
1136.9108646997
 21
706.7543978663
 31
0.0
  0
LINE
  5
29D
330
1F
100
AcDbEntity
  8
0
  6
Continuous
 62
     7
370
    25
100
AcDbLine
 10
1136.9108646997
 20
686.7543978663
 30
0.0
 11
1136.9108646997
 21
688.3793978663
 31
0.0
  0
LINE
  5
29E
330
1F
100
AcDbEntity
  8
0
  6
Continuous
 62
     7
370
    25
100
AcDbLine
 10
4220.4562626188
 20
2314.7748720752
 30
0.0
 11
4218.6225156724
 21
2314.7268537215
 31
0.0
  0
LINE
  5
29F
330
1F
100
AcDbEntity
  8
0
  6
Continuous
 62
     7
370
    25
100
AcDbLine
 10
4218.6225156724
 20
2309.2249683628
 30
0.0
 11
4220.6002358345
 21
2309.2767567878
 31
0.0
  0
ARC
  5
2A0
330
1F
100
AcDbEntity
  8
0
  6
Continuous
 62
     7
370
    25
100
AcDbCircle
 10
4220.4641157033
 20
2314.4749748777
 30
0.0
 40
0.2999999999998819
100
AcDbArc
 50
1.5
 51
91.5
  0
ARC
  5
2A1
330
1F
100
AcDbEntity
  8
0
  6
Continuous
 62
     7
370
    25
100
AcDbCircle
 10
4220.59238275
 20
2309.5766539853
 30
0.0
 40
0.3000000000012576
100
AcDbArc
 50
271.5
 51
1.5
  0
ARC
  5
2A2
330
1F
100
AcDbEntity
  8
0
  6
Continuous
 62
     7
370
    25
100
AcDbCircle
 10
4221.8392611863
 20
2319.2626125938
 30
0.0
 40
0.2000000000000808
100
AcDbArc
 50
181.4999999999
 51
271.5
  0
ARC
  5
2A3
330
1F
100
AcDbEntity
  8
0
  6
Continuous
 62
     7
370
    25
100
AcDbCircle
 10
4221.3261929995
 20
2338.8558961633
 30
0.0
 40
0.2000000000005235
100
AcDbArc
 50
91.5
 51
181.4999999999
  0
LINE
  5
2A4
330
1F
100
AcDbEntity
  8
0
  6
Continuous
 62
     7
370
    25
100
AcDbLine
 10
4221.8444965759
 20
2319.0626811288
 30
0.0
 11
4222.5946873532
 21
2319.0823255657
 31
0.0
  0
LINE
  5
2A5
330
1F
100
AcDbEntity
  8
0
  6
Continuous
 62
     7
370
    25
100
AcDbLine
 10
4222.0711483871
 20
2339.0754720652
 30
0.0
 11
4221.3209576098
 21
2339.0558276283
 31
0.0
  0
ARC
  5
2A6
330
1F
100
AcDbEntity
  8
0
  6
Continuous
 62
     7
370
    25
100
AcDbCircle
 10
4222.5632750153
 20
2320.2819143556
 30
0.0
 40
1.199999999999709
100
AcDbArc
 50
271.5
 51
356.5000000029
  0
ARC
  5
2A7
330
1F
100
AcDbEntity
  8
0
  6
Continuous
 62
     7
370
    25
100
AcDbCircle
 10
4222.1025607251
 20
2337.8758832752
 30
0.0
 40
1.199999999999982
100
AcDbArc
 50
6.499999997
 51
91.5
  0
LINE
  5
2A8
330
1F
100
AcDbEntity
  8
0
  6
Continuous
 62
     7
370
    25
100
AcDbLine
 10
4223.7610367734
 20
2320.2086561083
 30
0.0
 11
4223.8590717937
 21
2321.8115145215
 31
0.0
  0
LINE
  5
2A9
330
1F
100
AcDbEntity
  8
0
  6
Continuous
 62
     7
370
    25
100
AcDbLine
 10
4223.4766347464
 20
2336.4161961367
 30
0.0
 11
4223.2948469519
 21
2338.0117271316
 31
0.0
  0
ARC
  5
2AA
330
1F
100
AcDbEntity
  8
0
  6
Continuous
 62
     7
370
    25
100
AcDbCircle
 10
4193.915027841
 20
2323.6429707076
 30
0.0
 40
30.0000000000026
100
AcDbArc
 50
356.4999999999
 51
1.4999999999
  0
ARC
  5
2AB
330
1F
100
AcDbEntity
  8
0
  6
Continuous
 62
     7
370
    25
100
AcDbCircle
 10
4193.6694790761
 20
2333.0200997237
 30
0.0
 40
30.00000000000254
100
AcDbArc
 50
1.4999999999
 51
6.5
  0
LINE
  5
2AC
330
1F
100
AcDbEntity
  8
0
  6
Continuous
 62
     7
370
    25
100
AcDbLine
 10
4223.7844466987
 20
2329.0223848583
 30
0.0
 11
4223.7819732078
 21
2329.1168436648
 31
0.0
  0
SPLINE
  5
2AD
330
1F
100
AcDbEntity
  8
0
  6
Continuous
 62
     7
370
    25
100
AcDbSpline
210
0.0
220
0.0
230
1.0
 70
     8
 71
     3
 72
    13
 73
     9
 74
     0
 42
0.00000001
 43
0.00000001
 40
0.0
 40
0.0
 40
0.0
 40
0.0
 40
0.239737416762231
 40
0.3685398007219892
 40
0.500003578693717
 40
0.6314571619971722
 40
0.7602371999017467
 40
0.9999999999999999
 40
0.9999999999999999
 40
0.9999999999999999
 40
0.9999999999999999
 10
4221.00076306951
 20
2324.542478786648
 30
0.0
 10
4221.064174809934
 20
2324.537440837362
 30
0.0
 10
4221.161655422239
 20
2324.529696177179
 30
0.0
 10
4221.280392701807
 20
2324.46989178849
 30
0.0
 10
4221.362403973664
 20
2324.406988324284
 30
0.0
 10
4221.428962590758
 20
2324.328125320635
 30
0.0
 10
4221.493922802672
 20
2324.212754783099
 30
0.0
 10
4221.50591756855
 20
2324.11668248297
 30
0.0
 10
4221.513720999678
 20
2324.054180756398
 30
0.0
  0
SPLINE
  5
2AE
330
1F
100
AcDbEntity
  8
0
  6
Continuous
 62
     7
370
    25
100
AcDbSpline
210
0.0
220
0.0
230
1.0
 70
     8
 71
     3
 72
    13
 73
     9
 74
     0
 42
0.00000001
 43
0.00000001
 40
0.0
 40
0.0
 40
0.0
 40
0.0
 40
0.2397628000920719
 40
0.3685428379938178
 40
0.4999964212961068
 40
0.6314601992686287
 40
0.7602625832312363
 40
1.0
 40
1.0
 40
1.0
 40
1.0
 10
4221.251870256059
 20
2334.053857221378
 30
0.0
 10
4221.24734860689
 20
2333.991032751222
 30
0.0
 10
4221.240398315116
 20
2333.894464357303
 30
0.0
 10
4221.181565156318
 20
2333.775852176276
 30
0.0
 10
4221.119225126204
 20
2333.693613842768
 30
0.0
 10
4221.040618360894
 20
2333.62650444724
 30
0.0
 10
4220.925173726512
 20
2333.560567789321
 30
0.0
 10
4220.828232032193
 20
2333.547732001859
 30
0.0
 10
4220.76517086125
 20
2333.539382242831
 30
0.0
  0
LINE
  5
2AF
330
1F
100
AcDbEntity
  8
0
  6
Continuous
 62
     7
370
    25
100
AcDbLine
 10
4218.6225156724
 20
2324.4801959483
 30
0.0
 11
4221.0007632328
 21
2324.5424725523
 31
0.0
  0
LINE
  5
2B0
330
1F
100
AcDbEntity
  8
0
  6
Continuous
 62
     7
370
    25
100
AcDbLine
 10
4220.765170698
 20
2333.5393884771
 30
0.0
 11
4218.6225156724
 21
2333.4832810807
 31
0.0
  0
LINE
  5
2B1
330
1F
100
AcDbEntity
  8
0
  6
Continuous
 62
     7
370
    25
100
AcDbLine
 10
3838.1225156724
 20
616.7543978663
 30
0.0
 11
3838.1225156724
 21
1463.2543978663
 31
0.0
  0
LINE
  5
2B2
330
1F
100
AcDbEntity
  8
0
  6
Continuous
 62
     7
370
    25
100
AcDbLine
 10
3820.1225156724
 20
616.7543978663
 30
0.0
 11
3820.1225156724
 21
1496.7543978663
 31
0.0
  0
LINE
  5
2B3
330
1F
100
AcDbEntity
  8
0
  6
Continuous
 62
     7
370
    25
100
AcDbLine
 10
3838.1225156724
 20
1463.2543978663
 30
0.0
 11
3836.6225156724
 21
1463.2543978663
 31
0.0
  0
LINE
  5
2B4
330
1F
100
AcDbEntity
  8
0
  6
Continuous
 62
     7
370
    25
100
AcDbLine
 10
3836.6225156724
 20
1463.2543978663
 30
0.0
 11
3836.6225156724
 21
1483.7543978663
 31
0.0
  0
LINE
  5
2B5
330
1F
100
AcDbEntity
  8
0
  6
Continuous
 62
     7
370
    25
100
AcDbLine
 10
3820.1225156724
 20
1496.7543978663
 30
0.0
 11
3824.1225156724
 21
1496.7543978663
 31
0.0
  0
LINE
  5
2B6
330
1F
100
AcDbEntity
  8
0
  6
Continuous
 62
     7
370
    25
100
AcDbLine
 10
3836.6225156724
 20
1483.7543978663
 30
0.0
 11
3824.1225156724
 21
1483.7543978663
 31
0.0
  0
LINE
  5
2B7
330
1F
100
AcDbEntity
  8
0
  6
Continuous
 62
     7
370
    25
100
AcDbLine
 10
3824.1225156724
 20
1483.7543978663
 30
0.0
 11
3824.1225156724
 21
1496.7543978663
 31
0.0
  0
LINE
  5
2B8
330
1F
100
AcDbEntity
  8
0
  6
Continuous
 62
     7
370
    25
100
AcDbLine
 10
3820.1225156724
 20
616.7543978663
 30
0.0
 11
3838.1225156724
 21
616.7543978663
 31
0.0
  0
LINE
  5
2B9
330
1F
100
AcDbEntity
  8
0
  6
Continuous
 62
     7
370
    25
100
AcDbLine
 10
3820.1225156724
 20
1866.7543978663
 30
0.0
 11
3824.1225156724
 21
1866.7543978663
 31
0.0
  0
LINE
  5
2BA
330
1F
100
AcDbEntity
  8
0
  6
Continuous
 62
     7
370
    25
100
AcDbLine
 10
3820.1225156724
 20
1866.7543978663
 30
0.0
 11
3820.1225156724
 21
2396.7543978663
 31
0.0
  0
LINE
  5
2BB
330
1F
100
AcDbEntity
  8
0
  6
Continuous
 62
     7
370
    25
100
AcDbLine
 10
3838.1225156724
 20
1900.2543978663
 30
0.0
 11
3838.1225156724
 21
2396.7543978663
 31
0.0
  0
LINE
  5
2BC
330
1F
100
AcDbEntity
  8
0
  6
Continuous
 62
     7
370
    25
100
AcDbLine
 10
3836.6225156724
 20
1900.2543978663
 30
0.0
 11
3836.6225156724
 21
1879.7543978663
 31
0.0
  0
LINE
  5
2BD
330
1F
100
AcDbEntity
  8
0
  6
Continuous
 62
     7
370
    25
100
AcDbLine
 10
3838.1225156724
 20
1900.2543978663
 30
0.0
 11
3836.6225156724
 21
1900.2543978663
 31
0.0
  0
LINE
  5
2BE
330
1F
100
AcDbEntity
  8
0
  6
Continuous
 62
     7
370
    25
100
AcDbLine
 10
3824.1225156724
 20
1879.7543978663
 30
0.0
 11
3824.1225156724
 21
1866.7543978663
 31
0.0
  0
LINE
  5
2BF
330
1F
100
AcDbEntity
  8
0
  6
Continuous
 62
     7
370
    25
100
AcDbLine
 10
3836.6225156724
 20
1879.7543978663
 30
0.0
 11
3824.1225156724
 21
1879.7543978663
 31
0.0
  0
LINE
  5
2C0
330
1F
100
AcDbEntity
  8
0
  6
Continuous
 62
     7
370
    25
100
AcDbLine
 10
3820.1225156724
 20
2396.7543978663
 30
0.0
 11
3838.1225156724
 21
2396.7543978663
 31
0.0
  0
LINE
  5
2C1
330
1F
100
AcDbEntity
  8
0
  6
Continuous
 62
     7
370
    25
100
AcDbLine
 10
3839.6225156724
 20
2406.7543978663
 30
0.0
 11
3839.6225156724
 21
2378.2543978663
 31
0.0
  0
LINE
  5
2C2
330
1F
100
AcDbEntity
  8
0
  6
Continuous
 62
     7
370
    25
100
AcDbLine
 10
3839.6225156724
 20
2378.2543978663
 30
0.0
 11
4218.6225156724
 21
2378.2543978663
 31
0.0
  0
LINE
  5
2C3
330
1F
100
AcDbEntity
  8
0
  6
Continuous
 62
     7
370
    25
100
AcDbLine
 10
4218.6225156724
 20
2378.2543978663
 30
0.0
 11
4218.6225156724
 21
2406.7543978663
 31
0.0
  0
LINE
  5
2C4
330
1F
100
AcDbEntity
  8
0
  6
Continuous
 62
     7
370
    25
100
AcDbLine
 10
4218.6225156724
 20
2406.7543978663
 30
0.0
 11
3839.6225156724
 21
2406.7543978663
 31
0.0
  0
LINE
  5
2C5
330
1F
100
AcDbEntity
  8
0
  6
Continuous
 62
     7
370
    25
100
AcDbLine
 10
3840.1225156724
 20
606.7543978663
 30
0.0
 11
4218.6225156724
 21
606.7543978663
 31
0.0
  0
LINE
  5
2C6
330
1F
100
AcDbEntity
  8
0
  6
Continuous
 62
     7
370
    25
100
AcDbLine
 10
3840.1225156724
 20
606.7543978663
 30
0.0
 11
3840.1225156724
 21
2378.2543978663
 31
0.0
  0
LINE
  5
2C7
330
1F
100
AcDbEntity
  8
0
  6
Continuous
 62
     7
370
    25
100
AcDbLine
 10
4218.6225156724
 20
606.7543978663
 30
0.0
 11
4218.6225156724
 21
2378.2543978663
 31
0.0
  0
SPLINE
  5
2C8
330
1F
100
AcDbEntity
  8
0
  6
Continuous
 62
     7
370
    25
100
AcDbSpline
210
0.0
220
0.0
230
1.0
 70
    24
 71
     3
 72
    12
 73
     8
 74
     0
 42
0.00000001
 43
0.00000001
 40
0.0
 40
0.0
 40
0.0
 40
0.0
 40
0.2460973337403602
 40
0.4921955654204541
 40
0.7383025770445524
 40
0.98441600404825
 40
0.9999999999999999
 40
0.9999999999999999
 40
0.9999999999999999
 40
0.9999999999999999
 10
4220.828146424109
 20
2312.033667516014
 30
0.0
 10
4220.83637590111
 20
2311.719396468514
 30
0.0
 10
4220.85283488514
 20
2311.090853226827
 30
0.0
 10
4220.874150888249
 20
2310.276827909663
 30
0.0
 10
4220.887691150994
 20
2309.759746136915
 30
0.0
 10
4220.893610628077
 20
2309.533690427262
 30
0.0
 10
4220.89209039774
 20
2309.591745681674
 30
0.0
 10
4220.89199986852
 20
2309.595202853088
 30
0.0
  0
SPLINE
  5
2C9
330
1F
100
AcDbEntity
  8
0
  6
Continuous
 62
     7
370
    25
100
AcDbSpline
210
0.0
220
0.0
230
1.0
 70
     8
 71
     3
 72
    11
 73
     7
 74
     0
 42
0.00000001
 43
0.00000001
 40
0.0
 40
0.0
 40
0.0
 40
0.0
 40
0.2382247349857143
 40
0.4921376904605963
 40
0.7460575595492341
 40
1.0
 40
1.0
 40
1.0
 40
1.0
 10
4220.76428669503
 20
2314.47237218075
 30
0.0
 10
4220.764959079335
 20
2314.446694861236
 30
0.0
 10
4220.766348127613
 20
2314.393649249815
 30
0.0
 10
4220.779885724848
 20
2313.87666925107
 30
0.0
 10
4220.799986316183
 20
2313.109058705206
 30
0.0
 10
4220.816369957576
 20
2312.483392512953
 30
0.0
 10
4220.824562142348
 20
2312.170545513315
 30
0.0
  0
LINE
  5
2CA
330
1F
100
AcDbEntity
  8
0
  6
Continuous
 62
     7
370
    25
100
AcDbLine
 10
4220.8245621423
 20
2312.1705455133
 30
0.0
 11
4220.8281464241
 21
2312.033667516
 31
0.0
  0
SPLINE
  5
2CB
330
1F
100
AcDbEntity
  8
0
  6
Continuous
 62
     7
370
    25
100
AcDbSpline
210
0.0
220
0.0
230
1.0
 70
    24
 71
     3
 72
    13
 73
     9
 74
     0
 42
0.00000001
 43
0.00000001
 40
0.0
 40
0.0
 40
0.0
 40
0.0
 40
0.1813201537912
 40
0.4101468448383475
 40
0.5438150184967367
 40
0.68864212388773
 40
0.8419966874127709
 40
0.9999999999999999
 40
0.9999999999999999
 40
0.9999999999999999
 40
0.9999999999999999
 10
4221.382795627868
 20
2329.054018988887
 30
0.0
 10
4221.358568754226
 20
2329.97920596693
 30
0.0
 10
4221.303767478266
 20
2332.07198226342
 30
0.0
 10
4221.237407247243
 20
2334.60617724486
 30
0.0
 10
4221.18743623069
 20
2336.514493376601
 30
0.0
 10
4221.154514141975
 20
2337.771737221533
 30
0.0
 10
4221.131231983249
 20
2338.660846992438
 30
0.0
 10
4221.12793978984
 20
2338.786570786437
 30
0.0
 10
4221.126269115981
 20
2338.850371247086
 30
0.0
  0
SPLINE
  5
2CC
330
1F
100
AcDbEntity
  8
0
  6
Continuous
 62
     7
370
    25
100
AcDbSpline
210
0.0
220
0.0
230
1.0
 70
    24
 71
     3
 72
    13
 73
     9
 74
     0
 42
0.00000001
 43
0.00000001
 40
0.0
 40
0.0
 40
0.0
 40
0.0
 40
0.153858158365349
 40
0.3079676862454934
 40
0.4535077802387801
 40
0.5878340078349032
 40
0.8177872163817966
 40
1.0
 40
1.0
 40
1.0
 40
1.0
 10
4221.639096032828
 20
2319.266301405858
 30
0.0
 10
4221.637776556185
 20
2319.31669018595
 30
0.0
 10
4221.635135447172
 20
2319.417550070031
 30
0.0
 10
4221.612908661759
 20
2320.266356760086
 30
0.0
 10
4221.580740651463
 20
2321.494803512002
 30
0.0
 10
4221.531477719875
 20
2323.376078969875
 30
0.0
 10
4221.465658391136
 20
2325.889617726501
 30
0.0
 10
4221.410933327988
 20
2327.979483573089
 30
0.0
 10
4221.386740147864
 20
2328.903383847575
 30
0.0
  0
LINE
  5
2CD
330
1F
100
AcDbEntity
  8
0
  6
Continuous
 62
     7
370
    25
100
AcDbLine
 10
4223.7844466987
 20
2329.0223848582
 30
0.0
 11
4223.9047475903
 21
2324.4282791568
 31
0.0
  0
LINE
  5
2CE
330
1F
100
AcDbEntity
  8
0
  6
Continuous
 62
     7
370
    25
100
AcDbLine
 10
4223.6591988253
 20
2333.8054081729
 30
0.0
 11
4223.7819732078
 21
2329.1168436648
 31
0.0
  0
SPLINE
  5
2CF
330
1F
100
AcDbEntity
  8
0
  6
Continuous
 62
     7
370
    25
100
AcDbSpline
210
0.0
220
0.0
230
1.0
 70
     8
 71
     3
 72
    11
 73
     7
 74
     0
 42
0.00000001
 43
0.00000001
 40
0.0
 40
0.0
 40
0.0
 40
0.0
 40
0.2702602051675496
 40
0.5624283659894885
 40
0.7897359586731716
 40
0.9999999999999999
 40
0.9999999999999999
 40
0.9999999999999999
 40
0.9999999999999999
 10
4221.378496043744
 20
2329.218213482245
 30
0.0
 10
4221.369746636031
 20
2329.215656025565
 30
0.0
 10
4221.35153857214
 20
2329.210333798487
 30
0.0
 10
4221.216480299733
 20
2329.201285824101
 30
0.0
 10
4221.0484181102
 20
2329.19367715243
 30
0.0
 10
4220.934052746309
 20
2329.1903189531
 30
0.0
 10
4220.879097347625
 20
2329.18870525489
 30
0.0
  0
ARC
  5
2D0
330
1F
100
AcDbEntity
  8
0
  6
Continuous
 62
     7
370
    25
100
AcDbCircle
 10
3824.1224773464
 20
1496.7474299152
 30
0.0
 40
0.3000000000003482
100
AcDbArc
 50
99.5765884811
 51
136.3783470328
  0
SPLINE
  5
2D1
330
1F
100
AcDbEntity
  8
0
  6
Continuous
 62
     7
370
    25
100
AcDbSpline
210
0.0
220
0.0
230
1.0
 70
     8
 71
     3
 72
    13
 73
     9
 74
     0
 42
0.00000001
 43
0.00000001
 40
0.0
 40
0.0
 40
0.0
 40
0.0
 40
0.0075029974113267
 40
0.3818974549662932
 40
0.607001887327179
 40
0.7653769096344221
 40
0.8824605049809765
 40
1.0
 40
1.0
 40
1.0
 40
1.0
 10
3823.905303988905
 20
1496.954397866314
 30
0.0
 10
3823.904286212289
 20
1496.953959868419
 30
0.0
 10
3823.852482076149
 20
1496.931666074052
 30
0.0
 10
3823.773896710783
 20
1496.884781685834
 30
0.0
 10
3823.691257246751
 20
1496.818497248798
 30
0.0
 10
3823.649161128652
 20
1496.780235689626
 30
0.0
 10
3823.626637701817
 20
1496.75847991389
 30
0.0
 10
3823.623898275702
 20
1496.755760310341
 30
0.0
 10
3823.622525901135
 20
1496.754397866314
 30
0.0
  0
ARC
  5
2D2
330
1F
100
AcDbEntity
  8
0
  6
Continuous
 62
     7
370
    25
100
AcDbCircle
 10
3824.1224773464
 20
1496.7474299152
 30
0.0
 40
0.5000000000003056
100
AcDbArc
 50
99.5765884811
 51
179.2015057739
  0
LINE
  5
2D3
330
1F
100
AcDbEntity
  8
0
  6
Continuous
 62
     7
370
    25
100
AcDbLine
 10
3824.0725675924
 20
1497.0432491446
 30
0.0
 11
3824.039294423
 21
1497.2404619641
 31
0.0
  0
LINE
  5
2D4
330
1F
100
AcDbEntity
  8
0
  6
Continuous
 62
     7
370
    25
100
AcDbLine
 10
3823.9053039889
 20
1496.9543978663
 30
0.0
 11
3824.3225156724
 21
1496.9543978663
 31
0.0
  0
LINE
  5
2D5
330
1F
100
AcDbEntity
  8
0
  6
Continuous
 62
     7
370
    25
100
AcDbLine
 10
3824.3225156724
 20
1496.9543978663
 30
0.0
 11
3824.1225156724
 21
1496.7543978663
 31
0.0
  0
LINE
  5
2D6
330
1F
100
AcDbEntity
  8
0
  6
Continuous
 62
     7
370
    25
100
AcDbLine
 10
3824.3225156724
 20
1496.9543978663
 30
0.0
 11
3824.3225156724
 21
1483.9543978663
 31
0.0
  0
ARC
  5
2D7
330
1F
100
AcDbEntity
  8
0
  6
Continuous
 62
     7
370
    25
100
AcDbCircle
 10
3824.2056602699
 20
1496.2543978663
 30
0.0
 40
0.8000000000002055
100
AcDbArc
 50
4.9699465947
 51
99.5765884811
  0
LINE
  5
2D8
330
1F
100
AcDbEntity
  8
0
  6
Continuous
 62
     7
370
    25
100
AcDbLine
 10
3825.84384111
 20
1486.6504380312
 30
0.0
 11
3825.0026524914
 21
1496.323704423
 31
0.0
  0
ARC
  5
2D9
330
1F
100
AcDbEntity
  8
0
  6
Continuous
 62
     7
370
    25
100
AcDbCircle
 10
3827.0393294423
 20
1486.7543978663
 30
0.0
 40
1.200000000000273
100
AcDbArc
 50
184.9699465947
 51
270.0
  0
LINE
  5
2DA
330
1F
100
AcDbEntity
  8
0
  6
Continuous
 62
     7
370
    25
100
AcDbLine
 10
3837.4225156724
 20
1485.5543978663
 30
0.0
 11
3827.0393294423
 21
1485.5543978663
 31
0.0
  0
ARC
  5
2DB
330
1F
100
AcDbEntity
  8
0
  6
Continuous
 62
     7
370
    25
100
AcDbCircle
 10
3837.4225156724
 20
1484.7543978663
 30
0.0
 40
0.7999999999997272
100
AcDbArc
 50
0.0
 51
90.0
  0
LINE
  5
2DC
330
1F
100
AcDbEntity
  8
0
  6
Continuous
 62
     7
370
    25
100
AcDbLine
 10
3838.2225156724
 20
1463.9543978663
 30
0.0
 11
3838.2225156724
 21
1484.7543978663
 31
0.0
  0
LINE
  5
2DD
330
1F
100
AcDbEntity
  8
0
  6
Continuous
 62
     7
370
    25
100
AcDbLine
 10
3836.8225156724
 20
1463.9543978663
 30
0.0
 11
3838.2225156724
 21
1463.9543978663
 31
0.0
  0
LINE
  5
2DE
330
1F
100
AcDbEntity
  8
0
  6
Continuous
 62
     7
370
    25
100
AcDbLine
 10
3836.8225156724
 20
1483.9543978663
 30
0.0
 11
3836.8225156724
 21
1463.9543978663
 31
0.0
  0
LINE
  5
2DF
330
1F
100
AcDbEntity
  8
0
  6
Continuous
 62
     7
370
    25
100
AcDbLine
 10
3824.3225156724
 20
1483.9543978663
 30
0.0
 11
3836.8225156724
 21
1483.9543978663
 31
0.0
  0
LINE
  5
2E0
330
1F
100
AcDbEntity
  8
0
  6
Continuous
 62
     7
370
    25
100
AcDbLine
 10
3824.3225156724
 20
1483.9543978663
 30
0.0
 11
3824.1225156724
 21
1483.7543978663
 31
0.0
  0
LINE
  5
2E1
330
1F
100
AcDbEntity
  8
0
  6
Continuous
 62
     7
370
    25
100
AcDbLine
 10
3825.2019005468
 20
1496.3410310622
 30
0.0
 11
3826.0430891654
 21
1486.6677646704
 31
0.0
  0
LINE
  5
2E2
330
1F
100
AcDbEntity
  8
0
  6
Continuous
 62
     7
370
    25
100
AcDbLine
 10
3826.0430891654
 20
1486.6677646704
 30
0.0
 11
3825.84384111
 21
1486.6504380312
 31
0.0
  0
LINE
  5
2E3
330
1F
100
AcDbEntity
  8
0
  6
Continuous
 62
     7
370
    25
100
AcDbLine
 10
3825.0026524914
 20
1496.323704423
 30
0.0
 11
3825.2019005468
 21
1496.3410310622
 31
0.0
  0
ARC
  5
2E4
330
1F
100
AcDbEntity
  8
0
  6
Continuous
 62
     7
370
    25
100
AcDbCircle
 10
3824.2056602699
 20
1496.2543978663
 30
0.0
 40
1.000000000000163
100
AcDbArc
 50
4.9699465947
 51
99.5765884811
  0
ARC
  5
2E5
330
1F
100
AcDbEntity
  8
0
  6
Continuous
 62
     7
370
    25
100
AcDbCircle
 10
3837.4225156724
 20
1484.7543978663
 30
0.0
 40
1.0
100
AcDbArc
 50
0.0
 51
90.0
  0
LINE
  5
2E6
330
1F
100
AcDbEntity
  8
0
  6
Continuous
 62
     7
370
    25
100
AcDbLine
 10
3838.4225156724
 20
1484.7543978663
 30
0.0
 11
3838.2225156724
 21
1484.7543978663
 31
0.0
  0
LINE
  5
2E7
330
1F
100
AcDbEntity
  8
0
  6
Continuous
 62
     7
370
    25
100
AcDbLine
 10
3837.4225156724
 20
1485.7543978663
 30
0.0
 11
3837.4225156724
 21
1485.5543978663
 31
0.0
  0
LINE
  5
2E8
330
1F
100
AcDbEntity
  8
0
  6
Continuous
 62
     7
370
    25
100
AcDbLine
 10
3836.8225156724
 20
1483.9543978663
 30
0.0
 11
3836.6225156724
 21
1483.7543978663
 31
0.0
  0
LINE
  5
2E9
330
1F
100
AcDbEntity
  8
0
  6
Continuous
 62
     7
370
    25
100
AcDbLine
 10
3836.6225156724
 20
1463.7543978663
 30
0.0
 11
3836.8225156724
 21
1463.9543978663
 31
0.0
  0
LINE
  5
2EA
330
1F
100
AcDbEntity
  8
0
  6
Continuous
 62
     7
370
    25
100
AcDbLine
 10
3827.0393294423
 20
1485.7543978663
 30
0.0
 11
3837.4225156724
 21
1485.7543978663
 31
0.0
  0
LINE
  5
2EB
330
1F
100
AcDbEntity
  8
0
  6
Continuous
 62
     7
370
    25
100
AcDbLine
 10
3827.0393294423
 20
1485.7543978663
 30
0.0
 11
3827.0393294423
 21
1485.5543978663
 31
0.0
  0
ARC
  5
2EC
330
1F
100
AcDbEntity
  8
0
  6
Continuous
 62
     7
370
    25
100
AcDbCircle
 10
3827.0393294423
 20
1486.7543978663
 30
0.0
 40
1.000000000000227
100
AcDbArc
 50
184.9699465947
 51
270.0
  0
LINE
  5
2ED
330
1F
100
AcDbEntity
  8
0
  6
Continuous
 62
     7
370
    25
100
AcDbLine
 10
3838.2225156724
 20
1463.7543978663
 30
0.0
 11
3838.2225156724
 21
1463.9543978663
 31
0.0
  0
LINE
  5
2EE
330
1F
100
AcDbEntity
  8
0
  6
Continuous
 62
     7
370
    25
100
AcDbLine
 10
3838.4225156724
 20
1463.9543978663
 30
0.0
 11
3838.2225156724
 21
1463.9543978663
 31
0.0
  0
ARC
  5
2EF
330
1F
100
AcDbEntity
  8
0
  6
Continuous
 62
     7
370
    25
100
AcDbCircle
 10
3838.2225156724
 20
1463.9543978663
 30
0.0
 40
0.2000000000002728
100
AcDbArc
 50
270.0
 51
0.0
  0
LINE
  5
2F0
330
1F
100
AcDbEntity
  8
0
  6
Continuous
 62
     7
370
    25
100
AcDbLine
 10
3838.2225156724
 20
1463.7543978663
 30
0.0
 11
3836.6225156724
 21
1463.7543978663
 31
0.0
  0
LINE
  5
2F1
330
1F
100
AcDbEntity
  8
0
  6
Continuous
 62
     7
370
    25
100
AcDbLine
 10
3838.4225156724
 20
1484.7543978663
 30
0.0
 11
3838.4225156724
 21
1463.9543978663
 31
0.0
  0
ARC
  5
2F2
330
1F
100
AcDbEntity
  8
0
  6
Continuous
 62
     7
370
    25
100
AcDbCircle
 10
3827.0393294423
 20
1876.7543978663
 30
0.0
 40
1.200000000000273
100
AcDbArc
 50
90.0
 51
175.0300534053
  0
LINE
  5
2F3
330
1F
100
AcDbEntity
  8
0
  6
Continuous
 62
     7
370
    25
100
AcDbLine
 10
3825.0026524914
 20
1867.1850913096
 30
0.0
 11
3825.84384111
 21
1876.8583577014
 31
0.0
  0
ARC
  5
2F4
330
1F
100
AcDbEntity
  8
0
  6
Continuous
 62
     7
370
    25
100
AcDbCircle
 10
3824.2056602699
 20
1867.2543978663
 30
0.0
 40
0.7999999999999804
100
AcDbArc
 50
260.423411519
 51
355.0300534053
  0
ARC
  5
2F5
330
1F
100
AcDbEntity
  8
0
  6
Continuous
 62
     7
370
    25
100
AcDbCircle
 10
3824.1224773464
 20
1866.7613658174
 30
0.0
 40
0.3000000000004442
100
AcDbArc
 50
223.6216529672
 51
260.4234115189
  0
LINE
  5
2F6
330
1F
100
AcDbEntity
  8
0
  6
Continuous
 62
     7
370
    25
100
AcDbLine
 10
3824.3225156724
 20
1866.5543978663
 30
0.0
 11
3823.9053039889
 21
1866.5543978663
 31
0.0
  0
LINE
  5
2F7
330
1F
100
AcDbEntity
  8
0
  6
Continuous
 62
     7
370
    25
100
AcDbLine
 10
3824.3225156724
 20
1879.5543978663
 30
0.0
 11
3824.3225156724
 21
1866.5543978663
 31
0.0
  0
LINE
  5
2F8
330
1F
100
AcDbEntity
  8
0
  6
Continuous
 62
     7
370
    25
100
AcDbLine
 10
3836.8225156724
 20
1879.5543978663
 30
0.0
 11
3824.3225156724
 21
1879.5543978663
 31
0.0
  0
LINE
  5
2F9
330
1F
100
AcDbEntity
  8
0
  6
Continuous
 62
     7
370
    25
100
AcDbLine
 10
3836.8225156724
 20
1899.5543978663
 30
0.0
 11
3836.8225156724
 21
1879.5543978663
 31
0.0
  0
LINE
  5
2FA
330
1F
100
AcDbEntity
  8
0
  6
Continuous
 62
     7
370
    25
100
AcDbLine
 10
3838.2225156724
 20
1899.5543978663
 30
0.0
 11
3836.8225156724
 21
1899.5543978663
 31
0.0
  0
LINE
  5
2FB
330
1F
100
AcDbEntity
  8
0
  6
Continuous
 62
     7
370
    25
100
AcDbLine
 10
3838.2225156724
 20
1878.7543978663
 30
0.0
 11
3838.2225156724
 21
1899.5543978663
 31
0.0
  0
ARC
  5
2FC
330
1F
100
AcDbEntity
  8
0
  6
Continuous
 62
     7
370
    25
100
AcDbCircle
 10
3837.4225156724
 20
1878.7543978663
 30
0.0
 40
0.8000000000001819
100
AcDbArc
 50
270.0
 51
0.0
  0
LINE
  5
2FD
330
1F
100
AcDbEntity
  8
0
  6
Continuous
 62
     7
370
    25
100
AcDbLine
 10
3827.0393294423
 20
1877.9543978663
 30
0.0
 11
3837.4225156724
 21
1877.9543978663
 31
0.0
  0
LINE
  5
2FE
330
1F
100
AcDbEntity
  8
0
  6
Continuous
 62
     7
370
    25
100
AcDbLine
 10
3825.84384111
 20
1876.8583577014
 30
0.0
 11
3826.0430891654
 21
1876.8410310622
 31
0.0
  0
LINE
  5
2FF
330
1F
100
AcDbEntity
  8
0
  6
Continuous
 62
     7
370
    25
100
AcDbLine
 10
3826.0430891654
 20
1876.8410310622
 30
0.0
 11
3825.2019005468
 21
1867.1677646704
 31
0.0
  0
LINE
  5
300
330
1F
100
AcDbEntity
  8
0
  6
Continuous
 62
     7
370
    25
100
AcDbLine
 10
3825.0026524914
 20
1867.1850913096
 30
0.0
 11
3825.2019005468
 21
1867.1677646704
 31
0.0
  0
ARC
  5
301
330
1F
100
AcDbEntity
  8
0
  6
Continuous
 62
     7
370
    25
100
AcDbCircle
 10
3824.2056602699
 20
1867.2543978663
 30
0.0
 40
0.9999999999999509
100
AcDbArc
 50
260.4234115189
 51
355.0300534053
  0
LINE
  5
302
330
1F
100
AcDbEntity
  8
0
  6
Continuous
 62
     7
370
    25
100
AcDbLine
 10
3824.0725675924
 20
1866.4655465881
 30
0.0
 11
3824.039294423
 21
1866.2683337685
 31
0.0
  0
LINE
  5
303
330
1F
100
AcDbEntity
  8
0
  6
Continuous
 62
     7
370
    25
100
AcDbLine
 10
3824.1225156724
 20
1866.7543978663
 30
0.0
 11
3824.3225156724
 21
1866.5543978663
 31
0.0
  0
SPLINE
  5
304
330
1F
100
AcDbEntity
  8
0
  6
Continuous
 62
     7
370
    25
100
AcDbSpline
210
0.0
220
0.0
230
1.0
 70
     8
 71
     3
 72
    13
 73
     9
 74
     0
 42
0.00000001
 43
0.00000001
 40
0.0
 40
0.0
 40
0.0
 40
0.0
 40
0.0075029974114252
 40
0.3818974549658932
 40
0.6070018873269021
 40
0.7653769096341355
 40
0.8824605049807694
 40
1.0
 40
1.0
 40
1.0
 40
1.0
 10
3823.905303988902
 20
1866.554397866313
 30
0.0
 10
3823.904286212287
 20
1866.554835864208
 30
0.0
 10
3823.852482076147
 20
1866.57712965858
 30
0.0
 10
3823.773896710781
 20
1866.624014046792
 30
0.0
 10
3823.691257246748
 20
1866.690298483829
 30
0.0
 10
3823.649161128649
 20
1866.728560043002
 30
0.0
 10
3823.626637701814
 20
1866.750315818737
 30
0.0
 10
3823.6238982757
 20
1866.753035422286
 30
0.0
 10
3823.622525901132
 20
1866.754397866312
 30
0.0
  0
ARC
  5
305
330
1F
100
AcDbEntity
  8
0
  6
Continuous
 62
     7
370
    25
100
AcDbCircle
 10
3824.1224773464
 20
1866.7613658174
 30
0.0
 40
0.500000000000647
100
AcDbArc
 50
180.7984942261
 51
260.4234115189
  0
LINE
  5
306
330
1F
100
AcDbEntity
  8
0
  6
Continuous
 62
     7
370
    25
100
AcDbLine
 10
3824.1225156724
 20
1879.7543978663
 30
0.0
 11
3824.3225156724
 21
1879.5543978663
 31
0.0
  0
LINE
  5
307
330
1F
100
AcDbEntity
  8
0
  6
Continuous
 62
     7
370
    25
100
AcDbLine
 10
3838.4225156724
 20
1899.5543978663
 30
0.0
 11
3838.2225156724
 21
1899.5543978663
 31
0.0
  0
LINE
  5
308
330
1F
100
AcDbEntity
  8
0
  6
Continuous
 62
     7
370
    25
100
AcDbLine
 10
3838.2225156724
 20
1899.7543978663
 30
0.0
 11
3838.2225156724
 21
1899.5543978663
 31
0.0
  0
ARC
  5
309
330
1F
100
AcDbEntity
  8
0
  6
Continuous
 62
     7
370
    25
100
AcDbCircle
 10
3838.2225156724
 20
1899.5543978663
 30
0.0
 40
0.2000000000002728
100
AcDbArc
 50
0.0
 51
90.0
  0
LINE
  5
30A
330
1F
100
AcDbEntity
  8
0
  6
Continuous
 62
     7
370
    25
100
AcDbLine
 10
3836.6225156724
 20
1899.7543978663
 30
0.0
 11
3838.2225156724
 21
1899.7543978663
 31
0.0
  0
LINE
  5
30B
330
1F
100
AcDbEntity
  8
0
  6
Continuous
 62
     7
370
    25
100
AcDbLine
 10
3836.6225156724
 20
1899.7543978663
 30
0.0
 11
3836.8225156724
 21
1899.5543978663
 31
0.0
  0
LINE
  5
30C
330
1F
100
AcDbEntity
  8
0
  6
Continuous
 62
     7
370
    25
100
AcDbLine
 10
3838.4225156724
 20
1899.5543978663
 30
0.0
 11
3838.4225156724
 21
1878.7543978663
 31
0.0
  0
LINE
  5
30D
330
1F
100
AcDbEntity
  8
0
  6
Continuous
 62
     7
370
    25
100
AcDbLine
 10
3838.4225156724
 20
1878.7543978663
 30
0.0
 11
3838.2225156724
 21
1878.7543978663
 31
0.0
  0
LINE
  5
30E
330
1F
100
AcDbEntity
  8
0
  6
Continuous
 62
     7
370
    25
100
AcDbLine
 10
3836.6225156724
 20
1879.7543978663
 30
0.0
 11
3836.8225156724
 21
1879.5543978663
 31
0.0
  0
LINE
  5
30F
330
1F
100
AcDbEntity
  8
0
  6
Continuous
 62
     7
370
    25
100
AcDbLine
 10
3827.0393294423
 20
1877.9543978663
 30
0.0
 11
3827.0393294423
 21
1877.7543978663
 31
0.0
  0
ARC
  5
310
330
1F
100
AcDbEntity
  8
0
  6
Continuous
 62
     7
370
    25
100
AcDbCircle
 10
3827.0393294423
 20
1876.7543978663
 30
0.0
 40
1.000000000000227
100
AcDbArc
 50
90.0
 51
175.0300534053
  0
ARC
  5
311
330
1F
100
AcDbEntity
  8
0
  6
Continuous
 62
     7
370
    25
100
AcDbCircle
 10
3837.4225156724
 20
1878.7543978663
 30
0.0
 40
1.000000000000455
100
AcDbArc
 50
270.0
 51
0.0
  0
LINE
  5
312
330
1F
100
AcDbEntity
  8
0
  6
Continuous
 62
     7
370
    25
100
AcDbLine
 10
3837.4225156724
 20
1877.9543978663
 30
0.0
 11
3837.4225156724
 21
1877.7543978663
 31
0.0
  0
LINE
  5
313
330
1F
100
AcDbEntity
  8
0
  6
Continuous
 62
     7
370
    25
100
AcDbLine
 10
3837.4225156724
 20
1877.7543978663
 30
0.0
 11
3827.0393294423
 21
1877.7543978663
 31
0.0
  0
LINE
  5
314
330
1F
100
AcDbEntity
  8
0
  6
Continuous
 62
     7
370
    25
100
AcDbLine
 10
3839.3225156724
 20
1464.0543978663
 30
0.0
 11
3839.3225156724
 21
1465.2543978663
 31
0.0
  0
LINE
  5
315
330
1F
100
AcDbEntity
  8
0
  6
Continuous
 62
     7
370
    25
100
AcDbLine
 10
3839.3225156724
 20
1464.0543978663
 30
0.0
 11
3840.1225156724
 21
1464.0543978663
 31
0.0
  0
LINE
  5
316
330
1F
100
AcDbEntity
  8
0
  6
Continuous
 62
     7
370
    25
100
AcDbLine
 10
3839.3225156724
 20
1465.2543978663
 30
0.0
 11
3840.1225156724
 21
1465.2543978663
 31
0.0
  0
LINE
  5
317
330
1F
100
AcDbEntity
  8
0
  6
Continuous
 62
     7
370
    25
100
AcDbLine
 10
3838.4225156724
 20
1464.0543978663
 30
0.0
 11
3839.3225156724
 21
1464.0543978663
 31
0.0
  0
LINE
  5
318
330
1F
100
AcDbEntity
  8
0
  6
Continuous
 62
     7
370
    25
100
AcDbLine
 10
3838.4225156724
 20
1465.2543978663
 30
0.0
 11
3839.3225156724
 21
1465.2543978663
 31
0.0
  0
LINE
  5
319
330
1F
100
AcDbEntity
  8
0
  6
Continuous
 62
     7
370
    25
100
AcDbLine
 10
3839.3225156724
 20
2364.0543978663
 30
0.0
 11
3839.3225156724
 21
2365.2543978663
 31
0.0
  0
LINE
  5
31A
330
1F
100
AcDbEntity
  8
0
  6
Continuous
 62
     7
370
    25
100
AcDbLine
 10
3839.3225156724
 20
2364.0543978663
 30
0.0
 11
3840.1225156724
 21
2364.0543978663
 31
0.0
  0
LINE
  5
31B
330
1F
100
AcDbEntity
  8
0
  6
Continuous
 62
     7
370
    25
100
AcDbLine
 10
3839.3225156724
 20
2365.2543978663
 30
0.0
 11
3840.1225156724
 21
2365.2543978663
 31
0.0
  0
LINE
  5
31C
330
1F
100
AcDbEntity
  8
0
  6
Continuous
 62
     7
370
    25
100
AcDbLine
 10
3838.1225156724
 20
2364.0543978663
 30
0.0
 11
3839.3225156724
 21
2364.0543978663
 31
0.0
  0
LINE
  5
31D
330
1F
100
AcDbEntity
  8
0
  6
Continuous
 62
     7
370
    25
100
AcDbLine
 10
3838.1225156724
 20
2365.2543978663
 30
0.0
 11
3839.3225156724
 21
2365.2543978663
 31
0.0
  0
LINE
  5
31E
330
1F
100
AcDbEntity
  8
0
  6
Continuous
 62
     7
370
    25
100
AcDbLine
 10
3839.3225156724
 20
2346.2543978663
 30
0.0
 11
3839.3225156724
 21
2364.0543978663
 31
0.0
  0
LINE
  5
31F
330
1F
100
AcDbEntity
  8
0
  6
Continuous
 62
     7
370
    25
100
AcDbLine
 10
3838.1225156724
 20
2346.2543978663
 30
0.0
 11
3839.3225156724
 21
2346.2543978663
 31
0.0
  0
LINE
  5
320
330
1F
100
AcDbEntity
  8
0
  6
Continuous
 62
     7
370
    25
100
AcDbLine
 10
3839.3225156724
 20
2346.2543978663
 30
0.0
 11
3839.3225156724
 21
2345.2470896858
 31
0.0
  0
LINE
  5
321
330
1F
100
AcDbEntity
  8
0
  6
Continuous
 62
     7
370
    25
100
AcDbLine
 10
3839.3225156724
 20
1446.2543978663
 30
0.0
 11
3839.3225156724
 21
1464.0543978663
 31
0.0
  0
LINE
  5
322
330
1F
100
AcDbEntity
  8
0
  6
Continuous
 62
     7
370
    25
100
AcDbLine
 10
3838.1225156724
 20
1446.2543978663
 30
0.0
 11
3839.3225156724
 21
1446.2543978663
 31
0.0
  0
LINE
  5
323
330
1F
100
AcDbEntity
  8
0
  6
Continuous
 62
     7
370
    25
100
AcDbLine
 10
3838.1225156724
 20
1463.2543978663
 30
0.0
 11
3838.1225156724
 21
1463.7543978663
 31
0.0
  0
LINE
  5
324
330
1F
100
AcDbEntity
  8
0
  6
Continuous
 62
     7
370
    25
100
AcDbLine
 10
3839.3225156724
 20
1446.2543978663
 30
0.0
 11
3839.3225156724
 21
1445.2470896858
 31
0.0
  0
LINE
  5
325
330
1F
100
AcDbEntity
  8
0
  6
Continuous
 62
     7
370
    25
100
AcDbLine
 10
3838.6225156724
 20
687.7984397273
 30
0.0
 11
3838.1225156724
 21
687.7984397273
 31
0.0
  0
LINE
  5
326
330
1F
100
AcDbEntity
  8
0
  6
Continuous
 62
     7
370
    25
100
AcDbLine
 10
3838.6225156724
 20
689.3543978665
 30
0.0
 11
3838.1225156724
 21
689.3543978665
 31
0.0
  0
LINE
  5
327
330
1F
100
AcDbEntity
  8
0
  6
Continuous
 62
     7
370
    25
100
AcDbLine
 10
3838.6225156724
 20
689.3543978665
 30
0.0
 11
3838.6225156724
 21
687.7984397273
 31
0.0
  0
LINE
  5
328
330
1F
100
AcDbEntity
  8
0
  6
Continuous
 62
     7
370
    25
100
AcDbLine
 10
3838.1225156724
 20
705.7103560054
 30
0.0
 11
3838.6225156724
 21
705.7103560054
 31
0.0
  0
LINE
  5
329
330
1F
100
AcDbEntity
  8
0
  6
Continuous
 62
     7
370
    25
100
AcDbLine
 10
3838.6225156724
 20
705.7103560054
 30
0.0
 11
3838.6225156724
 21
704.1543978661
 31
0.0
  0
LINE
  5
32A
330
1F
100
AcDbEntity
  8
0
  6
Continuous
 62
     7
370
    25
100
AcDbLine
 10
3838.1225156724
 20
704.1543978661
 30
0.0
 11
3838.6225156724
 21
704.1543978661
 31
0.0
  0
LINE
  5
32B
330
1F
100
AcDbEntity
  8
0
  6
Continuous
 62
     7
370
    25
100
AcDbLine
 10
3838.3225156724
 20
678.3628237086
 30
0.0
 11
3838.6225156724
 21
678.3628237086
 31
0.0
  0
LINE
  5
32C
330
1F
100
AcDbEntity
  8
0
  6
Continuous
 62
     7
370
    25
100
AcDbLine
 10
3838.1225156724
 20
678.3628237086
 30
0.0
 11
3838.3225156724
 21
678.3628237086
 31
0.0
  0
LINE
  5
32D
330
1F
100
AcDbEntity
  8
0
  6
Continuous
 62
     7
370
    25
100
AcDbLine
 10
3838.6225156724
 20
678.3628237086
 30
0.0
 11
3838.6225156724
 21
687.7984397273
 31
0.0
  0
LINE
  5
32E
330
1F
100
AcDbEntity
  8
0
  6
Continuous
 62
     7
370
    25
100
AcDbLine
 10
3838.3225156724
 20
715.1459720241
 30
0.0
 11
3838.1225156724
 21
715.1459720241
 31
0.0
  0
LINE
  5
32F
330
1F
100
AcDbEntity
  8
0
  6
Continuous
 62
     7
370
    25
100
AcDbLine
 10
3838.6225156724
 20
715.1459720241
 30
0.0
 11
3838.3225156724
 21
715.1459720241
 31
0.0
  0
LINE
  5
330
330
1F
100
AcDbEntity
  8
0
  6
Continuous
 62
     7
370
    25
100
AcDbLine
 10
3838.6225156724
 20
705.7103560054
 30
0.0
 11
3838.6225156724
 21
715.1459720241
 31
0.0
  0
SPLINE
  5
331
330
1F
100
AcDbEntity
  8
0
  6
Continuous
 62
     7
370
    25
100
AcDbSpline
210
0.0
220
0.0
230
1.0
 70
    24
 71
     3
 72
    12
 73
     8
 74
     0
 42
0.00000001
 43
0.00000001
 40
0.0
 40
0.0
 40
0.0
 40
0.0
 40
0.1234882189617388
 40
0.3047574776075718
 40
0.4857888495164502
 40
0.6670582153999259
 40
1.0
 40
1.0
 40
1.0
 40
1.0
 10
3840.122515672365
 20
668.2543978663172
 30
0.0
 10
3840.082769103328
 20
668.2543978663172
 30
0.0
 10
3839.98467825527
 20
668.2543978663172
 30
0.0
 10
3839.74470496691
 20
668.2543978663172
 30
0.0
 10
3839.429090778415
 20
668.254397866317
 30
0.0
 10
3838.962180689316
 20
668.2543978663176
 30
0.0
 10
3838.573912089079
 20
668.2543978663155
 30
0.0
 10
3838.322515672363
 20
668.254397866314
 30
0.0
  0
LINE
  5
332
330
1F
100
AcDbEntity
  8
0
  6
Continuous
 62
     7
370
    25
100
AcDbLine
 10
3838.3225156724
 20
669.2543978663
 30
0.0
 11
3838.3225156724
 21
668.2543978663
 31
0.0
  0
SPLINE
  5
333
330
1F
100
AcDbEntity
  8
0
  6
Continuous
 62
     7
370
    25
100
AcDbSpline
210
0.0
220
0.0
230
1.0
 70
    24
 71
     3
 72
    12
 73
     8
 74
     0
 42
0.00000001
 43
0.00000001
 40
0.0
 40
0.0
 40
0.0
 40
0.0
 40
0.3329369653739505
 40
0.5139656098124005
 40
0.6952322446438721
 40
0.8762609961842813
 40
1.0
 40
1.0
 40
1.0
 40
1.0
 10
3838.322515672356
 20
725.2543978663131
 30
0.0
 10
3838.573913085499
 20
725.2543978663147
 30
0.0
 10
3838.962003439497
 20
725.2543978663167
 30
0.0
 10
3839.428932709172
 20
725.2543978663163
 30
0.0
 10
3839.744451598193
 20
725.2543978663164
 30
0.0
 10
3839.984575816711
 20
725.2543978663164
 30
0.0
 10
3840.082683067721
 20
725.2543978663164
 30
0.0
 10
3840.122515672365
 20
725.2543978663164
 30
0.0
  0
LINE
  5
334
330
1F
100
AcDbEntity
  8
0
  6
Continuous
 62
     7
370
    25
100
AcDbLine
 10
3838.3225156724
 20
724.2543978663
 30
0.0
 11
3838.3225156724
 21
725.2543978663
 31
0.0
  0
LINE
  5
335
330
1F
100
AcDbEntity
  8
0
  6
Continuous
 62
     7
370
    25
100
AcDbLine
 10
3838.1225156724
 20
669.2543978663
 30
0.0
 11
3838.3225156724
 21
669.2543978663
 31
0.0
  0
LINE
  5
336
330
1F
100
AcDbEntity
  8
0
  6
Continuous
 62
     7
370
    25
100
AcDbLine
 10
3838.3225156724
 20
669.2543978663
 30
0.0
 11
3838.3225156724
 21
678.3628237086
 31
0.0
  0
SPLINE
  5
337
330
1F
100
AcDbEntity
  8
0
  6
Continuous
 62
     7
370
    25
100
AcDbSpline
210
0.0
220
0.0
230
1.0
 70
     8
 71
     3
 72
    10
 73
     6
 74
     0
 42
0.00000001
 43
0.00000001
 40
0.0
 40
0.0
 40
0.0
 40
0.0
 40
0.03713119434004
 40
0.5486628195576871
 40
0.9999999999999999
 40
0.9999999999999999
 40
0.9999999999999999
 40
0.9999999999999999
 10
3840.122515672365
 20
686.5086335261436
 30
0.0
 10
3840.116892820152
 20
686.5153518735696
 30
0.0
 10
3840.033807694445
 20
686.6146243991913
 30
0.0
 10
3839.812251721861
 20
686.7150533123856
 30
0.0
 10
3839.580940832615
 20
686.7418412372156
 30
0.0
 10
3839.47251567236
 20
686.7543978663135
 30
0.0
  0
LINE
  5
338
330
1F
100
AcDbEntity
  8
0
  6
Continuous
 62
     7
370
    25
100
AcDbLine
 10
3838.6225156724
 20
686.7543978663
 30
0.0
 11
3839.4725156724
 21
686.7543978663
 31
0.0
  0
LINE
  5
339
330
1F
100
AcDbEntity
  8
0
  6
Continuous
 62
     7
370
    25
100
AcDbLine
 10
3838.1225156724
 20
724.2543978663
 30
0.0
 11
3838.3225156724
 21
724.2543978663
 31
0.0
  0
LINE
  5
33A
330
1F
100
AcDbEntity
  8
0
  6
Continuous
 62
     7
370
    25
100
AcDbLine
 10
3838.3225156724
 20
715.1459720241
 30
0.0
 11
3838.3225156724
 21
724.2543978663
 31
0.0
  0
SPLINE
  5
33B
330
1F
100
AcDbEntity
  8
0
  6
Continuous
 62
     7
370
    25
100
AcDbSpline
210
0.0
220
0.0
230
1.0
 70
     8
 71
     3
 72
     9
 73
     5
 74
     0
 42
0.00000001
 43
0.00000001
 40
0.0
 40
0.0
 40
0.0
 40
0.0
 40
0.5050081268932126
 40
1.0
 40
1.0
 40
1.0
 40
1.0
 10
3839.472515672358
 20
706.754397866314
 30
0.0
 10
3839.595811944226
 20
706.766617725698
 30
0.0
 10
3839.839959048602
 20
706.7908150776476
 30
0.0
 10
3840.028961162156
 20
706.9278911509103
 30
0.0
 10
3840.122515672365
 20
706.9957426931728
 30
0.0
  0
LINE
  5
33C
330
1F
100
AcDbEntity
  8
0
  6
Continuous
 62
     7
370
    25
100
AcDbLine
 10
3839.4725156724
 20
706.7543978663
 30
0.0
 11
3838.6225156724
 21
706.7543978663
 31
0.0
  0
LINE
  5
33D
330
1F
100
AcDbEntity
  8
0
  6
Continuous
 62
     7
370
    25
100
AcDbLine
 10
3838.1225156724
 20
668.2543978663
 30
0.0
 11
3838.3225156724
 21
668.2543978663
 31
0.0
  0
LINE
  5
33E
330
1F
100
AcDbEntity
  8
0
  6
Continuous
 62
     7
370
    25
100
AcDbLine
 10
3838.1225156724
 20
725.2543978663
 30
0.0
 11
3838.3225156724
 21
725.2543978663
 31
0.0
  0
LINE
  5
33F
330
1F
100
AcDbEntity
  8
0
  6
Continuous
 62
     7
370
    25
100
AcDbLine
 10
3838.6225156724
 20
1047.7984397273
 30
0.0
 11
3838.1225156724
 21
1047.7984397273
 31
0.0
  0
LINE
  5
340
330
1F
100
AcDbEntity
  8
0
  6
Continuous
 62
     7
370
    25
100
AcDbLine
 10
3838.6225156724
 20
1049.3543978665
 30
0.0
 11
3838.1225156724
 21
1049.3543978665
 31
0.0
  0
LINE
  5
341
330
1F
100
AcDbEntity
  8
0
  6
Continuous
 62
     7
370
    25
100
AcDbLine
 10
3838.6225156724
 20
1049.3543978665
 30
0.0
 11
3838.6225156724
 21
1047.7984397273
 31
0.0
  0
LINE
  5
342
330
1F
100
AcDbEntity
  8
0
  6
Continuous
 62
     7
370
    25
100
AcDbLine
 10
3838.1225156724
 20
1065.7103560054
 30
0.0
 11
3838.6225156724
 21
1065.7103560054
 31
0.0
  0
LINE
  5
343
330
1F
100
AcDbEntity
  8
0
  6
Continuous
 62
     7
370
    25
100
AcDbLine
 10
3838.6225156724
 20
1065.7103560054
 30
0.0
 11
3838.6225156724
 21
1064.1543978661
 31
0.0
  0
LINE
  5
344
330
1F
100
AcDbEntity
  8
0
  6
Continuous
 62
     7
370
    25
100
AcDbLine
 10
3838.1225156724
 20
1064.1543978661
 30
0.0
 11
3838.6225156724
 21
1064.1543978661
 31
0.0
  0
LINE
  5
345
330
1F
100
AcDbEntity
  8
0
  6
Continuous
 62
     7
370
    25
100
AcDbLine
 10
3838.3225156724
 20
1038.3628237086
 30
0.0
 11
3838.6225156724
 21
1038.3628237086
 31
0.0
  0
LINE
  5
346
330
1F
100
AcDbEntity
  8
0
  6
Continuous
 62
     7
370
    25
100
AcDbLine
 10
3838.1225156724
 20
1038.3628237086
 30
0.0
 11
3838.3225156724
 21
1038.3628237086
 31
0.0
  0
LINE
  5
347
330
1F
100
AcDbEntity
  8
0
  6
Continuous
 62
     7
370
    25
100
AcDbLine
 10
3838.6225156724
 20
1038.3628237086
 30
0.0
 11
3838.6225156724
 21
1047.7984397273
 31
0.0
  0
LINE
  5
348
330
1F
100
AcDbEntity
  8
0
  6
Continuous
 62
     7
370
    25
100
AcDbLine
 10
3838.3225156724
 20
1075.1459720241
 30
0.0
 11
3838.1225156724
 21
1075.1459720241
 31
0.0
  0
LINE
  5
349
330
1F
100
AcDbEntity
  8
0
  6
Continuous
 62
     7
370
    25
100
AcDbLine
 10
3838.6225156724
 20
1075.1459720241
 30
0.0
 11
3838.3225156724
 21
1075.1459720241
 31
0.0
  0
LINE
  5
34A
330
1F
100
AcDbEntity
  8
0
  6
Continuous
 62
     7
370
    25
100
AcDbLine
 10
3838.6225156724
 20
1065.7103560054
 30
0.0
 11
3838.6225156724
 21
1075.1459720241
 31
0.0
  0
SPLINE
  5
34B
330
1F
100
AcDbEntity
  8
0
  6
Continuous
 62
     7
370
    25
100
AcDbSpline
210
0.0
220
0.0
230
1.0
 70
    24
 71
     3
 72
    12
 73
     8
 74
     0
 42
0.00000001
 43
0.00000001
 40
0.0
 40
0.0
 40
0.0
 40
0.0
 40
0.1234882189619804
 40
0.3047574776077634
 40
0.4857888495165919
 40
0.6670582154000176
 40
1.0
 40
1.0
 40
1.0
 40
1.0
 10
3840.122515672365
 20
1028.254397866319
 30
0.0
 10
3840.082769103328
 20
1028.254397866319
 30
0.0
 10
3839.98467825527
 20
1028.254397866319
 30
0.0
 10
3839.74470496691
 20
1028.254397866319
 30
0.0
 10
3839.429090778415
 20
1028.254397866319
 30
0.0
 10
3838.962180689316
 20
1028.25439786632
 30
0.0
 10
3838.573912089079
 20
1028.254397866318
 30
0.0
 10
3838.322515672362
 20
1028.254397866316
 30
0.0
  0
LINE
  5
34C
330
1F
100
AcDbEntity
  8
0
  6
Continuous
 62
     7
370
    25
100
AcDbLine
 10
3838.3225156724
 20
1029.2543978663
 30
0.0
 11
3838.3225156724
 21
1028.2543978663
 31
0.0
  0
SPLINE
  5
34D
330
1F
100
AcDbEntity
  8
0
  6
Continuous
 62
     7
370
    25
100
AcDbSpline
210
0.0
220
0.0
230
1.0
 70
    24
 71
     3
 72
    12
 73
     8
 74
     0
 42
0.00000001
 43
0.00000001
 40
0.0
 40
0.0
 40
0.0
 40
0.0
 40
0.3329369653738734
 40
0.5139656098122813
 40
0.695232244643711
 40
0.8762609961840783
 40
1.0
 40
1.0
 40
1.0
 40
1.0
 10
3838.322515672356
 20
1085.254397866315
 30
0.0
 10
3838.573913085498
 20
1085.254397866317
 30
0.0
 10
3838.962003439496
 20
1085.254397866319
 30
0.0
 10
3839.428932709171
 20
1085.254397866318
 30
0.0
 10
3839.744451598193
 20
1085.254397866318
 30
0.0
 10
3839.984575816711
 20
1085.254397866318
 30
0.0
 10
3840.082683067721
 20
1085.254397866318
 30
0.0
 10
3840.122515672365
 20
1085.254397866318
 30
0.0
  0
LINE
  5
34E
330
1F
100
AcDbEntity
  8
0
  6
Continuous
 62
     7
370
    25
100
AcDbLine
 10
3838.3225156724
 20
1084.2543978663
 30
0.0
 11
3838.3225156724
 21
1085.2543978663
 31
0.0
  0
SPLINE
  5
34F
330
1F
100
AcDbEntity
  8
0
  6
Continuous
 62
     7
370
    25
100
AcDbSpline
210
0.0
220
0.0
230
1.0
 70
     8
 71
     3
 72
    10
 73
     6
 74
     0
 42
0.00000001
 43
0.00000001
 40
0.0
 40
0.0
 40
0.0
 40
0.0
 40
0.0371311943406034
 40
0.5486628195579513
 40
0.9999999999999999
 40
0.9999999999999999
 40
0.9999999999999999
 40
0.9999999999999999
 10
3840.122515672365
 20
1046.508633526145
 30
0.0
 10
3840.116892820152
 20
1046.515351873572
 30
0.0
 10
3840.033807694445
 20
1046.614624399194
 30
0.0
 10
3839.812251721861
 20
1046.715053312388
 30
0.0
 10
3839.580940832614
 20
1046.741841237218
 30
0.0
 10
3839.47251567236
 20
1046.754397866316
 30
0.0
  0
LINE
  5
350
330
1F
100
AcDbEntity
  8
0
  6
Continuous
 62
     7
370
    25
100
AcDbLine
 10
3838.3225156724
 20
1029.2543978663
 30
0.0
 11
3838.3225156724
 21
1038.3628237086
 31
0.0
  0
LINE
  5
351
330
1F
100
AcDbEntity
  8
0
  6
Continuous
 62
     7
370
    25
100
AcDbLine
 10
3838.6225156724
 20
1046.7543978663
 30
0.0
 11
3839.4725156724
 21
1046.7543978663
 31
0.0
  0
LINE
  5
352
330
1F
100
AcDbEntity
  8
0
  6
Continuous
 62
     7
370
    25
100
AcDbLine
 10
3838.1225156724
 20
1029.2543978663
 30
0.0
 11
3838.3225156724
 21
1029.2543978663
 31
0.0
  0
SPLINE
  5
353
330
1F
100
AcDbEntity
  8
0
  6
Continuous
 62
     7
370
    25
100
AcDbSpline
210
0.0
220
0.0
230
1.0
 70
     8
 71
     3
 72
     9
 73
     5
 74
     0
 42
0.00000001
 43
0.00000001
 40
0.0
 40
0.0
 40
0.0
 40
0.0
 40
0.5050081268929917
 40
0.9999999999999999
 40
0.9999999999999999
 40
0.9999999999999999
 40
0.9999999999999999
 10
3839.472515672358
 20
1066.754397866316
 30
0.0
 10
3839.595811944226
 20
1066.7666177257
 30
0.0
 10
3839.839959048602
 20
1066.79081507765
 30
0.0
 10
3840.028961162156
 20
1066.927891150913
 30
0.0
 10
3840.122515672365
 20
1066.995742693175
 30
0.0
  0
LINE
  5
354
330
1F
100
AcDbEntity
  8
0
  6
Continuous
 62
     7
370
    25
100
AcDbLine
 10
3838.3225156724
 20
1075.1459720241
 30
0.0
 11
3838.3225156724
 21
1084.2543978663
 31
0.0
  0
LINE
  5
355
330
1F
100
AcDbEntity
  8
0
  6
Continuous
 62
     7
370
    25
100
AcDbLine
 10
3839.4725156724
 20
1066.7543978663
 30
0.0
 11
3838.6225156724
 21
1066.7543978663
 31
0.0
  0
LINE
  5
356
330
1F
100
AcDbEntity
  8
0
  6
Continuous
 62
     7
370
    25
100
AcDbLine
 10
3838.1225156724
 20
1084.2543978663
 30
0.0
 11
3838.3225156724
 21
1084.2543978663
 31
0.0
  0
LINE
  5
357
330
1F
100
AcDbEntity
  8
0
  6
Continuous
 62
     7
370
    25
100
AcDbLine
 10
3838.1225156724
 20
1028.2543978663
 30
0.0
 11
3838.3225156724
 21
1028.2543978663
 31
0.0
  0
LINE
  5
358
330
1F
100
AcDbEntity
  8
0
  6
Continuous
 62
     7
370
    25
100
AcDbLine
 10
3838.1225156724
 20
1085.2543978663
 30
0.0
 11
3838.3225156724
 21
1085.2543978663
 31
0.0
  0
LINE
  5
359
330
1F
100
AcDbEntity
  8
0
  6
Continuous
 62
     7
370
    25
100
AcDbLine
 10
3838.6225156724
 20
1937.7984397273
 30
0.0
 11
3838.1225156724
 21
1937.7984397273
 31
0.0
  0
LINE
  5
35A
330
1F
100
AcDbEntity
  8
0
  6
Continuous
 62
     7
370
    25
100
AcDbLine
 10
3838.6225156724
 20
1939.3543978665
 30
0.0
 11
3838.1225156724
 21
1939.3543978665
 31
0.0
  0
LINE
  5
35B
330
1F
100
AcDbEntity
  8
0
  6
Continuous
 62
     7
370
    25
100
AcDbLine
 10
3838.6225156724
 20
1939.3543978665
 30
0.0
 11
3838.6225156724
 21
1937.7984397273
 31
0.0
  0
LINE
  5
35C
330
1F
100
AcDbEntity
  8
0
  6
Continuous
 62
     7
370
    25
100
AcDbLine
 10
3838.1225156724
 20
1955.7103560054
 30
0.0
 11
3838.6225156724
 21
1955.7103560054
 31
0.0
  0
LINE
  5
35D
330
1F
100
AcDbEntity
  8
0
  6
Continuous
 62
     7
370
    25
100
AcDbLine
 10
3838.6225156724
 20
1955.7103560054
 30
0.0
 11
3838.6225156724
 21
1954.1543978661
 31
0.0
  0
LINE
  5
35E
330
1F
100
AcDbEntity
  8
0
  6
Continuous
 62
     7
370
    25
100
AcDbLine
 10
3838.1225156724
 20
1954.1543978661
 30
0.0
 11
3838.6225156724
 21
1954.1543978661
 31
0.0
  0
LINE
  5
35F
330
1F
100
AcDbEntity
  8
0
  6
Continuous
 62
     7
370
    25
100
AcDbLine
 10
3838.3225156724
 20
1928.3628237086
 30
0.0
 11
3838.6225156724
 21
1928.3628237086
 31
0.0
  0
LINE
  5
360
330
1F
100
AcDbEntity
  8
0
  6
Continuous
 62
     7
370
    25
100
AcDbLine
 10
3838.1225156724
 20
1928.3628237086
 30
0.0
 11
3838.3225156724
 21
1928.3628237086
 31
0.0
  0
LINE
  5
361
330
1F
100
AcDbEntity
  8
0
  6
Continuous
 62
     7
370
    25
100
AcDbLine
 10
3838.6225156724
 20
1928.3628237086
 30
0.0
 11
3838.6225156724
 21
1937.7984397273
 31
0.0
  0
LINE
  5
362
330
1F
100
AcDbEntity
  8
0
  6
Continuous
 62
     7
370
    25
100
AcDbLine
 10
3838.3225156724
 20
1965.1459720241
 30
0.0
 11
3838.1225156724
 21
1965.1459720241
 31
0.0
  0
LINE
  5
363
330
1F
100
AcDbEntity
  8
0
  6
Continuous
 62
     7
370
    25
100
AcDbLine
 10
3838.6225156724
 20
1965.1459720241
 30
0.0
 11
3838.3225156724
 21
1965.1459720241
 31
0.0
  0
LINE
  5
364
330
1F
100
AcDbEntity
  8
0
  6
Continuous
 62
     7
370
    25
100
AcDbLine
 10
3838.6225156724
 20
1955.7103560054
 30
0.0
 11
3838.6225156724
 21
1965.1459720241
 31
0.0
  0
SPLINE
  5
365
330
1F
100
AcDbEntity
  8
0
  6
Continuous
 62
     7
370
    25
100
AcDbSpline
210
0.0
220
0.0
230
1.0
 70
    24
 71
     3
 72
    12
 73
     8
 74
     0
 42
0.00000001
 43
0.00000001
 40
0.0
 40
0.0
 40
0.0
 40
0.0
 40
0.1234882189629569
 40
0.304757477608538
 40
0.4857888495171647
 40
0.6670582154003885
 40
1.0
 40
1.0
 40
1.0
 40
1.0
 10
3840.122515672365
 20
1918.254397866317
 30
0.0
 10
3840.082769103328
 20
1918.254397866317
 30
0.0
 10
3839.984678255269
 20
1918.254397866318
 30
0.0
 10
3839.744704966909
 20
1918.254397866317
 30
0.0
 10
3839.429090778414
 20
1918.254397866318
 30
0.0
 10
3838.962180689314
 20
1918.254397866317
 30
0.0
 10
3838.573912089078
 20
1918.254397866316
 30
0.0
 10
3838.322515672361
 20
1918.254397866314
 30
0.0
  0
LINE
  5
366
330
1F
100
AcDbEntity
  8
0
  6
Continuous
 62
     7
370
    25
100
AcDbLine
 10
3838.3225156724
 20
1919.2543978663
 30
0.0
 11
3838.3225156724
 21
1918.2543978663
 31
0.0
  0
SPLINE
  5
367
330
1F
100
AcDbEntity
  8
0
  6
Continuous
 62
     7
370
    25
100
AcDbSpline
210
0.0
220
0.0
230
1.0
 70
    24
 71
     3
 72
    12
 73
     8
 74
     0
 42
0.00000001
 43
0.00000001
 40
0.0
 40
0.0
 40
0.0
 40
0.0
 40
0.3329369653734878
 40
0.5139656098116863
 40
0.695232244642906
 40
0.8762609961830636
 40
1.0
 40
1.0
 40
1.0
 40
1.0
 10
3838.322515672355
 20
1975.254397866313
 30
0.0
 10
3838.573913085497
 20
1975.254397866315
 30
0.0
 10
3838.962003439495
 20
1975.254397866316
 30
0.0
 10
3839.42893270917
 20
1975.254397866317
 30
0.0
 10
3839.744451598192
 20
1975.254397866317
 30
0.0
 10
3839.98457581671
 20
1975.254397866316
 30
0.0
 10
3840.082683067721
 20
1975.254397866316
 30
0.0
 10
3840.122515672365
 20
1975.254397866317
 30
0.0
  0
LINE
  5
368
330
1F
100
AcDbEntity
  8
0
  6
Continuous
 62
     7
370
    25
100
AcDbLine
 10
3838.3225156724
 20
1974.2543978663
 30
0.0
 11
3838.3225156724
 21
1975.2543978663
 31
0.0
  0
LINE
  5
369
330
1F
100
AcDbEntity
  8
0
  6
Continuous
 62
     7
370
    25
100
AcDbLine
 10
3838.1225156724
 20
1919.2543978663
 30
0.0
 11
3838.3225156724
 21
1919.2543978663
 31
0.0
  0
LINE
  5
36A
330
1F
100
AcDbEntity
  8
0
  6
Continuous
 62
     7
370
    25
100
AcDbLine
 10
3838.3225156724
 20
1919.2543978663
 30
0.0
 11
3838.3225156724
 21
1928.3628237086
 31
0.0
  0
SPLINE
  5
36B
330
1F
100
AcDbEntity
  8
0
  6
Continuous
 62
     7
370
    25
100
AcDbSpline
210
0.0
220
0.0
230
1.0
 70
     8
 71
     3
 72
    10
 73
     6
 74
     0
 42
0.00000001
 43
0.00000001
 40
0.0
 40
0.0
 40
0.0
 40
0.0
 40
0.037131194342985
 40
0.5486628195590677
 40
1.0
 40
1.0
 40
1.0
 40
1.0
 10
3840.122515672365
 20
1936.508633526143
 30
0.0
 10
3840.116892820151
 20
1936.515351873569
 30
0.0
 10
3840.033807694444
 20
1936.614624399191
 30
0.0
 10
3839.812251721859
 20
1936.715053312386
 30
0.0
 10
3839.580940832613
 20
1936.741841237216
 30
0.0
 10
3839.472515672359
 20
1936.754397866314
 30
0.0
  0
LINE
  5
36C
330
1F
100
AcDbEntity
  8
0
  6
Continuous
 62
     7
370
    25
100
AcDbLine
 10
3838.6225156724
 20
1936.7543978663
 30
0.0
 11
3839.4725156724
 21
1936.7543978663
 31
0.0
  0
LINE
  5
36D
330
1F
100
AcDbEntity
  8
0
  6
Continuous
 62
     7
370
    25
100
AcDbLine
 10
3838.1225156724
 20
1974.2543978663
 30
0.0
 11
3838.3225156724
 21
1974.2543978663
 31
0.0
  0
LINE
  5
36E
330
1F
100
AcDbEntity
  8
0
  6
Continuous
 62
     7
370
    25
100
AcDbLine
 10
3838.3225156724
 20
1965.1459720241
 30
0.0
 11
3838.3225156724
 21
1974.2543978663
 31
0.0
  0
SPLINE
  5
36F
330
1F
100
AcDbEntity
  8
0
  6
Continuous
 62
     7
370
    25
100
AcDbSpline
210
0.0
220
0.0
230
1.0
 70
     8
 71
     3
 72
     9
 73
     5
 74
     0
 42
0.00000001
 43
0.00000001
 40
0.0
 40
0.0
 40
0.0
 40
0.0
 40
0.5050081268919929
 40
1.0
 40
1.0
 40
1.0
 40
1.0
 10
3839.472515672357
 20
1956.754397866314
 30
0.0
 10
3839.595811944224
 20
1956.766617725698
 30
0.0
 10
3839.839959048601
 20
1956.790815077648
 30
0.0
 10
3840.028961162156
 20
1956.927891150911
 30
0.0
 10
3840.122515672365
 20
1956.995742693174
 30
0.0
  0
LINE
  5
370
330
1F
100
AcDbEntity
  8
0
  6
Continuous
 62
     7
370
    25
100
AcDbLine
 10
3839.4725156724
 20
1956.7543978663
 30
0.0
 11
3838.6225156724
 21
1956.7543978663
 31
0.0
  0
LINE
  5
371
330
1F
100
AcDbEntity
  8
0
  6
Continuous
 62
     7
370
    25
100
AcDbLine
 10
3838.1225156724
 20
1918.2543978663
 30
0.0
 11
3838.3225156724
 21
1918.2543978663
 31
0.0
  0
LINE
  5
372
330
1F
100
AcDbEntity
  8
0
  6
Continuous
 62
     7
370
    25
100
AcDbLine
 10
3838.1225156724
 20
1975.2543978663
 30
0.0
 11
3838.3225156724
 21
1975.2543978663
 31
0.0
  0
LINE
  5
373
330
1F
100
AcDbEntity
  8
0
  6
Continuous
 62
     7
370
    25
100
AcDbLine
 10
3838.6225156724
 20
1407.7984397273
 30
0.0
 11
3838.1225156724
 21
1407.7984397273
 31
0.0
  0
LINE
  5
374
330
1F
100
AcDbEntity
  8
0
  6
Continuous
 62
     7
370
    25
100
AcDbLine
 10
3838.6225156724
 20
1409.3543978665
 30
0.0
 11
3838.1225156724
 21
1409.3543978665
 31
0.0
  0
LINE
  5
375
330
1F
100
AcDbEntity
  8
0
  6
Continuous
 62
     7
370
    25
100
AcDbLine
 10
3838.6225156724
 20
1409.3543978665
 30
0.0
 11
3838.6225156724
 21
1407.7984397273
 31
0.0
  0
LINE
  5
376
330
1F
100
AcDbEntity
  8
0
  6
Continuous
 62
     7
370
    25
100
AcDbLine
 10
3838.1225156724
 20
1425.7103560054
 30
0.0
 11
3838.6225156724
 21
1425.7103560054
 31
0.0
  0
LINE
  5
377
330
1F
100
AcDbEntity
  8
0
  6
Continuous
 62
     7
370
    25
100
AcDbLine
 10
3838.6225156724
 20
1425.7103560054
 30
0.0
 11
3838.6225156724
 21
1424.1543978661
 31
0.0
  0
LINE
  5
378
330
1F
100
AcDbEntity
  8
0
  6
Continuous
 62
     7
370
    25
100
AcDbLine
 10
3838.1225156724
 20
1424.1543978661
 30
0.0
 11
3838.6225156724
 21
1424.1543978661
 31
0.0
  0
LINE
  5
379
330
1F
100
AcDbEntity
  8
0
  6
Continuous
 62
     7
370
    25
100
AcDbLine
 10
3838.3225156724
 20
1398.3628237086
 30
0.0
 11
3838.6225156724
 21
1398.3628237086
 31
0.0
  0
LINE
  5
37A
330
1F
100
AcDbEntity
  8
0
  6
Continuous
 62
     7
370
    25
100
AcDbLine
 10
3838.1225156724
 20
1398.3628237086
 30
0.0
 11
3838.3225156724
 21
1398.3628237086
 31
0.0
  0
LINE
  5
37B
330
1F
100
AcDbEntity
  8
0
  6
Continuous
 62
     7
370
    25
100
AcDbLine
 10
3838.6225156724
 20
1398.3628237086
 30
0.0
 11
3838.6225156724
 21
1407.7984397273
 31
0.0
  0
LINE
  5
37C
330
1F
100
AcDbEntity
  8
0
  6
Continuous
 62
     7
370
    25
100
AcDbLine
 10
3838.3225156724
 20
1435.1459720241
 30
0.0
 11
3838.1225156724
 21
1435.1459720241
 31
0.0
  0
LINE
  5
37D
330
1F
100
AcDbEntity
  8
0
  6
Continuous
 62
     7
370
    25
100
AcDbLine
 10
3838.6225156724
 20
1435.1459720241
 30
0.0
 11
3838.3225156724
 21
1435.1459720241
 31
0.0
  0
LINE
  5
37E
330
1F
100
AcDbEntity
  8
0
  6
Continuous
 62
     7
370
    25
100
AcDbLine
 10
3838.6225156724
 20
1425.7103560054
 30
0.0
 11
3838.6225156724
 21
1435.1459720241
 31
0.0
  0
SPLINE
  5
37F
330
1F
100
AcDbEntity
  8
0
  6
Continuous
 62
     7
370
    25
100
AcDbSpline
210
0.0
220
0.0
230
1.0
 70
    24
 71
     3
 72
    12
 73
     8
 74
     0
 42
0.00000001
 43
0.00000001
 40
0.0
 40
0.0
 40
0.0
 40
0.0
 40
0.1234882189595441
 40
0.3047574776058311
 40
0.4857888495151628
 40
0.6670582153990924
 40
1.0
 40
1.0
 40
1.0
 40
1.0
 10
3840.122515672365
 20
1388.254397866317
 30
0.0
 10
3840.082769103329
 20
1388.254397866317
 30
0.0
 10
3839.984678255272
 20
1388.254397866317
 30
0.0
 10
3839.744704966912
 20
1388.254397866317
 30
0.0
 10
3839.429090778418
 20
1388.254397866317
 30
0.0
 10
3838.962180689319
 20
1388.254397866318
 30
0.0
 10
3838.573912089081
 20
1388.254397866316
 30
0.0
 10
3838.322515672365
 20
1388.254397866314
 30
0.0
  0
LINE
  5
380
330
1F
100
AcDbEntity
  8
0
  6
Continuous
 62
     7
370
    25
100
AcDbLine
 10
3838.3225156724
 20
1389.2543978663
 30
0.0
 11
3838.3225156724
 21
1388.2543978663
 31
0.0
  0
SPLINE
  5
381
330
1F
100
AcDbEntity
  8
0
  6
Continuous
 62
     7
370
    25
100
AcDbSpline
210
0.0
220
0.0
230
1.0
 70
    24
 71
     3
 72
    12
 73
     8
 74
     0
 42
0.00000001
 43
0.00000001
 40
0.0
 40
0.0
 40
0.0
 40
0.0
 40
0.3329369653747987
 40
0.5139656098137099
 40
0.6952322446456434
 40
0.8762609961865137
 40
1.0
 40
1.0
 40
1.0
 40
1.0
 10
3838.322515672359
 20
1445.254397866313
 30
0.0
 10
3838.573913085502
 20
1445.254397866315
 30
0.0
 10
3838.962003439499
 20
1445.254397866317
 30
0.0
 10
3839.428932709174
 20
1445.254397866316
 30
0.0
 10
3839.744451598195
 20
1445.254397866316
 30
0.0
 10
3839.984575816712
 20
1445.254397866317
 30
0.0
 10
3840.082683067722
 20
1445.254397866317
 30
0.0
 10
3840.122515672365
 20
1445.254397866317
 30
0.0
  0
LINE
  5
382
330
1F
100
AcDbEntity
  8
0
  6
Continuous
 62
     7
370
    25
100
AcDbLine
 10
3838.3225156724
 20
1444.2543978663
 30
0.0
 11
3838.3225156724
 21
1445.2543978663
 31
0.0
  0
LINE
  5
383
330
1F
100
AcDbEntity
  8
0
  6
Continuous
 62
     7
370
    25
100
AcDbLine
 10
3838.1225156724
 20
1389.2543978663
 30
0.0
 11
3838.3225156724
 21
1389.2543978663
 31
0.0
  0
LINE
  5
384
330
1F
100
AcDbEntity
  8
0
  6
Continuous
 62
     7
370
    25
100
AcDbLine
 10
3838.3225156724
 20
1389.2543978663
 30
0.0
 11
3838.3225156724
 21
1398.3628237086
 31
0.0
  0
SPLINE
  5
385
330
1F
100
AcDbEntity
  8
0
  6
Continuous
 62
     7
370
    25
100
AcDbSpline
210
0.0
220
0.0
230
1.0
 70
     8
 71
     3
 72
    10
 73
     6
 74
     0
 42
0.00000001
 43
0.00000001
 40
0.0
 40
0.0
 40
0.0
 40
0.0
 40
0.0371311943345431
 40
0.5486628195551106
 40
1.0
 40
1.0
 40
1.0
 40
1.0
 10
3840.122515672365
 20
1406.508633526147
 30
0.0
 10
3840.116892820153
 20
1406.515351873572
 30
0.0
 10
3840.033807694447
 20
1406.614624399193
 30
0.0
 10
3839.812251721863
 20
1406.715053312385
 30
0.0
 10
3839.580940832617
 20
1406.741841237216
 30
0.0
 10
3839.472515672363
 20
1406.754397866314
 30
0.0
  0
LINE
  5
386
330
1F
100
AcDbEntity
  8
0
  6
Continuous
 62
     7
370
    25
100
AcDbLine
 10
3838.6225156724
 20
1406.7543978663
 30
0.0
 11
3839.4725156724
 21
1406.7543978663
 31
0.0
  0
LINE
  5
387
330
1F
100
AcDbEntity
  8
0
  6
Continuous
 62
     7
370
    25
100
AcDbLine
 10
3838.1225156724
 20
1444.2543978663
 30
0.0
 11
3838.3225156724
 21
1444.2543978663
 31
0.0
  0
LINE
  5
388
330
1F
100
AcDbEntity
  8
0
  6
Continuous
 62
     7
370
    25
100
AcDbLine
 10
3838.3225156724
 20
1435.1459720241
 30
0.0
 11
3838.3225156724
 21
1444.2543978663
 31
0.0
  0
SPLINE
  5
389
330
1F
100
AcDbEntity
  8
0
  6
Continuous
 62
     7
370
    25
100
AcDbSpline
210
0.0
220
0.0
230
1.0
 70
     8
 71
     3
 72
     9
 73
     5
 74
     0
 42
0.00000001
 43
0.00000001
 40
0.0
 40
0.0
 40
0.0
 40
0.0
 40
0.5050081268954345
 40
1.0
 40
1.0
 40
1.0
 40
1.0
 10
3839.472515672361
 20
1426.754397866314
 30
0.0
 10
3839.595811944229
 20
1426.766617725698
 30
0.0
 10
3839.839959048604
 20
1426.790815077648
 30
0.0
 10
3840.028961162157
 20
1426.92789115091
 30
0.0
 10
3840.122515672365
 20
1426.995742693172
 30
0.0
  0
LINE
  5
38A
330
1F
100
AcDbEntity
  8
0
  6
Continuous
 62
     7
370
    25
100
AcDbLine
 10
3839.4725156724
 20
1426.7543978663
 30
0.0
 11
3838.6225156724
 21
1426.7543978663
 31
0.0
  0
LINE
  5
38B
330
1F
100
AcDbEntity
  8
0
  6
Continuous
 62
     7
370
    25
100
AcDbLine
 10
3838.1225156724
 20
1388.2543978663
 30
0.0
 11
3838.3225156724
 21
1388.2543978663
 31
0.0
  0
LINE
  5
38C
330
1F
100
AcDbEntity
  8
0
  6
Continuous
 62
     7
370
    25
100
AcDbLine
 10
3838.1225156724
 20
1445.2543978663
 30
0.0
 11
3838.3225156724
 21
1445.2543978663
 31
0.0
  0
LINE
  5
38D
330
1F
100
AcDbEntity
  8
0
  6
Continuous
 62
     7
370
    25
100
AcDbLine
 10
3838.6225156724
 20
2307.7984397273
 30
0.0
 11
3838.1225156724
 21
2307.7984397273
 31
0.0
  0
LINE
  5
38E
330
1F
100
AcDbEntity
  8
0
  6
Continuous
 62
     7
370
    25
100
AcDbLine
 10
3838.6225156724
 20
2309.3543978665
 30
0.0
 11
3838.1225156724
 21
2309.3543978665
 31
0.0
  0
LINE
  5
38F
330
1F
100
AcDbEntity
  8
0
  6
Continuous
 62
     7
370
    25
100
AcDbLine
 10
3838.6225156724
 20
2309.3543978665
 30
0.0
 11
3838.6225156724
 21
2307.7984397273
 31
0.0
  0
LINE
  5
390
330
1F
100
AcDbEntity
  8
0
  6
Continuous
 62
     7
370
    25
100
AcDbLine
 10
3838.1225156724
 20
2325.7103560054
 30
0.0
 11
3838.6225156724
 21
2325.7103560054
 31
0.0
  0
LINE
  5
391
330
1F
100
AcDbEntity
  8
0
  6
Continuous
 62
     7
370
    25
100
AcDbLine
 10
3838.6225156724
 20
2325.7103560054
 30
0.0
 11
3838.6225156724
 21
2324.1543978661
 31
0.0
  0
LINE
  5
392
330
1F
100
AcDbEntity
  8
0
  6
Continuous
 62
     7
370
    25
100
AcDbLine
 10
3838.1225156724
 20
2324.1543978661
 30
0.0
 11
3838.6225156724
 21
2324.1543978661
 31
0.0
  0
LINE
  5
393
330
1F
100
AcDbEntity
  8
0
  6
Continuous
 62
     7
370
    25
100
AcDbLine
 10
3838.3225156724
 20
2298.3628237086
 30
0.0
 11
3838.6225156724
 21
2298.3628237086
 31
0.0
  0
LINE
  5
394
330
1F
100
AcDbEntity
  8
0
  6
Continuous
 62
     7
370
    25
100
AcDbLine
 10
3838.1225156724
 20
2298.3628237086
 30
0.0
 11
3838.3225156724
 21
2298.3628237086
 31
0.0
  0
LINE
  5
395
330
1F
100
AcDbEntity
  8
0
  6
Continuous
 62
     7
370
    25
100
AcDbLine
 10
3838.6225156724
 20
2298.3628237086
 30
0.0
 11
3838.6225156724
 21
2307.7984397273
 31
0.0
  0
LINE
  5
396
330
1F
100
AcDbEntity
  8
0
  6
Continuous
 62
     7
370
    25
100
AcDbLine
 10
3838.3225156724
 20
2335.1459720241
 30
0.0
 11
3838.1225156724
 21
2335.1459720241
 31
0.0
  0
LINE
  5
397
330
1F
100
AcDbEntity
  8
0
  6
Continuous
 62
     7
370
    25
100
AcDbLine
 10
3838.6225156724
 20
2335.1459720241
 30
0.0
 11
3838.3225156724
 21
2335.1459720241
 31
0.0
  0
LINE
  5
398
330
1F
100
AcDbEntity
  8
0
  6
Continuous
 62
     7
370
    25
100
AcDbLine
 10
3838.6225156724
 20
2325.7103560054
 30
0.0
 11
3838.6225156724
 21
2335.1459720241
 31
0.0
  0
SPLINE
  5
399
330
1F
100
AcDbEntity
  8
0
  6
Continuous
 62
     7
370
    25
100
AcDbSpline
210
0.0
220
0.0
230
1.0
 70
    24
 71
     3
 72
    12
 73
     8
 74
     0
 42
0.00000001
 43
0.00000001
 40
0.0
 40
0.0
 40
0.0
 40
0.0
 40
0.1234882189629569
 40
0.304757477608538
 40
0.4857888495171647
 40
0.6670582154003885
 40
1.0
 40
1.0
 40
1.0
 40
1.0
 10
3840.122515672365
 20
2288.254397866317
 30
0.0
 10
3840.082769103328
 20
2288.254397866317
 30
0.0
 10
3839.984678255269
 20
2288.254397866318
 30
0.0
 10
3839.744704966909
 20
2288.254397866317
 30
0.0
 10
3839.429090778414
 20
2288.254397866318
 30
0.0
 10
3838.962180689314
 20
2288.254397866317
 30
0.0
 10
3838.573912089078
 20
2288.254397866315
 30
0.0
 10
3838.322515672361
 20
2288.254397866315
 30
0.0
  0
LINE
  5
39A
330
1F
100
AcDbEntity
  8
0
  6
Continuous
 62
     7
370
    25
100
AcDbLine
 10
3838.3225156724
 20
2289.2543978663
 30
0.0
 11
3838.3225156724
 21
2288.2543978663
 31
0.0
  0
SPLINE
  5
39B
330
1F
100
AcDbEntity
  8
0
  6
Continuous
 62
     7
370
    25
100
AcDbSpline
210
0.0
220
0.0
230
1.0
 70
    24
 71
     3
 72
    12
 73
     8
 74
     0
 42
0.00000001
 43
0.00000001
 40
0.0
 40
0.0
 40
0.0
 40
0.0
 40
0.3329369653734878
 40
0.5139656098116863
 40
0.695232244642906
 40
0.8762609961830636
 40
1.0
 40
1.0
 40
1.0
 40
1.0
 10
3838.322515672355
 20
2345.254397866313
 30
0.0
 10
3838.573913085497
 20
2345.254397866315
 30
0.0
 10
3838.962003439495
 20
2345.254397866317
 30
0.0
 10
3839.42893270917
 20
2345.254397866317
 30
0.0
 10
3839.744451598192
 20
2345.254397866317
 30
0.0
 10
3839.98457581671
 20
2345.254397866317
 30
0.0
 10
3840.082683067721
 20
2345.254397866317
 30
0.0
 10
3840.122515672365
 20
2345.254397866317
 30
0.0
  0
LINE
  5
39C
330
1F
100
AcDbEntity
  8
0
  6
Continuous
 62
     7
370
    25
100
AcDbLine
 10
3838.3225156724
 20
2344.2543978663
 30
0.0
 11
3838.3225156724
 21
2345.2543978663
 31
0.0
  0
SPLINE
  5
39D
330
1F
100
AcDbEntity
  8
0
  6
Continuous
 62
     7
370
    25
100
AcDbSpline
210
0.0
220
0.0
230
1.0
 70
     8
 71
     3
 72
    10
 73
     6
 74
     0
 42
0.00000001
 43
0.00000001
 40
0.0
 40
0.0
 40
0.0
 40
0.0
 40
0.037131194342985
 40
0.5486628195590677
 40
1.0
 40
1.0
 40
1.0
 40
1.0
 10
3840.122515672365
 20
2306.508633526142
 30
0.0
 10
3840.116892820151
 20
2306.515351873569
 30
0.0
 10
3840.033807694444
 20
2306.614624399191
 30
0.0
 10
3839.812251721859
 20
2306.715053312387
 30
0.0
 10
3839.580940832613
 20
2306.741841237216
 30
0.0
 10
3839.472515672359
 20
2306.754397866314
 30
0.0
  0
LINE
  5
39E
330
1F
100
AcDbEntity
  8
0
  6
Continuous
 62
     7
370
    25
100
AcDbLine
 10
3838.3225156724
 20
2289.2543978663
 30
0.0
 11
3838.3225156724
 21
2298.3628237086
 31
0.0
  0
LINE
  5
39F
330
1F
100
AcDbEntity
  8
0
  6
Continuous
 62
     7
370
    25
100
AcDbLine
 10
3838.6225156724
 20
2306.7543978663
 30
0.0
 11
3839.4725156724
 21
2306.7543978663
 31
0.0
  0
LINE
  5
3A0
330
1F
100
AcDbEntity
  8
0
  6
Continuous
 62
     7
370
    25
100
AcDbLine
 10
3838.1225156724
 20
2289.2543978663
 30
0.0
 11
3838.3225156724
 21
2289.2543978663
 31
0.0
  0
LINE
  5
3A1
330
1F
100
AcDbEntity
  8
0
  6
Continuous
 62
     7
370
    25
100
AcDbLine
 10
3838.1225156724
 20
2344.2543978663
 30
0.0
 11
3838.3225156724
 21
2344.2543978663
 31
0.0
  0
LINE
  5
3A2
330
1F
100
AcDbEntity
  8
0
  6
Continuous
 62
     7
370
    25
100
AcDbLine
 10
3838.3225156724
 20
2335.1459720241
 30
0.0
 11
3838.3225156724
 21
2344.2543978663
 31
0.0
  0
SPLINE
  5
3A3
330
1F
100
AcDbEntity
  8
0
  6
Continuous
 62
     7
370
    25
100
AcDbSpline
210
0.0
220
0.0
230
1.0
 70
     8
 71
     3
 72
     9
 73
     5
 74
     0
 42
0.00000001
 43
0.00000001
 40
0.0
 40
0.0
 40
0.0
 40
0.0
 40
0.5050081268919929
 40
1.0
 40
1.0
 40
1.0
 40
1.0
 10
3839.472515672357
 20
2326.754397866315
 30
0.0
 10
3839.595811944224
 20
2326.766617725699
 30
0.0
 10
3839.839959048601
 20
2326.790815077648
 30
0.0
 10
3840.028961162156
 20
2326.927891150911
 30
0.0
 10
3840.122515672365
 20
2326.995742693174
 30
0.0
  0
LINE
  5
3A4
330
1F
100
AcDbEntity
  8
0
  6
Continuous
 62
     7
370
    25
100
AcDbLine
 10
3839.4725156724
 20
2326.7543978663
 30
0.0
 11
3838.6225156724
 21
2326.7543978663
 31
0.0
  0
LINE
  5
3A5
330
1F
100
AcDbEntity
  8
0
  6
Continuous
 62
     7
370
    25
100
AcDbLine
 10
3838.1225156724
 20
2288.2543978663
 30
0.0
 11
3838.3225156724
 21
2288.2543978663
 31
0.0
  0
LINE
  5
3A6
330
1F
100
AcDbEntity
  8
0
  6
Continuous
 62
     7
370
    25
100
AcDbLine
 10
3838.1225156724
 20
2345.2543978663
 30
0.0
 11
3838.3225156724
 21
2345.2543978663
 31
0.0
  0
LINE
  5
3A7
330
1F
100
AcDbEntity
  8
0
  6
Continuous
 62
     7
370
    25
100
AcDbLine
 10
3839.9877005974
 20
1408.3793978663
 30
0.0
 11
3839.9877005974
 21
1409.3043978663
 31
0.0
  0
LINE
  5
3A8
330
1F
100
AcDbEntity
  8
0
  6
Continuous
 62
     7
370
    25
100
AcDbLine
 10
3839.9877005974
 20
1424.2043978663
 30
0.0
 11
3839.9877005974
 21
1425.1293978663
 31
0.0
  0
LINE
  5
3A9
330
1F
100
AcDbEntity
  8
0
  6
Continuous
 62
     7
370
    25
100
AcDbLine
 10
3839.9877005974
 20
1425.1293978663
 30
0.0
 11
3840.1225156724
 21
1425.1293978663
 31
0.0
  0
LINE
  5
3AA
330
1F
100
AcDbEntity
  8
0
  6
Continuous
 62
     7
370
    25
100
AcDbLine
 10
3840.1225156724
 20
1408.3793978663
 30
0.0
 11
3839.9877005974
 21
1408.3793978663
 31
0.0
  0
LINE
  5
3AB
330
1F
100
AcDbEntity
  8
0
  6
Continuous
 62
     7
370
    25
100
AcDbLine
 10
3838.6225156724
 20
1425.1293978663
 30
0.0
 11
3839.9877005974
 21
1425.1293978663
 31
0.0
  0
LINE
  5
3AC
330
1F
100
AcDbEntity
  8
0
  6
Continuous
 62
     7
370
    25
100
AcDbLine
 10
3839.9877005974
 20
1408.3793978663
 30
0.0
 11
3838.6225156724
 21
1408.3793978663
 31
0.0
  0
LINE
  5
3AD
330
1F
100
AcDbEntity
  8
0
  6
Continuous
 62
     7
370
    25
100
AcDbLine
 10
3839.9877005974
 20
688.3793978663
 30
0.0
 11
3839.9877005974
 21
689.3043978663
 31
0.0
  0
LINE
  5
3AE
330
1F
100
AcDbEntity
  8
0
  6
Continuous
 62
     7
370
    25
100
AcDbLine
 10
3839.9877005974
 20
704.2043978663
 30
0.0
 11
3839.9877005974
 21
705.1293978663
 31
0.0
  0
LINE
  5
3AF
330
1F
100
AcDbEntity
  8
0
  6
Continuous
 62
     7
370
    25
100
AcDbLine
 10
3839.9877005974
 20
705.1293978663
 30
0.0
 11
3840.1225156724
 21
705.1293978663
 31
0.0
  0
LINE
  5
3B0
330
1F
100
AcDbEntity
  8
0
  6
Continuous
 62
     7
370
    25
100
AcDbLine
 10
3840.1225156724
 20
688.3793978663
 30
0.0
 11
3839.9877005974
 21
688.3793978663
 31
0.0
  0
LINE
  5
3B1
330
1F
100
AcDbEntity
  8
0
  6
Continuous
 62
     7
370
    25
100
AcDbLine
 10
3838.6225156724
 20
705.1293978663
 30
0.0
 11
3839.9877005974
 21
705.1293978663
 31
0.0
  0
LINE
  5
3B2
330
1F
100
AcDbEntity
  8
0
  6
Continuous
 62
     7
370
    25
100
AcDbLine
 10
3839.9877005974
 20
688.3793978663
 30
0.0
 11
3838.6225156724
 21
688.3793978663
 31
0.0
  0
LINE
  5
3B3
330
1F
100
AcDbEntity
  8
0
  6
Continuous
 62
     7
370
    25
100
AcDbLine
 10
3839.9877005974
 20
1938.3793978663
 30
0.0
 11
3839.9877005974
 21
1939.3043978663
 31
0.0
  0
LINE
  5
3B4
330
1F
100
AcDbEntity
  8
0
  6
Continuous
 62
     7
370
    25
100
AcDbLine
 10
3839.9877005974
 20
1954.2043978663
 30
0.0
 11
3839.9877005974
 21
1955.1293978663
 31
0.0
  0
LINE
  5
3B5
330
1F
100
AcDbEntity
  8
0
  6
Continuous
 62
     7
370
    25
100
AcDbLine
 10
3839.9877005974
 20
1955.1293978663
 30
0.0
 11
3840.1225156724
 21
1955.1293978663
 31
0.0
  0
LINE
  5
3B6
330
1F
100
AcDbEntity
  8
0
  6
Continuous
 62
     7
370
    25
100
AcDbLine
 10
3840.1225156724
 20
1938.3793978663
 30
0.0
 11
3839.9877005974
 21
1938.3793978663
 31
0.0
  0
LINE
  5
3B7
330
1F
100
AcDbEntity
  8
0
  6
Continuous
 62
     7
370
    25
100
AcDbLine
 10
3838.6225156724
 20
1955.1293978663
 30
0.0
 11
3839.9877005974
 21
1955.1293978663
 31
0.0
  0
LINE
  5
3B8
330
1F
100
AcDbEntity
  8
0
  6
Continuous
 62
     7
370
    25
100
AcDbLine
 10
3839.9877005974
 20
1938.3793978663
 30
0.0
 11
3838.6225156724
 21
1938.3793978663
 31
0.0
  0
LINE
  5
3B9
330
1F
100
AcDbEntity
  8
0
  6
Continuous
 62
     7
370
    25
100
AcDbLine
 10
3839.9877005974
 20
2308.3793978663
 30
0.0
 11
3839.9877005974
 21
2309.3043978663
 31
0.0
  0
LINE
  5
3BA
330
1F
100
AcDbEntity
  8
0
  6
Continuous
 62
     7
370
    25
100
AcDbLine
 10
3839.9877005974
 20
2324.2043978663
 30
0.0
 11
3839.9877005974
 21
2325.1293978663
 31
0.0
  0
LINE
  5
3BB
330
1F
100
AcDbEntity
  8
0
  6
Continuous
 62
     7
370
    25
100
AcDbLine
 10
3839.9877005974
 20
2325.1293978663
 30
0.0
 11
3840.1225156724
 21
2325.1293978663
 31
0.0
  0
LINE
  5
3BC
330
1F
100
AcDbEntity
  8
0
  6
Continuous
 62
     7
370
    25
100
AcDbLine
 10
3840.1225156724
 20
2308.3793978663
 30
0.0
 11
3839.9877005974
 21
2308.3793978663
 31
0.0
  0
LINE
  5
3BD
330
1F
100
AcDbEntity
  8
0
  6
Continuous
 62
     7
370
    25
100
AcDbLine
 10
3838.6225156724
 20
2325.1293978663
 30
0.0
 11
3839.9877005974
 21
2325.1293978663
 31
0.0
  0
LINE
  5
3BE
330
1F
100
AcDbEntity
  8
0
  6
Continuous
 62
     7
370
    25
100
AcDbLine
 10
3839.9877005974
 20
2308.3793978663
 30
0.0
 11
3838.6225156724
 21
2308.3793978663
 31
0.0
  0
LINE
  5
3BF
330
1F
100
AcDbEntity
  8
0
  6
Continuous
 62
     7
370
    25
100
AcDbLine
 10
3839.9877005974
 20
1048.3793978663
 30
0.0
 11
3839.9877005974
 21
1049.3043978663
 31
0.0
  0
LINE
  5
3C0
330
1F
100
AcDbEntity
  8
0
  6
Continuous
 62
     7
370
    25
100
AcDbLine
 10
3839.9877005974
 20
1064.2043978663
 30
0.0
 11
3839.9877005974
 21
1065.1293978663
 31
0.0
  0
LINE
  5
3C1
330
1F
100
AcDbEntity
  8
0
  6
Continuous
 62
     7
370
    25
100
AcDbLine
 10
3839.9877005974
 20
1065.1293978663
 30
0.0
 11
3840.1225156724
 21
1065.1293978663
 31
0.0
  0
LINE
  5
3C2
330
1F
100
AcDbEntity
  8
0
  6
Continuous
 62
     7
370
    25
100
AcDbLine
 10
3840.1225156724
 20
1048.3793978663
 30
0.0
 11
3839.9877005974
 21
1048.3793978663
 31
0.0
  0
LINE
  5
3C3
330
1F
100
AcDbEntity
  8
0
  6
Continuous
 62
     7
370
    25
100
AcDbLine
 10
3838.6225156724
 20
1065.1293978663
 30
0.0
 11
3839.9877005974
 21
1065.1293978663
 31
0.0
  0
LINE
  5
3C4
330
1F
100
AcDbEntity
  8
0
  6
Continuous
 62
     7
370
    25
100
AcDbLine
 10
3839.9877005974
 20
1048.3793978663
 30
0.0
 11
3838.6225156724
 21
1048.3793978663
 31
0.0
  0
LINE
  5
3C5
330
1F
100
AcDbEntity
  8
0
  6
Continuous
 62
     7
370
    25
100
AcDbLine
 10
3840.1225156724
 20
1940.2543978663
 30
0.0
 11
3838.1225156724
 21
1940.2543978663
 31
0.0
  0
LINE
  5
3C6
330
1F
100
AcDbEntity
  8
0
  6
Continuous
 62
     7
370
    25
100
AcDbLine
 10
3838.1225156724
 20
1953.2543978663
 30
0.0
 11
3840.1225156724
 21
1953.2543978663
 31
0.0
  0
LINE
  5
3C7
330
1F
100
AcDbEntity
  8
0
  6
Continuous
 62
     7
370
    25
100
AcDbLine
 10
3839.3937982176
 20
1954.2043978663
 30
0.0
 11
3839.3937982176
 21
1953.2543978663
 31
0.0
  0
LINE
  5
3C8
330
1F
100
AcDbEntity
  8
0
  6
Continuous
 62
     7
370
    25
100
AcDbLine
 10
3839.3937982176
 20
1940.2543978663
 30
0.0
 11
3839.3937982176
 21
1939.3043978663
 31
0.0
  0
LINE
  5
3C9
330
1F
100
AcDbEntity
  8
0
  6
Continuous
 62
     7
370
    25
100
AcDbLine
 10
3839.3937982176
 20
1954.2043978663
 30
0.0
 11
3840.1225156724
 21
1954.2043978663
 31
0.0
  0
LINE
  5
3CA
330
1F
100
AcDbEntity
  8
0
  6
Continuous
 62
     7
370
    25
100
AcDbLine
 10
3839.3937982176
 20
1939.3043978663
 30
0.0
 11
3840.1225156724
 21
1939.3043978663
 31
0.0
  0
LINE
  5
3CB
330
1F
100
AcDbEntity
  8
0
  6
Continuous
 62
     7
370
    25
100
AcDbLine
 10
3839.332428722
 20
1954.2043978663
 30
0.0
 11
3839.332428722
 21
1953.2543978663
 31
0.0
  0
LINE
  5
3CC
330
1F
100
AcDbEntity
  8
0
  6
Continuous
 62
     7
370
    25
100
AcDbLine
 10
3839.332428722
 20
1940.2543978663
 30
0.0
 11
3839.332428722
 21
1939.3043978663
 31
0.0
  0
LINE
  5
3CD
330
1F
100
AcDbEntity
  8
0
  6
Continuous
 62
     7
370
    25
100
AcDbLine
 10
3839.332428722
 20
1954.2043978663
 30
0.0
 11
3839.3937982176
 21
1954.2043978663
 31
0.0
  0
LINE
  5
3CE
330
1F
100
AcDbEntity
  8
0
  6
Continuous
 62
     7
370
    25
100
AcDbLine
 10
3839.332428722
 20
1939.3043978663
 30
0.0
 11
3839.3937982176
 21
1939.3043978663
 31
0.0
  0
LINE
  5
3CF
330
1F
100
AcDbEntity
  8
0
  6
Continuous
 62
     7
370
    25
100
AcDbLine
 10
3840.1225156724
 20
690.2543978663
 30
0.0
 11
3838.1225156724
 21
690.2543978663
 31
0.0
  0
LINE
  5
3D0
330
1F
100
AcDbEntity
  8
0
  6
Continuous
 62
     7
370
    25
100
AcDbLine
 10
3838.1225156724
 20
703.2543978663
 30
0.0
 11
3840.1225156724
 21
703.2543978663
 31
0.0
  0
LINE
  5
3D1
330
1F
100
AcDbEntity
  8
0
  6
Continuous
 62
     7
370
    25
100
AcDbLine
 10
3839.3937982176
 20
704.2043978663
 30
0.0
 11
3839.3937982176
 21
703.2543978663
 31
0.0
  0
LINE
  5
3D2
330
1F
100
AcDbEntity
  8
0
  6
Continuous
 62
     7
370
    25
100
AcDbLine
 10
3839.3937982176
 20
690.2543978663
 30
0.0
 11
3839.3937982176
 21
689.3043978663
 31
0.0
  0
LINE
  5
3D3
330
1F
100
AcDbEntity
  8
0
  6
Continuous
 62
     7
370
    25
100
AcDbLine
 10
3839.3937982176
 20
704.2043978663
 30
0.0
 11
3840.1225156724
 21
704.2043978663
 31
0.0
  0
LINE
  5
3D4
330
1F
100
AcDbEntity
  8
0
  6
Continuous
 62
     7
370
    25
100
AcDbLine
 10
3839.3937982176
 20
689.3043978663
 30
0.0
 11
3840.1225156724
 21
689.3043978663
 31
0.0
  0
LINE
  5
3D5
330
1F
100
AcDbEntity
  8
0
  6
Continuous
 62
     7
370
    25
100
AcDbLine
 10
3839.332428722
 20
704.2043978663
 30
0.0
 11
3839.332428722
 21
703.2543978663
 31
0.0
  0
LINE
  5
3D6
330
1F
100
AcDbEntity
  8
0
  6
Continuous
 62
     7
370
    25
100
AcDbLine
 10
3839.332428722
 20
690.2543978663
 30
0.0
 11
3839.332428722
 21
689.3043978663
 31
0.0
  0
LINE
  5
3D7
330
1F
100
AcDbEntity
  8
0
  6
Continuous
 62
     7
370
    25
100
AcDbLine
 10
3839.332428722
 20
704.2043978663
 30
0.0
 11
3839.3937982176
 21
704.2043978663
 31
0.0
  0
LINE
  5
3D8
330
1F
100
AcDbEntity
  8
0
  6
Continuous
 62
     7
370
    25
100
AcDbLine
 10
3839.332428722
 20
689.3043978663
 30
0.0
 11
3839.3937982176
 21
689.3043978663
 31
0.0
  0
LINE
  5
3D9
330
1F
100
AcDbEntity
  8
0
  6
Continuous
 62
     7
370
    25
100
AcDbLine
 10
3840.1225156724
 20
1410.2543978663
 30
0.0
 11
3838.1225156724
 21
1410.2543978663
 31
0.0
  0
LINE
  5
3DA
330
1F
100
AcDbEntity
  8
0
  6
Continuous
 62
     7
370
    25
100
AcDbLine
 10
3838.1225156724
 20
1423.2543978663
 30
0.0
 11
3840.1225156724
 21
1423.2543978663
 31
0.0
  0
LINE
  5
3DB
330
1F
100
AcDbEntity
  8
0
  6
Continuous
 62
     7
370
    25
100
AcDbLine
 10
3839.3937982176
 20
1424.2043978663
 30
0.0
 11
3839.3937982176
 21
1423.2543978663
 31
0.0
  0
LINE
  5
3DC
330
1F
100
AcDbEntity
  8
0
  6
Continuous
 62
     7
370
    25
100
AcDbLine
 10
3839.3937982176
 20
1410.2543978663
 30
0.0
 11
3839.3937982176
 21
1409.3043978663
 31
0.0
  0
LINE
  5
3DD
330
1F
100
AcDbEntity
  8
0
  6
Continuous
 62
     7
370
    25
100
AcDbLine
 10
3839.3937982176
 20
1424.2043978663
 30
0.0
 11
3840.1225156724
 21
1424.2043978663
 31
0.0
  0
LINE
  5
3DE
330
1F
100
AcDbEntity
  8
0
  6
Continuous
 62
     7
370
    25
100
AcDbLine
 10
3839.3937982176
 20
1409.3043978663
 30
0.0
 11
3840.1225156724
 21
1409.3043978663
 31
0.0
  0
LINE
  5
3DF
330
1F
100
AcDbEntity
  8
0
  6
Continuous
 62
     7
370
    25
100
AcDbLine
 10
3839.332428722
 20
1424.2043978663
 30
0.0
 11
3839.332428722
 21
1423.2543978663
 31
0.0
  0
LINE
  5
3E0
330
1F
100
AcDbEntity
  8
0
  6
Continuous
 62
     7
370
    25
100
AcDbLine
 10
3839.332428722
 20
1410.2543978663
 30
0.0
 11
3839.332428722
 21
1409.3043978663
 31
0.0
  0
LINE
  5
3E1
330
1F
100
AcDbEntity
  8
0
  6
Continuous
 62
     7
370
    25
100
AcDbLine
 10
3839.332428722
 20
1424.2043978663
 30
0.0
 11
3839.3937982176
 21
1424.2043978663
 31
0.0
  0
LINE
  5
3E2
330
1F
100
AcDbEntity
  8
0
  6
Continuous
 62
     7
370
    25
100
AcDbLine
 10
3839.332428722
 20
1409.3043978663
 30
0.0
 11
3839.3937982176
 21
1409.3043978663
 31
0.0
  0
LINE
  5
3E3
330
1F
100
AcDbEntity
  8
0
  6
Continuous
 62
     7
370
    25
100
AcDbLine
 10
3840.1225156724
 20
2310.2543978663
 30
0.0
 11
3838.1225156724
 21
2310.2543978663
 31
0.0
  0
LINE
  5
3E4
330
1F
100
AcDbEntity
  8
0
  6
Continuous
 62
     7
370
    25
100
AcDbLine
 10
3838.1225156724
 20
2323.2543978663
 30
0.0
 11
3840.1225156724
 21
2323.2543978663
 31
0.0
  0
LINE
  5
3E5
330
1F
100
AcDbEntity
  8
0
  6
Continuous
 62
     7
370
    25
100
AcDbLine
 10
3839.3937982176
 20
2324.2043978663
 30
0.0
 11
3839.3937982176
 21
2323.2543978663
 31
0.0
  0
LINE
  5
3E6
330
1F
100
AcDbEntity
  8
0
  6
Continuous
 62
     7
370
    25
100
AcDbLine
 10
3839.3937982176
 20
2310.2543978663
 30
0.0
 11
3839.3937982176
 21
2309.3043978663
 31
0.0
  0
LINE
  5
3E7
330
1F
100
AcDbEntity
  8
0
  6
Continuous
 62
     7
370
    25
100
AcDbLine
 10
3839.3937982176
 20
2324.2043978663
 30
0.0
 11
3840.1225156724
 21
2324.2043978663
 31
0.0
  0
LINE
  5
3E8
330
1F
100
AcDbEntity
  8
0
  6
Continuous
 62
     7
370
    25
100
AcDbLine
 10
3839.3937982176
 20
2309.3043978663
 30
0.0
 11
3840.1225156724
 21
2309.3043978663
 31
0.0
  0
LINE
  5
3E9
330
1F
100
AcDbEntity
  8
0
  6
Continuous
 62
     7
370
    25
100
AcDbLine
 10
3839.332428722
 20
2324.2043978663
 30
0.0
 11
3839.332428722
 21
2323.2543978663
 31
0.0
  0
LINE
  5
3EA
330
1F
100
AcDbEntity
  8
0
  6
Continuous
 62
     7
370
    25
100
AcDbLine
 10
3839.332428722
 20
2310.2543978663
 30
0.0
 11
3839.332428722
 21
2309.3043978663
 31
0.0
  0
LINE
  5
3EB
330
1F
100
AcDbEntity
  8
0
  6
Continuous
 62
     7
370
    25
100
AcDbLine
 10
3839.332428722
 20
2324.2043978663
 30
0.0
 11
3839.3937982176
 21
2324.2043978663
 31
0.0
  0
LINE
  5
3EC
330
1F
100
AcDbEntity
  8
0
  6
Continuous
 62
     7
370
    25
100
AcDbLine
 10
3839.332428722
 20
2309.3043978663
 30
0.0
 11
3839.3937982176
 21
2309.3043978663
 31
0.0
  0
LINE
  5
3ED
330
1F
100
AcDbEntity
  8
0
  6
Continuous
 62
     7
370
    25
100
AcDbLine
 10
3840.1225156724
 20
1050.2543978663
 30
0.0
 11
3838.1225156724
 21
1050.2543978663
 31
0.0
  0
LINE
  5
3EE
330
1F
100
AcDbEntity
  8
0
  6
Continuous
 62
     7
370
    25
100
AcDbLine
 10
3838.1225156724
 20
1063.2543978663
 30
0.0
 11
3840.1225156724
 21
1063.2543978663
 31
0.0
  0
LINE
  5
3EF
330
1F
100
AcDbEntity
  8
0
  6
Continuous
 62
     7
370
    25
100
AcDbLine
 10
3839.3937982176
 20
1064.2043978663
 30
0.0
 11
3839.3937982176
 21
1063.2543978663
 31
0.0
  0
LINE
  5
3F0
330
1F
100
AcDbEntity
  8
0
  6
Continuous
 62
     7
370
    25
100
AcDbLine
 10
3839.3937982176
 20
1050.2543978663
 30
0.0
 11
3839.3937982176
 21
1049.3043978663
 31
0.0
  0
LINE
  5
3F1
330
1F
100
AcDbEntity
  8
0
  6
Continuous
 62
     7
370
    25
100
AcDbLine
 10
3839.3937982176
 20
1064.2043978663
 30
0.0
 11
3840.1225156724
 21
1064.2043978663
 31
0.0
  0
LINE
  5
3F2
330
1F
100
AcDbEntity
  8
0
  6
Continuous
 62
     7
370
    25
100
AcDbLine
 10
3839.3937982176
 20
1049.3043978663
 30
0.0
 11
3840.1225156724
 21
1049.3043978663
 31
0.0
  0
LINE
  5
3F3
330
1F
100
AcDbEntity
  8
0
  6
Continuous
 62
     7
370
    25
100
AcDbLine
 10
3839.332428722
 20
1064.2043978663
 30
0.0
 11
3839.332428722
 21
1063.2543978663
 31
0.0
  0
LINE
  5
3F4
330
1F
100
AcDbEntity
  8
0
  6
Continuous
 62
     7
370
    25
100
AcDbLine
 10
3839.332428722
 20
1050.2543978663
 30
0.0
 11
3839.332428722
 21
1049.3043978663
 31
0.0
  0
LINE
  5
3F5
330
1F
100
AcDbEntity
  8
0
  6
Continuous
 62
     7
370
    25
100
AcDbLine
 10
3839.332428722
 20
1064.2043978663
 30
0.0
 11
3839.3937982176
 21
1064.2043978663
 31
0.0
  0
LINE
  5
3F6
330
1F
100
AcDbEntity
  8
0
  6
Continuous
 62
     7
370
    25
100
AcDbLine
 10
3839.332428722
 20
1049.3043978663
 30
0.0
 11
3839.3937982176
 21
1049.3043978663
 31
0.0
  0
LINE
  5
3F7
330
1F
100
AcDbEntity
  8
0
  6
Continuous
 62
     7
370
    25
100
AcDbLine
 10
3838.6225156724
 20
2324.2293978663
 30
0.0
 11
3838.9340814752
 21
2324.2293978663
 31
0.0
  0
LINE
  5
3F8
330
1F
100
AcDbEntity
  8
0
  6
Continuous
 62
     7
370
    25
100
AcDbLine
 10
3838.9340814752
 20
2309.2793978663
 30
0.0
 11
3838.9340814752
 21
2310.2543978663
 31
0.0
  0
LINE
  5
3F9
330
1F
100
AcDbEntity
  8
0
  6
Continuous
 62
     7
370
    25
100
AcDbLine
 10
3838.9340814752
 20
2323.2543978663
 30
0.0
 11
3838.9340814752
 21
2324.2293978663
 31
0.0
  0
LINE
  5
3FA
330
1F
100
AcDbEntity
  8
0
  6
Continuous
 62
     7
370
    25
100
AcDbLine
 10
3838.6225156724
 20
2309.2793978663
 30
0.0
 11
3838.9340814752
 21
2309.2793978663
 31
0.0
  0
LINE
  5
3FB
330
1F
100
AcDbEntity
  8
0
  6
Continuous
 62
     7
370
    25
100
AcDbLine
 10
3838.9340814752
 20
2324.2293978663
 30
0.0
 11
3838.9732240696
 21
2324.2293978663
 31
0.0
  0
LINE
  5
3FC
330
1F
100
AcDbEntity
  8
0
  6
Continuous
 62
     7
370
    25
100
AcDbLine
 10
3838.9340814752
 20
2309.2793978663
 30
0.0
 11
3838.9732240696
 21
2309.2793978663
 31
0.0
  0
LINE
  5
3FD
330
1F
100
AcDbEntity
  8
0
  6
Continuous
 62
     7
370
    25
100
AcDbLine
 10
3838.6225156724
 20
704.2293978663
 30
0.0
 11
3838.9340814752
 21
704.2293978663
 31
0.0
  0
LINE
  5
3FE
330
1F
100
AcDbEntity
  8
0
  6
Continuous
 62
     7
370
    25
100
AcDbLine
 10
3838.9340814752
 20
689.2793978663
 30
0.0
 11
3838.9340814752
 21
690.2543978663
 31
0.0
  0
LINE
  5
3FF
330
1F
100
AcDbEntity
  8
0
  6
Continuous
 62
     7
370
    25
100
AcDbLine
 10
3838.9340814752
 20
703.2543978663
 30
0.0
 11
3838.9340814752
 21
704.2293978663
 31
0.0
  0
LINE
  5
400
330
1F
100
AcDbEntity
  8
0
  6
Continuous
 62
     7
370
    25
100
AcDbLine
 10
3838.6225156724
 20
689.2793978663
 30
0.0
 11
3838.9340814752
 21
689.2793978663
 31
0.0
  0
LINE
  5
401
330
1F
100
AcDbEntity
  8
0
  6
Continuous
 62
     7
370
    25
100
AcDbLine
 10
3838.9340814752
 20
704.2293978663
 30
0.0
 11
3838.9732240696
 21
704.2293978663
 31
0.0
  0
LINE
  5
402
330
1F
100
AcDbEntity
  8
0
  6
Continuous
 62
     7
370
    25
100
AcDbLine
 10
3838.9340814752
 20
689.2793978663
 30
0.0
 11
3838.9732240696
 21
689.2793978663
 31
0.0
  0
LINE
  5
403
330
1F
100
AcDbEntity
  8
0
  6
Continuous
 62
     7
370
    25
100
AcDbLine
 10
3838.6225156724
 20
1064.2293978663
 30
0.0
 11
3838.9340814752
 21
1064.2293978663
 31
0.0
  0
LINE
  5
404
330
1F
100
AcDbEntity
  8
0
  6
Continuous
 62
     7
370
    25
100
AcDbLine
 10
3838.9340814752
 20
1049.2793978663
 30
0.0
 11
3838.9340814752
 21
1050.2543978663
 31
0.0
  0
LINE
  5
405
330
1F
100
AcDbEntity
  8
0
  6
Continuous
 62
     7
370
    25
100
AcDbLine
 10
3838.9340814752
 20
1063.2543978663
 30
0.0
 11
3838.9340814752
 21
1064.2293978663
 31
0.0
  0
LINE
  5
406
330
1F
100
AcDbEntity
  8
0
  6
Continuous
 62
     7
370
    25
100
AcDbLine
 10
3838.6225156724
 20
1049.2793978663
 30
0.0
 11
3838.9340814752
 21
1049.2793978663
 31
0.0
  0
LINE
  5
407
330
1F
100
AcDbEntity
  8
0
  6
Continuous
 62
     7
370
    25
100
AcDbLine
 10
3838.9340814752
 20
1064.2293978663
 30
0.0
 11
3838.9732240696
 21
1064.2293978663
 31
0.0
  0
LINE
  5
408
330
1F
100
AcDbEntity
  8
0
  6
Continuous
 62
     7
370
    25
100
AcDbLine
 10
3838.9340814752
 20
1049.2793978663
 30
0.0
 11
3838.9732240696
 21
1049.2793978663
 31
0.0
  0
LINE
  5
409
330
1F
100
AcDbEntity
  8
0
  6
Continuous
 62
     7
370
    25
100
AcDbLine
 10
3838.6225156724
 20
1424.2293978663
 30
0.0
 11
3838.9340814752
 21
1424.2293978663
 31
0.0
  0
LINE
  5
40A
330
1F
100
AcDbEntity
  8
0
  6
Continuous
 62
     7
370
    25
100
AcDbLine
 10
3838.9340814752
 20
1409.2793978663
 30
0.0
 11
3838.9340814752
 21
1410.2543978663
 31
0.0
  0
LINE
  5
40B
330
1F
100
AcDbEntity
  8
0
  6
Continuous
 62
     7
370
    25
100
AcDbLine
 10
3838.9340814752
 20
1423.2543978663
 30
0.0
 11
3838.9340814752
 21
1424.2293978663
 31
0.0
  0
LINE
  5
40C
330
1F
100
AcDbEntity
  8
0
  6
Continuous
 62
     7
370
    25
100
AcDbLine
 10
3838.6225156724
 20
1409.2793978663
 30
0.0
 11
3838.9340814752
 21
1409.2793978663
 31
0.0
  0
LINE
  5
40D
330
1F
100
AcDbEntity
  8
0
  6
Continuous
 62
     7
370
    25
100
AcDbLine
 10
3838.9340814752
 20
1424.2293978663
 30
0.0
 11
3838.9732240696
 21
1424.2293978663
 31
0.0
  0
LINE
  5
40E
330
1F
100
AcDbEntity
  8
0
  6
Continuous
 62
     7
370
    25
100
AcDbLine
 10
3838.9340814752
 20
1409.2793978663
 30
0.0
 11
3838.9732240696
 21
1409.2793978663
 31
0.0
  0
LINE
  5
40F
330
1F
100
AcDbEntity
  8
0
  6
Continuous
 62
     7
370
    25
100
AcDbLine
 10
3838.6225156724
 20
1954.2293978663
 30
0.0
 11
3838.9340814752
 21
1954.2293978663
 31
0.0
  0
LINE
  5
410
330
1F
100
AcDbEntity
  8
0
  6
Continuous
 62
     7
370
    25
100
AcDbLine
 10
3838.9340814752
 20
1939.2793978663
 30
0.0
 11
3838.9340814752
 21
1940.2543978663
 31
0.0
  0
LINE
  5
411
330
1F
100
AcDbEntity
  8
0
  6
Continuous
 62
     7
370
    25
100
AcDbLine
 10
3838.9340814752
 20
1953.2543978663
 30
0.0
 11
3838.9340814752
 21
1954.2293978663
 31
0.0
  0
LINE
  5
412
330
1F
100
AcDbEntity
  8
0
  6
Continuous
 62
     7
370
    25
100
AcDbLine
 10
3838.6225156724
 20
1939.2793978663
 30
0.0
 11
3838.9340814752
 21
1939.2793978663
 31
0.0
  0
LINE
  5
413
330
1F
100
AcDbEntity
  8
0
  6
Continuous
 62
     7
370
    25
100
AcDbLine
 10
3838.9340814752
 20
1954.2293978663
 30
0.0
 11
3838.9732240696
 21
1954.2293978663
 31
0.0
  0
LINE
  5
414
330
1F
100
AcDbEntity
  8
0
  6
Continuous
 62
     7
370
    25
100
AcDbLine
 10
3838.9340814752
 20
1939.2793978663
 30
0.0
 11
3838.9732240696
 21
1939.2793978663
 31
0.0
  0
LINE
  5
415
330
1F
100
AcDbEntity
  8
0
  6
Continuous
 62
     7
370
    25
100
AcDbLine
 10
4220.6002358345
 20
2309.2767567878
 30
0.0
 11
4220.4562626188
 21
2314.7748720752
 31
0.0
  0
LINE
  5
416
330
1F
100
AcDbEntity
  8
0
  6
Continuous
 62
     7
370
    25
100
AcDbLine
 10
4221.5905608759
 20
2328.7600942736
 30
0.0
 11
4221.8444965759
 21
2319.0626811288
 31
0.0
  0
LINE
  5
417
330
1F
100
AcDbEntity
  8
0
  6
Continuous
 62
     7
370
    25
100
AcDbLine
 10
4222.5946873532
 20
2319.0823255657
 30
0.0
 11
4222.0711483871
 21
2339.0754720652
 31
0.0
  0
LINE
  5
418
330
1F
100
AcDbEntity
  8
0
  6
Continuous
 62
     7
370
    25
100
AcDbLine
 10
4223.2948469519
 20
2338.0117271317
 30
0.0
 11
4223.7610367734
 21
2320.2086561082
 31
0.0
  0
LINE
  5
419
330
1F
100
AcDbEntity
  8
0
  6
Continuous
 62
     7
370
    25
100
AcDbLine
 10
4223.8590717937
 20
2321.8115145215
 30
0.0
 11
4223.4766347464
 21
2336.4161961367
 31
0.0
  0
LINE
  5
41A
330
1F
100
AcDbEntity
  8
0
  6
Continuous
 62
     7
370
    25
100
AcDbLine
 10
4221.0007621351
 20
2324.5425144716
 30
0.0
 11
4220.8790973475
 21
2329.1887052587
 31
0.0
  0
LINE
  5
41B
330
1F
100
AcDbEntity
  8
0
  6
Continuous
 62
     7
370
    25
100
AcDbLine
 10
4220.8790973475
 20
2329.1887052587
 30
0.0
 11
4220.7651717957
 21
2333.5393465579
 31
0.0
  0
LINE
  5
41C
330
1F
100
AcDbEntity
  8
0
  6
Continuous
 62
     7
370
    25
100
AcDbLine
 10
3838.3225156724
 20
669.2543978663
 30
0.0
 11
3840.1225156724
 21
669.2543978663
 31
0.0
  0
LINE
  5
41D
330
1F
100
AcDbEntity
  8
0
  6
Continuous
 62
     7
370
    25
100
AcDbLine
 10
3838.3225156724
 20
724.2543978663
 30
0.0
 11
3840.1225156724
 21
724.2543978663
 31
0.0
  0
LINE
  5
41E
330
1F
100
AcDbEntity
  8
0
  6
Continuous
 62
     7
370
    25
100
AcDbLine
 10
3839.4725156724
 20
688.3793978663
 30
0.0
 11
3839.4725156724
 21
686.7543978663
 31
0.0
  0
LINE
  5
41F
330
1F
100
AcDbEntity
  8
0
  6
Continuous
 62
     7
370
    25
100
AcDbLine
 10
3839.4725156724
 20
706.7543978663
 30
0.0
 11
3839.4725156724
 21
705.1293978663
 31
0.0
  0
LINE
  5
420
330
1F
100
AcDbEntity
  8
0
  6
Continuous
 62
     7
370
    25
100
AcDbLine
 10
3838.3225156724
 20
1029.2543978663
 30
0.0
 11
3840.1225156724
 21
1029.2543978663
 31
0.0
  0
LINE
  5
421
330
1F
100
AcDbEntity
  8
0
  6
Continuous
 62
     7
370
    25
100
AcDbLine
 10
3838.3225156724
 20
1084.2543978663
 30
0.0
 11
3840.1225156724
 21
1084.2543978663
 31
0.0
  0
LINE
  5
422
330
1F
100
AcDbEntity
  8
0
  6
Continuous
 62
     7
370
    25
100
AcDbLine
 10
3839.4725156724
 20
1048.3793978663
 30
0.0
 11
3839.4725156724
 21
1046.7543978663
 31
0.0
  0
LINE
  5
423
330
1F
100
AcDbEntity
  8
0
  6
Continuous
 62
     7
370
    25
100
AcDbLine
 10
3839.4725156724
 20
1066.7543978663
 30
0.0
 11
3839.4725156724
 21
1065.1293978663
 31
0.0
  0
LINE
  5
424
330
1F
100
AcDbEntity
  8
0
  6
Continuous
 62
     7
370
    25
100
AcDbLine
 10
3838.3225156724
 20
1919.2543978663
 30
0.0
 11
3840.1225156724
 21
1919.2543978663
 31
0.0
  0
LINE
  5
425
330
1F
100
AcDbEntity
  8
0
  6
Continuous
 62
     7
370
    25
100
AcDbLine
 10
3838.3225156724
 20
1974.2543978663
 30
0.0
 11
3840.1225156724
 21
1974.2543978663
 31
0.0
  0
LINE
  5
426
330
1F
100
AcDbEntity
  8
0
  6
Continuous
 62
     7
370
    25
100
AcDbLine
 10
3839.4725156724
 20
1938.3793978663
 30
0.0
 11
3839.4725156724
 21
1936.7543978663
 31
0.0
  0
LINE
  5
427
330
1F
100
AcDbEntity
  8
0
  6
Continuous
 62
     7
370
    25
100
AcDbLine
 10
3839.4725156724
 20
1956.7543978663
 30
0.0
 11
3839.4725156724
 21
1955.1293978663
 31
0.0
  0
LINE
  5
428
330
1F
100
AcDbEntity
  8
0
  6
Continuous
 62
     7
370
    25
100
AcDbLine
 10
3838.3225156724
 20
1389.2543978663
 30
0.0
 11
3840.1225156724
 21
1389.2543978663
 31
0.0
  0
LINE
  5
429
330
1F
100
AcDbEntity
  8
0
  6
Continuous
 62
     7
370
    25
100
AcDbLine
 10
3838.3225156724
 20
1444.2543978663
 30
0.0
 11
3840.1225156724
 21
1444.2543978663
 31
0.0
  0
LINE
  5
42A
330
1F
100
AcDbEntity
  8
0
  6
Continuous
 62
     7
370
    25
100
AcDbLine
 10
3839.4725156724
 20
1408.3793978663
 30
0.0
 11
3839.4725156724
 21
1406.7543978663
 31
0.0
  0
LINE
  5
42B
330
1F
100
AcDbEntity
  8
0
  6
Continuous
 62
     7
370
    25
100
AcDbLine
 10
3839.4725156724
 20
1426.7543978663
 30
0.0
 11
3839.4725156724
 21
1425.1293978663
 31
0.0
  0
LINE
  5
42C
330
1F
100
AcDbEntity
  8
0
  6
Continuous
 62
     7
370
    25
100
AcDbLine
 10
3838.3225156724
 20
2289.2543978663
 30
0.0
 11
3840.1225156724
 21
2289.2543978663
 31
0.0
  0
LINE
  5
42D
330
1F
100
AcDbEntity
  8
0
  6
Continuous
 62
     7
370
    25
100
AcDbLine
 10
3838.3225156724
 20
2344.2543978663
 30
0.0
 11
3840.1225156724
 21
2344.2543978663
 31
0.0
  0
LINE
  5
42E
330
1F
100
AcDbEntity
  8
0
  6
Continuous
 62
     7
370
    25
100
AcDbLine
 10
3839.4725156724
 20
2308.3793978663
 30
0.0
 11
3839.4725156724
 21
2306.7543978663
 31
0.0
  0
LINE
  5
42F
330
1F
100
AcDbEntity
  8
0
  6
Continuous
 62
     7
370
    25
100
AcDbLine
 10
3839.4725156724
 20
2326.7543978663
 30
0.0
 11
3839.4725156724
 21
2325.1293978663
 31
0.0
  0
SPLINE
  5
430
330
1F
100
AcDbEntity
  8
0
  6
Continuous
 62
     7
370
    25
100
AcDbSpline
210
0.0
220
0.0
230
1.0
 70
     8
 71
     3
 72
    16
 73
    12
 74
     0
 42
0.00000001
 43
0.00000001
 40
0.0
 40
0.0
 40
0.0
 40
0.0
 40
0.0490847390192411
 40
0.1518473045648656
 40
0.2358684990991813
 40
0.3090519161652571
 40
0.373478614210649
 40
0.4370328180322864
 40
0.5258016248246556
 40
0.7068629655464796
 40
1.0
 40
1.0
 40
1.0
 40
1.0
 10
2807.925074168693
 20
3107.982522916329
 30
0.0
 10
2807.929765765427
 20
3108.048713308551
 30
0.0
 10
2807.944279570175
 20
3108.253478228315
 30
0.0
 10
2807.817101818805
 20
3108.557694887962
 30
0.0
 10
2807.612885409277
 20
3108.833758526983
 30
0.0
 10
2807.391873803412
 20
3109.007097001621
 30
0.0
 10
2807.20010723567
 20
3109.104101014124
 30
0.0
 10
2807.042893347487
 20
3109.158174379481
 30
0.0
 10
2806.877542172432
 20
3109.196807200852
 30
0.0
 10
2806.681828237507
 20
3109.226544086372
 30
0.0
 10
2806.454213845399
 20
3109.243759755644
 30
0.0
 10
2806.313508580695
 20
3109.25440203217
 30
0.0
  0
SPLINE
  5
431
330
1F
100
AcDbEntity
  8
0
  6
Continuous
 62
     7
370
    25
100
AcDbSpline
210
0.0
220
0.0
230
1.0
 70
     8
 71
     3
 72
    14
 73
    10
 74
     0
 42
0.00000001
 43
0.00000001
 40
0.0
 40
0.0
 40
0.0
 40
0.0
 40
0.4380448777708322
 40
0.5889072021156919
 40
0.6648524542795311
 40
0.7505291071918366
 40
0.8517030556681997
 40
0.9620267314757248
 40
1.0
 40
1.0
 40
1.0
 40
1.0
 10
2789.529691039103
 20
3109.253278350242
 30
0.0
 10
2789.357587419225
 20
3109.238587326924
 30
0.0
 10
2789.126211442926
 20
3109.218836726294
 30
0.0
 10
2788.826901395472
 20
3109.158689060104
 30
0.0
 10
2788.553382146928
 20
3109.042171355413
 30
0.0
 10
2788.289180317144
 20
3108.852245027236
 30
0.0
 10
2788.06095638255
 20
3108.539748892958
 30
0.0
 10
2787.93691039252
 20
3108.217783907779
 30
0.0
 10
2787.958389890559
 20
3108.022470086406
 30
0.0
 10
2787.96388998195
 20
3107.972457564443
 30
0.0
  0
LINE
  5
432
330
1F
100
AcDbEntity
  8
0
  6
Continuous
 62
     7
370
    25
100
AcDbLine
 10
2807.9454585654
 20
3107.2318663251
 30
0.0
 11
2807.9454585654
 21
3107.9820571024
 31
0.0
  0
LINE
  5
433
330
1F
100
AcDbEntity
  8
0
  6
Continuous
 62
     7
370
    25
100
AcDbLine
 10
2787.9454585654
 20
3107.9820571024
 30
0.0
 11
2787.9454585654
 21
3107.2318663251
 31
0.0
  0
LINE
  5
434
330
1F
100
AcDbEntity
  8
0
  6
Continuous
 62
     7
370
    25
100
AcDbLine
 10
2806.44183279
 20
3109.2468479058
 30
0.0
 11
2804.9154268518
 21
3109.3742254403
 31
0.0
  0
LINE
  5
435
330
1F
100
AcDbEntity
  8
0
  6
Continuous
 62
     7
370
    25
100
AcDbLine
 10
2790.975490279
 20
3109.3742254403
 30
0.0
 11
2789.4490843408
 21
3109.2468479058
 31
0.0
  0
SPLINE
  5
436
330
1F
100
AcDbEntity
  8
0
  6
Continuous
 62
     7
370
    25
100
AcDbSpline
210
0.0
220
0.0
230
1.0
 70
     8
 71
     3
 72
    14
 73
    10
 74
     0
 42
0.00000001
 43
0.00000001
 40
0.0
 40
0.0
 40
0.0
 40
0.0
 40
0.0907475556428033
 40
0.2288563839002618
 40
0.4128530542466488
 40
0.6071420004333541
 40
0.7878282318393482
 40
0.9626611221744031
 40
1.0
 40
1.0
 40
1.0
 40
1.0
 10
2804.825460923748
 20
3109.379327213118
 30
0.0
 10
2804.6139097569
 20
3109.396159746666
 30
0.0
 10
2804.08039858173
 20
3109.438609735898
 30
0.0
 10
2803.219912941181
 20
3109.480570026109
 30
0.0
 10
2802.170112580999
 20
3109.517502171326
 30
0.0
 10
2800.935496063476
 20
3109.543227737949
 30
0.0
 10
2799.598989846273
 20
3109.559073656583
 30
0.0
 10
2798.588959722686
 20
3109.563885326821
 30
0.0
 10
2798.041757506851
 20
3109.564124910318
 30
0.0
 10
2797.945458565385
 20
3109.564167073227
 30
0.0
  0
SPLINE
  5
437
330
1F
100
AcDbEntity
  8
0
  6
Continuous
 62
     7
370
    25
100
AcDbSpline
210
0.0
220
0.0
230
1.0
 70
     8
 71
     3
 72
    13
 73
     9
 74
     0
 42
0.00000001
 43
0.00000001
 40
0.0
 40
0.0
 40
0.0
 40
0.0
 40
0.0971790056424313
 40
0.2845710337030731
 40
0.4775192778489911
 40
0.6890792027699887
 40
0.8771625243242102
 40
1.0
 40
1.0
 40
1.0
 40
1.0
 10
2797.945458565385
 20
3109.564167073227
 30
0.0
 10
2797.698437493675
 20
3109.56390530435
 30
0.0
 10
2796.975081237269
 20
3109.563138761831
 30
0.0
 10
2795.782482825142
 20
3109.554264289767
 30
0.0
 10
2794.412409207486
 20
3109.534024945498
 30
0.0
 10
2793.178104082227
 20
3109.500007999575
 30
0.0
 10
2792.148335398535
 20
3109.46050478633
 30
0.0
 10
2791.441932094441
 20
3109.406884625925
 30
0.0
 10
2791.162848805522
 20
3109.385700564878
 30
0.0
  0
LINE
  5
438
330
1F
100
AcDbEntity
  8
0
  6
Continuous
 62
     7
370
    25
100
AcDbLine
 10
2802.4454585654
 20
3104.2716549046
 30
0.0
 11
2802.4454585654
 21
3106.5321061976
 31
0.0
  0
LINE
  5
439
330
1F
100
AcDbEntity
  8
0
  6
Continuous
 62
     7
370
    25
100
AcDbLine
 10
2793.4454585654
 20
3106.5321061976
 30
0.0
 11
2793.4454585654
 21
3104.2716549046
 31
0.0
  0
SPLINE
  5
43A
330
1F
100
AcDbEntity
  8
0
  6
Continuous
 62
     7
370
    25
100
AcDbSpline
210
0.0
220
0.0
230
1.0
 70
     8
 71
     3
 72
    16
 73
    12
 74
     0
 42
0.00000001
 43
0.00000001
 40
0.0
 40
0.0
 40
0.0
 40
0.0
 40
0.049084739019293
 40
0.1518473045648689
 40
0.2358684990991587
 40
0.3090519161652059
 40
0.3734786142105698
 40
0.4370328180322403
 40
0.5258016248245931
 40
0.7068629655464287
 40
1.0
 40
1.0
 40
1.0
 40
1.0
 10
2081.425074168696
 20
3107.982522916339
 30
0.0
 10
2081.42976576543
 20
3108.04871330856
 30
0.0
 10
2081.444279570179
 20
3108.253478228325
 30
0.0
 10
2081.317101818807
 20
3108.557694887972
 30
0.0
 10
2081.112885409281
 20
3108.833758526992
 30
0.0
 10
2080.891873803415
 20
3109.007097001631
 30
0.0
 10
2080.700107235673
 20
3109.104101014134
 30
0.0
 10
2080.54289334749
 20
3109.15817437949
 30
0.0
 10
2080.377542172436
 20
3109.196807200862
 30
0.0
 10
2080.18182823751
 20
3109.226544086381
 30
0.0
 10
2079.954213845402
 20
3109.243759755653
 30
0.0
 10
2079.813508580697
 20
3109.254402032179
 30
0.0
  0
SPLINE
  5
43B
330
1F
100
AcDbEntity
  8
0
  6
Continuous
 62
     7
370
    25
100
AcDbSpline
210
0.0
220
0.0
230
1.0
 70
     8
 71
     3
 72
    15
 73
    11
 74
     0
 42
0.00000001
 43
0.00000001
 40
0.0
 40
0.0
 40
0.0
 40
0.0
 40
0.0366146332908943
 40
0.4586206584971904
 40
0.6039592141587511
 40
0.6771237587644336
 40
0.7596633924487632
 40
0.8571328939030818
 40
0.9634171087776173
 40
1.0
 40
1.0
 40
1.0
 40
1.0
 10
2063.095706343202
 20
3109.257096001326
 30
0.0
 10
2063.073357319824
 20
3109.255823552656
 30
0.0
 10
2062.793422143713
 20
3109.239885355422
 30
0.0
 10
2062.637947923153
 20
3109.21883325616
 30
0.0
 10
2062.326115586848
 20
3109.158689292455
 30
0.0
 10
2062.053551867011
 20
3109.042171305241
 30
0.0
 10
2061.789122930573
 20
3108.852245044214
 30
0.0
 10
2061.560974971946
 20
3108.539748887471
 30
0.0
 10
2061.436909000243
 20
3108.2177839082
 30
0.0
 10
2061.45838960673
 20
3108.0224700865
 30
0.0
 10
2061.463889981953
 20
3107.972457564453
 30
0.0
  0
LINE
  5
43C
330
1F
100
AcDbEntity
  8
0
  6
Continuous
 62
     7
370
    25
100
AcDbLine
 10
2081.4454585654
 20
3107.2318663251
 30
0.0
 11
2081.4454585654
 21
3107.9820571024
 31
0.0
  0
LINE
  5
43D
330
1F
100
AcDbEntity
  8
0
  6
Continuous
 62
     7
370
    25
100
AcDbLine
 10
2061.4454585654
 20
3107.9820571024
 30
0.0
 11
2061.4454585654
 21
3107.2318663251
 31
0.0
  0
LINE
  5
43E
330
1F
100
AcDbEntity
  8
0
  6
Continuous
 62
     7
370
    25
100
AcDbLine
 10
2079.94183279
 20
3109.2468479058
 30
0.0
 11
2078.4154268518
 21
3109.3742254403
 31
0.0
  0
LINE
  5
43F
330
1F
100
AcDbEntity
  8
0
  6
Continuous
 62
     7
370
    25
100
AcDbLine
 10
2064.475490279
 20
3109.3742254403
 30
0.0
 11
2062.9490843408
 21
3109.2468479058
 31
0.0
  0
SPLINE
  5
440
330
1F
100
AcDbEntity
  8
0
  6
Continuous
 62
     7
370
    25
100
AcDbSpline
210
0.0
220
0.0
230
1.0
 70
     8
 71
     3
 72
    14
 73
    10
 74
     0
 42
0.00000001
 43
0.00000001
 40
0.0
 40
0.0
 40
0.0
 40
0.0
 40
0.0907475556427131
 40
0.2288563839001559
 40
0.412853054246469
 40
0.607142000433181
 40
0.7878282318391898
 40
0.9626611221742524
 40
0.9999999999999999
 40
0.9999999999999999
 40
0.9999999999999999
 40
0.9999999999999999
 10
2078.325460923751
 20
3109.379327213128
 30
0.0
 10
2078.113909756904
 20
3109.396159746676
 30
0.0
 10
2077.580398581734
 20
3109.438609735907
 30
0.0
 10
2076.719912941185
 20
3109.480570026118
 30
0.0
 10
2075.670112581003
 20
3109.517502171336
 30
0.0
 10
2074.435496063481
 20
3109.543227737958
 30
0.0
 10
2073.098989846278
 20
3109.559073656593
 30
0.0
 10
2072.08895972269
 20
3109.563885326831
 30
0.0
 10
2071.541757506855
 20
3109.564124910328
 30
0.0
 10
2071.445458565388
 20
3109.564167073236
 30
0.0
  0
SPLINE
  5
441
330
1F
100
AcDbEntity
  8
0
  6
Continuous
 62
     7
370
    25
100
AcDbSpline
210
0.0
220
0.0
230
1.0
 70
     8
 71
     3
 72
    13
 73
     9
 74
     0
 42
0.00000001
 43
0.00000001
 40
0.0
 40
0.0
 40
0.0
 40
0.0
 40
0.0971790056424311
 40
0.2845710337030761
 40
0.4775192778489954
 40
0.6890792027699887
 40
0.877162524324209
 40
1.0
 40
1.0
 40
1.0
 40
1.0
 10
2071.445458565388
 20
3109.564167073236
 30
0.0
 10
2071.198437493678
 20
3109.56390530436
 30
0.0
 10
2070.475081237272
 20
3109.563138761841
 30
0.0
 10
2069.282482825145
 20
3109.554264289777
 30
0.0
 10
2067.91240920749
 20
3109.534024945508
 30
0.0
 10
2066.67810408223
 20
3109.500007999585
 30
0.0
 10
2065.648335398538
 20
3109.460504786339
 30
0.0
 10
2064.941932094444
 20
3109.406884625935
 30
0.0
 10
2064.662848805526
 20
3109.385700564887
 30
0.0
  0
LINE
  5
442
330
1F
100
AcDbEntity
  8
0
  6
Continuous
 62
     7
370
    25
100
AcDbLine
 10
2075.9454585654
 20
3104.2716549046
 30
0.0
 11
2075.9454585654
 21
3106.5321061976
 31
0.0
  0
LINE
  5
443
330
1F
100
AcDbEntity
  8
0
  6
Continuous
 62
     7
370
    25
100
AcDbLine
 10
2066.9454585654
 20
3106.5321061976
 30
0.0
 11
2066.9454585654
 21
3104.2716549046
 31
0.0
  0
LINE
  5
444
330
1F
100
AcDbEntity
  8
0
  6
Continuous
 62
     7
370
    25
100
AcDbLine
 10
2832.4454585654
 20
2705.7716549046
 30
0.0
 11
2832.4454585654
 21
2723.7716549046
 31
0.0
  0
LINE
  5
445
330
1F
100
AcDbEntity
  8
0
  6
Continuous
 62
     7
370
    25
100
AcDbLine
 10
2832.4454585654
 20
2705.7716549046
 30
0.0
 11
2436.4454585654
 21
2705.7716549046
 31
0.0
  0
LINE
  5
446
330
1F
100
AcDbEntity
  8
0
  6
Continuous
 62
     7
370
    25
100
AcDbLine
 10
2832.4454585654
 20
2723.7716549046
 30
0.0
 11
2436.4454585654
 21
2723.7716549046
 31
0.0
  0
LINE
  5
447
330
1F
100
AcDbEntity
  8
0
  6
Continuous
 62
     7
370
    25
100
AcDbLine
 10
2436.4454585654
 20
2705.7716549046
 30
0.0
 11
2436.4454585654
 21
2723.7716549046
 31
0.0
  0
LINE
  5
448
330
1F
100
AcDbEntity
  8
0
  6
Continuous
 62
     7
370
    25
100
AcDbLine
 10
2432.9454585654
 20
2723.7716549046
 30
0.0
 11
2036.9454585654
 21
2723.7716549046
 31
0.0
  0
LINE
  5
449
330
1F
100
AcDbEntity
  8
0
  6
Continuous
 62
     7
370
    25
100
AcDbLine
 10
2036.9454585654
 20
2705.7716549046
 30
0.0
 11
2036.9454585654
 21
2723.7716549046
 31
0.0
  0
LINE
  5
44A
330
1F
100
AcDbEntity
  8
0
  6
Continuous
 62
     7
370
    25
100
AcDbLine
 10
2432.9454585654
 20
2705.7716549046
 30
0.0
 11
2432.9454585654
 21
2723.7716549046
 31
0.0
  0
LINE
  5
44B
330
1F
100
AcDbEntity
  8
0
  6
Continuous
 62
     7
370
    25
100
AcDbLine
 10
2432.9454585654
 20
2705.7716549046
 30
0.0
 11
2036.9454585654
 21
2705.7716549046
 31
0.0
  0
LINE
  5
44C
330
1F
100
AcDbEntity
  8
0
  6
Continuous
 62
     7
370
    25
100
AcDbLine
 10
2834.9454585654
 20
3104.2716549046
 30
0.0
 11
2034.4454585654
 21
3104.2716549046
 31
0.0
  0
LINE
  5
44D
330
1F
100
AcDbEntity
  8
0
  6
Continuous
 62
     7
370
    25
100
AcDbLine
 10
2834.9454585654
 20
3104.2716549046
 30
0.0
 11
2834.9454585654
 21
2725.2716549046
 31
0.0
  0
LINE
  5
44E
330
1F
100
AcDbEntity
  8
0
  6
Continuous
 62
     7
370
    25
100
AcDbLine
 10
2834.9454585654
 20
2725.2716549046
 30
0.0
 11
2034.4454585654
 21
2725.2716549046
 31
0.0
  0
LINE
  5
44F
330
1F
100
AcDbEntity
  8
0
  6
Continuous
 62
     7
370
    25
100
AcDbLine
 10
2034.4454585654
 20
3104.2716549046
 30
0.0
 11
2034.4454585654
 21
2725.2716549046
 31
0.0
  0
ARC
  5
450
330
1F
100
AcDbEntity
  8
0
  6
Continuous
 62
     7
370
    25
100
AcDbCircle
 10
2798.9487994325
 20
3299.2477776145
 30
0.0
 40
190.3064363747932
100
AcDbArc
 50
269.697921602
 51
271.989829998
  0
ARC
  5
451
330
1F
100
AcDbEntity
  8
0
  6
Continuous
 62
     7
370
    25
100
AcDbCircle
 10
2797.3807674913
 20
3343.5241370743
 30
0.0
 40
234.5808305631487
100
AcDbArc
 50
268.5008299501
 51
270.1379245117
  0
ARC
  5
452
330
1F
100
AcDbEntity
  8
0
  6
Continuous
 62
     7
370
    25
100
AcDbCircle
 10
2800.7883976533
 20
3189.5040519048
 30
0.0
 40
82.58290404774449
100
AcDbArc
 50
268.0271873052
 51
274.971785139
  0
ARC
  5
453
330
1F
100
AcDbEntity
  8
0
  6
Continuous
 62
     7
370
    25
100
AcDbCircle
 10
2795.3258447337
 20
3198.0354228505
 30
0.0
 40
91.10299653504977
100
AcDbArc
 50
265.3532935281
 51
271.6477340277
  0
SPLINE
  5
454
330
1F
100
AcDbEntity
  8
0
  6
Continuous
 62
     7
370
    25
100
AcDbSpline
210
0.0
220
0.0
230
1.0
 70
     8
 71
     3
 72
    19
 73
    15
 74
     0
 42
0.00000001
 43
0.00000001
 40
0.0
 40
0.0
 40
0.0
 40
0.0
 40
0.090660073128285
 40
0.2050734138974935
 40
0.2719074979494452
 40
0.3443210476358481
 40
0.4209983262120987
 40
0.4999999792228555
 40
0.5790016347260398
 40
0.6556789199259965
 40
0.7280924783130552
 40
0.794926570954179
 40
0.9093399235673085
 40
1.0
 40
1.0
 40
1.0
 40
1.0
 10
2807.745458565385
 20
3107.031934860079
 30
0.0
 10
2807.668604520718
 20
3107.007709314843
 30
0.0
 10
2807.494760393223
 20
3106.952911043744
 30
0.0
 10
2806.174903170747
 20
3106.886527760363
 30
0.0
 10
2804.418984010551
 20
3106.836615149716
 30
0.0
 10
2802.595890405667
 20
3106.803484284437
 30
0.0
 10
2800.414524317445
 20
3106.781051426673
 30
0.0
 10
2798.021572113857
 20
3106.772789316641
 30
0.0
 10
2795.624049624975
 20
3106.780087282525
 30
0.0
 10
2793.42976429456
 20
3106.801639484266
 30
0.0
 10
2791.587425031536
 20
3106.834032633699
 30
0.0
 10
2789.802394606061
 20
3106.883232581898
 30
0.0
 10
2788.44369958846
 20
3106.949076769692
 30
0.0
 10
2788.237687244369
 20
3107.003798592478
 30
0.0
 10
2788.14661208681
 20
3107.027990340084
 30
0.0
  0
LINE
  5
455
330
1F
100
AcDbEntity
  8
0
  6
Continuous
 62
     7
370
    25
100
AcDbLine
 10
2790.975490279
 20
3109.3742254403
 30
0.0
 11
2791.0274519144
 21
3109.3783936567
 31
0.0
  0
LINE
  5
456
330
1F
100
AcDbEntity
  8
0
  6
Continuous
 62
     7
370
    25
100
AcDbLine
 10
2802.6356302781
 20
3109.43111244
 30
0.0
 11
2802.6346783417
 21
3109.4335859309
 31
0.0
  0
LWPOLYLINE
  5
457
330
1F
100
AcDbEntity
  8
0
  6
Continuous
 62
     7
370
    25
100
AcDbPolyline
 90
       23
 70
   128
 43
0.0
 10
2802.6346783417
 20
3109.4335859309
 10
2802.4194017973
 20
3109.4679610176
 10
2801.8439780752
 20
3109.499369837
 10
2800.9547281094
 20
3109.5252840161
 10
2799.8232354782
 20
3109.5436174939
 10
2798.54058401
 20
3109.5528944469
 10
2797.2100256422
 20
3109.5523680914
 10
2795.9386687614
 20
3109.5420807983
 10
2794.8288561037
 20
3109.5228606826
 10
2793.9699262854
 20
3109.4962549411
 10
2793.4310221483
 20
3109.4644053047
 10
2793.2555248428
 20
3109.4298756318
 10
2793.457561696
 20
3109.3954455205
 10
2794.0208689783
 20
3109.3638865544
 10
2794.9001011149
 20
3109.3377391931
 10
2796.0244809511
 20
3109.3191082686
 10
2797.3034972299
 20
3109.3094935484
 10
2798.6341906426
 20
3109.3096690062
 10
2799.9094419317
 20
3109.3196205179
 10
2801.0265948654
 20
3109.3385469983
 10
2801.8957199443
 20
3109.3649248882
 10
2802.4468536198
 20
3109.3966307983
 10
2802.6356302781
 20
3109.43111244
  0
SPLINE
  5
458
330
1F
100
AcDbEntity
  8
0
  6
Continuous
 62
     7
370
    25
100
AcDbSpline
210
0.0
220
0.0
230
1.0
 70
     8
 71
     3
 72
     9
 73
     5
 74
     0
 42
0.00000001
 43
0.00000001
 40
0.0
 40
0.0
 40
0.0
 40
0.0
 40
0.7246937986493798
 40
1.0
 40
1.0
 40
1.0
 40
1.0
 10
2793.447887259423
 20
3106.535975815347
 30
0.0
 10
2793.443212180535
 20
3106.609347136476
 30
0.0
 10
2793.436761071255
 20
3106.710591719038
 30
0.0
 10
2793.372422639867
 20
3106.785078969119
 30
0.0
 10
2793.354709870721
 20
3106.805585770988
 30
0.0
  0
LINE
  5
459
330
1F
100
AcDbEntity
  8
0
  6
Continuous
 62
     7
370
    25
100
AcDbLine
 10
2795.4996091615
 20
3109.4176313116
 30
0.0
 11
2797.4304585654
 21
3109.4176313116
 31
0.0
  0
LINE
  5
45A
330
1F
100
AcDbEntity
  8
0
  6
Continuous
 62
     7
370
    25
100
AcDbLine
 10
2797.4304585654
 20
3109.4176313116
 30
0.0
 11
2797.4304585654
 21
3109.3670875666
 31
0.0
  0
ARC
  5
45B
330
1F
100
AcDbEntity
  8
0
  6
Continuous
 62
     7
370
    25
100
AcDbCircle
 10
2797.9454585654
 20
3203.6549486596
 30
0.0
 40
94.28926754671171
100
AcDbArc
 50
269.687053745
 51
270.312946255
  0
LINE
  5
45C
330
1F
100
AcDbEntity
  8
0
  6
Continuous
 62
     7
370
    25
100
AcDbLine
 10
2798.4604585654
 20
3109.3670875666
 30
0.0
 11
2798.4604585654
 21
3109.4176313116
 31
0.0
  0
LINE
  5
45D
330
1F
100
AcDbEntity
  8
0
  6
Continuous
 62
     7
370
    25
100
AcDbLine
 10
2798.4604585654
 20
3109.4176313116
 30
0.0
 11
2800.3913079693
 21
3109.4176313116
 31
0.0
  0
LWPOLYLINE
  5
45E
330
1F
100
AcDbEntity
  8
0
  6
Continuous
 62
     7
370
    25
100
AcDbPolyline
 90
        9
 70
   128
 43
0.0
 10
2800.3913079693
 20
3109.4445935684
 10
2800.4147242752
 20
3109.44125516
 10
2800.4314953662
 20
3109.4378894559
 10
2800.4415761084
 20
3109.4345055136
 10
2800.4449393728
 20
3109.43111244
 10
2800.4415761084
 20
3109.4277193664
 10
2800.4314953662
 20
3109.4243354241
 10
2800.4147242752
 20
3109.42096972
 10
2800.3913079693
 20
3109.4176313116
  0
LINE
  5
45F
330
1F
100
AcDbEntity
  8
0
  6
Continuous
 62
     7
370
    25
100
AcDbLine
 10
2800.3913079693
 20
3109.4445935684
 30
0.0
 11
2798.4604585654
 21
3109.4445935684
 31
0.0
  0
LINE
  5
460
330
1F
100
AcDbEntity
  8
0
  6
Continuous
 62
     7
370
    25
100
AcDbLine
 10
2798.4604585654
 20
3109.4445935684
 30
0.0
 11
2798.4604585654
 21
3109.4951373134
 31
0.0
  0
ARC
  5
461
330
1F
100
AcDbEntity
  8
0
  6
Continuous
 62
     7
370
    25
100
AcDbCircle
 10
2797.9454585653
 20
3015.2072762256
 30
0.0
 40
94.28926754153382
100
AcDbArc
 50
89.687053745
 51
90.312946255
  0
LINE
  5
462
330
1F
100
AcDbEntity
  8
0
  6
Continuous
 62
     7
370
    25
100
AcDbLine
 10
2797.4304585654
 20
3109.4951373134
 30
0.0
 11
2797.4304585654
 21
3109.4445935684
 31
0.0
  0
LINE
  5
463
330
1F
100
AcDbEntity
  8
0
  6
Continuous
 62
     7
370
    25
100
AcDbLine
 10
2797.4304585654
 20
3109.4445935684
 30
0.0
 11
2795.4996091615
 21
3109.4445935684
 31
0.0
  0
LWPOLYLINE
  5
464
330
1F
100
AcDbEntity
  8
0
  6
Continuous
 62
     7
370
    25
100
AcDbPolyline
 90
        9
 70
   128
 43
0.0
 10
2795.4996091615
 20
3109.4176313116
 10
2795.4761928556
 20
3109.42096972
 10
2795.4594217646
 20
3109.4243354241
 10
2795.4493410224
 20
3109.4277193664
 10
2795.445977758
 20
3109.43111244
 10
2795.4493410224
 20
3109.4345055136
 10
2795.4594217646
 20
3109.4378894559
 10
2795.4761928556
 20
3109.44125516
 10
2795.4996091615
 20
3109.4445935684
  0
LINE
  5
465
330
1F
100
AcDbEntity
  8
0
  6
Continuous
 62
     7
370
    25
100
AcDbLine
 10
2795.5133329309
 20
3109.4176313116
 30
0.0
 11
2795.4996091615
 21
3109.4445935684
 31
0.0
  0
LINE
  5
466
330
1F
100
AcDbEntity
  8
0
  6
Continuous
 62
     7
370
    25
100
AcDbLine
 10
2798.4604585654
 20
3109.4445935684
 30
0.0
 11
2798.4604585654
 21
3109.4176313116
 31
0.0
  0
LINE
  5
467
330
1F
100
AcDbEntity
  8
0
  6
Continuous
 62
     7
370
    25
100
AcDbLine
 10
2797.4304585654
 20
3109.4445935684
 30
0.0
 11
2797.4304585654
 21
3109.4176313116
 31
0.0
  0
ARC
  5
468
330
1F
100
AcDbEntity
  8
0
  6
Continuous
 62
     7
370
    25
100
AcDbCircle
 10
2072.4487994325
 20
3299.2477776145
 30
0.0
 40
190.3064363748201
100
AcDbArc
 50
269.697921602
 51
271.989829998
  0
ARC
  5
469
330
1F
100
AcDbEntity
  8
0
  6
Continuous
 62
     7
370
    25
100
AcDbCircle
 10
2070.8807674914
 20
3343.5241370813
 30
0.0
 40
234.5808305701352
100
AcDbArc
 50
268.5008299502
 51
270.1379245117
  0
ARC
  5
46A
330
1F
100
AcDbEntity
  8
0
  6
Continuous
 62
     7
370
    25
100
AcDbCircle
 10
2074.2883976533
 20
3189.5040519046
 30
0.0
 40
82.58290404757818
100
AcDbArc
 50
268.0271873052
 51
274.9717851391
  0
ARC
  5
46B
330
1F
100
AcDbEntity
  8
0
  6
Continuous
 62
     7
370
    25
100
AcDbCircle
 10
2068.8258447337
 20
3198.0354228505
 30
0.0
 40
91.1029965350184
100
AcDbArc
 50
265.3532935281
 51
271.6477340277
  0
SPLINE
  5
46C
330
1F
100
AcDbEntity
  8
0
  6
Continuous
 62
     7
370
    25
100
AcDbSpline
210
0.0
220
0.0
230
1.0
 70
     8
 71
     3
 72
    19
 73
    15
 74
     0
 42
0.00000001
 43
0.00000001
 40
0.0
 40
0.0
 40
0.0
 40
0.0
 40
0.0906600731282847
 40
0.2050734138974942
 40
0.2719074979494455
 40
0.3443210476358494
 40
0.4209983262120985
 40
0.4999999792228535
 40
0.5790016347260414
 40
0.6556789199259961
 40
0.7280924783130558
 40
0.7949265709541784
 40
0.9093399235673084
 40
1.0
 40
1.0
 40
1.0
 40
1.0
 10
2081.245458565388
 20
3107.031934860089
 30
0.0
 10
2081.168604520721
 20
3107.007709314852
 30
0.0
 10
2080.994760393226
 20
3106.952911043753
 30
0.0
 10
2079.67490317075
 20
3106.886527760373
 30
0.0
 10
2077.918984010553
 20
3106.836615149726
 30
0.0
 10
2076.095890405671
 20
3106.803484284447
 30
0.0
 10
2073.914524317448
 20
3106.781051426683
 30
0.0
 10
2071.521572113861
 20
3106.772789316651
 30
0.0
 10
2069.124049624978
 20
3106.780087282535
 30
0.0
 10
2066.929764294564
 20
3106.801639484276
 30
0.0
 10
2065.08742503154
 20
3106.834032633708
 30
0.0
 10
2063.302394606064
 20
3106.883232581908
 30
0.0
 10
2061.943699588463
 20
3106.949076769701
 30
0.0
 10
2061.737687244372
 20
3107.003798592487
 30
0.0
 10
2061.646612086814
 20
3107.027990340094
 30
0.0
  0
LINE
  5
46D
330
1F
100
AcDbEntity
  8
0
  6
Continuous
 62
     7
370
    25
100
AcDbLine
 10
2064.475490279
 20
3109.3742254403
 30
0.0
 11
2064.5274519144
 21
3109.3783936567
 31
0.0
  0
LINE
  5
46E
330
1F
100
AcDbEntity
  8
0
  6
Continuous
 62
     7
370
    25
100
AcDbLine
 10
2076.1356302781
 20
3109.43111244
 30
0.0
 11
2076.1346783417
 21
3109.4335859309
 31
0.0
  0
LWPOLYLINE
  5
46F
330
1F
100
AcDbEntity
  8
0
  6
Continuous
 62
     7
370
    25
100
AcDbPolyline
 90
       23
 70
   128
 43
0.0
 10
2076.1346783417
 20
3109.4335859309
 10
2075.9194017973
 20
3109.4679610176
 10
2075.3439780752
 20
3109.499369837
 10
2074.4547281094
 20
3109.5252840161
 10
2073.3232354782
 20
3109.5436174939
 10
2072.04058401
 20
3109.552894447
 10
2070.7100256422
 20
3109.5523680914
 10
2069.4386687614
 20
3109.5420807983
 10
2068.3288561037
 20
3109.5228606826
 10
2067.4699262854
 20
3109.4962549411
 10
2066.9310221483
 20
3109.4644053047
 10
2066.7555248428
 20
3109.4298756318
 10
2066.957561696
 20
3109.3954455205
 10
2067.5208689783
 20
3109.3638865544
 10
2068.4001011149
 20
3109.3377391932
 10
2069.5244809511
 20
3109.3191082686
 10
2070.8034972299
 20
3109.3094935484
 10
2072.1341906426
 20
3109.3096690062
 10
2073.4094419317
 20
3109.3196205179
 10
2074.5265948654
 20
3109.3385469983
 10
2075.3957199443
 20
3109.3649248882
 10
2075.9468536199
 20
3109.3966307983
 10
2076.1356302781
 20
3109.43111244
  0
SPLINE
  5
470
330
1F
100
AcDbEntity
  8
0
  6
Continuous
 62
     7
370
    25
100
AcDbSpline
210
0.0
220
0.0
230
1.0
 70
     8
 71
     3
 72
     9
 73
     5
 74
     0
 42
0.00000001
 43
0.00000001
 40
0.0
 40
0.0
 40
0.0
 40
0.0
 40
0.7246937986493067
 40
1.0
 40
1.0
 40
1.0
 40
1.0
 10
2066.947887259427
 20
3106.535975815356
 30
0.0
 10
2066.943212180538
 20
3106.609347136486
 30
0.0
 10
2066.936761071259
 20
3106.710591719048
 30
0.0
 10
2066.87242263987
 20
3106.785078969129
 30
0.0
 10
2066.854709870723
 20
3106.805585770998
 30
0.0
  0
LINE
  5
471
330
1F
100
AcDbEntity
  8
0
  6
Continuous
 62
     7
370
    25
100
AcDbLine
 10
2068.9996091615
 20
3109.4176313116
 30
0.0
 11
2070.9304585654
 21
3109.4176313117
 31
0.0
  0
LINE
  5
472
330
1F
100
AcDbEntity
  8
0
  6
Continuous
 62
     7
370
    25
100
AcDbLine
 10
2070.9304585654
 20
3109.4176313117
 30
0.0
 11
2070.9304585654
 21
3109.3670875666
 31
0.0
  0
ARC
  5
473
330
1F
100
AcDbEntity
  8
0
  6
Continuous
 62
     7
370
    25
100
AcDbCircle
 10
2071.4454585654
 20
3203.6549486783
 30
0.0
 40
94.28926756535768
100
AcDbArc
 50
269.6870537451
 51
270.3129462549
  0
LINE
  5
474
330
1F
100
AcDbEntity
  8
0
  6
Continuous
 62
     7
370
    25
100
AcDbLine
 10
2071.9604585654
 20
3109.3670875666
 30
0.0
 11
2071.9604585654
 21
3109.4176313117
 31
0.0
  0
LINE
  5
475
330
1F
100
AcDbEntity
  8
0
  6
Continuous
 62
     7
370
    25
100
AcDbLine
 10
2071.9604585654
 20
3109.4176313117
 30
0.0
 11
2073.8913079693
 21
3109.4176313116
 31
0.0
  0
LWPOLYLINE
  5
476
330
1F
100
AcDbEntity
  8
0
  6
Continuous
 62
     7
370
    25
100
AcDbPolyline
 90
        9
 70
   128
 43
0.0
 10
2073.8913079693
 20
3109.4445935684
 10
2073.9147242752
 20
3109.44125516
 10
2073.9314953662
 20
3109.4378894559
 10
2073.9415761084
 20
3109.4345055136
 10
2073.9449393728
 20
3109.43111244
 10
2073.9415761084
 20
3109.4277193664
 10
2073.9314953662
 20
3109.4243354242
 10
2073.9147242752
 20
3109.42096972
 10
2073.8913079693
 20
3109.4176313116
  0
LINE
  5
477
330
1F
100
AcDbEntity
  8
0
  6
Continuous
 62
     7
370
    25
100
AcDbLine
 10
2073.8913079693
 20
3109.4445935684
 30
0.0
 11
2071.9604585654
 21
3109.4445935684
 31
0.0
  0
LINE
  5
478
330
1F
100
AcDbEntity
  8
0
  6
Continuous
 62
     7
370
    25
100
AcDbLine
 10
2071.9604585654
 20
3109.4445935684
 30
0.0
 11
2071.9604585654
 21
3109.4951373134
 31
0.0
  0
ARC
  5
479
330
1F
100
AcDbEntity
  8
0
  6
Continuous
 62
     7
370
    25
100
AcDbCircle
 10
2071.4454585653
 20
3015.2072761781
 30
0.0
 40
94.289267588991
100
AcDbArc
 50
89.6870537451
 51
90.3129462548
  0
LINE
  5
47A
330
1F
100
AcDbEntity
  8
0
  6
Continuous
 62
     7
370
    25
100
AcDbLine
 10
2070.9304585654
 20
3109.4951373134
 30
0.0
 11
2070.9304585654
 21
3109.4445935684
 31
0.0
  0
LINE
  5
47B
330
1F
100
AcDbEntity
  8
0
  6
Continuous
 62
     7
370
    25
100
AcDbLine
 10
2070.9304585654
 20
3109.4445935684
 30
0.0
 11
2068.9996091615
 21
3109.4445935684
 31
0.0
  0
LWPOLYLINE
  5
47C
330
1F
100
AcDbEntity
  8
0
  6
Continuous
 62
     7
370
    25
100
AcDbPolyline
 90
        9
 70
   128
 43
0.0
 10
2068.9996091615
 20
3109.4176313116
 10
2068.9761928556
 20
3109.42096972
 10
2068.9594217646
 20
3109.4243354242
 10
2068.9493410224
 20
3109.4277193664
 10
2068.945977758
 20
3109.43111244
 10
2068.9493410224
 20
3109.4345055136
 10
2068.9594217646
 20
3109.4378894559
 10
2068.9761928556
 20
3109.44125516
 10
2068.9996091615
 20
3109.4445935684
  0
LINE
  5
47D
330
1F
100
AcDbEntity
  8
0
  6
Continuous
 62
     7
370
    25
100
AcDbLine
 10
2069.0133329309
 20
3109.4176313116
 30
0.0
 11
2068.9996091615
 21
3109.4445935684
 31
0.0
  0
LINE
  5
47E
330
1F
100
AcDbEntity
  8
0
  6
Continuous
 62
     7
370
    25
100
AcDbLine
 10
2071.9604585654
 20
3109.4445935684
 30
0.0
 11
2071.9604585654
 21
3109.4176313117
 31
0.0
  0
LINE
  5
47F
330
1F
100
AcDbEntity
  8
0
  6
Continuous
 62
     7
370
    25
100
AcDbLine
 10
2070.9304585654
 20
3109.4445935684
 30
0.0
 11
2070.9304585654
 21
3109.4176313117
 31
0.0
  0
LINE
  5
480
330
1F
100
AcDbEntity
  8
0
  6
Continuous
 62
     7
370
    25
100
AcDbLine
 10
2038.9454585654
 20
2724.0716549046
 30
0.0
 11
2038.9454585654
 21
2723.8716549046
 31
0.0
  0
LINE
  5
481
330
1F
100
AcDbEntity
  8
0
  6
Continuous
 62
     7
370
    25
100
AcDbLine
 10
2038.9454585654
 20
2723.8716549046
 30
0.0
 11
2037.1454585654
 21
2723.8716549046
 31
0.0
  0
LINE
  5
482
330
1F
100
AcDbEntity
  8
0
  6
Continuous
 62
     7
370
    25
100
AcDbLine
 10
2037.1454585654
 20
2724.0716549046
 30
0.0
 11
2037.1454585654
 21
2723.8716549046
 31
0.0
  0
LINE
  5
483
330
1F
100
AcDbEntity
  8
0
  6
Continuous
 62
     7
370
    25
100
AcDbLine
 10
2037.1454585654
 20
2724.0716549046
 30
0.0
 11
2038.9454585654
 21
2724.0716549046
 31
0.0
  0
LINE
  5
484
330
1F
100
AcDbEntity
  8
0
  6
Continuous
 62
     7
370
    25
100
AcDbLine
 10
2038.9454585654
 20
2723.7716549046
 30
0.0
 11
2038.9454585654
 21
2723.8716549046
 31
0.0
  0
LINE
  5
485
330
1F
100
AcDbEntity
  8
0
  6
Continuous
 62
     7
370
    25
100
AcDbLine
 10
2036.9454585654
 20
2723.7716549046
 30
0.0
 11
2036.9454585654
 21
2723.8716549046
 31
0.0
  0
LINE
  5
486
330
1F
100
AcDbEntity
  8
0
  6
Continuous
 62
     7
370
    25
100
AcDbLine
 10
2037.1454585654
 20
2723.8716549046
 30
0.0
 11
2036.9454585654
 21
2723.8716549046
 31
0.0
  0
ARC
  5
487
330
1F
100
AcDbEntity
  8
0
  6
Continuous
 62
     7
370
    25
100
AcDbCircle
 10
2037.1454585654
 20
2723.8716549046
 30
0.0
 40
0.2000000000002728
100
AcDbArc
 50
90.0
 51
180.0
  0
LINE
  5
488
330
1F
100
AcDbEntity
  8
0
  6
Continuous
 62
     7
370
    25
100
AcDbLine
 10
2438.4454585654
 20
2723.7716549046
 30
0.0
 11
2438.4454585654
 21
2723.8716549046
 31
0.0
  0
LINE
  5
489
330
1F
100
AcDbEntity
  8
0
  6
Continuous
 62
     7
370
    25
100
AcDbLine
 10
2438.4454585654
 20
2723.8716549046
 30
0.0
 11
2436.6454585654
 21
2723.8716549046
 31
0.0
  0
LINE
  5
48A
330
1F
100
AcDbEntity
  8
0
  6
Continuous
 62
     7
370
    25
100
AcDbLine
 10
2436.6454585654
 20
2724.0716549046
 30
0.0
 11
2436.6454585654
 21
2723.8716549046
 31
0.0
  0
LINE
  5
48B
330
1F
100
AcDbEntity
  8
0
  6
Continuous
 62
     7
370
    25
100
AcDbLine
 10
2436.6454585654
 20
2724.0716549046
 30
0.0
 11
2438.4454585654
 21
2724.0716549046
 31
0.0
  0
LINE
  5
48C
330
1F
100
AcDbEntity
  8
0
  6
Continuous
 62
     7
370
    25
100
AcDbLine
 10
2438.4454585654
 20
2724.0716549046
 30
0.0
 11
2438.4454585654
 21
2723.8716549046
 31
0.0
  0
LINE
  5
48D
330
1F
100
AcDbEntity
  8
0
  6
Continuous
 62
     7
370
    25
100
AcDbLine
 10
2436.6454585654
 20
2723.8716549046
 30
0.0
 11
2436.4454585654
 21
2723.8716549046
 31
0.0
  0
ARC
  5
48E
330
1F
100
AcDbEntity
  8
0
  6
Continuous
 62
     7
370
    25
100
AcDbCircle
 10
2436.6454585654
 20
2723.8716549046
 30
0.0
 40
0.2000000000002728
100
AcDbArc
 50
90.0
 51
180.0
  0
LINE
  5
48F
330
1F
100
AcDbEntity
  8
0
  6
Continuous
 62
     7
370
    25
100
AcDbLine
 10
2436.4454585654
 20
2723.7716549046
 30
0.0
 11
2436.4454585654
 21
2723.8716549046
 31
0.0
  0
LINE
  5
490
330
1F
100
AcDbEntity
  8
0
  6
Continuous
 62
     7
370
    25
100
AcDbLine
 10
2438.4454585654
 20
2724.0716549046
 30
0.0
 11
2619.4454585654
 21
2724.0716549046
 31
0.0
  0
LINE
  5
491
330
1F
100
AcDbEntity
  8
0
  6
Continuous
 62
     7
370
    25
100
AcDbLine
 10
2649.4454585654
 20
2724.0716549046
 30
0.0
 11
2791.9471256909
 21
2724.0716549046
 31
0.0
  0
LINE
  5
492
330
1F
100
AcDbEntity
  8
0
  6
Continuous
 62
     7
370
    25
100
AcDbLine
 10
2828.1331333148
 20
2724.0716549046
 30
0.0
 11
2830.4454585654
 21
2724.0716549046
 31
0.0
  0
LINE
  5
493
330
1F
100
AcDbEntity
  8
0
  6
Continuous
 62
     7
370
    25
100
AcDbLine
 10
2830.4454585654
 20
2723.8716549046
 30
0.0
 11
2830.4454585654
 21
2724.0716549046
 31
0.0
  0
LINE
  5
494
330
1F
100
AcDbEntity
  8
0
  6
Continuous
 62
     7
370
    25
100
AcDbLine
 10
2830.4454585654
 20
2723.8716549046
 30
0.0
 11
2830.4454585654
 21
2723.7716549046
 31
0.0
  0
LINE
  5
495
330
1F
100
AcDbEntity
  8
0
  6
Continuous
 62
     7
370
    25
100
AcDbLine
 10
2430.9454585654
 20
2723.8716549046
 30
0.0
 11
2430.9454585654
 21
2723.7716549046
 31
0.0
  0
LINE
  5
496
330
1F
100
AcDbEntity
  8
0
  6
Continuous
 62
     7
370
    25
100
AcDbLine
 10
2038.9454585654
 20
2724.0716549046
 30
0.0
 11
2041.2577838159
 21
2724.0716549046
 31
0.0
  0
LINE
  5
497
330
1F
100
AcDbEntity
  8
0
  6
Continuous
 62
     7
370
    25
100
AcDbLine
 10
2077.4437914398
 20
2724.0716549046
 30
0.0
 11
2219.9454585654
 21
2724.0716549046
 31
0.0
  0
LINE
  5
498
330
1F
100
AcDbEntity
  8
0
  6
Continuous
 62
     7
370
    25
100
AcDbLine
 10
2249.9454585654
 20
2724.0716549046
 30
0.0
 11
2430.9454585654
 21
2724.0716549046
 31
0.0
  0
LINE
  5
499
330
1F
100
AcDbEntity
  8
0
  6
Continuous
 62
     7
370
    25
100
AcDbLine
 10
2430.9454585654
 20
2723.8716549046
 30
0.0
 11
2430.9454585654
 21
2724.0716549046
 31
0.0
  0
LINE
  5
49A
330
1F
100
AcDbEntity
  8
0
  6
Continuous
 62
     7
370
    25
100
AcDbLine
 10
2432.7454585654
 20
2723.8716549046
 30
0.0
 11
2432.9454585654
 21
2723.8716549046
 31
0.0
  0
LINE
  5
49B
330
1F
100
AcDbEntity
  8
0
  6
Continuous
 62
     7
370
    25
100
AcDbLine
 10
2432.9454585654
 20
2723.8716549046
 30
0.0
 11
2432.9454585654
 21
2723.7716549046
 31
0.0
  0
ARC
  5
49C
330
1F
100
AcDbEntity
  8
0
  6
Continuous
 62
     7
370
    25
100
AcDbCircle
 10
2432.7454585654
 20
2723.8716549046
 30
0.0
 40
0.2000000000007276
100
AcDbArc
 50
0.0000000001
 51
90.0
  0
LINE
  5
49D
330
1F
100
AcDbEntity
  8
0
  6
Continuous
 62
     7
370
    25
100
AcDbLine
 10
2432.7454585654
 20
2723.8716549046
 30
0.0
 11
2432.7454585654
 21
2724.0716549046
 31
0.0
  0
LINE
  5
49E
330
1F
100
AcDbEntity
  8
0
  6
Continuous
 62
     7
370
    25
100
AcDbLine
 10
2430.9454585654
 20
2724.0716549046
 30
0.0
 11
2432.7454585654
 21
2724.0716549046
 31
0.0
  0
LINE
  5
49F
330
1F
100
AcDbEntity
  8
0
  6
Continuous
 62
     7
370
    25
100
AcDbLine
 10
2432.7454585654
 20
2723.8716549046
 30
0.0
 11
2430.9454585654
 21
2723.8716549046
 31
0.0
  0
LINE
  5
4A0
330
1F
100
AcDbEntity
  8
0
  6
Continuous
 62
     7
370
    25
100
AcDbLine
 10
2832.2454585654
 20
2723.8716549046
 30
0.0
 11
2830.4454585654
 21
2723.8716549046
 31
0.0
  0
LINE
  5
4A1
330
1F
100
AcDbEntity
  8
0
  6
Continuous
 62
     7
370
    25
100
AcDbLine
 10
2830.4454585654
 20
2724.0716549046
 30
0.0
 11
2832.2454585654
 21
2724.0716549046
 31
0.0
  0
LINE
  5
4A2
330
1F
100
AcDbEntity
  8
0
  6
Continuous
 62
     7
370
    25
100
AcDbLine
 10
2832.2454585654
 20
2723.8716549046
 30
0.0
 11
2832.2454585654
 21
2724.0716549046
 31
0.0
  0
LINE
  5
4A3
330
1F
100
AcDbEntity
  8
0
  6
Continuous
 62
     7
370
    25
100
AcDbLine
 10
2832.2454585654
 20
2723.8716549046
 30
0.0
 11
2832.4454585654
 21
2723.8716549046
 31
0.0
  0
LINE
  5
4A4
330
1F
100
AcDbEntity
  8
0
  6
Continuous
 62
     7
370
    25
100
AcDbLine
 10
2832.4454585654
 20
2723.8716549046
 30
0.0
 11
2832.4454585654
 21
2723.7716549046
 31
0.0
  0
ARC
  5
4A5
330
1F
100
AcDbEntity
  8
0
  6
Continuous
 62
     7
370
    25
100
AcDbCircle
 10
2832.2454585654
 20
2723.8716549046
 30
0.0
 40
0.2000000000007276
100
AcDbArc
 50
0.0
 51
90.0
  0
LINE
  5
4A6
330
1F
100
AcDbEntity
  8
0
  6
Continuous
 62
     7
370
    25
100
AcDbLine
 10
2649.4454585654
 20
2723.7716549046
 30
0.0
 11
2649.4454585654
 21
2724.9716549046
 31
0.0
  0
LINE
  5
4A7
330
1F
100
AcDbEntity
  8
0
  6
Continuous
 62
     7
370
    25
100
AcDbLine
 10
2619.4454585654
 20
2724.9716549046
 30
0.0
 11
2619.4454585654
 21
2723.7716549046
 31
0.0
  0
LINE
  5
4A8
330
1F
100
AcDbEntity
  8
0
  6
Continuous
 62
     7
370
    25
100
AcDbLine
 10
2619.466408286
 20
2725.2716549046
 30
0.0
 11
2619.4454585654
 21
2724.9716549046
 31
0.0
  0
LINE
  5
4A9
330
1F
100
AcDbEntity
  8
0
  6
Continuous
 62
     7
370
    25
100
AcDbLine
 10
2624.0670931167
 20
2725.2716549046
 30
0.0
 11
2624.0468228464
 21
2724.9716549046
 31
0.0
  0
LINE
  5
4AA
330
1F
100
AcDbEntity
  8
0
  6
Continuous
 62
     7
370
    25
100
AcDbLine
 10
2624.0468228464
 20
2724.9716549046
 30
0.0
 11
2644.8440942843
 21
2724.9716549046
 31
0.0
  0
LINE
  5
4AB
330
1F
100
AcDbEntity
  8
0
  6
Continuous
 62
     7
370
    25
100
AcDbLine
 10
2644.8440942843
 20
2724.9716549046
 30
0.0
 11
2644.823824014
 21
2725.2716549046
 31
0.0
  0
LINE
  5
4AC
330
1F
100
AcDbEntity
  8
0
  6
Continuous
 62
     7
370
    25
100
AcDbLine
 10
2649.4454585654
 20
2724.9716549046
 30
0.0
 11
2649.4245088447
 21
2725.2716549046
 31
0.0
  0
LINE
  5
4AD
330
1F
100
AcDbEntity
  8
0
  6
Continuous
 62
     7
370
    25
100
AcDbLine
 10
2249.9454585654
 20
2723.7716549046
 30
0.0
 11
2249.9454585654
 21
2724.9716549046
 31
0.0
  0
LINE
  5
4AE
330
1F
100
AcDbEntity
  8
0
  6
Continuous
 62
     7
370
    25
100
AcDbLine
 10
2219.9454585654
 20
2724.9716549046
 30
0.0
 11
2219.9454585654
 21
2723.7716549046
 31
0.0
  0
LINE
  5
4AF
330
1F
100
AcDbEntity
  8
0
  6
Continuous
 62
     7
370
    25
100
AcDbLine
 10
2219.966408286
 20
2725.2716549046
 30
0.0
 11
2219.9454585654
 21
2724.9716549046
 31
0.0
  0
LINE
  5
4B0
330
1F
100
AcDbEntity
  8
0
  6
Continuous
 62
     7
370
    25
100
AcDbLine
 10
2224.5670931167
 20
2725.2716549046
 30
0.0
 11
2224.5468228464
 21
2724.9716549046
 31
0.0
  0
LINE
  5
4B1
330
1F
100
AcDbEntity
  8
0
  6
Continuous
 62
     7
370
    25
100
AcDbLine
 10
2224.5468228464
 20
2724.9716549046
 30
0.0
 11
2245.3440942843
 21
2724.9716549046
 31
0.0
  0
LINE
  5
4B2
330
1F
100
AcDbEntity
  8
0
  6
Continuous
 62
     7
370
    25
100
AcDbLine
 10
2245.3440942843
 20
2724.9716549046
 30
0.0
 11
2245.323824014
 21
2725.2716549046
 31
0.0
  0
LINE
  5
4B3
330
1F
100
AcDbEntity
  8
0
  6
Continuous
 62
     7
370
    25
100
AcDbLine
 10
2249.9454585654
 20
2724.9716549046
 30
0.0
 11
2249.9245088447
 21
2725.2716549046
 31
0.0
  0
LINE
  5
4B4
330
1F
100
AcDbEntity
  8
0
  6
Continuous
 62
     7
370
    25
100
AcDbLine
 10
2076.4454585697
 20
2723.9716549046
 30
0.0
 11
2076.4454585697
 21
2723.7716549046
 31
0.0
  0
LINE
  5
4B5
330
1F
100
AcDbEntity
  8
0
  6
Continuous
 62
     7
370
    25
100
AcDbLine
 10
2056.4454585697
 20
2723.7716549046
 30
0.0
 11
2056.4454585697
 21
2723.9716549046
 31
0.0
  0
LINE
  5
4B6
330
1F
100
AcDbEntity
  8
0
  6
Continuous
 62
     7
370
    25
100
AcDbLine
 10
2055.4454585697
 20
2723.7716549046
 30
0.0
 11
2055.4454585697
 21
2723.9716549046
 31
0.0
  0
LINE
  5
4B7
330
1F
100
AcDbEntity
  8
0
  6
Continuous
 62
     7
370
    25
100
AcDbLine
 10
2055.4454585697
 20
2723.9716549046
 30
0.0
 11
2056.4454585697
 21
2723.9716549046
 31
0.0
  0
LINE
  5
4B8
330
1F
100
AcDbEntity
  8
0
  6
Continuous
 62
     7
370
    25
100
AcDbLine
 10
2077.4454585697
 20
2723.7716549046
 30
0.0
 11
2077.4454585697
 21
2723.9716549046
 31
0.0
  0
LINE
  5
4B9
330
1F
100
AcDbEntity
  8
0
  6
Continuous
 62
     7
370
    25
100
AcDbLine
 10
2076.4454585697
 20
2723.9716549046
 30
0.0
 11
2077.4454585697
 21
2723.9716549046
 31
0.0
  0
ARC
  5
4BA
330
1F
100
AcDbEntity
  8
0
  6
Continuous
 62
     7
370
    25
100
AcDbCircle
 10
2058.4454585697
 20
2723.9716549046
 30
0.0
 40
3.000000000000455
100
AcDbArc
 50
154.3207113805
 51
180.0
  0
ARC
  5
4BB
330
1F
100
AcDbEntity
  8
0
  6
Continuous
 62
     7
370
    25
100
AcDbCircle
 10
2074.4454585697
 20
2723.9716549046
 30
0.0
 40
3.000000000000089
100
AcDbArc
 50
0.0
 51
25.6792886195
  0
LINE
  5
4BC
330
1F
100
AcDbEntity
  8
0
  6
Continuous
 62
     7
370
    25
100
AcDbLine
 10
2055.4454585697
 20
2724.2716549046
 30
0.0
 11
2041.2577838159
 21
2724.2716549046
 31
0.0
  0
LINE
  5
4BD
330
1F
100
AcDbEntity
  8
0
  6
Continuous
 62
     7
370
    25
100
AcDbLine
 10
2055.4454585697
 20
2723.9716549046
 30
0.0
 11
2055.4454585697
 21
2724.2716549046
 31
0.0
  0
LINE
  5
4BE
330
1F
100
AcDbEntity
  8
0
  6
Continuous
 62
     7
370
    25
100
AcDbLine
 10
2041.2577838159
 20
2724.2716549046
 30
0.0
 11
2041.2577838159
 21
2723.7716549046
 31
0.0
  0
LINE
  5
4BF
330
1F
100
AcDbEntity
  8
0
  6
Continuous
 62
     7
370
    25
100
AcDbLine
 10
2812.945458561
 20
2723.7716549046
 30
0.0
 11
2812.945458561
 21
2723.9716549046
 31
0.0
  0
LINE
  5
4C0
330
1F
100
AcDbEntity
  8
0
  6
Continuous
 62
     7
370
    25
100
AcDbLine
 10
2792.945458561
 20
2723.7716549046
 30
0.0
 11
2792.945458561
 21
2723.9716549046
 31
0.0
  0
LINE
  5
4C1
330
1F
100
AcDbEntity
  8
0
  6
Continuous
 62
     7
370
    25
100
AcDbLine
 10
2791.945458561
 20
2723.7716549046
 30
0.0
 11
2791.945458561
 21
2723.9716549046
 31
0.0
  0
LINE
  5
4C2
330
1F
100
AcDbEntity
  8
0
  6
Continuous
 62
     7
370
    25
100
AcDbLine
 10
2791.945458561
 20
2723.9716549046
 30
0.0
 11
2792.945458561
 21
2723.9716549046
 31
0.0
  0
LINE
  5
4C3
330
1F
100
AcDbEntity
  8
0
  6
Continuous
 62
     7
370
    25
100
AcDbLine
 10
2813.945458561
 20
2723.9716549046
 30
0.0
 11
2812.945458561
 21
2723.9716549046
 31
0.0
  0
LINE
  5
4C4
330
1F
100
AcDbEntity
  8
0
  6
Continuous
 62
     7
370
    25
100
AcDbLine
 10
2813.945458561
 20
2723.7716549046
 30
0.0
 11
2813.945458561
 21
2723.9716549046
 31
0.0
  0
ARC
  5
4C5
330
1F
100
AcDbEntity
  8
0
  6
Continuous
 62
     7
370
    25
100
AcDbCircle
 10
2794.945458561
 20
2723.9716549046
 30
0.0
 40
3.000000000000208
100
AcDbArc
 50
154.3207113803
 51
180.0
  0
ARC
  5
4C6
330
1F
100
AcDbEntity
  8
0
  6
Continuous
 62
     7
370
    25
100
AcDbCircle
 10
2810.945458561
 20
2723.9716549046
 30
0.0
 40
3.0
100
AcDbArc
 50
0.0
 51
25.6792886196
  0
LINE
  5
4C7
330
1F
100
AcDbEntity
  8
0
  6
Continuous
 62
     7
370
    25
100
AcDbLine
 10
2828.1331333148
 20
2724.2716549046
 30
0.0
 11
2813.945458561
 21
2724.2716549046
 31
0.0
  0
LINE
  5
4C8
330
1F
100
AcDbEntity
  8
0
  6
Continuous
 62
     7
370
    25
100
AcDbLine
 10
2828.1331333148
 20
2723.7716549046
 30
0.0
 11
2828.1331333148
 21
2724.2716549046
 31
0.0
  0
LINE
  5
4C9
330
1F
100
AcDbEntity
  8
0
  6
Continuous
 62
     7
370
    25
100
AcDbLine
 10
2813.945458561
 20
2724.2716549046
 30
0.0
 11
2813.945458561
 21
2723.9716549046
 31
0.0
  0
LINE
  5
4CA
330
1F
100
AcDbEntity
  8
0
  6
Continuous
 62
     7
370
    25
100
AcDbLine
 10
2053.3859106131
 20
2725.2716549046
 30
0.0
 11
2053.3628582571
 21
2724.2716549046
 31
0.0
  0
LINE
  5
4CB
330
1F
100
AcDbEntity
  8
0
  6
Continuous
 62
     7
370
    25
100
AcDbLine
 10
2054.6632036285
 20
2724.2716549046
 30
0.0
 11
2054.6862559845
 21
2725.2716549046
 31
0.0
  0
LINE
  5
4CC
330
1F
100
AcDbEntity
  8
0
  6
Continuous
 62
     7
370
    25
100
AcDbLine
 10
2814.7046611463
 20
2725.2716549046
 30
0.0
 11
2814.7277135023
 21
2724.2716549046
 31
0.0
  0
LINE
  5
4CD
330
1F
100
AcDbEntity
  8
0
  6
Continuous
 62
     7
370
    25
100
AcDbLine
 10
2816.0280588736
 20
2724.2716549046
 30
0.0
 11
2816.0050065176
 21
2725.2716549046
 31
0.0
  0
ARC
  5
4CE
330
1F
100
AcDbEntity
  8
0
  6
Continuous
 62
     7
370
    25
100
AcDbCircle
 10
2797.9448257767
 20
3254.6497996169
 30
0.0
 40
147.008250247309
100
AcDbArc
 50
266.0997819288
 51
273.9007124515
  0
LWPOLYLINE
  5
4CF
330
1F
100
AcDbEntity
  8
0
  6
Continuous
 62
     7
370
    25
100
AcDbPolyline
 90
        6
 70
   128
 43
0.0
 10
2805.556639358
 20
3109.056094891
 10
2806.2957539085
 20
3109.0961260079
 10
2806.7473606486
 20
3109.1417840506
 10
2806.8386164832
 20
3109.1888871583
 10
2806.5657853877
 20
3109.2355069245
 10
2806.44183279
 20
3109.2468479058
  0
LWPOLYLINE
  5
4D0
330
1F
100
AcDbEntity
  8
0
  6
Continuous
 62
     7
370
    25
100
AcDbPolyline
 90
        7
 70
   128
 43
0.0
 10
2789.4490843408
 20
3109.2468479058
 10
2789.325131743
 20
3109.2355069245
 10
2789.0523006476
 20
3109.1888871583
 10
2789.1435564822
 20
3109.1417840506
 10
2789.5951632222
 20
3109.0961260079
 10
2790.3886320348
 20
3109.0537822761
 10
2791.2435540403
 20
3109.0236025787
  0
LWPOLYLINE
  5
4D1
330
1F
100
AcDbEntity
  8
0
  6
Continuous
 62
     7
370
    25
100
AcDbPolyline
 90
       19
 70
   128
 43
0.0
 10
2804.9154268518
 20
3109.3742254403
 10
2805.0671548704
 20
3109.3595426267
 10
2805.2503025606
 20
3109.3169925022
 10
2805.0671548704
 20
3109.2744423778
 10
2804.5268955899
 20
3109.2340258942
 10
2803.6566155753
 20
3109.1977697028
 10
2802.4999543005
 20
3109.1674918404
 10
2801.1149115917
 20
3109.1447105655
 10
2799.5709392736
 20
3109.1305682262
 10
2797.9454585654
 20
3109.1257739786
 10
2796.3199778572
 20
3109.1305682262
 10
2794.7760055391
 20
3109.1447105655
 10
2793.3909628302
 20
3109.1674918404
 10
2792.2343015554
 20
3109.1977697028
 10
2791.3640215408
 20
3109.2340258942
 10
2790.8237622604
 20
3109.2744423778
 10
2790.6406145702
 20
3109.3169925022
 10
2790.8237622604
 20
3109.3595426267
 10
2790.975490279
 20
3109.3742254403
  0
SPLINE
  5
4D2
330
1F
100
AcDbEntity
  8
0
  6
Continuous
 62
     7
370
    25
100
AcDbSpline
210
0.0
220
0.0
230
1.0
 70
     8
 71
     3
 72
    10
 73
     6
 74
     0
 42
0.00000001
 43
0.00000001
 40
0.0
 40
0.0
 40
0.0
 40
0.0
 40
0.2348528608094421
 40
0.6323277900321957
 40
1.0
 40
1.0
 40
1.0
 40
1.0
 10
2802.639161340504
 20
3106.908496935371
 30
0.0
 10
2802.609898948606
 20
3106.888924055678
 30
0.0
 10
2802.531111645202
 20
3106.836225205348
 30
0.0
 10
2802.460702072955
 20
3106.695638695835
 30
0.0
 10
2802.44876562915
 20
3106.5825692552
 30
0.0
 10
2802.443029871349
 20
3106.528236579837
 30
0.0
  0
ARC
  5
4D3
330
1F
100
AcDbEntity
  8
0
  6
Continuous
 62
     7
370
    25
100
AcDbCircle
 10
2797.9727661044
 20
3172.8487882407
 30
0.0
 40
66.47103753337527
100
AcDbArc
 50
266.0945910318
 51
273.8561261673
  0
LINE
  5
4D4
330
1F
100
AcDbEntity
  8
0
  6
Continuous
 62
     7
370
    25
100
AcDbLine
 10
2802.4454585654
 20
3106.5321061976
 30
0.0
 11
2802.4430298712
 21
3106.5282365797
 31
0.0
  0
ARC
  5
4D5
330
1F
100
AcDbEntity
  8
0
  6
Continuous
 62
     7
370
    25
100
AcDbCircle
 10
2071.4448257767
 20
3254.6497996169
 30
0.0
 40
147.0082502473194
100
AcDbArc
 50
266.0997819288
 51
273.9007124515
  0
LWPOLYLINE
  5
4D6
330
1F
100
AcDbEntity
  8
0
  6
Continuous
 62
     7
370
    25
100
AcDbPolyline
 90
        6
 70
   128
 43
0.0
 10
2079.056639358
 20
3109.056094891
 10
2079.7957539085
 20
3109.0961260079
 10
2080.2473606486
 20
3109.1417840506
 10
2080.3386164832
 20
3109.1888871584
 10
2080.0657853877
 20
3109.2355069245
 10
2079.94183279
 20
3109.2468479058
  0
LWPOLYLINE
  5
4D7
330
1F
100
AcDbEntity
  8
0
  6
Continuous
 62
     7
370
    25
100
AcDbPolyline
 90
        7
 70
   128
 43
0.0
 10
2062.9490843408
 20
3109.2468479058
 10
2062.825131743
 20
3109.2355069245
 10
2062.5523006476
 20
3109.1888871584
 10
2062.6435564822
 20
3109.1417840506
 10
2063.0951632222
 20
3109.0961260079
 10
2063.8886320348
 20
3109.0537822761
 10
2064.7435540403
 20
3109.0236025787
  0
LWPOLYLINE
  5
4D8
330
1F
100
AcDbEntity
  8
0
  6
Continuous
 62
     7
370
    25
100
AcDbPolyline
 90
       19
 70
   128
 43
0.0
 10
2078.4154268518
 20
3109.3742254403
 10
2078.5671548704
 20
3109.3595426267
 10
2078.7503025606
 20
3109.3169925022
 10
2078.5671548704
 20
3109.2744423778
 10
2078.0268955899
 20
3109.2340258942
 10
2077.1566155753
 20
3109.1977697028
 10
2075.9999543005
 20
3109.1674918404
 10
2074.6149115917
 20
3109.1447105655
 10
2073.0709392736
 20
3109.1305682262
 10
2071.4454585654
 20
3109.1257739786
 10
2069.8199778572
 20
3109.1305682262
 10
2068.2760055391
 20
3109.1447105655
 10
2066.8909628302
 20
3109.1674918404
 10
2065.7343015554
 20
3109.1977697028
 10
2064.8640215409
 20
3109.2340258942
 10
2064.3237622604
 20
3109.2744423778
 10
2064.1406145702
 20
3109.3169925022
 10
2064.3237622604
 20
3109.3595426267
 10
2064.475490279
 20
3109.3742254403
  0
SPLINE
  5
4D9
330
1F
100
AcDbEntity
  8
0
  6
Continuous
 62
     7
370
    25
100
AcDbSpline
210
0.0
220
0.0
230
1.0
 70
     8
 71
     3
 72
    10
 73
     6
 74
     0
 42
0.00000001
 43
0.00000001
 40
0.0
 40
0.0
 40
0.0
 40
0.0
 40
0.2348528608094079
 40
0.6323277900321719
 40
0.9999999999999999
 40
0.9999999999999999
 40
0.9999999999999999
 40
0.9999999999999999
 10
2076.139161340507
 20
3106.908496935381
 30
0.0
 10
2076.109898948609
 20
3106.888924055688
 30
0.0
 10
2076.031111645205
 20
3106.836225205358
 30
0.0
 10
2075.960702072958
 20
3106.695638695845
 30
0.0
 10
2075.948765629154
 20
3106.582569255209
 30
0.0
 10
2075.943029871352
 20
3106.528236579846
 30
0.0
  0
ARC
  5
4DA
330
1F
100
AcDbEntity
  8
0
  6
Continuous
 62
     7
370
    25
100
AcDbCircle
 10
2071.4727661044
 20
3172.8487882408
 30
0.0
 40
66.47103753341267
100
AcDbArc
 50
266.0945910318
 51
273.8561261673
  0
LINE
  5
4DB
330
1F
100
AcDbEntity
  8
0
  6
Continuous
 62
     7
370
    25
100
AcDbLine
 10
2075.9454585654
 20
3106.5321061976
 30
0.0
 11
2075.9430298712
 21
3106.5282365797
 31
0.0
  0
LINE
  5
4DC
330
1F
100
AcDbEntity
  8
0
  6
Continuous
 62
     7
370
    25
100
AcDbLine
 10
2037.1454585654
 20
2723.8716549046
 30
0.0
 11
2037.1454585654
 21
2723.7716549046
 31
0.0
  0
LINE
  5
4DD
330
1F
100
AcDbEntity
  8
0
  6
Continuous
 62
     7
370
    25
100
AcDbLine
 10
2436.6454585654
 20
2723.8716549046
 30
0.0
 11
2436.6454585654
 21
2723.7716549046
 31
0.0
  0
LINE
  5
4DE
330
1F
100
AcDbEntity
  8
0
  6
Continuous
 62
     7
370
    25
100
AcDbLine
 10
2830.4454585654
 20
2723.8716549046
 30
0.0
 11
2828.1331333148
 21
2723.8716549046
 31
0.0
  0
LINE
  5
4DF
330
1F
100
AcDbEntity
  8
0
  6
Continuous
 62
     7
370
    25
100
AcDbLine
 10
2791.945458561
 20
2723.8716549046
 30
0.0
 11
2649.4454585654
 21
2723.8716549046
 31
0.0
  0
LINE
  5
4E0
330
1F
100
AcDbEntity
  8
0
  6
Continuous
 62
     7
370
    25
100
AcDbLine
 10
2619.4454585654
 20
2723.8716549046
 30
0.0
 11
2438.4454585654
 21
2723.8716549046
 31
0.0
  0
LINE
  5
4E1
330
1F
100
AcDbEntity
  8
0
  6
Continuous
 62
     7
370
    25
100
AcDbLine
 10
2430.9454585654
 20
2723.8716549046
 30
0.0
 11
2249.9454585654
 21
2723.8716549046
 31
0.0
  0
LINE
  5
4E2
330
1F
100
AcDbEntity
  8
0
  6
Continuous
 62
     7
370
    25
100
AcDbLine
 10
2219.9454585654
 20
2723.8716549046
 30
0.0
 11
2077.4454585697
 21
2723.8716549046
 31
0.0
  0
LINE
  5
4E3
330
1F
100
AcDbEntity
  8
0
  6
Continuous
 62
     7
370
    25
100
AcDbLine
 10
2041.2577838159
 20
2723.8716549046
 30
0.0
 11
2038.9454585654
 21
2723.8716549046
 31
0.0
  0
LINE
  5
4E4
330
1F
100
AcDbEntity
  8
0
  6
Continuous
 62
     7
370
    25
100
AcDbLine
 10
2432.7454585654
 20
2723.7716549046
 30
0.0
 11
2432.7454585654
 21
2723.8716549046
 31
0.0
  0
LINE
  5
4E5
330
1F
100
AcDbEntity
  8
0
  6
Continuous
 62
     7
370
    25
100
AcDbLine
 10
2832.2454585654
 20
2723.7716549046
 30
0.0
 11
2832.2454585654
 21
2723.8716549046
 31
0.0
  0
SPLINE
  5
4E6
330
1F
100
AcDbEntity
  8
0
  6
Continuous
 62
     7
370
    25
100
AcDbSpline
210
0.0
220
0.0
230
1.0
 70
     8
 71
     3
 72
    10
 73
     6
 74
     0
 42
0.00000001
 43
0.00000001
 40
0.0
 40
0.0
 40
0.0
 40
0.0
 40
0.183474033713055
 40
0.4713152133472072
 40
1.0
 40
1.0
 40
1.0
 40
1.0
 10
2056.938044120537
 20
2725.271654904573
 30
0.0
 10
2056.881017377286
 20
2725.206204370562
 30
0.0
 10
2056.734524867593
 20
2725.038072500473
 30
0.0
 10
2056.516685233478
 20
2724.609072556932
 30
0.0
 10
2056.47345154661
 20
2724.22216807867
 30
0.0
 10
2056.445458569704
 20
2723.971654904575
 30
0.0
  0
SPLINE
  5
4E7
330
1F
100
AcDbEntity
  8
0
  6
Continuous
 62
     7
370
    25
100
AcDbSpline
210
0.0
220
0.0
230
1.0
 70
     8
 71
     3
 72
    10
 73
     6
 74
     0
 42
0.00000001
 43
0.00000001
 40
0.0
 40
0.0
 40
0.0
 40
0.0
 40
0.5286786081633353
 40
0.8161383429881266
 40
1.0
 40
1.0
 40
1.0
 40
1.0
 10
2076.445458569706
 20
2723.971654904569
 30
0.0
 10
2076.417467933861
 20
2724.222169411546
 30
0.0
 10
2076.374257879956
 20
2724.608896794614
 30
0.0
 10
2076.156475972973
 20
2725.037913361002
 30
0.0
 10
2076.009989980867
 20
2725.206060857858
 30
0.0
 10
2075.952846049563
 20
2725.271654904573
 30
0.0
  0
SPLINE
  5
4E8
330
1F
100
AcDbEntity
  8
0
  6
Continuous
 62
     7
370
    25
100
AcDbSpline
210
0.0
220
0.0
230
1.0
 70
     8
 71
     3
 72
    10
 73
     6
 74
     0
 42
0.00000001
 43
0.00000001
 40
0.0
 40
0.0
 40
0.0
 40
0.0
 40
0.5286786081596495
 40
0.816138342981381
 40
1.0
 40
1.0
 40
1.0
 40
1.0
 10
2812.945458561023
 20
2723.971654904566
 30
0.0
 10
2812.917467925178
 20
2724.222169411542
 30
0.0
 10
2812.874257871272
 20
2724.608896794608
 30
0.0
 10
2812.65647596429
 20
2725.037913360998
 30
0.0
 10
2812.509989972181
 20
2725.206060857855
 30
0.0
 10
2812.452846040874
 20
2725.271654904573
 30
0.0
  0
SPLINE
  5
4E9
330
1F
100
AcDbEntity
  8
0
  6
Continuous
 62
     7
370
    25
100
AcDbSpline
210
0.0
220
0.0
230
1.0
 70
     8
 71
     3
 72
    10
 73
     6
 74
     0
 42
0.00000001
 43
0.00000001
 40
0.0
 40
0.0
 40
0.0
 40
0.0
 40
0.1834740337178354
 40
0.4713152133481608
 40
1.0
 40
1.0
 40
1.0
 40
1.0
 10
2793.438044111862
 20
2725.271654904573
 30
0.0
 10
2793.381017368608
 20
2725.20620437056
 30
0.0
 10
2793.234524858913
 20
2725.038072500469
 30
0.0
 10
2793.016685224797
 20
2724.609072556924
 30
0.0
 10
2792.973451537929
 20
2724.22216807866
 30
0.0
 10
2792.945458561023
 20
2723.971654904563
 30
0.0
  0
ENDSEC
  0
SECTION
  2
OBJECTS
  0
DICTIONARY
  5
C
330
0
100
AcDbDictionary
281
     1
  3
ACAD_GROUP
350
D
  3
ACAD_LAYOUT
350
1A
  3
ACAD_MLINESTYLE
350
17
  3
ACAD_PLOTSETTINGS
350
19
  3
ACAD_PLOTSTYLENAME
350
E
  3
ACAD_SCALELIST
350
47
  3
DWGPROPS
350
4EA
  0
DICTIONARY
  5
D
102
{ACAD_REACTORS
330
C
102
}
330
C
100
AcDbDictionary
281
     1
  0
DICTIONARY
  5
1A
102
{ACAD_REACTORS
330
C
102
}
330
C
100
AcDbDictionary
281
     1
  3
Layout1
350
1E
  3
Layout2
350
26
  3
Model
350
22
  0
DICTIONARY
  5
17
102
{ACAD_REACTORS
330
C
102
}
330
C
100
AcDbDictionary
281
     1
  3
Standard
350
18
  0
DICTIONARY
  5
19
102
{ACAD_REACTORS
330
C
102
}
330
C
100
AcDbDictionary
281
     1
  0
ACDBDICTIONARYWDFLT
  5
E
102
{ACAD_REACTORS
330
C
102
}
330
C
100
AcDbDictionary
281
     1
  3
Normal
350
F
100
AcDbDictionaryWithDefault
340
F
  0
DICTIONARY
  5
47
102
{ACAD_REACTORS
330
C
102
}
330
C
100
AcDbDictionary
281
     1
  3
A0
350
48
  3
A1
350
49
  3
A2
350
4A
  3
A3
350
4B
  3
A4
350
4C
  3
A5
350
4D
  3
A6
350
4E
  3
A7
350
4F
  3
A8
350
50
  3
A9
350
51
  3
B0
350
52
  3
B1
350
53
  3
B2
350
54
  3
B3
350
55
  3
B4
350
56
  3
B5
350
57
  3
B6
350
58
  0
XRECORD
  5
4EA
102
{ACAD_REACTORS
330
C
102
}
330
C
100
AcDbXrecord
280
     1
  1
DWGPROPS COOKIE
  2

  3

  4

  6

  7

  8
b
  9

300
=
301
=
302
=
303
=
304
=
305
=
306
=
307
=
308
=
309
=
 40
0.0
 41
2460384.308999399
 42
2460384.308999769
  1

 90
        0
  0
LAYOUT
  5
1E
102
{ACAD_REACTORS
330
1A
102
}
330
1A
100
AcDbPlotSettings
  1

  2
none_device
  4

  6

 40
0.0
 41
0.0
 42
0.0
 43
0.0
 44
0.0
 45
0.0
 46
0.0
 47
0.0
 48
0.0
 49
0.0
140
0.0
141
0.0
142
1.0
143
1.0
 70
   688
 72
     1
 73
     0
 74
     5
  7

 75
    16
147
1.0
148
0.0
149
0.0
100
AcDbLayout
  1
Layout1
 70
     1
 71
     1
 10
0.0
 20
0.0
 11
420.0
 21
297.0
 12
0.0
 22
0.0
 32
0.0
 14
1.0000000000E+20
 24
1.0000000000E+20
 34
1.0000000000E+20
 15
-1.0000000000E+20
 25
-1.0000000000E+20
 35
-1.0000000000E+20
146
0.0
 13
0.0
 23
0.0
 33
0.0
 16
1.0
 26
0.0
 36
0.0
 17
0.0
 27
1.0
 37
0.0
 76
     0
330
1B
  0
LAYOUT
  5
26
102
{ACAD_REACTORS
330
1A
102
}
330
1A
100
AcDbPlotSettings
  1

  2
none_device
  4

  6

 40
0.0
 41
0.0
 42
0.0
 43
0.0
 44
0.0
 45
0.0
 46
0.0
 47
0.0
 48
0.0
 49
0.0
140
0.0
141
0.0
142
1.0
143
1.0
 70
   688
 72
     1
 73
     0
 74
     5
  7

 75
    16
147
1.0
148
0.0
149
0.0
100
AcDbLayout
  1
Layout2
 70
     1
 71
     2
 10
0.0
 20
0.0
 11
0.0
 21
0.0
 12
0.0
 22
0.0
 32
0.0
 14
0.0
 24
0.0
 34
0.0
 15
0.0
 25
0.0
 35
0.0
146
0.0
 13
0.0
 23
0.0
 33
0.0
 16
1.0
 26
0.0
 36
0.0
 17
0.0
 27
1.0
 37
0.0
 76
     0
330
23
  0
LAYOUT
  5
22
102
{ACAD_REACTORS
330
1A
102
}
330
1A
100
AcDbPlotSettings
  1

  2
none_device
  4
Letter_(8.50_x_11.00_Inches)
  6

 40
6.35
 41
6.35
 42
6.35000508
 43
6.35000508
 44
215.9
 45
279.4
 46
0.0
 47
0.0
 48
0.0
 49
0.0
140
0.0
141
0.0
142
1.0
143
1.0
 70
  1712
 72
     1
 73
     0
 74
     0
  7

 75
     0
147
1.0
148
0.0
149
0.0
100
AcDbLayout
  1
Model
 70
     1
 71
     0
 10
0.0
 20
0.0
 11
5000.0
 21
3500.0
 12
0.0
 22
0.0
 32
0.0
 14
0.0
 24
0.0
 34
0.0
 15
5000.0
 25
3500.0
 35
0.0
146
0.0
 13
0.0
 23
0.0
 33
0.0
 16
1.0
 26
0.0
 36
0.0
 17
0.0
 27
1.0
 37
0.0
 76
     0
330
1F
331
29
  0
MLINESTYLE
  5
18
102
{ACAD_REACTORS
330
17
102
}
330
17
100
AcDbMlineStyle
  2
Standard
 70
     0
  3

 62
   256
 51
90.0
 52
90.0
 71
     2
 49
0.5
 62
   256
  6
BYLAYER
 49
-0.5
 62
   256
  6
BYLAYER
  0
ACDBPLACEHOLDER
  5
F
102
{ACAD_REACTORS
330
E
102
}
330
E
  0
SCALE
  5
48
102
{ACAD_REACTORS
330
47
102
}
330
47
100
AcDbScale
 70
     0
300
1:1
140
1.0
141
1.0
290
     1
  0
SCALE
  5
49
102
{ACAD_REACTORS
330
47
102
}
330
47
100
AcDbScale
 70
     0
300
1:2
140
1.0
141
2.0
290
     0
  0
SCALE
  5
4A
102
{ACAD_REACTORS
330
47
102
}
330
47
100
AcDbScale
 70
     0
300
1:4
140
1.0
141
4.0
290
     0
  0
SCALE
  5
4B
102
{ACAD_REACTORS
330
47
102
}
330
47
100
AcDbScale
 70
     0
300
1:5
140
1.0
141
5.0
290
     0
  0
SCALE
  5
4C
102
{ACAD_REACTORS
330
47
102
}
330
47
100
AcDbScale
 70
     0
300
1:8
140
1.0
141
8.0
290
     0
  0
SCALE
  5
4D
102
{ACAD_REACTORS
330
47
102
}
330
47
100
AcDbScale
 70
     0
300
1:10
140
1.0
141
10.0
290
     0
  0
SCALE
  5
4E
102
{ACAD_REACTORS
330
47
102
}
330
47
100
AcDbScale
 70
     0
300
1:16
140
1.0
141
16.0
290
     0
  0
SCALE
  5
4F
102
{ACAD_REACTORS
330
47
102
}
330
47
100
AcDbScale
 70
     0
300
1:20
140
1.0
141
20.0
290
     0
  0
SCALE
  5
50
102
{ACAD_REACTORS
330
47
102
}
330
47
100
AcDbScale
 70
     0
300
1:30
140
1.0
141
30.0
290
     0
  0
SCALE
  5
51
102
{ACAD_REACTORS
330
47
102
}
330
47
100
AcDbScale
 70
     0
300
1:40
140
1.0
141
40.0
290
     0
  0
SCALE
  5
52
102
{ACAD_REACTORS
330
47
102
}
330
47
100
AcDbScale
 70
     0
300
1:50
140
1.0
141
50.0
290
     0
  0
SCALE
  5
53
102
{ACAD_REACTORS
330
47
102
}
330
47
100
AcDbScale
 70
     0
300
1:100
140
1.0
141
100.0
290
     0
  0
SCALE
  5
54
102
{ACAD_REACTORS
330
47
102
}
330
47
100
AcDbScale
 70
     0
300
2:1
140
2.0
141
1.0
290
     0
  0
SCALE
  5
55
102
{ACAD_REACTORS
330
47
102
}
330
47
100
AcDbScale
 70
     0
300
4:1
140
4.0
141
1.0
290
     0
  0
SCALE
  5
56
102
{ACAD_REACTORS
330
47
102
}
330
47
100
AcDbScale
 70
     0
300
8:1
140
8.0
141
1.0
290
     0
  0
SCALE
  5
57
102
{ACAD_REACTORS
330
47
102
}
330
47
100
AcDbScale
 70
     0
300
10:1
140
10.0
141
1.0
290
     0
  0
SCALE
  5
58
102
{ACAD_REACTORS
330
47
102
}
330
47
100
AcDbScale
 70
     0
300
100:1
140
100.0
141
1.0
290
     0
  0
ENDSEC
  0
EOF
