  0
SECTION
  2
HEADER
  9
$ACADVER
  1
AC1015
  9
$ACADMAINTVER
 70
     6
  9
$DWGCODEPAGE
  3
DOS932
  9
$INSBASE
 10
0.0
 20
0.0
 30
0.0
  9
$EXTMIN
 10
0.0
 20
0.0
 30
0.0
  9
$EXTMAX
 10
5000.0
 20
3500.0
 30
0.0
  9
$LIMMIN
 10
0.0
 20
0.0
  9
$LIMMAX
 10
5000.0
 20
3500.0
  9
$ORTHOMODE
 70
     0
  9
$REGENMODE
 70
     1
  9
$FILLMODE
 70
     1
  9
$QTEXTMODE
 70
     0
  9
$MIRRTEXT
 70
     1
  9
$LTSCALE
 40
1.0
  9
$ATTMODE
 70
     1
  9
$TEXTSIZE
 40
3.5
  9
$TRACEWID
 40
1.0
  9
$TEXTSTYLE
  7
Standard
  9
$CLAYER
  8
0
  9
$CELTYPE
  6
ByLayer
  9
$CECOLOR
 62
   256
  9
$CELTSCALE
 40
1.0
  9
$DISPSILH
 70
     0
  9
$DIMSCALE
 40
1.0
  9
$DIMASZ
 40
3.302
  9
$DIMEXO
 40
1.0
  9
$DIMDLI
 40
3.75
  9
$DIMRND
 40
0.0
  9
$DIMDLE
 40
0.0
  9
$DIMEXE
 40
1.0
  9
$DIMTP
 40
0.0
  9
$DIMTM
 40
0.0
  9
$DIMTXT
 40
3.5
  9
$DIMCEN
 40
2.5
  9
$DIMTSZ
 40
0.0
  9
$DIMTOL
 70
     0
  9
$DIMLIM
 70
     0
  9
$DIMTIH
 70
     1
  9
$DIMTOH
 70
     1
  9
$DIMSE1
 70
     0
  9
$DIMSE2
 70
     0
  9
$DIMTAD
 70
     1
  9
$DIMZIN
 70
     0
  9
$DIMBLK
  1

  9
$DIMASO
 70
     1
  9
$DIMSHO
 70
     1
  9
$DIMPOST
  1

  9
$DIMAPOST
  1

  9
$DIMALT
 70
     0
  9
$DIMALTD
 70
     3
  9
$DIMALTF
 40
0.0393700787
  9
$DIMLFAC
 40
1.0
  9
$DIMTOFL
 70
     1
  9
$DIMTVP
 40
0.0
  9
$DIMTIX
 70
     0
  9
$DIMSOXD
 70
     0
  9
$DIMSAH
 70
     0
  9
$DIMBLK1
  1

  9
$DIMBLK2
  1

  9
$DIMSTYLE
  2
ISO-25
  9
$DIMCLRD
 70
     0
  9
$DIMCLRE
 70
     0
  9
$DIMCLRT
 70
     0
  9
$DIMTFAC
 40
1.0
  9
$DIMGAP
 40
1.524
  9
$DIMJUST
 70
     0
  9
$DIMSD1
 70
     0
  9
$DIMSD2
 70
     0
  9
$DIMTOLJ
 70
     0
  9
$DIMTZIN
 70
     0
  9
$DIMALTZ
 70
     0
  9
$DIMALTTZ
 70
     0
  9
$DIMUPT
 70
     0
  9
$DIMDEC
 70
     2
  9
$DIMTDEC
 70
     2
  9
$DIMALTU
 70
     2
  9
$DIMALTTD
 70
     3
  9
$DIMTXSTY
  7
Standard
  9
$DIMAUNIT
 70
     0
  9
$DIMADEC
 70
     2
  9
$DIMALTRND
 40
0.0
  9
$DIMAZIN
 70
     0
  9
$DIMDSEP
 70
    44
  9
$DIMATFIT
 70
     3
  9
$DIMFRAC
 70
     0
  9
$DIMLDRBLK
  1

  9
$DIMLUNIT
 70
     2
  9
$DIMLWD
 70
    -2
  9
$DIMLWE
 70
    -2
  9
$DIMTMOVE
 70
     0
  9
$LUNITS
 70
     2
  9
$LUPREC
 70
     3
  9
$SKETCHINC
 40
1.0
  9
$FILLETRAD
 40
0.0
  9
$AUNITS
 70
     0
  9
$AUPREC
 70
     2
  9
$MENU
  1
.
  9
$ELEVATION
 40
0.0
  9
$PELEVATION
 40
0.0
  9
$THICKNESS
 40
0.0
  9
$LIMCHECK
 70
     0
  9
$CHAMFERA
 40
0.0
  9
$CHAMFERB
 40
0.0
  9
$CHAMFERC
 40
0.0
  9
$CHAMFERD
 40
0.0
  9
$SKPOLY
 70
     0
  9
$TDCREATE
 40
2460384.675491725
  9
$TDUCREATE
 40
2460384.300491725
  9
$TDUPDATE
 40
2460384.675492095
  9
$TDUUPDATE
 40
2460384.300492095
  9
$TDINDWG
 40
0.0000000116
  9
$TDUSRTIMER
 40
0.0000000116
  9
$USRTIMER
 70
     1
  9
$ANGBASE
 50
0.0
  9
$ANGDIR
 70
     0
  9
$PDMODE
 70
     0
  9
$PDSIZE
 40
-1.0
  9
$PLINEWID
 40
0.0
  9
$SPLFRAME
 70
     0
  9
$SPLINETYPE
 70
     6
  9
$SPLINESEGS
 70
     8
  9
$HANDSEED
  5
278
  9
$SURFTAB1
 70
     6
  9
$SURFTAB2
 70
     6
  9
$SURFTYPE
 70
     6
  9
$SURFU
 70
     6
  9
$SURFV
 70
     6
  9
$UCSBASE
  2

  9
$UCSNAME
  2

  9
$UCSORG
 10
0.0
 20
0.0
 30
0.0
  9
$UCSXDIR
 10
1.0
 20
0.0
 30
0.0
  9
$UCSYDIR
 10
0.0
 20
1.0
 30
0.0
  9
$UCSORTHOREF
  2

  9
$UCSORTHOVIEW
 70
     0
  9
$UCSORGTOP
 10
0.0
 20
0.0
 30
0.0
  9
$UCSORGBOTTOM
 10
0.0
 20
0.0
 30
0.0
  9
$UCSORGLEFT
 10
0.0
 20
0.0
 30
0.0
  9
$UCSORGRIGHT
 10
0.0
 20
0.0
 30
0.0
  9
$UCSORGFRONT
 10
0.0
 20
0.0
 30
0.0
  9
$UCSORGBACK
 10
0.0
 20
0.0
 30
0.0
  9
$PUCSBASE
  2

  9
$PUCSNAME
  2

  9
$PUCSORG
 10
0.0
 20
0.0
 30
0.0
  9
$PUCSXDIR
 10
1.0
 20
0.0
 30
0.0
  9
$PUCSYDIR
 10
0.0
 20
1.0
 30
0.0
  9
$PUCSORTHOREF
  2

  9
$PUCSORTHOVIEW
 70
     0
  9
$PUCSORGTOP
 10
0.0
 20
0.0
 30
0.0
  9
$PUCSORGBOTTOM
 10
0.0
 20
0.0
 30
0.0
  9
$PUCSORGLEFT
 10
0.0
 20
0.0
 30
0.0
  9
$PUCSORGRIGHT
 10
0.0
 20
0.0
 30
0.0
  9
$PUCSORGFRONT
 10
0.0
 20
0.0
 30
0.0
  9
$PUCSORGBACK
 10
0.0
 20
0.0
 30
0.0
  9
$USERI1
 70
     0
  9
$USERI2
 70
     0
  9
$USERI3
 70
     0
  9
$USERI4
 70
     0
  9
$USERI5
 70
     0
  9
$USERR1
 40
0.0
  9
$USERR2
 40
0.0
  9
$USERR3
 40
0.0
  9
$USERR4
 40
0.0
  9
$USERR5
 40
0.0
  9
$WORLDVIEW
 70
     1
  9
$SHADEDGE
 70
     3
  9
$SHADEDIF
 70
    70
  9
$TILEMODE
 70
     1
  9
$MAXACTVP
 70
    64
  9
$PINSBASE
 10
0.0
 20
0.0
 30
0.0
  9
$PLIMCHECK
 70
     0
  9
$PEXTMIN
 10
1.0000000000E+20
 20
1.0000000000E+20
 30
1.0000000000E+20
  9
$PEXTMAX
 10
-1.0000000000E+20
 20
-1.0000000000E+20
 30
-1.0000000000E+20
  9
$PLIMMIN
 10
0.0
 20
0.0
  9
$PLIMMAX
 10
420.0
 20
297.0
  9
$UNITMODE
 70
     0
  9
$VISRETAIN
 70
     1
  9
$PLINEGEN
 70
     0
  9
$PSLTSCALE
 70
     1
  9
$TREEDEPTH
 70
  3020
  9
$CMLSTYLE
  2
Standard
  9
$CMLJUST
 70
     0
  9
$CMLSCALE
 40
20.0
  9
$PROXYGRAPHICS
 70
     1
  9
$MEASUREMENT
 70
     1
  9
$CELWEIGHT
370
    -1
  9
$ENDCAPS
280
     0
  9
$JOINSTYLE
280
     0
  9
$LWDISPLAY
290
     1
  9
$INSUNITS
 70
     4
  9
$HYPERLINKBASE
  1

  9
$STYLESHEET
  1

  9
$XEDIT
290
     1
  9
$CEPSNTYPE
380
     0
  9
$PSTYLEMODE
290
     1
  9
$FINGERPRINTGUID
  2
{131c44c8-889a-4910-8350-418dee73c9c1}
  9
$VERSIONGUID
  2
{FAEB1C32-E019-11D5-929B-00C0DF256EC4}
  9
$EXTNAMES
290
     1
  9
$PSVPSCALE
 40
0.0
  9
$OLESTARTUP
290
     0
  0
ENDSEC
  0
SECTION
  2
CLASSES
  0
CLASS
  1
ACDBDICTIONARYWDFLT
  2
AcDbDictionaryWithDefault
  3
ObjectDBX Classes
 90
        0
280
     0
281
     0
  0
CLASS
  1
VISUALSTYLE
  2
AcDbVisualStyle
  3
ObjectDBX Classes
 90
     4095
280
     0
281
     0
  0
CLASS
  1
MATERIAL
  2
AcDbMaterial
  3
ObjectDBX Classes
 90
     1153
280
     0
281
     0
  0
CLASS
  1
SCALE
  2
AcDbScale
  3
ObjectDBX Classes
 90
     1153
280
     0
281
     0
  0
CLASS
  1
TABLESTYLE
  2
AcDbTableStyle
  3
ObjectDBX Classes
 90
     4095
280
     0
281
     0
  0
CLASS
  1
MLEADERSTYLE
  2
AcDbMLeaderStyle
  3
ACDB_MLEADERSTYLE_CLASS
 90
     4095
280
     0
281
     0
  0
CLASS
  1
SUN
  2
AcDbSun
  3
SCENEOE
 90
     1153
280
     0
281
     0
  0
CLASS
  1
ACDBPLACEHOLDER
  2
AcDbPlaceHolder
  3
ObjectDBX Classes
 90
        0
280
     0
281
     0
  0
CLASS
  1
LAYOUT
  2
AcDbLayout
  3
ObjectDBX Classes
 90
        0
280
     0
281
     0
  0
ENDSEC
  0
SECTION
  2
TABLES
  0
TABLE
  2
VPORT
  5
8
330
0
100
AcDbSymbolTable
 70
     1
  0
VPORT
  5
29
330
8
100
AcDbSymbolTableRecord
100
AcDbViewportTableRecord
  2
*Active
 70
     0
 10
0.0
 20
0.0
 11
1.0
 21
1.0
 12
2500.0
 22
1750.0
 13
0.0
 23
0.0
 14
10.0
 24
10.0
 15
10.0
 25
10.0
 16
0.0
 26
0.0
 36
1.0
 17
0.0
 27
0.0
 37
0.0
 40
3500.0
 41
1.4285714286
 42
50.0
 43
0.0
 44
0.0
 50
0.0
 51
0.0
 71
     0
 72
  2000
 73
     1
 74
     3
 75
     0
 76
     0
 77
     0
 78
     0
281
     0
 65
     1
110
0.0
120
0.0
130
0.0
111
1.0
121
0.0
131
0.0
112
0.0
122
1.0
132
0.0
 79
     0
146
0.0
  0
ENDTAB
  0
TABLE
  2
LTYPE
  5
5
330
0
100
AcDbSymbolTable
 70
     6
  0
LTYPE
  5
14
330
5
100
AcDbSymbolTableRecord
100
AcDbLinetypeTableRecord
  2
ByBlock
 70
     0
  3

 72
    65
 73
     0
 40
0.0
  0
LTYPE
  5
15
330
5
100
AcDbSymbolTableRecord
100
AcDbLinetypeTableRecord
  2
ByLayer
 70
     0
  3

 72
    65
 73
     0
 40
0.0
  0
LTYPE
  5
16
330
5
100
AcDbSymbolTableRecord
100
AcDbLinetypeTableRecord
  2
Continuous
 70
     0
  3
Solid line
 72
    65
 73
     0
 40
0.0
  0
LTYPE
  5
5E
330
5
100
AcDbSymbolTableRecord
100
AcDbLinetypeTableRecord
  2
HIDDEN
 70
     0
  3
Hidden __ __ __ __ __ __ __ __ __ __ __ __ __ __
 72
    65
 73
     2
 40
1.905
 49
1.27
 74
     0
 49
-0.635
 74
     0
  0
LTYPE
  5
5F
330
5
100
AcDbSymbolTableRecord
100
AcDbLinetypeTableRecord
  2
PHANTOM
 70
     0
  3
Phantom ______  __  __  ______  __  __  ______
 72
    65
 73
     6
 40
12.7
 49
6.35
 74
     0
 49
-1.27
 74
     0
 49
1.27
 74
     0
 49
-1.27
 74
     0
 49
1.27
 74
     0
 49
-1.27
 74
     0
  0
LTYPE
  5
60
330
5
100
AcDbSymbolTableRecord
100
AcDbLinetypeTableRecord
  2
CENTER
 70
     0
  3
Center ____ _ ____ _ ____ _ ____ _ ____ _ ____
 72
    65
 73
     4
 40
10.16
 49
6.35
 74
     0
 49
-1.27
 74
     0
 49
1.27
 74
     0
 49
-1.27
 74
     0
  0
LTYPE
  5
61
330
5
100
AcDbSymbolTableRecord
100
AcDbLinetypeTableRecord
  2
CENTERX2
 70
     0
  3
Center (2x) ________  __  ________  __  _____
 72
    65
 73
     4
 40
20.32
 49
12.7
 74
     0
 49
-2.54
 74
     0
 49
2.54
 74
     0
 49
-2.54
 74
     0
  0
LTYPE
  5
62
330
5
100
AcDbSymbolTableRecord
100
AcDbLinetypeTableRecord
  2
DOT2
 70
     0
  3
Dot (.5x) ........................................
 72
    65
 73
     2
 40
0.635
 49
0.0
 74
     0
 49
-0.635
 74
     0
  0
ENDTAB
  0
TABLE
  2
LAYER
  5
2
330
0
100
AcDbSymbolTable
 70
     3
  0
LAYER
  5
10
330
2
100
AcDbSymbolTableRecord
100
AcDbLayerTableRecord
  2
0
 70
     0
 62
     7
  6
Continuous
370
    -3
390
F
  0
LAYER
  5
63
330
2
100
AcDbSymbolTableRecord
100
AcDbLayerTableRecord
  2
SLD-0
 70
     0
 62
   179
  6
Continuous
370
    -3
390
F
  0
LAYER
  5
64
330
2
100
AcDbSymbolTableRecord
100
AcDbLayerTableRecord
  2
寸法
 70
     0
 62
   179
  6
Continuous
370
    -3
390
F
  0
ENDTAB
  0
TABLE
  2
STYLE
  5
3
330
0
100
AcDbSymbolTable
 70
     2
  0
STYLE
  5
11
330
3
100
AcDbSymbolTableRecord
100
AcDbTextStyleTableRecord
  2
Standard
 70
     0
 40
0.0
 41
1.0
 50
0.0
 71
     0
 42
3.5
  3
txt
  4
bigfont
  0
STYLE
  5
66
330
3
100
AcDbSymbolTableRecord
100
AcDbTextStyleTableRecord
  2
SLDTEXTSTYLE0
 70
     0
 40
0.0
 41
0.75
 50
0.0
 71
     0
 42
3.5
  3
TXT
  4
bigfont
  0
ENDTAB
  0
TABLE
  2
VIEW
  5
6
330
0
100
AcDbSymbolTable
 70
     0
  0
ENDTAB
  0
TABLE
  2
UCS
  5
7
330
0
100
AcDbSymbolTable
 70
     0
  0
ENDTAB
  0
TABLE
  2
APPID
  5
9
330
0
100
AcDbSymbolTable
 70
     1
  0
APPID
  5
12
330
9
100
AcDbSymbolTableRecord
100
AcDbRegAppTableRecord
  2
ACAD
 70
     0
  0
ENDTAB
  0
TABLE
  2
DIMSTYLE
  5
A
330
0
100
AcDbSymbolTable
 70
     1
100
AcDbDimStyleTable
  0
DIMSTYLE
105
27
330
A
100
AcDbSymbolTableRecord
100
AcDbDimStyleTableRecord
  2
ISO-25
 70
     0
 41
2.5
 42
0.625
 43
3.75
 44
1.25
 73
     0
 74
     0
 77
     1
 78
     8
140
2.5
141
2.5
143
0.0393700787
147
0.625
171
     3
172
     1
178
     0
271
     2
272
     2
274
     3
278
    44
283
     0
284
     8
340
11
  0
ENDTAB
  0
TABLE
  2
BLOCK_RECORD
  5
1
330
0
100
AcDbSymbolTable
 70
     1
  0
BLOCK_RECORD
  5
1F
330
1
100
AcDbSymbolTableRecord
100
AcDbBlockTableRecord
  2
*Model_Space
340
22
  0
BLOCK_RECORD
  5
1B
330
1
100
AcDbSymbolTableRecord
100
AcDbBlockTableRecord
  2
*Paper_Space
340
1E
  0
BLOCK_RECORD
  5
23
330
1
100
AcDbSymbolTableRecord
100
AcDbBlockTableRecord
  2
*Paper_Space0
340
26
  0
ENDTAB
  0
ENDSEC
  0
SECTION
  2
BLOCKS
  0
BLOCK
  5
20
330
1F
100
AcDbEntity
  8
0
100
AcDbBlockBegin
  2
*Model_Space
 70
     0
 10
0.0
 20
0.0
 30
0.0
  3
*Model_Space
  1

  0
ENDBLK
  5
21
330
1F
100
AcDbEntity
  8
0
100
AcDbBlockEnd
  0
BLOCK
  5
1C
330
1B
100
AcDbEntity
 67
     1
  8
0
100
AcDbBlockBegin
  2
*Paper_Space
 70
     0
 10
0.0
 20
0.0
 30
0.0
  3
*Paper_Space
  1

  0
ENDBLK
  5
1D
330
1B
100
AcDbEntity
 67
     1
  8
0
100
AcDbBlockEnd
  0
BLOCK
  5
24
330
23
100
AcDbEntity
  8
0
100
AcDbBlockBegin
  2
*Paper_Space0
 70
     0
 10
0.0
 20
0.0
 30
0.0
  3
*Paper_Space0
  1

  0
ENDBLK
  5
25
330
23
100
AcDbEntity
  8
0
100
AcDbBlockEnd
  0
ENDSEC
  0
SECTION
  2
ENTITIES
  0
LINE
  5
65
330
1F
100
AcDbEntity
  8
0
  6
Continuous
 62
     7
370
    18
100
AcDbLine
 10
4801.663086451
 20
279.1403827252
 30
0.0
 11
3345.9062220501
 21
279.1403827252
 31
0.0
  0
MTEXT
  5
67
330
1F
100
AcDbEntity
  8
0
  6
Continuous
 62
     7
370
     0
100
AcDbMText
 10
1882.8324799637
 20
2519.2846179971
 30
0.0
 40
52.9166666667
 41
0.0
 71
     1
 72
     1
  1
＜正面＞
  7
SLDTEXTSTYLE0
 73
     1
 44
1.0
  0
MTEXT
  5
68
330
1F
100
AcDbEntity
  8
0
  6
Continuous
 62
     7
370
     0
100
AcDbMText
 10
3377.8142431891
 20
379.4057208634
 30
0.0
 40
52.9166666667
 41
0.0
 71
     1
 72
     1
  1
品名：
  7
SLDTEXTSTYLE0
 73
     1
 44
1.0
  0
MTEXT
  5
69
330
1F
100
AcDbEntity
  8
0
  6
Continuous
 62
     7
370
     0
100
AcDbMText
 10
4446.6634374817
 20
385.2343854145
 30
0.0
 40
52.9166666667
 41
0.0
 71
     1
 72
     1
  1
Pamouna
  7
SLDTEXTSTYLE0
 73
     1
 44
1.0
  0
MTEXT
  5
6A
330
1F
100
AcDbEntity
  8
寸法
 62
     7
100
AcDbMText
 10
4688.0073048854
 20
218.6255182943
 30
0.0
 40
52.9166666667
 41
0.0
 71
     1
 72
     1
  1
1/1
  7
SLDTEXTSTYLE0
 73
     1
 44
1.0
  0
MTEXT
  5
6B
330
1F
100
AcDbEntity
  8
寸法
 62
     7
100
AcDbMText
 10
3611.2831293492
 20
398.3924235142
 30
0.0
 40
66.1458333333
 41
0.0
 71
     1
 72
     1
  1
MAGB450R
  7
SLDTEXTSTYLE0
 73
     1
 44
1.0
  0
MTEXT
  5
6C
330
1F
100
AcDbEntity
  8
寸法
 62
     7
100
AcDbMText
 10
4198.7969392118
 20
218.6255210883
 30
0.0
 40
52.9166666667
 41
0.0
 71
     1
 72
     1
  1
2024/03/14
  7
SLDTEXTSTYLE0
 73
     1
 44
1.0
  0
MTEXT
  5
6D
330
1F
100
AcDbEntity
  8
寸法
 62
     7
100
AcDbMText
 10
3662.4665930518
 20
2520.6575766403
 30
0.0
 40
52.9166666667
 41
0.0
 71
     1
 72
     1
  1
＜右側面＞
  7
SLDTEXTSTYLE0
 73
     1
 44
1.0
  0
MTEXT
  5
6E
330
1F
100
AcDbEntity
  8
0
  6
Continuous
 62
     7
370
     0
100
AcDbMText
 10
1882.8017261557
 20
3205.5678091759
 30
0.0
 40
52.9166666667
 41
0.0
 71
     1
 72
     1
  1
＜上面＞
  7
SLDTEXTSTYLE0
 73
     1
 44
1.0
  0
MTEXT
  5
6F
330
1F
100
AcDbEntity
  8
0
  6
Continuous
 62
     7
370
     0
100
AcDbMText
 10
599.5723251208
 20
2520.5928474105
 30
0.0
 40
52.9166666667
 41
0.0
 71
     1
 72
     1
  1
＜左側面＞
  7
SLDTEXTSTYLE0
 73
     1
 44
1.0
  0
LINE
  5
70
330
1F
100
AcDbEntity
  8
0
  6
Continuous
 62
     7
370
    25
100
AcDbLine
 10
2215.4454585654
 20
2378.2543978663
 30
0.0
 11
2215.4454585654
 21
606.7543978663
 31
0.0
  0
LINE
  5
71
330
1F
100
AcDbEntity
  8
0
  6
Continuous
 62
     7
370
    25
100
AcDbLine
 10
2215.4454585654
 20
606.7543978663
 30
0.0
 11
2232.9454585654
 21
606.7543978663
 31
0.0
  0
LINE
  5
72
330
1F
100
AcDbEntity
  8
0
  6
Continuous
 62
     7
370
    25
100
AcDbLine
 10
2232.9454585654
 20
606.7543978663
 30
0.0
 11
2232.9454585654
 21
616.7543978663
 31
0.0
  0
LINE
  5
73
330
1F
100
AcDbEntity
  8
0
  6
Continuous
 62
     7
370
    25
100
AcDbLine
 10
2521.4454585654
 20
607.7543978663
 30
0.0
 11
2357.9454585654
 21
607.7543978663
 31
0.0
  0
LINE
  5
74
330
1F
100
AcDbEntity
  8
0
  6
Continuous
 62
     7
370
    25
100
AcDbLine
 10
2664.9454585654
 20
2378.2543978663
 30
0.0
 11
2662.4454585654
 21
2378.2543978663
 31
0.0
  0
LINE
  5
75
330
1F
100
AcDbEntity
  8
0
  6
Continuous
 62
     7
370
    25
100
AcDbLine
 10
2216.4454585654
 20
2378.2543978663
 30
0.0
 11
2214.4454585654
 21
2378.2543978663
 31
0.0
  0
LINE
  5
76
330
1F
100
AcDbEntity
  8
0
  6
Continuous
 62
     7
370
    25
100
AcDbLine
 10
2664.9454585654
 20
2406.7543978663
 30
0.0
 11
2214.4454585654
 21
2406.7543978663
 31
0.0
  0
LINE
  5
77
330
1F
100
AcDbEntity
  8
0
  6
Continuous
 62
     7
370
    25
100
AcDbLine
 10
2214.4454585654
 20
2406.7543978663
 30
0.0
 11
2214.4454585654
 21
2378.2543978663
 31
0.0
  0
LINE
  5
78
330
1F
100
AcDbEntity
  8
0
  6
Continuous
 62
     7
370
    25
100
AcDbLine
 10
2664.9454585654
 20
2406.7543978663
 30
0.0
 11
2664.9454585654
 21
2378.2543978663
 31
0.0
  0
LINE
  5
79
330
1F
100
AcDbEntity
  8
0
  6
Continuous
 62
     7
370
    25
100
AcDbLine
 10
2646.4454585654
 20
606.7543978663
 30
0.0
 11
2663.9454585654
 21
606.7543978663
 31
0.0
  0
LINE
  5
7A
330
1F
100
AcDbEntity
  8
0
  6
Continuous
 62
     7
370
    25
100
AcDbLine
 10
2663.9454585654
 20
606.7543978663
 30
0.0
 11
2663.9454585654
 21
2378.2543978663
 31
0.0
  0
LINE
  5
7B
330
1F
100
AcDbEntity
  8
0
  6
Continuous
 62
     7
370
    25
100
AcDbLine
 10
2646.4454585654
 20
616.7543978663
 30
0.0
 11
2646.4454585654
 21
606.7543978663
 31
0.0
  0
LINE
  5
7C
330
1F
100
AcDbEntity
  8
0
  6
Continuous
 62
     7
370
    25
100
AcDbLine
 10
2662.4454585654
 20
616.7543978663
 30
0.0
 11
2662.4454585654
 21
2396.7543978663
 31
0.0
  0
LINE
  5
7D
330
1F
100
AcDbEntity
  8
0
  6
Continuous
 62
     7
370
    25
100
AcDbLine
 10
2216.4454585654
 20
616.7543978663
 30
0.0
 11
2662.4454585654
 21
616.7543978663
 31
0.0
  0
LINE
  5
7E
330
1F
100
AcDbEntity
  8
0
  6
Continuous
 62
     7
370
    25
100
AcDbLine
 10
2216.4454585654
 20
2396.7543978663
 30
0.0
 11
2216.4454585654
 21
616.7543978663
 31
0.0
  0
LINE
  5
7F
330
1F
100
AcDbEntity
  8
0
  6
Continuous
 62
     7
370
    25
100
AcDbLine
 10
2662.4454585654
 20
2396.7543978663
 30
0.0
 11
2216.4454585654
 21
2396.7543978663
 31
0.0
  0
LINE
  5
80
330
1F
100
AcDbEntity
  8
0
  6
Continuous
 62
     7
370
    25
100
AcDbLine
 10
2235.2454585654
 20
616.7543978663
 30
0.0
 11
2235.2454585654
 21
612.7543978663
 31
0.0
  0
LINE
  5
81
330
1F
100
AcDbEntity
  8
0
  6
Continuous
 62
     7
370
    25
100
AcDbLine
 10
2232.9454585654
 20
612.7543978663
 30
0.0
 11
2235.2454585654
 21
612.7543978663
 31
0.0
  0
LINE
  5
82
330
1F
100
AcDbEntity
  8
0
  6
Continuous
 62
     7
370
    25
100
AcDbLine
 10
2235.2454585654
 20
607.7543978663
 30
0.0
 11
2232.9454585654
 21
607.7543978663
 31
0.0
  0
LINE
  5
83
330
1F
100
AcDbEntity
  8
0
  6
Continuous
 62
     7
370
    25
100
AcDbLine
 10
2235.2454585654
 20
612.7543978663
 30
0.0
 11
2235.2454585654
 21
607.7543978663
 31
0.0
  0
LINE
  5
84
330
1F
100
AcDbEntity
  8
0
  6
Continuous
 62
     7
370
    25
100
AcDbLine
 10
2235.2454585654
 20
607.7543978663
 30
0.0
 11
2236.2454585654
 21
607.7543978663
 31
0.0
  0
ARC
  5
85
330
1F
100
AcDbEntity
  8
0
  6
Continuous
 62
     7
370
    25
100
AcDbCircle
 10
2252.9454585654
 20
617.7543978663
 30
0.0
 40
2.000000000000164
100
AcDbArc
 50
210.0
 51
330.0
  0
LINE
  5
86
330
1F
100
AcDbEntity
  8
0
  6
Continuous
 62
     7
370
    25
100
AcDbLine
 10
2362.9454585654
 20
616.7543978663
 30
0.0
 11
2362.9454585654
 21
612.7543978663
 31
0.0
  0
ARC
  5
87
330
1F
100
AcDbEntity
  8
0
  6
Continuous
 62
     7
370
    25
100
AcDbCircle
 10
2357.9454585654
 20
612.7543978663
 30
0.0
 40
5.000000000000114
100
AcDbArc
 50
270.0
 51
0.0
  0
ARC
  5
88
330
1F
100
AcDbEntity
  8
0
  6
Continuous
 62
     7
370
    25
100
AcDbCircle
 10
2352.9454585654
 20
617.7543978663
 30
0.0
 40
2.000000000000164
100
AcDbArc
 50
210.0
 51
330.0
  0
ARC
  5
89
330
1F
100
AcDbEntity
  8
0
  6
Continuous
 62
     7
370
    25
100
AcDbCircle
 10
2302.9454585654
 20
617.7543978663
 30
0.0
 40
2.000000000000164
100
AcDbArc
 50
210.0
 51
330.0
  0
LINE
  5
8A
330
1F
100
AcDbEntity
  8
0
  6
Continuous
 62
     7
370
    25
100
AcDbLine
 10
2236.2454585654
 20
607.7543978663
 30
0.0
 11
2357.9454585654
 21
607.7543978663
 31
0.0
  0
LINE
  5
8B
330
1F
100
AcDbEntity
  8
0
  6
Continuous
 62
     7
370
    25
100
AcDbLine
 10
2646.4454585654
 20
607.7543978663
 30
0.0
 11
2644.1454585654
 21
607.7543978663
 31
0.0
  0
LINE
  5
8C
330
1F
100
AcDbEntity
  8
0
  6
Continuous
 62
     7
370
    25
100
AcDbLine
 10
2644.1454585654
 20
607.7543978663
 30
0.0
 11
2644.1454585654
 21
612.7543978663
 31
0.0
  0
LINE
  5
8D
330
1F
100
AcDbEntity
  8
0
  6
Continuous
 62
     7
370
    25
100
AcDbLine
 10
2644.1454585654
 20
612.7543978663
 30
0.0
 11
2646.4454585654
 21
612.7543978663
 31
0.0
  0
LINE
  5
8E
330
1F
100
AcDbEntity
  8
0
  6
Continuous
 62
     7
370
    25
100
AcDbLine
 10
2644.1454585654
 20
612.7543978663
 30
0.0
 11
2644.1454585654
 21
616.7543978663
 31
0.0
  0
LINE
  5
8F
330
1F
100
AcDbEntity
  8
0
  6
Continuous
 62
     7
370
    25
100
AcDbLine
 10
2644.1454585654
 20
607.7543978663
 30
0.0
 11
2643.1454585654
 21
607.7543978663
 31
0.0
  0
ARC
  5
90
330
1F
100
AcDbEntity
  8
0
  6
Continuous
 62
     7
370
    25
100
AcDbCircle
 10
2626.4454585654
 20
617.7543978663
 30
0.0
 40
2.000000000000164
100
AcDbArc
 50
210.0
 51
330.0
  0
ARC
  5
91
330
1F
100
AcDbEntity
  8
0
  6
Continuous
 62
     7
370
    25
100
AcDbCircle
 10
2521.4454585654
 20
612.7543978663
 30
0.0
 40
5.0
100
AcDbArc
 50
180.0
 51
270.0
  0
LINE
  5
92
330
1F
100
AcDbEntity
  8
0
  6
Continuous
 62
     7
370
    25
100
AcDbLine
 10
2516.4454585654
 20
612.7543978663
 30
0.0
 11
2516.4454585654
 21
616.7543978663
 31
0.0
  0
ARC
  5
93
330
1F
100
AcDbEntity
  8
0
  6
Continuous
 62
     7
370
    25
100
AcDbCircle
 10
2526.4454585654
 20
617.7543978663
 30
0.0
 40
2.000000000000558
100
AcDbArc
 50
210.0
 51
330.0
  0
ARC
  5
94
330
1F
100
AcDbEntity
  8
0
  6
Continuous
 62
     7
370
    25
100
AcDbCircle
 10
2576.4454585654
 20
617.7543978663
 30
0.0
 40
2.000000000000164
100
AcDbArc
 50
210.0
 51
330.0
  0
LINE
  5
95
330
1F
100
AcDbEntity
  8
0
  6
Continuous
 62
     7
370
    25
100
AcDbLine
 10
2643.1454585654
 20
607.7543978663
 30
0.0
 11
2521.4454585654
 21
607.7543978663
 31
0.0
  0
LINE
  5
96
330
1F
100
AcDbEntity
  8
0
  6
Continuous
 62
     7
370
    25
100
AcDbLine
 10
2236.2454585654
 20
616.7543978663
 30
0.0
 11
2236.2454585654
 21
607.7543978663
 31
0.0
  0
LINE
  5
97
330
1F
100
AcDbEntity
  8
0
  6
Continuous
 62
     7
370
    25
100
AcDbLine
 10
2643.1454585654
 20
607.7543978663
 30
0.0
 11
2643.1454585654
 21
616.7543978663
 31
0.0
  0
LINE
  5
98
330
1F
100
AcDbEntity
  8
0
  6
Continuous
 62
     7
370
    25
100
AcDbLine
 10
1138.2608646997
 20
1796.2543978663
 30
0.0
 11
1136.2608646997
 21
1796.2543978663
 31
0.0
  0
LINE
  5
99
330
1F
100
AcDbEntity
  8
0
  6
Continuous
 62
     7
370
    25
100
AcDbLine
 10
1136.2608646997
 20
1761.2543978663
 30
0.0
 11
1138.2608646997
 21
1761.2543978663
 31
0.0
  0
LINE
  5
9A
330
1F
100
AcDbEntity
  8
0
  6
Continuous
 62
     7
370
    25
100
AcDbLine
 10
1138.2608646997
 20
2312.7543978663
 30
0.0
 11
1136.2608646997
 21
2312.7543978663
 31
0.0
  0
LINE
  5
9B
330
1F
100
AcDbEntity
  8
0
  6
Continuous
 62
     7
370
    25
100
AcDbLine
 10
1136.2608646997
 20
2250.7543978663
 30
0.0
 11
1138.2608646997
 21
2250.7543978663
 31
0.0
  0
LINE
  5
9C
330
1F
100
AcDbEntity
  8
0
  6
Continuous
 62
     7
370
    25
100
AcDbLine
 10
1136.2608646997
 20
722.7543978663
 30
0.0
 11
1138.2608646997
 21
722.7543978663
 31
0.0
  0
LINE
  5
9D
330
1F
100
AcDbEntity
  8
0
  6
Continuous
 62
     7
370
    25
100
AcDbLine
 10
1138.2608646997
 20
822.7543978663
 30
0.0
 11
1136.2608646997
 21
822.7543978663
 31
0.0
  0
LINE
  5
9E
330
1F
100
AcDbEntity
  8
0
  6
Continuous
 62
     7
370
    25
100
AcDbLine
 10
1138.2608646997
 20
1313.2543978663
 30
0.0
 11
1136.2608646997
 21
1313.2543978663
 31
0.0
  0
LINE
  5
9F
330
1F
100
AcDbEntity
  8
0
  6
Continuous
 62
     7
370
    25
100
AcDbLine
 10
1136.2608646997
 20
1278.2543978663
 30
0.0
 11
1138.2608646997
 21
1278.2543978663
 31
0.0
  0
LINE
  5
A0
330
1F
100
AcDbEntity
  8
0
  6
Continuous
 62
     7
370
    25
100
AcDbLine
 10
755.7831445376
 20
2309.2767567878
 30
0.0
 11
757.7608646997
 21
2309.2249683628
 31
0.0
  0
LINE
  5
A1
330
1F
100
AcDbEntity
  8
0
  6
Continuous
 62
     7
370
    25
100
AcDbLine
 10
757.7608646997
 20
2314.7268537215
 30
0.0
 11
755.9271177533
 21
2314.7748720752
 31
0.0
  0
ARC
  5
A2
330
1F
100
AcDbEntity
  8
0
  6
Continuous
 62
     7
370
    25
100
AcDbCircle
 10
755.7909976221
 20
2309.5766539853
 30
0.0
 40
0.2999999999999837
100
AcDbArc
 50
178.5000000001
 51
268.5000000001
  0
ARC
  5
A3
330
1F
100
AcDbEntity
  8
0
  6
Continuous
 62
     7
370
    25
100
AcDbCircle
 10
755.9192646688
 20
2314.4749748777
 30
0.0
 40
0.2999999999999956
100
AcDbArc
 50
88.5
 51
178.5
  0
ARC
  5
A4
330
1F
100
AcDbEntity
  8
0
  6
Continuous
 62
     7
370
    25
100
AcDbCircle
 10
754.280819647
 20
2337.8758832752
 30
0.0
 40
1.200000000000043
100
AcDbArc
 50
88.5000000001
 51
173.500000003
  0
ARC
  5
A5
330
1F
100
AcDbEntity
  8
0
  6
Continuous
 62
     7
370
    25
100
AcDbCircle
 10
753.8201053568
 20
2320.2819143556
 30
0.0
 40
1.200000000000431
100
AcDbArc
 50
183.4999999971
 51
268.5000000001
  0
LINE
  5
A6
330
1F
100
AcDbEntity
  8
0
  6
Continuous
 62
     7
370
    25
100
AcDbLine
 10
755.0624227623
 20
2339.0558276283
 30
0.0
 11
754.3122319849
 21
2339.0754720652
 31
0.0
  0
LINE
  5
A7
330
1F
100
AcDbEntity
  8
0
  6
Continuous
 62
     7
370
    25
100
AcDbLine
 10
753.7886930188
 20
2319.0823255657
 30
0.0
 11
754.5388837961
 21
2319.0626811288
 31
0.0
  0
ARC
  5
A8
330
1F
100
AcDbEntity
  8
0
  6
Continuous
 62
     7
370
    25
100
AcDbCircle
 10
755.0571873726
 20
2338.8558961633
 30
0.0
 40
0.2000000000000718
100
AcDbArc
 50
358.5000000001
 51
88.5000000001
  0
ARC
  5
A9
330
1F
100
AcDbEntity
  8
0
  6
Continuous
 62
     7
370
    25
100
AcDbCircle
 10
754.5441191858
 20
2319.2626125938
 30
0.0
 40
0.2000000000000629
100
AcDbArc
 50
268.5000000002
 51
358.5000000001
  0
LINE
  5
AA
330
1F
100
AcDbEntity
  8
0
  6
Continuous
 62
     7
370
    25
100
AcDbLine
 10
753.0885334202
 20
2338.0117271317
 30
0.0
 11
752.9067456257
 21
2336.4161961367
 31
0.0
  0
LINE
  5
AB
330
1F
100
AcDbEntity
  8
0
  6
Continuous
 62
     7
370
    25
100
AcDbLine
 10
752.5243085784
 20
2321.8115145215
 30
0.0
 11
752.6223435987
 21
2320.2086561083
 31
0.0
  0
ARC
  5
AC
330
1F
100
AcDbEntity
  8
0
  6
Continuous
 62
     7
370
    25
100
AcDbCircle
 10
782.713901296
 20
2333.0200997237
 30
0.0
 40
30.00000000000199
100
AcDbArc
 50
173.5
 51
178.5000000001
  0
ARC
  5
AD
330
1F
100
AcDbEntity
  8
0
  6
Continuous
 62
     7
370
    25
100
AcDbCircle
 10
782.468352531
 20
2323.6429707076
 30
0.0
 40
30.00000000000214
100
AcDbArc
 50
178.5000000001
 51
183.5000000001
  0
SPLINE
  5
AE
330
1F
100
AcDbEntity
  8
0
  6
Continuous
 62
     7
370
    25
100
AcDbSpline
210
0.0
220
0.0
230
1.0
 70
     8
 71
     3
 72
    13
 73
     9
 74
     0
 42
0.00000001
 43
0.00000001
 40
0.0
 40
0.0
 40
0.0
 40
0.0
 40
0.2397374167688306
 40
0.3685398007314657
 40
0.5000035787040282
 40
0.6314571620063314
 40
0.7602371999081101
 40
1.0
 40
1.0
 40
1.0
 40
1.0
 10
755.6182095108035
 20
2333.53938224284
 30
0.0
 10
755.5551483398609
 20
2333.547732001868
 30
0.0
 10
755.4582066455426
 20
2333.560567789331
 30
0.0
 10
755.3427620111606
 20
2333.626504447249
 30
0.0
 10
755.2641552458501
 20
2333.693613842777
 30
0.0
 10
755.2018152157362
 20
2333.775852176286
 30
0.0
 10
755.1429820569382
 20
2333.894464357312
 30
0.0
 10
755.1360317651645
 20
2333.991032751231
 30
0.0
 10
755.1315101159956
 20
2334.053857221387
 30
0.0
  0
SPLINE
  5
AF
330
1F
100
AcDbEntity
  8
0
  6
Continuous
 62
     7
370
    25
100
AcDbSpline
210
0.0
220
0.0
230
1.0
 70
     8
 71
     3
 72
    13
 73
     9
 74
     0
 42
0.00000001
 43
0.00000001
 40
0.0
 40
0.0
 40
0.0
 40
0.0
 40
0.2397628000982605
 40
0.368542838002835
 40
0.4999964213062924
 40
0.6314601992780048
 40
0.7602625832377824
 40
1.0
 40
1.0
 40
1.0
 40
1.0
 10
754.8696593723765
 20
2324.054180756408
 30
0.0
 10
754.8774628035035
 20
2324.11668248298
 30
0.0
 10
754.8894575693823
 20
2324.21275478311
 30
0.0
 10
754.9544177812965
 20
2324.328125320644
 30
0.0
 10
755.0209763983895
 20
2324.406988324294
 30
0.0
 10
755.1029876702476
 20
2324.4698917885
 30
0.0
 10
755.2217249498143
 20
2324.529696177187
 30
0.0
 10
755.3192055621209
 20
2324.537440837371
 30
0.0
 10
755.3826173025435
 20
2324.542478786658
 30
0.0
  0
LINE
  5
B0
330
1F
100
AcDbEntity
  8
0
  6
Continuous
 62
     7
370
    25
100
AcDbLine
 10
757.7608646997
 20
2333.4832810807
 30
0.0
 11
755.6182096741
 21
2333.5393884771
 31
0.0
  0
LINE
  5
B1
330
1F
100
AcDbEntity
  8
0
  6
Continuous
 62
     7
370
    25
100
AcDbLine
 10
755.3826171393
 20
2324.5424725524
 30
0.0
 11
757.7608646997
 21
2324.4801959483
 31
0.0
  0
LINE
  5
B2
330
1F
100
AcDbEntity
  8
0
  6
Continuous
 62
     7
370
    25
100
AcDbLine
 10
1136.2608646997
 20
2378.2543978663
 30
0.0
 11
1136.2608646997
 21
606.7543978663
 31
0.0
  0
LINE
  5
B3
330
1F
100
AcDbEntity
  8
0
  6
Continuous
 62
     7
370
    25
100
AcDbLine
 10
1136.2608646997
 20
606.7543978663
 30
0.0
 11
757.7608646997
 21
606.7543978663
 31
0.0
  0
LINE
  5
B4
330
1F
100
AcDbEntity
  8
0
  6
Continuous
 62
     7
370
    25
100
AcDbLine
 10
757.7608646997
 20
2378.2543978663
 30
0.0
 11
757.7608646997
 21
606.7543978663
 31
0.0
  0
LINE
  5
B5
330
1F
100
AcDbEntity
  8
0
  6
Continuous
 62
     7
370
    25
100
AcDbLine
 10
757.7608646997
 20
2406.7543978663
 30
0.0
 11
1136.7608646997
 21
2406.7543978663
 31
0.0
  0
LINE
  5
B6
330
1F
100
AcDbEntity
  8
0
  6
Continuous
 62
     7
370
    25
100
AcDbLine
 10
1136.7608646997
 20
2406.7543978663
 30
0.0
 11
1136.7608646997
 21
2378.2543978663
 31
0.0
  0
LINE
  5
B7
330
1F
100
AcDbEntity
  8
0
  6
Continuous
 62
     7
370
    25
100
AcDbLine
 10
1136.7608646997
 20
2378.2543978663
 30
0.0
 11
757.7608646997
 21
2378.2543978663
 31
0.0
  0
LINE
  5
B8
330
1F
100
AcDbEntity
  8
0
  6
Continuous
 62
     7
370
    25
100
AcDbLine
 10
757.7608646997
 20
2378.2543978663
 30
0.0
 11
757.7608646997
 21
2406.7543978663
 31
0.0
  0
LINE
  5
B9
330
1F
100
AcDbEntity
  8
0
  6
Continuous
 62
     7
370
    25
100
AcDbLine
 10
1156.2608646997
 20
2396.7543978663
 30
0.0
 11
1138.2608646997
 21
2396.7543978663
 31
0.0
  0
LINE
  5
BA
330
1F
100
AcDbEntity
  8
0
  6
Continuous
 62
     7
370
    25
100
AcDbLine
 10
1156.2608646997
 20
2396.7543978663
 30
0.0
 11
1156.2608646997
 21
616.7543978663
 31
0.0
  0
LINE
  5
BB
330
1F
100
AcDbEntity
  8
0
  6
Continuous
 62
     7
370
    25
100
AcDbLine
 10
1156.2608646997
 20
616.7543978663
 30
0.0
 11
1138.2608646997
 21
616.7543978663
 31
0.0
  0
LINE
  5
BC
330
1F
100
AcDbEntity
  8
0
  6
Continuous
 62
     7
370
    25
100
AcDbLine
 10
1138.2608646997
 20
2396.7543978663
 30
0.0
 11
1138.2608646997
 21
616.7543978663
 31
0.0
  0
LINE
  5
BD
330
1F
100
AcDbEntity
  8
0
  6
Continuous
 62
     7
370
    25
100
AcDbLine
 10
1136.2608646997
 20
2270.7543978663
 30
0.0
 11
1138.2608646997
 21
2270.7543978663
 31
0.0
  0
LINE
  5
BE
330
1F
100
AcDbEntity
  8
0
  6
Continuous
 62
     7
370
    25
100
AcDbLine
 10
1136.2608646997
 20
2292.7543978663
 30
0.0
 11
1138.2608646997
 21
2292.7543978663
 31
0.0
  0
LINE
  5
BF
330
1F
100
AcDbEntity
  8
0
  6
Continuous
 62
     7
370
    25
100
AcDbLine
 10
1136.2608646997
 20
742.7543978663
 30
0.0
 11
1138.2608646997
 21
742.7543978663
 31
0.0
  0
LINE
  5
C0
330
1F
100
AcDbEntity
  8
0
  6
Continuous
 62
     7
370
    25
100
AcDbLine
 10
1136.2608646997
 20
802.7543978663
 30
0.0
 11
1138.2608646997
 21
802.7543978663
 31
0.0
  0
SPLINE
  5
C1
330
1F
100
AcDbEntity
  8
0
  6
Continuous
 62
     7
370
    25
100
AcDbSpline
210
0.0
220
0.0
230
1.0
 70
     8
 71
     3
 72
    11
 73
     7
 74
     0
 42
0.00000001
 43
0.00000001
 40
0.0
 40
0.0
 40
0.0
 40
0.0
 40
0.2382247349847825
 40
0.492137690458765
 40
0.7460575595466308
 40
1.0
 40
1.0
 40
1.0
 40
1.0
 10
755.4913742188656
 20
2309.594962851274
 30
0.0
 10
755.492046603112
 20
2309.620640170789
 30
0.0
 10
755.4934356512736
 20
2309.673685782213
 30
0.0
 10
755.5069732494363
 20
2310.190665780935
 30
0.0
 10
755.527073837202
 20
2310.958276326894
 30
0.0
 10
755.5434574874807
 20
2311.583942518922
 30
0.0
 10
755.5516496766966
 20
2311.896789518447
 30
0.0
  0
LINE
  5
C2
330
1F
100
AcDbEntity
  8
0
  6
Continuous
 62
     7
370
    25
100
AcDbLine
 10
755.5516496767
 20
2311.8967895184
 30
0.0
 11
755.5552339479
 21
2312.033667516
 31
0.0
  0
SPLINE
  5
C3
330
1F
100
AcDbEntity
  8
0
  6
Continuous
 62
     7
370
    25
100
AcDbSpline
210
0.0
220
0.0
230
1.0
 70
    24
 71
     3
 72
    12
 73
     8
 74
     0
 42
0.00000001
 43
0.00000001
 40
0.0
 40
0.0
 40
0.0
 40
0.0
 40
0.2460973337377294
 40
0.4921955654186699
 40
0.7383025770435995
 40
0.9844160040481821
 40
0.9999999999999999
 40
0.9999999999999999
 40
0.9999999999999999
 40
0.9999999999999999
 10
755.5552339479451
 20
2312.033667516024
 30
0.0
 10
755.5634634249459
 20
2312.347938563519
 30
0.0
 10
755.5799224089744
 20
2312.976481805201
 30
0.0
 10
755.6012384120842
 20
2313.790507122361
 30
0.0
 10
755.6147786748296
 20
2314.307588895109
 30
0.0
 10
755.6206981519127
 20
2314.533644604761
 30
0.0
 10
755.619177921574
 20
2314.47558935035
 30
0.0
 10
755.6190873923545
 20
2314.472132178936
 30
0.0
  0
SPLINE
  5
C4
330
1F
100
AcDbEntity
  8
0
  6
Continuous
 62
     7
370
    25
100
AcDbSpline
210
0.0
220
0.0
230
1.0
 70
    24
 71
     3
 72
    13
 73
     9
 74
     0
 42
0.00000001
 43
0.00000001
 40
0.0
 40
0.0
 40
0.0
 40
0.0
 40
0.153858158365178
 40
0.3079676862452413
 40
0.4535077802384458
 40
0.5878340078344887
 40
0.8177872163812496
 40
1.0
 40
1.0
 40
1.0
 40
1.0
 10
755.2568851491467
 20
2338.841736571941
 30
0.0
 10
755.2555656725033
 20
2338.791347791849
 30
0.0
 10
755.2529245634894
 20
2338.690487907768
 30
0.0
 10
755.2306977780771
 20
2337.841681217712
 30
0.0
 10
755.1985297677808
 20
2336.613234465797
 30
0.0
 10
755.1492668361929
 20
2334.731959007924
 30
0.0
 10
755.0834475074535
 20
2332.218420251293
 30
0.0
 10
755.0287224443059
 20
2330.128554404703
 30
0.0
 10
755.0045292641811
 20
2329.204654130213
 30
0.0
  0
SPLINE
  5
C5
330
1F
100
AcDbEntity
  8
0
  6
Continuous
 62
     7
370
    25
100
AcDbSpline
210
0.0
220
0.0
230
1.0
 70
    24
 71
     3
 72
    13
 73
     9
 74
     0
 42
0.00000001
 43
0.00000001
 40
0.0
 40
0.0
 40
0.0
 40
0.0
 40
0.181320153790565
 40
0.4101468448378936
 40
0.5438150184963866
 40
0.688642123887495
 40
0.841996687412648
 40
1.0
 40
1.0
 40
1.0
 40
1.0
 10
755.0005847441852
 20
2329.0540189889
 30
0.0
 10
754.9763578705428
 20
2328.12883201086
 30
0.0
 10
754.9215565945839
 20
2326.036055714375
 30
0.0
 10
754.8551963635614
 20
2323.501860732941
 30
0.0
 10
754.8052253470083
 20
2321.593544601197
 30
0.0
 10
754.7723032582928
 20
2320.336300756266
 30
0.0
 10
754.7490210995664
 20
2319.44719098536
 30
0.0
 10
754.7457289061574
 20
2319.321467191362
 30
0.0
 10
754.7440582322988
 20
2319.257666730712
 30
0.0
  0
LINE
  5
C6
330
1F
100
AcDbEntity
  8
0
  6
Continuous
 62
     7
370
    25
100
AcDbLine
 10
752.4786327818
 20
2324.4282791568
 30
0.0
 11
752.7241815467
 21
2333.8054081729
 31
0.0
  0
SPLINE
  5
C7
330
1F
100
AcDbEntity
  8
0
  6
Continuous
 62
     7
370
    25
100
AcDbSpline
210
0.0
220
0.0
230
1.0
 70
     8
 71
     3
 72
    11
 73
     7
 74
     0
 42
0.00000001
 43
0.00000001
 40
0.0
 40
0.0
 40
0.0
 40
0.0
 40
0.2702619356887902
 40
0.56243054861889
 40
0.7897374073728177
 40
1.0
 40
1.0
 40
1.0
 40
1.0
 10
755.4965437889186
 20
2328.893155774597
 30
0.0
 10
755.4257065946308
 20
2328.894721041444
 30
0.0
 10
755.2782903410459
 20
2328.897978451293
 30
0.0
 10
755.1105191258894
 20
2328.897927095701
 30
0.0
 10
755.0127956957903
 20
2328.89495861019
 30
0.0
 10
755.0016438762285
 20
2328.891490841423
 30
0.0
 10
754.9962851600609
 20
2328.889824495546
 30
0.0
  0
LINE
  5
C8
330
1F
100
AcDbEntity
  8
0
  6
Continuous
 62
     7
370
    25
100
AcDbLine
 10
1137.0608646997
 20
2364.0543978663
 30
0.0
 11
1137.0608646997
 21
2365.2543978663
 31
0.0
  0
LINE
  5
C9
330
1F
100
AcDbEntity
  8
0
  6
Continuous
 62
     7
370
    25
100
AcDbLine
 10
1136.2608646997
 20
2365.2543978663
 30
0.0
 11
1137.0608646997
 21
2365.2543978663
 31
0.0
  0
LINE
  5
CA
330
1F
100
AcDbEntity
  8
0
  6
Continuous
 62
     7
370
    25
100
AcDbLine
 10
1136.2608646997
 20
2364.0543978663
 30
0.0
 11
1137.0608646997
 21
2364.0543978663
 31
0.0
  0
LINE
  5
CB
330
1F
100
AcDbEntity
  8
0
  6
Continuous
 62
     7
370
    25
100
AcDbLine
 10
1137.0608646997
 20
2365.2543978663
 30
0.0
 11
1138.2608646997
 21
2365.2543978663
 31
0.0
  0
LINE
  5
CC
330
1F
100
AcDbEntity
  8
0
  6
Continuous
 62
     7
370
    25
100
AcDbLine
 10
1137.0608646997
 20
2364.0543978663
 30
0.0
 11
1138.2608646997
 21
2364.0543978663
 31
0.0
  0
LINE
  5
CD
330
1F
100
AcDbEntity
  8
0
  6
Continuous
 62
     7
370
    25
100
AcDbLine
 10
1137.0608646997
 20
2346.2543978663
 30
0.0
 11
1138.2608646997
 21
2346.2543978663
 31
0.0
  0
LINE
  5
CE
330
1F
100
AcDbEntity
  8
0
  6
Continuous
 62
     7
370
    25
100
AcDbLine
 10
1137.0608646997
 20
2346.2543978663
 30
0.0
 11
1137.0608646997
 21
2364.0543978663
 31
0.0
  0
LINE
  5
CF
330
1F
100
AcDbEntity
  8
0
  6
Continuous
 62
     7
370
    25
100
AcDbLine
 10
1138.2608646997
 20
2343.2543978663
 30
0.0
 11
1137.0608646997
 21
2343.2543978663
 31
0.0
  0
LINE
  5
D0
330
1F
100
AcDbEntity
  8
0
  6
Continuous
 62
     7
370
    25
100
AcDbLine
 10
1137.0608646997
 20
2343.2543978663
 30
0.0
 11
1137.0608646997
 21
2346.2543978663
 31
0.0
  0
LINE
  5
D1
330
1F
100
AcDbEntity
  8
0
  6
Continuous
 62
     7
370
    25
100
AcDbLine
 10
1138.0608646997
 20
668.2543978663
 30
0.0
 11
1138.0608646997
 21
669.2543978663
 31
0.0
  0
SPLINE
  5
D2
330
1F
100
AcDbEntity
  8
0
  6
Continuous
 62
     7
370
    25
100
AcDbSpline
210
0.0
220
0.0
230
1.0
 70
    24
 71
     3
 72
    12
 73
     8
 74
     0
 42
0.00000001
 43
0.00000001
 40
0.0
 40
0.0
 40
0.0
 40
0.0
 40
0.3329369653773337
 40
0.5139656098182944
 40
0.6952322446497508
 40
0.8762609961885814
 40
1.0
 40
1.0
 40
1.0
 40
1.0
 10
1138.060864699704
 20
668.2543978663172
 30
0.0
 10
1137.809467286561
 20
668.2543978663173
 30
0.0
 10
1137.421376932561
 20
668.2543978663174
 30
0.0
 10
1136.954447662886
 20
668.2543978663174
 30
0.0
 10
1136.638928773865
 20
668.2543978663174
 30
0.0
 10
1136.398804555354
 20
668.2543978663174
 30
0.0
 10
1136.300697304344
 20
668.2543978663174
 30
0.0
 10
1136.260864699701
 20
668.2543978663174
 30
0.0
  0
LINE
  5
D3
330
1F
100
AcDbEntity
  8
0
  6
Continuous
 62
     7
370
    25
100
AcDbLine
 10
1138.2608646997
 20
669.2543978663
 30
0.0
 11
1138.0608646997
 21
669.2543978663
 31
0.0
  0
LINE
  5
D4
330
1F
100
AcDbEntity
  8
0
  6
Continuous
 62
     7
370
    25
100
AcDbLine
 10
1138.0608646997
 20
668.2543978663
 30
0.0
 11
1138.2608646997
 21
668.2543978663
 31
0.0
  0
SPLINE
  5
D5
330
1F
100
AcDbEntity
  8
0
  6
Continuous
 62
     7
370
    25
100
AcDbSpline
210
0.0
220
0.0
230
1.0
 70
    24
 71
     3
 72
    12
 73
     8
 74
     0
 42
0.00000001
 43
0.00000001
 40
0.0
 40
0.0
 40
0.0
 40
0.0
 40
0.1234882189601752
 40
0.3047574776060319
 40
0.4857888495153315
 40
0.6670582153978439
 40
1.0
 40
1.0
 40
1.0
 40
1.0
 10
1136.260864699701
 20
1445.254397866317
 30
0.0
 10
1136.300611268737
 20
1445.254397866317
 30
0.0
 10
1136.398702116795
 20
1445.254397866317
 30
0.0
 10
1136.638675405156
 20
1445.254397866317
 30
0.0
 10
1136.95428959365
 20
1445.254397866317
 30
0.0
 10
1137.421199682752
 20
1445.254397866317
 30
0.0
 10
1137.80946828299
 20
1445.254397866316
 30
0.0
 10
1138.060864699708
 20
1445.254397866316
 30
0.0
  0
LINE
  5
D6
330
1F
100
AcDbEntity
  8
0
  6
Continuous
 62
     7
370
    25
100
AcDbLine
 10
1138.0608646997
 20
1444.2543978663
 30
0.0
 11
1138.0608646997
 21
1445.2543978663
 31
0.0
  0
LINE
  5
D7
330
1F
100
AcDbEntity
  8
0
  6
Continuous
 62
     7
370
    25
100
AcDbLine
 10
1138.0608646997
 20
1388.2543978663
 30
0.0
 11
1138.0608646997
 21
1389.2543978663
 31
0.0
  0
SPLINE
  5
D8
330
1F
100
AcDbEntity
  8
0
  6
Continuous
 62
     7
370
    25
100
AcDbSpline
210
0.0
220
0.0
230
1.0
 70
    24
 71
     3
 72
    12
 73
     8
 74
     0
 42
0.00000001
 43
0.00000001
 40
0.0
 40
0.0
 40
0.0
 40
0.0
 40
0.3329369653773337
 40
0.5139656098182944
 40
0.6952322446497508
 40
0.8762609961885814
 40
1.0
 40
1.0
 40
1.0
 40
1.0
 10
1138.060864699704
 20
1388.254397866317
 30
0.0
 10
1137.809467286561
 20
1388.254397866317
 30
0.0
 10
1137.421376932561
 20
1388.254397866318
 30
0.0
 10
1136.954447662886
 20
1388.254397866318
 30
0.0
 10
1136.638928773865
 20
1388.254397866318
 30
0.0
 10
1136.398804555354
 20
1388.254397866318
 30
0.0
 10
1136.300697304344
 20
1388.254397866317
 30
0.0
 10
1136.260864699701
 20
1388.254397866318
 30
0.0
  0
LINE
  5
D9
330
1F
100
AcDbEntity
  8
0
  6
Continuous
 62
     7
370
    25
100
AcDbLine
 10
1138.2608646997
 20
1445.2543978663
 30
0.0
 11
1138.0608646997
 21
1445.2543978663
 31
0.0
  0
LINE
  5
DA
330
1F
100
AcDbEntity
  8
0
  6
Continuous
 62
     7
370
    25
100
AcDbLine
 10
1138.2608646997
 20
1444.2543978663
 30
0.0
 11
1138.0608646997
 21
1444.2543978663
 31
0.0
  0
LINE
  5
DB
330
1F
100
AcDbEntity
  8
0
  6
Continuous
 62
     7
370
    25
100
AcDbLine
 10
1138.2608646997
 20
1389.2543978663
 30
0.0
 11
1138.0608646997
 21
1389.2543978663
 31
0.0
  0
LINE
  5
DC
330
1F
100
AcDbEntity
  8
0
  6
Continuous
 62
     7
370
    25
100
AcDbLine
 10
1138.0608646997
 20
1444.2543978663
 30
0.0
 11
1138.0608646997
 21
1389.2543978663
 31
0.0
  0
LINE
  5
DD
330
1F
100
AcDbEntity
  8
0
  6
Continuous
 62
     7
370
    25
100
AcDbLine
 10
1138.0608646997
 20
1388.2543978663
 30
0.0
 11
1138.2608646997
 21
1388.2543978663
 31
0.0
  0
SPLINE
  5
DE
330
1F
100
AcDbEntity
  8
0
  6
Continuous
 62
     7
370
    25
100
AcDbSpline
210
0.0
220
0.0
230
1.0
 70
    24
 71
     3
 72
    11
 73
     7
 74
     0
 42
0.00000001
 43
0.00000001
 40
0.0
 40
0.0
 40
0.0
 40
0.0
 40
0.2307910683559209
 40
0.5695709634360728
 40
0.907906264412107
 40
1.0
 40
1.0
 40
1.0
 40
1.0
 10
1136.260864699701
 20
2345.254397866316
 30
0.0
 10
1136.300516430172
 20
2345.254397866317
 30
0.0
 10
1136.398373225442
 20
2345.254397866317
 30
0.0
 10
1136.640735641999
 20
2345.254397866316
 30
0.0
 10
1136.872379655308
 20
2345.254397866316
 30
0.0
 10
1137.027644536358
 20
2345.254397866316
 30
0.0
 10
1137.060864699699
 20
2345.254397866316
 30
0.0
  0
SPLINE
  5
DF
330
1F
100
AcDbEntity
  8
0
  6
Continuous
 62
     7
370
    25
100
AcDbSpline
210
0.0
220
0.0
230
1.0
 70
    24
 71
     3
 72
    12
 73
     8
 74
     0
 42
0.00000001
 43
0.00000001
 40
0.0
 40
0.0
 40
0.0
 40
0.0
 40
0.1234882189620508
 40
0.3047574776075196
 40
0.4857888495164319
 40
0.6670582153985565
 40
1.0
 40
1.0
 40
1.0
 40
1.0
 10
1136.260864699701
 20
1975.254397866319
 30
0.0
 10
1136.300611268738
 20
1975.254397866319
 30
0.0
 10
1136.398702116797
 20
1975.254397866319
 30
0.0
 10
1136.638675405158
 20
1975.254397866319
 30
0.0
 10
1136.954289593652
 20
1975.254397866319
 30
0.0
 10
1137.421199682754
 20
1975.254397866317
 30
0.0
 10
1137.809468282992
 20
1975.254397866318
 30
0.0
 10
1138.06086469971
 20
1975.254397866318
 30
0.0
  0
LINE
  5
E0
330
1F
100
AcDbEntity
  8
0
  6
Continuous
 62
     7
370
    25
100
AcDbLine
 10
1138.0608646997
 20
1974.2543978663
 30
0.0
 11
1138.0608646997
 21
1975.2543978663
 31
0.0
  0
LINE
  5
E1
330
1F
100
AcDbEntity
  8
0
  6
Continuous
 62
     7
370
    25
100
AcDbLine
 10
1138.0608646997
 20
1918.2543978663
 30
0.0
 11
1138.0608646997
 21
1919.2543978663
 31
0.0
  0
SPLINE
  5
E2
330
1F
100
AcDbEntity
  8
0
  6
Continuous
 62
     7
370
    25
100
AcDbSpline
210
0.0
220
0.0
230
1.0
 70
    24
 71
     3
 72
    12
 73
     8
 74
     0
 42
0.00000001
 43
0.00000001
 40
0.0
 40
0.0
 40
0.0
 40
0.0
 40
0.3329369653766225
 40
0.5139656098171963
 40
0.695232244648281
 40
0.8762609961867059
 40
1.0
 40
1.0
 40
1.0
 40
1.0
 10
1138.060864699706
 20
1918.254397866319
 30
0.0
 10
1137.809467286563
 20
1918.254397866319
 30
0.0
 10
1137.421376932563
 20
1918.254397866319
 30
0.0
 10
1136.954447662888
 20
1918.254397866319
 30
0.0
 10
1136.638928773867
 20
1918.254397866319
 30
0.0
 10
1136.398804555355
 20
1918.254397866319
 30
0.0
 10
1136.300697304344
 20
1918.254397866319
 30
0.0
 10
1136.260864699701
 20
1918.254397866319
 30
0.0
  0
LINE
  5
E3
330
1F
100
AcDbEntity
  8
0
  6
Continuous
 62
     7
370
    25
100
AcDbLine
 10
1138.0608646997
 20
1974.2543978663
 30
0.0
 11
1138.0608646997
 21
1919.2543978663
 31
0.0
  0
LINE
  5
E4
330
1F
100
AcDbEntity
  8
0
  6
Continuous
 62
     7
370
    25
100
AcDbLine
 10
1138.2608646997
 20
1919.2543978663
 30
0.0
 11
1138.0608646997
 21
1919.2543978663
 31
0.0
  0
LINE
  5
E5
330
1F
100
AcDbEntity
  8
0
  6
Continuous
 62
     7
370
    25
100
AcDbLine
 10
1138.2608646997
 20
1974.2543978663
 30
0.0
 11
1138.0608646997
 21
1974.2543978663
 31
0.0
  0
LINE
  5
E6
330
1F
100
AcDbEntity
  8
0
  6
Continuous
 62
     7
370
    25
100
AcDbLine
 10
1138.2608646997
 20
1975.2543978663
 30
0.0
 11
1138.0608646997
 21
1975.2543978663
 31
0.0
  0
LINE
  5
E7
330
1F
100
AcDbEntity
  8
0
  6
Continuous
 62
     7
370
    25
100
AcDbLine
 10
1138.0608646997
 20
1918.2543978663
 30
0.0
 11
1138.2608646997
 21
1918.2543978663
 31
0.0
  0
LINE
  5
E8
330
1F
100
AcDbEntity
  8
0
  6
Continuous
 62
     7
370
    25
100
AcDbLine
 10
755.9271177533
 20
2314.7748720752
 30
0.0
 11
755.7831445376
 21
2309.2767567878
 31
0.0
  0
LINE
  5
E9
330
1F
100
AcDbEntity
  8
0
  6
Continuous
 62
     7
370
    25
100
AcDbLine
 10
754.3122319849
 20
2339.0754720652
 30
0.0
 11
753.7886930188
 21
2319.0823255657
 31
0.0
  0
LINE
  5
EA
330
1F
100
AcDbEntity
  8
0
  6
Continuous
 62
     7
370
    25
100
AcDbLine
 10
752.6223435987
 20
2320.2086561083
 30
0.0
 11
753.0885334202
 21
2338.0117271317
 31
0.0
  0
LINE
  5
EB
330
1F
100
AcDbEntity
  8
0
  6
Continuous
 62
     7
370
    25
100
AcDbLine
 10
754.8081328374
 20
2329.3448871838
 30
0.0
 11
755.0624227623
 21
2339.0558276283
 31
0.0
  0
LINE
  5
EC
330
1F
100
AcDbEntity
  8
0
  6
Continuous
 62
     7
370
    25
100
AcDbLine
 10
752.9067456257
 20
2336.4161961367
 30
0.0
 11
752.5243085784
 21
2321.8115145215
 31
0.0
  0
LINE
  5
ED
330
1F
100
AcDbEntity
  8
0
  6
Continuous
 62
     7
370
    25
100
AcDbLine
 10
755.6182085764
 20
2333.5393465579
 30
0.0
 11
755.4965437888
 21
2328.8931557708
 31
0.0
  0
LINE
  5
EE
330
1F
100
AcDbEntity
  8
0
  6
Continuous
 62
     7
370
    25
100
AcDbLine
 10
755.4965437888
 20
2328.8931557708
 30
0.0
 11
755.382618237
 21
2324.5425144716
 31
0.0
  0
LINE
  5
EF
330
1F
100
AcDbEntity
  8
0
  6
Continuous
 62
     7
370
    25
100
AcDbLine
 10
1136.2608646997
 20
669.2543978663
 30
0.0
 11
1138.0608646997
 21
669.2543978663
 31
0.0
  0
LINE
  5
F0
330
1F
100
AcDbEntity
  8
0
  6
Continuous
 62
     7
370
    25
100
AcDbLine
 10
1138.0608646997
 20
722.7543978663
 30
0.0
 11
1138.0608646997
 21
669.2543978663
 31
0.0
  0
LINE
  5
F1
330
1F
100
AcDbEntity
  8
0
  6
Continuous
 62
     7
370
    25
100
AcDbLine
 10
1138.0608646997
 20
1444.2543978663
 30
0.0
 11
1136.2608646997
 21
1444.2543978663
 31
0.0
  0
LINE
  5
F2
330
1F
100
AcDbEntity
  8
0
  6
Continuous
 62
     7
370
    25
100
AcDbLine
 10
1136.2608646997
 20
1389.2543978663
 30
0.0
 11
1138.0608646997
 21
1389.2543978663
 31
0.0
  0
LINE
  5
F3
330
1F
100
AcDbEntity
  8
0
  6
Continuous
 62
     7
370
    25
100
AcDbLine
 10
1137.0608646997
 20
2344.2543978663
 30
0.0
 11
1136.2608646997
 21
2344.2543978663
 31
0.0
  0
LINE
  5
F4
330
1F
100
AcDbEntity
  8
0
  6
Continuous
 62
     7
370
    25
100
AcDbLine
 10
1138.0608646997
 20
2343.2543978663
 30
0.0
 11
1138.0608646997
 21
2312.7543978663
 31
0.0
  0
LINE
  5
F5
330
1F
100
AcDbEntity
  8
0
  6
Continuous
 62
     7
370
    25
100
AcDbLine
 10
1138.0608646997
 20
1974.2543978663
 30
0.0
 11
1136.2608646997
 21
1974.2543978663
 31
0.0
  0
LINE
  5
F6
330
1F
100
AcDbEntity
  8
0
  6
Continuous
 62
     7
370
    25
100
AcDbLine
 10
1136.2608646997
 20
1919.2543978663
 30
0.0
 11
1138.0608646997
 21
1919.2543978663
 31
0.0
  0
LINE
  5
F7
330
1F
100
AcDbEntity
  8
0
  6
Continuous
 62
     7
370
    25
100
AcDbLine
 10
3838.1225156724
 20
1761.2543978663
 30
0.0
 11
3840.1225156724
 21
1761.2543978663
 31
0.0
  0
LINE
  5
F8
330
1F
100
AcDbEntity
  8
0
  6
Continuous
 62
     7
370
    25
100
AcDbLine
 10
3840.1225156724
 20
1796.2543978663
 30
0.0
 11
3838.1225156724
 21
1796.2543978663
 31
0.0
  0
LINE
  5
F9
330
1F
100
AcDbEntity
  8
0
  6
Continuous
 62
     7
370
    25
100
AcDbLine
 10
3838.1225156724
 20
2250.7543978663
 30
0.0
 11
3840.1225156724
 21
2250.7543978663
 31
0.0
  0
LINE
  5
FA
330
1F
100
AcDbEntity
  8
0
  6
Continuous
 62
     7
370
    25
100
AcDbLine
 10
3840.1225156724
 20
822.7543978663
 30
0.0
 11
3838.1225156724
 21
822.7543978663
 31
0.0
  0
LINE
  5
FB
330
1F
100
AcDbEntity
  8
0
  6
Continuous
 62
     7
370
    25
100
AcDbLine
 10
3838.1225156724
 20
1278.2543978663
 30
0.0
 11
3840.1225156724
 21
1278.2543978663
 31
0.0
  0
LINE
  5
FC
330
1F
100
AcDbEntity
  8
0
  6
Continuous
 62
     7
370
    25
100
AcDbLine
 10
3840.1225156724
 20
1313.2543978663
 30
0.0
 11
3838.1225156724
 21
1313.2543978663
 31
0.0
  0
LINE
  5
FD
330
1F
100
AcDbEntity
  8
0
  6
Continuous
 62
     7
370
    25
100
AcDbLine
 10
4220.4562626188
 20
2314.7748720752
 30
0.0
 11
4218.6225156724
 21
2314.7268537215
 31
0.0
  0
LINE
  5
FE
330
1F
100
AcDbEntity
  8
0
  6
Continuous
 62
     7
370
    25
100
AcDbLine
 10
4218.6225156724
 20
2309.2249683628
 30
0.0
 11
4220.6002358345
 21
2309.2767567878
 31
0.0
  0
ARC
  5
FF
330
1F
100
AcDbEntity
  8
0
  6
Continuous
 62
     7
370
    25
100
AcDbCircle
 10
4220.4641157033
 20
2314.4749748777
 30
0.0
 40
0.2999999999998819
100
AcDbArc
 50
1.5
 51
91.5
  0
ARC
  5
100
330
1F
100
AcDbEntity
  8
0
  6
Continuous
 62
     7
370
    25
100
AcDbCircle
 10
4220.59238275
 20
2309.5766539853
 30
0.0
 40
0.3000000000003485
100
AcDbArc
 50
271.5
 51
1.5
  0
LINE
  5
101
330
1F
100
AcDbEntity
  8
0
  6
Continuous
 62
     7
370
    25
100
AcDbLine
 10
4221.8444965759
 20
2319.0626811288
 30
0.0
 11
4222.5946873533
 21
2319.0823255657
 31
0.0
  0
LINE
  5
102
330
1F
100
AcDbEntity
  8
0
  6
Continuous
 62
     7
370
    25
100
AcDbLine
 10
4222.0711483871
 20
2339.0754720652
 30
0.0
 11
4221.3209576098
 21
2339.0558276283
 31
0.0
  0
ARC
  5
103
330
1F
100
AcDbEntity
  8
0
  6
Continuous
 62
     7
370
    25
100
AcDbCircle
 10
4221.8392611863
 20
2319.2626125938
 30
0.0
 40
0.2000000000005235
100
AcDbArc
 50
181.4999999999
 51
271.4999999998
  0
ARC
  5
104
330
1F
100
AcDbEntity
  8
0
  6
Continuous
 62
     7
370
    25
100
AcDbCircle
 10
4221.3261929995
 20
2338.8558961633
 30
0.0
 40
0.2000000000005235
100
AcDbArc
 50
91.5
 51
181.4999999999
  0
ARC
  5
105
330
1F
100
AcDbEntity
  8
0
  6
Continuous
 62
     7
370
    25
100
AcDbCircle
 10
4222.5632750153
 20
2320.2819143556
 30
0.0
 40
1.199999999999959
100
AcDbArc
 50
271.4999999999
 51
356.5000000029
  0
ARC
  5
106
330
1F
100
AcDbEntity
  8
0
  6
Continuous
 62
     7
370
    25
100
AcDbCircle
 10
4222.1025607251
 20
2337.8758832752
 30
0.0
 40
1.200000000000413
100
AcDbArc
 50
6.499999997
 51
91.4999999999
  0
LINE
  5
107
330
1F
100
AcDbEntity
  8
0
  6
Continuous
 62
     7
370
    25
100
AcDbLine
 10
4223.7610367734
 20
2320.2086561083
 30
0.0
 11
4223.8590717937
 21
2321.8115145215
 31
0.0
  0
LINE
  5
108
330
1F
100
AcDbEntity
  8
0
  6
Continuous
 62
     7
370
    25
100
AcDbLine
 10
4223.4766347464
 20
2336.4161961367
 30
0.0
 11
4223.2948469519
 21
2338.0117271317
 31
0.0
  0
ARC
  5
109
330
1F
100
AcDbEntity
  8
0
  6
Continuous
 62
     7
370
    25
100
AcDbCircle
 10
4193.915027841
 20
2323.6429707076
 30
0.0
 40
30.00000000000226
100
AcDbArc
 50
356.4999999999
 51
1.4999999999
  0
ARC
  5
10A
330
1F
100
AcDbEntity
  8
0
  6
Continuous
 62
     7
370
    25
100
AcDbCircle
 10
4193.6694790761
 20
2333.0200997237
 30
0.0
 40
30.0000000000022
100
AcDbArc
 50
1.4999999999
 51
6.5
  0
LINE
  5
10B
330
1F
100
AcDbEntity
  8
0
  6
Continuous
 62
     7
370
    25
100
AcDbLine
 10
4223.7844466987
 20
2329.0223848583
 30
0.0
 11
4223.7819732078
 21
2329.1168436648
 31
0.0
  0
SPLINE
  5
10C
330
1F
100
AcDbEntity
  8
0
  6
Continuous
 62
     7
370
    25
100
AcDbSpline
210
0.0
220
0.0
230
1.0
 70
     8
 71
     3
 72
    13
 73
     9
 74
     0
 42
0.00000001
 43
0.00000001
 40
0.0
 40
0.0
 40
0.0
 40
0.0
 40
0.2397374167622173
 40
0.3685398007219873
 40
0.5000035786937022
 40
0.6314571619971567
 40
0.7602371999017328
 40
0.9999999999999999
 40
0.9999999999999999
 40
0.9999999999999999
 40
0.9999999999999999
 10
4221.000763069515
 20
2324.542478786653
 30
0.0
 10
4221.064174809937
 20
2324.537440837366
 30
0.0
 10
4221.161655422244
 20
2324.529696177181
 30
0.0
 10
4221.280392701811
 20
2324.469891788495
 30
0.0
 10
4221.362403973669
 20
2324.406988324287
 30
0.0
 10
4221.428962590762
 20
2324.328125320639
 30
0.0
 10
4221.493922802676
 20
2324.212754783104
 30
0.0
 10
4221.505917568555
 20
2324.116682482975
 30
0.0
 10
4221.513720999681
 20
2324.054180756403
 30
0.0
  0
SPLINE
  5
10D
330
1F
100
AcDbEntity
  8
0
  6
Continuous
 62
     7
370
    25
100
AcDbSpline
210
0.0
220
0.0
230
1.0
 70
     8
 71
     3
 72
    13
 73
     9
 74
     0
 42
0.00000001
 43
0.00000001
 40
0.0
 40
0.0
 40
0.0
 40
0.0
 40
0.239762800092099
 40
0.3685428379938426
 40
0.4999964212961161
 40
0.6314601992686355
 40
0.7602625832312407
 40
0.9999999999999999
 40
0.9999999999999999
 40
0.9999999999999999
 40
0.9999999999999999
 10
4221.251870256063
 20
2334.053857221381
 30
0.0
 10
4221.247348606894
 20
2333.991032751225
 30
0.0
 10
4221.240398315121
 20
2333.894464357307
 30
0.0
 10
4221.181565156322
 20
2333.775852176281
 30
0.0
 10
4221.119225126208
 20
2333.693613842771
 30
0.0
 10
4221.040618360898
 20
2333.626504447243
 30
0.0
 10
4220.925173726515
 20
2333.560567789325
 30
0.0
 10
4220.828232032197
 20
2333.547732001862
 30
0.0
 10
4220.765170861254
 20
2333.539382242834
 30
0.0
  0
LINE
  5
10E
330
1F
100
AcDbEntity
  8
0
  6
Continuous
 62
     7
370
    25
100
AcDbLine
 10
4218.6225156724
 20
2324.4801959483
 30
0.0
 11
4221.0007632328
 21
2324.5424725523
 31
0.0
  0
LINE
  5
10F
330
1F
100
AcDbEntity
  8
0
  6
Continuous
 62
     7
370
    25
100
AcDbLine
 10
4220.765170698
 20
2333.5393884771
 30
0.0
 11
4218.6225156724
 21
2333.4832810807
 31
0.0
  0
LINE
  5
110
330
1F
100
AcDbEntity
  8
0
  6
Continuous
 62
     7
370
    25
100
AcDbLine
 10
3839.6225156724
 20
2378.2543978663
 30
0.0
 11
4218.6225156724
 21
2378.2543978663
 31
0.0
  0
LINE
  5
111
330
1F
100
AcDbEntity
  8
0
  6
Continuous
 62
     7
370
    25
100
AcDbLine
 10
3839.6225156724
 20
2406.7543978663
 30
0.0
 11
3839.6225156724
 21
2378.2543978663
 31
0.0
  0
LINE
  5
112
330
1F
100
AcDbEntity
  8
0
  6
Continuous
 62
     7
370
    25
100
AcDbLine
 10
4218.6225156724
 20
2406.7543978663
 30
0.0
 11
3839.6225156724
 21
2406.7543978663
 31
0.0
  0
LINE
  5
113
330
1F
100
AcDbEntity
  8
0
  6
Continuous
 62
     7
370
    25
100
AcDbLine
 10
4218.6225156724
 20
2378.2543978663
 30
0.0
 11
4218.6225156724
 21
2406.7543978663
 31
0.0
  0
LINE
  5
114
330
1F
100
AcDbEntity
  8
0
  6
Continuous
 62
     7
370
    25
100
AcDbLine
 10
3840.1225156724
 20
606.7543978663
 30
0.0
 11
4218.6225156724
 21
606.7543978663
 31
0.0
  0
LINE
  5
115
330
1F
100
AcDbEntity
  8
0
  6
Continuous
 62
     7
370
    25
100
AcDbLine
 10
3840.1225156724
 20
606.7543978663
 30
0.0
 11
3840.1225156724
 21
2378.2543978663
 31
0.0
  0
LINE
  5
116
330
1F
100
AcDbEntity
  8
0
  6
Continuous
 62
     7
370
    25
100
AcDbLine
 10
4218.6225156724
 20
606.7543978663
 30
0.0
 11
4218.6225156724
 21
2378.2543978663
 31
0.0
  0
LINE
  5
117
330
1F
100
AcDbEntity
  8
0
  6
Continuous
 62
     7
370
    25
100
AcDbLine
 10
3820.1225156724
 20
616.7543978663
 30
0.0
 11
3820.1225156724
 21
2396.7543978663
 31
0.0
  0
LINE
  5
118
330
1F
100
AcDbEntity
  8
0
  6
Continuous
 62
     7
370
    25
100
AcDbLine
 10
3820.1225156724
 20
2396.7543978663
 30
0.0
 11
3838.1225156724
 21
2396.7543978663
 31
0.0
  0
LINE
  5
119
330
1F
100
AcDbEntity
  8
0
  6
Continuous
 62
     7
370
    25
100
AcDbLine
 10
3838.1225156724
 20
616.7543978663
 30
0.0
 11
3838.1225156724
 21
2396.7543978663
 31
0.0
  0
LINE
  5
11A
330
1F
100
AcDbEntity
  8
0
  6
Continuous
 62
     7
370
    25
100
AcDbLine
 10
3820.1225156724
 20
616.7543978663
 30
0.0
 11
3838.1225156724
 21
616.7543978663
 31
0.0
  0
LINE
  5
11B
330
1F
100
AcDbEntity
  8
0
  6
Continuous
 62
     7
370
    25
100
AcDbLine
 10
3840.1225156724
 20
2270.7543978663
 30
0.0
 11
3838.1225156724
 21
2270.7543978663
 31
0.0
  0
LINE
  5
11C
330
1F
100
AcDbEntity
  8
0
  6
Continuous
 62
     7
370
    25
100
AcDbLine
 10
3840.1225156724
 20
802.7543978663
 30
0.0
 11
3838.1225156724
 21
802.7543978663
 31
0.0
  0
LINE
  5
11D
330
1F
100
AcDbEntity
  8
0
  6
Continuous
 62
     7
370
    25
100
AcDbLine
 10
3840.1225156724
 20
742.7543978663
 30
0.0
 11
3838.1225156724
 21
742.7543978663
 31
0.0
  0
SPLINE
  5
11E
330
1F
100
AcDbEntity
  8
0
  6
Continuous
 62
     7
370
    25
100
AcDbSpline
210
0.0
220
0.0
230
1.0
 70
    24
 71
     3
 72
    12
 73
     8
 74
     0
 42
0.00000001
 43
0.00000001
 40
0.0
 40
0.0
 40
0.0
 40
0.0
 40
0.2460973337403596
 40
0.492195565420453
 40
0.7383025770445389
 40
0.9844160040482502
 40
1.0
 40
1.0
 40
1.0
 40
1.0
 10
4220.828146424113
 20
2312.033667516017
 30
0.0
 10
4220.836375901115
 20
2311.719396468517
 30
0.0
 10
4220.852834885143
 20
2311.09085322683
 30
0.0
 10
4220.874150888253
 20
2310.276827909667
 30
0.0
 10
4220.887691150999
 20
2309.759746136919
 30
0.0
 10
4220.893610628082
 20
2309.533690427262
 30
0.0
 10
4220.892090397743
 20
2309.591745681678
 30
0.0
 10
4220.891999868524
 20
2309.595202853092
 30
0.0
  0
SPLINE
  5
11F
330
1F
100
AcDbEntity
  8
0
  6
Continuous
 62
     7
370
    25
100
AcDbSpline
210
0.0
220
0.0
230
1.0
 70
     8
 71
     3
 72
    11
 73
     7
 74
     0
 42
0.00000001
 43
0.00000001
 40
0.0
 40
0.0
 40
0.0
 40
0.0
 40
0.2382247349857165
 40
0.4921376904605879
 40
0.7460575595492281
 40
1.0
 40
1.0
 40
1.0
 40
1.0
 10
4220.764286695035
 20
2314.472372180753
 30
0.0
 10
4220.764959079338
 20
2314.446694861239
 30
0.0
 10
4220.766348127617
 20
2314.393649249819
 30
0.0
 10
4220.779885724853
 20
2313.876669251073
 30
0.0
 10
4220.799986316188
 20
2313.109058705211
 30
0.0
 10
4220.81636995758
 20
2312.483392512956
 30
0.0
 10
4220.824562142352
 20
2312.170545513319
 30
0.0
  0
LINE
  5
120
330
1F
100
AcDbEntity
  8
0
  6
Continuous
 62
     7
370
    25
100
AcDbLine
 10
4220.8245621424
 20
2312.1705455133
 30
0.0
 11
4220.8281464241
 21
2312.033667516
 31
0.0
  0
SPLINE
  5
121
330
1F
100
AcDbEntity
  8
0
  6
Continuous
 62
     7
370
    25
100
AcDbSpline
210
0.0
220
0.0
230
1.0
 70
    24
 71
     3
 72
    13
 73
     9
 74
     0
 42
0.00000001
 43
0.00000001
 40
0.0
 40
0.0
 40
0.0
 40
0.0
 40
0.1813201537912
 40
0.4101468448383498
 40
0.5438150184967394
 40
0.6886421238877362
 40
0.841996687412774
 40
0.9999999999999999
 40
0.9999999999999999
 40
0.9999999999999999
 40
0.9999999999999999
 10
4221.382795627872
 20
2329.054018988891
 30
0.0
 10
4221.358568754229
 20
2329.979205966934
 30
0.0
 10
4221.30376747827
 20
2332.071982263424
 30
0.0
 10
4221.237407247248
 20
2334.606177244863
 30
0.0
 10
4221.187436230695
 20
2336.514493376605
 30
0.0
 10
4221.154514141979
 20
2337.771737221536
 30
0.0
 10
4221.131231983253
 20
2338.660846992442
 30
0.0
 10
4221.127939789844
 20
2338.786570786441
 30
0.0
 10
4221.126269115986
 20
2338.85037124709
 30
0.0
  0
SPLINE
  5
122
330
1F
100
AcDbEntity
  8
0
  6
Continuous
 62
     7
370
    25
100
AcDbSpline
210
0.0
220
0.0
230
1.0
 70
    24
 71
     3
 72
    13
 73
     9
 74
     0
 42
0.00000001
 43
0.00000001
 40
0.0
 40
0.0
 40
0.0
 40
0.0
 40
0.1538581583653453
 40
0.3079676862454931
 40
0.4535077802387829
 40
0.5878340078349034
 40
0.8177872163817966
 40
1.0
 40
1.0
 40
1.0
 40
1.0
 10
4221.639096032833
 20
2319.266301405861
 30
0.0
 10
4221.637776556189
 20
2319.316690185953
 30
0.0
 10
4221.635135447176
 20
2319.417550070035
 30
0.0
 10
4221.612908661763
 20
2320.266356760091
 30
0.0
 10
4221.580740651467
 20
2321.494803512005
 30
0.0
 10
4221.531477719879
 20
2323.376078969878
 30
0.0
 10
4221.465658391139
 20
2325.889617726506
 30
0.0
 10
4221.410933327992
 20
2327.979483573093
 30
0.0
 10
4221.386740147869
 20
2328.90338384758
 30
0.0
  0
LINE
  5
123
330
1F
100
AcDbEntity
  8
0
  6
Continuous
 62
     7
370
    25
100
AcDbLine
 10
4223.7844466987
 20
2329.0223848582
 30
0.0
 11
4223.9047475903
 21
2324.4282791568
 31
0.0
  0
LINE
  5
124
330
1F
100
AcDbEntity
  8
0
  6
Continuous
 62
     7
370
    25
100
AcDbLine
 10
4223.6591988253
 20
2333.8054081729
 30
0.0
 11
4223.7819732078
 21
2329.1168436648
 31
0.0
  0
SPLINE
  5
125
330
1F
100
AcDbEntity
  8
0
  6
Continuous
 62
     7
370
    25
100
AcDbSpline
210
0.0
220
0.0
230
1.0
 70
     8
 71
     3
 72
    11
 73
     7
 74
     0
 42
0.00000001
 43
0.00000001
 40
0.0
 40
0.0
 40
0.0
 40
0.0
 40
0.2702602051674837
 40
0.5624283659894829
 40
0.7897359586731689
 40
1.0
 40
1.0
 40
1.0
 40
1.0
 10
4221.378496043747
 20
2329.218213482249
 30
0.0
 10
4221.369746636035
 20
2329.215656025568
 30
0.0
 10
4221.351538572144
 20
2329.21033379849
 30
0.0
 10
4221.216480299738
 20
2329.201285824105
 30
0.0
 10
4221.048418110205
 20
2329.193677152434
 30
0.0
 10
4220.934052746314
 20
2329.190318953103
 30
0.0
 10
4220.87909734763
 20
2329.188705254893
 30
0.0
  0
LINE
  5
126
330
1F
100
AcDbEntity
  8
0
  6
Continuous
 62
     7
370
    25
100
AcDbLine
 10
3839.3225156724
 20
2364.0543978663
 30
0.0
 11
3839.3225156724
 21
2365.2543978663
 31
0.0
  0
LINE
  5
127
330
1F
100
AcDbEntity
  8
0
  6
Continuous
 62
     7
370
    25
100
AcDbLine
 10
3839.3225156724
 20
2364.0543978663
 30
0.0
 11
3840.1225156724
 21
2364.0543978663
 31
0.0
  0
LINE
  5
128
330
1F
100
AcDbEntity
  8
0
  6
Continuous
 62
     7
370
    25
100
AcDbLine
 10
3839.3225156724
 20
2365.2543978663
 30
0.0
 11
3840.1225156724
 21
2365.2543978663
 31
0.0
  0
LINE
  5
129
330
1F
100
AcDbEntity
  8
0
  6
Continuous
 62
     7
370
    25
100
AcDbLine
 10
3838.1225156724
 20
2364.0543978663
 30
0.0
 11
3839.3225156724
 21
2364.0543978663
 31
0.0
  0
LINE
  5
12A
330
1F
100
AcDbEntity
  8
0
  6
Continuous
 62
     7
370
    25
100
AcDbLine
 10
3838.1225156724
 20
2365.2543978663
 30
0.0
 11
3839.3225156724
 21
2365.2543978663
 31
0.0
  0
LINE
  5
12B
330
1F
100
AcDbEntity
  8
0
  6
Continuous
 62
     7
370
    25
100
AcDbLine
 10
3838.1225156724
 20
2346.2543978663
 30
0.0
 11
3839.3225156724
 21
2346.2543978663
 31
0.0
  0
LINE
  5
12C
330
1F
100
AcDbEntity
  8
0
  6
Continuous
 62
     7
370
    25
100
AcDbLine
 10
3839.3225156724
 20
2346.2543978663
 30
0.0
 11
3839.3225156724
 21
2364.0543978663
 31
0.0
  0
LINE
  5
12D
330
1F
100
AcDbEntity
  8
0
  6
Continuous
 62
     7
370
    25
100
AcDbLine
 10
3839.3225156724
 20
2346.2543978663
 30
0.0
 11
3839.3225156724
 21
2345.2470896858
 31
0.0
  0
LINE
  5
12E
330
1F
100
AcDbEntity
  8
0
  6
Continuous
 62
     7
370
    25
100
AcDbLine
 10
3838.6225156724
 20
687.7984397273
 30
0.0
 11
3838.1225156724
 21
687.7984397273
 31
0.0
  0
LINE
  5
12F
330
1F
100
AcDbEntity
  8
0
  6
Continuous
 62
     7
370
    25
100
AcDbLine
 10
3838.6225156724
 20
689.3543978665
 30
0.0
 11
3838.1225156724
 21
689.3543978665
 31
0.0
  0
LINE
  5
130
330
1F
100
AcDbEntity
  8
0
  6
Continuous
 62
     7
370
    25
100
AcDbLine
 10
3838.6225156724
 20
689.3543978665
 30
0.0
 11
3838.6225156724
 21
687.7984397273
 31
0.0
  0
LINE
  5
131
330
1F
100
AcDbEntity
  8
0
  6
Continuous
 62
     7
370
    25
100
AcDbLine
 10
3838.1225156724
 20
705.7103560054
 30
0.0
 11
3838.6225156724
 21
705.7103560054
 31
0.0
  0
LINE
  5
132
330
1F
100
AcDbEntity
  8
0
  6
Continuous
 62
     7
370
    25
100
AcDbLine
 10
3838.6225156724
 20
705.7103560054
 30
0.0
 11
3838.6225156724
 21
704.1543978661
 31
0.0
  0
LINE
  5
133
330
1F
100
AcDbEntity
  8
0
  6
Continuous
 62
     7
370
    25
100
AcDbLine
 10
3838.1225156724
 20
704.1543978661
 30
0.0
 11
3838.6225156724
 21
704.1543978661
 31
0.0
  0
LINE
  5
134
330
1F
100
AcDbEntity
  8
0
  6
Continuous
 62
     7
370
    25
100
AcDbLine
 10
3838.3225156724
 20
678.3628237086
 30
0.0
 11
3838.6225156724
 21
678.3628237086
 31
0.0
  0
LINE
  5
135
330
1F
100
AcDbEntity
  8
0
  6
Continuous
 62
     7
370
    25
100
AcDbLine
 10
3838.1225156724
 20
678.3628237086
 30
0.0
 11
3838.3225156724
 21
678.3628237086
 31
0.0
  0
LINE
  5
136
330
1F
100
AcDbEntity
  8
0
  6
Continuous
 62
     7
370
    25
100
AcDbLine
 10
3838.6225156724
 20
678.3628237086
 30
0.0
 11
3838.6225156724
 21
687.7984397273
 31
0.0
  0
LINE
  5
137
330
1F
100
AcDbEntity
  8
0
  6
Continuous
 62
     7
370
    25
100
AcDbLine
 10
3838.3225156724
 20
715.1459720241
 30
0.0
 11
3838.1225156724
 21
715.1459720241
 31
0.0
  0
LINE
  5
138
330
1F
100
AcDbEntity
  8
0
  6
Continuous
 62
     7
370
    25
100
AcDbLine
 10
3838.6225156724
 20
715.1459720241
 30
0.0
 11
3838.3225156724
 21
715.1459720241
 31
0.0
  0
LINE
  5
139
330
1F
100
AcDbEntity
  8
0
  6
Continuous
 62
     7
370
    25
100
AcDbLine
 10
3838.6225156724
 20
705.7103560054
 30
0.0
 11
3838.6225156724
 21
715.1459720241
 31
0.0
  0
SPLINE
  5
13A
330
1F
100
AcDbEntity
  8
0
  6
Continuous
 62
     7
370
    25
100
AcDbSpline
210
0.0
220
0.0
230
1.0
 70
    24
 71
     3
 72
    12
 73
     8
 74
     0
 42
0.00000001
 43
0.00000001
 40
0.0
 40
0.0
 40
0.0
 40
0.0
 40
0.1234882189587234
 40
0.3047574776051814
 40
0.4857888495146839
 40
0.6670582153987733
 40
1.0
 40
1.0
 40
1.0
 40
1.0
 10
3840.122515672364
 20
668.2543978663174
 30
0.0
 10
3840.082769103328
 20
668.2543978663174
 30
0.0
 10
3839.984678255271
 20
668.2543978663173
 30
0.0
 10
3839.744704966912
 20
668.2543978663174
 30
0.0
 10
3839.429090778418
 20
668.2543978663172
 30
0.0
 10
3838.962180689318
 20
668.2543978663177
 30
0.0
 10
3838.573912089081
 20
668.2543978663156
 30
0.0
 10
3838.322515672365
 20
668.2543978663142
 30
0.0
  0
LINE
  5
13B
330
1F
100
AcDbEntity
  8
0
  6
Continuous
 62
     7
370
    25
100
AcDbLine
 10
3838.3225156724
 20
669.2543978663
 30
0.0
 11
3838.3225156724
 21
668.2543978663
 31
0.0
  0
SPLINE
  5
13C
330
1F
100
AcDbEntity
  8
0
  6
Continuous
 62
     7
370
    25
100
AcDbSpline
210
0.0
220
0.0
230
1.0
 70
    24
 71
     3
 72
    12
 73
     8
 74
     0
 42
0.00000001
 43
0.00000001
 40
0.0
 40
0.0
 40
0.0
 40
0.0
 40
0.3329369653750971
 40
0.5139656098141705
 40
0.6952322446462664
 40
0.8762609961873181
 40
1.0
 40
1.0
 40
1.0
 40
1.0
 10
3838.322515672359
 20
725.2543978663133
 30
0.0
 10
3838.573913085501
 20
725.2543978663148
 30
0.0
 10
3838.962003439499
 20
725.2543978663169
 30
0.0
 10
3839.428932709174
 20
725.2543978663164
 30
0.0
 10
3839.744451598195
 20
725.2543978663165
 30
0.0
 10
3839.984575816711
 20
725.2543978663166
 30
0.0
 10
3840.082683067721
 20
725.2543978663165
 30
0.0
 10
3840.122515672364
 20
725.2543978663165
 30
0.0
  0
LINE
  5
13D
330
1F
100
AcDbEntity
  8
0
  6
Continuous
 62
     7
370
    25
100
AcDbLine
 10
3838.3225156724
 20
724.2543978663
 30
0.0
 11
3838.3225156724
 21
725.2543978663
 31
0.0
  0
SPLINE
  5
13E
330
1F
100
AcDbEntity
  8
0
  6
Continuous
 62
     7
370
    25
100
AcDbSpline
210
0.0
220
0.0
230
1.0
 70
     8
 71
     3
 72
    10
 73
     6
 74
     0
 42
0.00000001
 43
0.00000001
 40
0.0
 40
0.0
 40
0.0
 40
0.0
 40
0.0371311943325656
 40
0.5486628195541836
 40
1.0
 40
1.0
 40
1.0
 40
1.0
 10
3840.122515672364
 20
686.5086335261478
 30
0.0
 10
3840.116892820152
 20
686.5153518735725
 30
0.0
 10
3840.033807694446
 20
686.6146243991926
 30
0.0
 10
3839.812251721863
 20
686.7150533123857
 30
0.0
 10
3839.580940832617
 20
686.7418412372157
 30
0.0
 10
3839.472515672363
 20
686.7543978663138
 30
0.0
  0
LINE
  5
13F
330
1F
100
AcDbEntity
  8
0
  6
Continuous
 62
     7
370
    25
100
AcDbLine
 10
3838.3225156724
 20
669.2543978663
 30
0.0
 11
3838.3225156724
 21
678.3628237086
 31
0.0
  0
LINE
  5
140
330
1F
100
AcDbEntity
  8
0
  6
Continuous
 62
     7
370
    25
100
AcDbLine
 10
3838.6225156724
 20
686.7543978663
 30
0.0
 11
3839.4725156724
 21
686.7543978663
 31
0.0
  0
LINE
  5
141
330
1F
100
AcDbEntity
  8
0
  6
Continuous
 62
     7
370
    25
100
AcDbLine
 10
3838.1225156724
 20
669.2543978663
 30
0.0
 11
3838.3225156724
 21
669.2543978663
 31
0.0
  0
LINE
  5
142
330
1F
100
AcDbEntity
  8
0
  6
Continuous
 62
     7
370
    25
100
AcDbLine
 10
3838.1225156724
 20
724.2543978663
 30
0.0
 11
3838.3225156724
 21
724.2543978663
 31
0.0
  0
LINE
  5
143
330
1F
100
AcDbEntity
  8
0
  6
Continuous
 62
     7
370
    25
100
AcDbLine
 10
3838.3225156724
 20
715.1459720241
 30
0.0
 11
3838.3225156724
 21
724.2543978663
 31
0.0
  0
SPLINE
  5
144
330
1F
100
AcDbEntity
  8
0
  6
Continuous
 62
     7
370
    25
100
AcDbSpline
210
0.0
220
0.0
230
1.0
 70
     8
 71
     3
 72
     9
 73
     5
 74
     0
 42
0.00000001
 43
0.00000001
 40
0.0
 40
0.0
 40
0.0
 40
0.0
 40
0.5050081268962409
 40
1.0
 40
1.0
 40
1.0
 40
1.0
 10
3839.472515672361
 20
706.7543978663142
 30
0.0
 10
3839.595811944228
 20
706.7666177256981
 30
0.0
 10
3839.839959048603
 20
706.7908150776474
 30
0.0
 10
3840.028961162156
 20
706.9278911509092
 30
0.0
 10
3840.122515672364
 20
706.9957426931709
 30
0.0
  0
LINE
  5
145
330
1F
100
AcDbEntity
  8
0
  6
Continuous
 62
     7
370
    25
100
AcDbLine
 10
3839.4725156724
 20
706.7543978663
 30
0.0
 11
3838.6225156724
 21
706.7543978663
 31
0.0
  0
LINE
  5
146
330
1F
100
AcDbEntity
  8
0
  6
Continuous
 62
     7
370
    25
100
AcDbLine
 10
3838.1225156724
 20
668.2543978663
 30
0.0
 11
3838.3225156724
 21
668.2543978663
 31
0.0
  0
LINE
  5
147
330
1F
100
AcDbEntity
  8
0
  6
Continuous
 62
     7
370
    25
100
AcDbLine
 10
3838.1225156724
 20
725.2543978663
 30
0.0
 11
3838.3225156724
 21
725.2543978663
 31
0.0
  0
LINE
  5
148
330
1F
100
AcDbEntity
  8
0
  6
Continuous
 62
     7
370
    25
100
AcDbLine
 10
3838.6225156724
 20
1407.7984397273
 30
0.0
 11
3838.1225156724
 21
1407.7984397273
 31
0.0
  0
LINE
  5
149
330
1F
100
AcDbEntity
  8
0
  6
Continuous
 62
     7
370
    25
100
AcDbLine
 10
3838.6225156724
 20
1409.3543978665
 30
0.0
 11
3838.1225156724
 21
1409.3543978665
 31
0.0
  0
LINE
  5
14A
330
1F
100
AcDbEntity
  8
0
  6
Continuous
 62
     7
370
    25
100
AcDbLine
 10
3838.6225156724
 20
1409.3543978665
 30
0.0
 11
3838.6225156724
 21
1407.7984397273
 31
0.0
  0
LINE
  5
14B
330
1F
100
AcDbEntity
  8
0
  6
Continuous
 62
     7
370
    25
100
AcDbLine
 10
3838.1225156724
 20
1425.7103560054
 30
0.0
 11
3838.6225156724
 21
1425.7103560054
 31
0.0
  0
LINE
  5
14C
330
1F
100
AcDbEntity
  8
0
  6
Continuous
 62
     7
370
    25
100
AcDbLine
 10
3838.6225156724
 20
1425.7103560054
 30
0.0
 11
3838.6225156724
 21
1424.1543978661
 31
0.0
  0
LINE
  5
14D
330
1F
100
AcDbEntity
  8
0
  6
Continuous
 62
     7
370
    25
100
AcDbLine
 10
3838.1225156724
 20
1424.1543978661
 30
0.0
 11
3838.6225156724
 21
1424.1543978661
 31
0.0
  0
LINE
  5
14E
330
1F
100
AcDbEntity
  8
0
  6
Continuous
 62
     7
370
    25
100
AcDbLine
 10
3838.3225156724
 20
1398.3628237086
 30
0.0
 11
3838.6225156724
 21
1398.3628237086
 31
0.0
  0
LINE
  5
14F
330
1F
100
AcDbEntity
  8
0
  6
Continuous
 62
     7
370
    25
100
AcDbLine
 10
3838.1225156724
 20
1398.3628237086
 30
0.0
 11
3838.3225156724
 21
1398.3628237086
 31
0.0
  0
LINE
  5
150
330
1F
100
AcDbEntity
  8
0
  6
Continuous
 62
     7
370
    25
100
AcDbLine
 10
3838.6225156724
 20
1398.3628237086
 30
0.0
 11
3838.6225156724
 21
1407.7984397273
 31
0.0
  0
LINE
  5
151
330
1F
100
AcDbEntity
  8
0
  6
Continuous
 62
     7
370
    25
100
AcDbLine
 10
3838.3225156724
 20
1435.1459720241
 30
0.0
 11
3838.1225156724
 21
1435.1459720241
 31
0.0
  0
LINE
  5
152
330
1F
100
AcDbEntity
  8
0
  6
Continuous
 62
     7
370
    25
100
AcDbLine
 10
3838.6225156724
 20
1435.1459720241
 30
0.0
 11
3838.3225156724
 21
1435.1459720241
 31
0.0
  0
LINE
  5
153
330
1F
100
AcDbEntity
  8
0
  6
Continuous
 62
     7
370
    25
100
AcDbLine
 10
3838.6225156724
 20
1425.7103560054
 30
0.0
 11
3838.6225156724
 21
1435.1459720241
 31
0.0
  0
SPLINE
  5
154
330
1F
100
AcDbEntity
  8
0
  6
Continuous
 62
     7
370
    25
100
AcDbSpline
210
0.0
220
0.0
230
1.0
 70
    24
 71
     3
 72
    12
 73
     8
 74
     0
 42
0.00000001
 43
0.00000001
 40
0.0
 40
0.0
 40
0.0
 40
0.0
 40
0.1234882189587234
 40
0.3047574776051814
 40
0.4857888495146839
 40
0.6670582153987733
 40
1.0
 40
1.0
 40
1.0
 40
1.0
 10
3840.122515672364
 20
1388.254397866317
 30
0.0
 10
3840.082769103328
 20
1388.254397866317
 30
0.0
 10
3839.984678255271
 20
1388.254397866317
 30
0.0
 10
3839.744704966912
 20
1388.254397866317
 30
0.0
 10
3839.429090778418
 20
1388.254397866318
 30
0.0
 10
3838.962180689318
 20
1388.254397866318
 30
0.0
 10
3838.573912089081
 20
1388.254397866316
 30
0.0
 10
3838.322515672365
 20
1388.254397866315
 30
0.0
  0
LINE
  5
155
330
1F
100
AcDbEntity
  8
0
  6
Continuous
 62
     7
370
    25
100
AcDbLine
 10
3838.3225156724
 20
1389.2543978663
 30
0.0
 11
3838.3225156724
 21
1388.2543978663
 31
0.0
  0
SPLINE
  5
156
330
1F
100
AcDbEntity
  8
0
  6
Continuous
 62
     7
370
    25
100
AcDbSpline
210
0.0
220
0.0
230
1.0
 70
    24
 71
     3
 72
    12
 73
     8
 74
     0
 42
0.00000001
 43
0.00000001
 40
0.0
 40
0.0
 40
0.0
 40
0.0
 40
0.3329369653750971
 40
0.5139656098141705
 40
0.6952322446462664
 40
0.8762609961873181
 40
1.0
 40
1.0
 40
1.0
 40
1.0
 10
3838.322515672359
 20
1445.254397866314
 30
0.0
 10
3838.573913085501
 20
1445.254397866315
 30
0.0
 10
3838.962003439499
 20
1445.254397866317
 30
0.0
 10
3839.428932709174
 20
1445.254397866317
 30
0.0
 10
3839.744451598195
 20
1445.254397866317
 30
0.0
 10
3839.984575816711
 20
1445.254397866317
 30
0.0
 10
3840.082683067721
 20
1445.254397866317
 30
0.0
 10
3840.122515672364
 20
1445.254397866317
 30
0.0
  0
LINE
  5
157
330
1F
100
AcDbEntity
  8
0
  6
Continuous
 62
     7
370
    25
100
AcDbLine
 10
3838.3225156724
 20
1444.2543978663
 30
0.0
 11
3838.3225156724
 21
1445.2543978663
 31
0.0
  0
SPLINE
  5
158
330
1F
100
AcDbEntity
  8
0
  6
Continuous
 62
     7
370
    25
100
AcDbSpline
210
0.0
220
0.0
230
1.0
 70
     8
 71
     3
 72
    10
 73
     6
 74
     0
 42
0.00000001
 43
0.00000001
 40
0.0
 40
0.0
 40
0.0
 40
0.0
 40
0.037131194332588
 40
0.5486628195541942
 40
1.0
 40
1.0
 40
1.0
 40
1.0
 10
3840.122515672364
 20
1406.508633526148
 30
0.0
 10
3840.116892820152
 20
1406.515351873573
 30
0.0
 10
3840.033807694446
 20
1406.614624399193
 30
0.0
 10
3839.812251721863
 20
1406.715053312386
 30
0.0
 10
3839.580940832617
 20
1406.741841237216
 30
0.0
 10
3839.472515672363
 20
1406.754397866314
 30
0.0
  0
LINE
  5
159
330
1F
100
AcDbEntity
  8
0
  6
Continuous
 62
     7
370
    25
100
AcDbLine
 10
3838.3225156724
 20
1389.2543978663
 30
0.0
 11
3838.3225156724
 21
1398.3628237086
 31
0.0
  0
LINE
  5
15A
330
1F
100
AcDbEntity
  8
0
  6
Continuous
 62
     7
370
    25
100
AcDbLine
 10
3838.6225156724
 20
1406.7543978663
 30
0.0
 11
3839.4725156724
 21
1406.7543978663
 31
0.0
  0
LINE
  5
15B
330
1F
100
AcDbEntity
  8
0
  6
Continuous
 62
     7
370
    25
100
AcDbLine
 10
3838.1225156724
 20
1389.2543978663
 30
0.0
 11
3838.3225156724
 21
1389.2543978663
 31
0.0
  0
SPLINE
  5
15C
330
1F
100
AcDbEntity
  8
0
  6
Continuous
 62
     7
370
    25
100
AcDbSpline
210
0.0
220
0.0
230
1.0
 70
     8
 71
     3
 72
     9
 73
     5
 74
     0
 42
0.00000001
 43
0.00000001
 40
0.0
 40
0.0
 40
0.0
 40
0.0
 40
0.505008126896229
 40
1.0
 40
1.0
 40
1.0
 40
1.0
 10
3839.472515672361
 20
1426.754397866314
 30
0.0
 10
3839.595811944228
 20
1426.766617725698
 30
0.0
 10
3839.839959048603
 20
1426.790815077648
 30
0.0
 10
3840.028961162156
 20
1426.92789115091
 30
0.0
 10
3840.122515672364
 20
1426.995742693171
 30
0.0
  0
LINE
  5
15D
330
1F
100
AcDbEntity
  8
0
  6
Continuous
 62
     7
370
    25
100
AcDbLine
 10
3838.3225156724
 20
1435.1459720241
 30
0.0
 11
3838.3225156724
 21
1444.2543978663
 31
0.0
  0
LINE
  5
15E
330
1F
100
AcDbEntity
  8
0
  6
Continuous
 62
     7
370
    25
100
AcDbLine
 10
3839.4725156724
 20
1426.7543978663
 30
0.0
 11
3838.6225156724
 21
1426.7543978663
 31
0.0
  0
LINE
  5
15F
330
1F
100
AcDbEntity
  8
0
  6
Continuous
 62
     7
370
    25
100
AcDbLine
 10
3838.1225156724
 20
1444.2543978663
 30
0.0
 11
3838.3225156724
 21
1444.2543978663
 31
0.0
  0
LINE
  5
160
330
1F
100
AcDbEntity
  8
0
  6
Continuous
 62
     7
370
    25
100
AcDbLine
 10
3838.1225156724
 20
1388.2543978663
 30
0.0
 11
3838.3225156724
 21
1388.2543978663
 31
0.0
  0
LINE
  5
161
330
1F
100
AcDbEntity
  8
0
  6
Continuous
 62
     7
370
    25
100
AcDbLine
 10
3838.1225156724
 20
1445.2543978663
 30
0.0
 11
3838.3225156724
 21
1445.2543978663
 31
0.0
  0
LINE
  5
162
330
1F
100
AcDbEntity
  8
0
  6
Continuous
 62
     7
370
    25
100
AcDbLine
 10
3838.6225156724
 20
2307.7984397273
 30
0.0
 11
3838.1225156724
 21
2307.7984397273
 31
0.0
  0
LINE
  5
163
330
1F
100
AcDbEntity
  8
0
  6
Continuous
 62
     7
370
    25
100
AcDbLine
 10
3838.6225156724
 20
2309.3543978665
 30
0.0
 11
3838.1225156724
 21
2309.3543978665
 31
0.0
  0
LINE
  5
164
330
1F
100
AcDbEntity
  8
0
  6
Continuous
 62
     7
370
    25
100
AcDbLine
 10
3838.6225156724
 20
2309.3543978665
 30
0.0
 11
3838.6225156724
 21
2307.7984397273
 31
0.0
  0
LINE
  5
165
330
1F
100
AcDbEntity
  8
0
  6
Continuous
 62
     7
370
    25
100
AcDbLine
 10
3838.1225156724
 20
2325.7103560054
 30
0.0
 11
3838.6225156724
 21
2325.7103560054
 31
0.0
  0
LINE
  5
166
330
1F
100
AcDbEntity
  8
0
  6
Continuous
 62
     7
370
    25
100
AcDbLine
 10
3838.6225156724
 20
2325.7103560054
 30
0.0
 11
3838.6225156724
 21
2324.1543978661
 31
0.0
  0
LINE
  5
167
330
1F
100
AcDbEntity
  8
0
  6
Continuous
 62
     7
370
    25
100
AcDbLine
 10
3838.1225156724
 20
2324.1543978661
 30
0.0
 11
3838.6225156724
 21
2324.1543978661
 31
0.0
  0
LINE
  5
168
330
1F
100
AcDbEntity
  8
0
  6
Continuous
 62
     7
370
    25
100
AcDbLine
 10
3838.3225156724
 20
2298.3628237086
 30
0.0
 11
3838.6225156724
 21
2298.3628237086
 31
0.0
  0
LINE
  5
169
330
1F
100
AcDbEntity
  8
0
  6
Continuous
 62
     7
370
    25
100
AcDbLine
 10
3838.1225156724
 20
2298.3628237086
 30
0.0
 11
3838.3225156724
 21
2298.3628237086
 31
0.0
  0
LINE
  5
16A
330
1F
100
AcDbEntity
  8
0
  6
Continuous
 62
     7
370
    25
100
AcDbLine
 10
3838.6225156724
 20
2298.3628237086
 30
0.0
 11
3838.6225156724
 21
2307.7984397273
 31
0.0
  0
LINE
  5
16B
330
1F
100
AcDbEntity
  8
0
  6
Continuous
 62
     7
370
    25
100
AcDbLine
 10
3838.3225156724
 20
2335.1459720241
 30
0.0
 11
3838.1225156724
 21
2335.1459720241
 31
0.0
  0
LINE
  5
16C
330
1F
100
AcDbEntity
  8
0
  6
Continuous
 62
     7
370
    25
100
AcDbLine
 10
3838.6225156724
 20
2335.1459720241
 30
0.0
 11
3838.3225156724
 21
2335.1459720241
 31
0.0
  0
LINE
  5
16D
330
1F
100
AcDbEntity
  8
0
  6
Continuous
 62
     7
370
    25
100
AcDbLine
 10
3838.6225156724
 20
2325.7103560054
 30
0.0
 11
3838.6225156724
 21
2335.1459720241
 31
0.0
  0
SPLINE
  5
16E
330
1F
100
AcDbEntity
  8
0
  6
Continuous
 62
     7
370
    25
100
AcDbSpline
210
0.0
220
0.0
230
1.0
 70
    24
 71
     3
 72
    12
 73
     8
 74
     0
 42
0.00000001
 43
0.00000001
 40
0.0
 40
0.0
 40
0.0
 40
0.0
 40
0.1234882189585784
 40
0.3047574776050663
 40
0.4857888495145988
 40
0.6670582153987181
 40
1.0
 40
1.0
 40
1.0
 40
1.0
 10
3840.122515672364
 20
2288.254397866317
 30
0.0
 10
3840.082769103328
 20
2288.254397866317
 30
0.0
 10
3839.984678255271
 20
2288.254397866317
 30
0.0
 10
3839.744704966912
 20
2288.254397866318
 30
0.0
 10
3839.429090778418
 20
2288.254397866316
 30
0.0
 10
3838.962180689318
 20
2288.254397866318
 30
0.0
 10
3838.573912089081
 20
2288.254397866316
 30
0.0
 10
3838.322515672365
 20
2288.254397866314
 30
0.0
  0
LINE
  5
16F
330
1F
100
AcDbEntity
  8
0
  6
Continuous
 62
     7
370
    25
100
AcDbLine
 10
3838.3225156724
 20
2289.2543978663
 30
0.0
 11
3838.3225156724
 21
2288.2543978663
 31
0.0
  0
SPLINE
  5
170
330
1F
100
AcDbEntity
  8
0
  6
Continuous
 62
     7
370
    25
100
AcDbSpline
210
0.0
220
0.0
230
1.0
 70
    24
 71
     3
 72
    12
 73
     8
 74
     0
 42
0.00000001
 43
0.00000001
 40
0.0
 40
0.0
 40
0.0
 40
0.0
 40
0.3329369653750971
 40
0.5139656098141705
 40
0.6952322446462664
 40
0.8762609961873181
 40
1.0
 40
1.0
 40
1.0
 40
1.0
 10
3838.322515672359
 20
2345.254397866313
 30
0.0
 10
3838.573913085501
 20
2345.254397866315
 30
0.0
 10
3838.962003439499
 20
2345.254397866316
 30
0.0
 10
3839.428932709174
 20
2345.254397866317
 30
0.0
 10
3839.744451598195
 20
2345.254397866316
 30
0.0
 10
3839.984575816711
 20
2345.254397866317
 30
0.0
 10
3840.082683067721
 20
2345.254397866317
 30
0.0
 10
3840.122515672364
 20
2345.254397866316
 30
0.0
  0
LINE
  5
171
330
1F
100
AcDbEntity
  8
0
  6
Continuous
 62
     7
370
    25
100
AcDbLine
 10
3838.3225156724
 20
2344.2543978663
 30
0.0
 11
3838.3225156724
 21
2345.2543978663
 31
0.0
  0
LINE
  5
172
330
1F
100
AcDbEntity
  8
0
  6
Continuous
 62
     7
370
    25
100
AcDbLine
 10
3838.1225156724
 20
2289.2543978663
 30
0.0
 11
3838.3225156724
 21
2289.2543978663
 31
0.0
  0
LINE
  5
173
330
1F
100
AcDbEntity
  8
0
  6
Continuous
 62
     7
370
    25
100
AcDbLine
 10
3838.3225156724
 20
2289.2543978663
 30
0.0
 11
3838.3225156724
 21
2298.3628237086
 31
0.0
  0
SPLINE
  5
174
330
1F
100
AcDbEntity
  8
0
  6
Continuous
 62
     7
370
    25
100
AcDbSpline
210
0.0
220
0.0
230
1.0
 70
     8
 71
     3
 72
    10
 73
     6
 74
     0
 42
0.00000001
 43
0.00000001
 40
0.0
 40
0.0
 40
0.0
 40
0.0
 40
0.0371311943322312
 40
0.5486628195540268
 40
1.0
 40
1.0
 40
1.0
 40
1.0
 10
3840.122515672364
 20
2306.508633526148
 30
0.0
 10
3840.116892820152
 20
2306.515351873572
 30
0.0
 10
3840.033807694446
 20
2306.614624399195
 30
0.0
 10
3839.812251721863
 20
2306.715053312386
 30
0.0
 10
3839.580940832617
 20
2306.741841237216
 30
0.0
 10
3839.472515672363
 20
2306.754397866314
 30
0.0
  0
LINE
  5
175
330
1F
100
AcDbEntity
  8
0
  6
Continuous
 62
     7
370
    25
100
AcDbLine
 10
3838.6225156724
 20
2306.7543978663
 30
0.0
 11
3839.4725156724
 21
2306.7543978663
 31
0.0
  0
SPLINE
  5
176
330
1F
100
AcDbEntity
  8
0
  6
Continuous
 62
     7
370
    25
100
AcDbSpline
210
0.0
220
0.0
230
1.0
 70
     8
 71
     3
 72
     9
 73
     5
 74
     0
 42
0.00000001
 43
0.00000001
 40
0.0
 40
0.0
 40
0.0
 40
0.0
 40
0.5050081268962604
 40
1.0
 40
1.0
 40
1.0
 40
1.0
 10
3839.472515672361
 20
2326.754397866314
 30
0.0
 10
3839.595811944228
 20
2326.766617725699
 30
0.0
 10
3839.839959048603
 20
2326.790815077647
 30
0.0
 10
3840.028961162156
 20
2326.927891150909
 30
0.0
 10
3840.122515672364
 20
2326.99574269317
 30
0.0
  0
LINE
  5
177
330
1F
100
AcDbEntity
  8
0
  6
Continuous
 62
     7
370
    25
100
AcDbLine
 10
3838.3225156724
 20
2335.1459720241
 30
0.0
 11
3838.3225156724
 21
2344.2543978663
 31
0.0
  0
LINE
  5
178
330
1F
100
AcDbEntity
  8
0
  6
Continuous
 62
     7
370
    25
100
AcDbLine
 10
3839.4725156724
 20
2326.7543978663
 30
0.0
 11
3838.6225156724
 21
2326.7543978663
 31
0.0
  0
LINE
  5
179
330
1F
100
AcDbEntity
  8
0
  6
Continuous
 62
     7
370
    25
100
AcDbLine
 10
3838.1225156724
 20
2344.2543978663
 30
0.0
 11
3838.3225156724
 21
2344.2543978663
 31
0.0
  0
LINE
  5
17A
330
1F
100
AcDbEntity
  8
0
  6
Continuous
 62
     7
370
    25
100
AcDbLine
 10
3838.1225156724
 20
2288.2543978663
 30
0.0
 11
3838.3225156724
 21
2288.2543978663
 31
0.0
  0
LINE
  5
17B
330
1F
100
AcDbEntity
  8
0
  6
Continuous
 62
     7
370
    25
100
AcDbLine
 10
3838.1225156724
 20
2345.2543978663
 30
0.0
 11
3838.3225156724
 21
2345.2543978663
 31
0.0
  0
LINE
  5
17C
330
1F
100
AcDbEntity
  8
0
  6
Continuous
 62
     7
370
    25
100
AcDbLine
 10
3838.6225156724
 20
1937.7984397273
 30
0.0
 11
3838.1225156724
 21
1937.7984397273
 31
0.0
  0
LINE
  5
17D
330
1F
100
AcDbEntity
  8
0
  6
Continuous
 62
     7
370
    25
100
AcDbLine
 10
3838.6225156724
 20
1939.3543978665
 30
0.0
 11
3838.1225156724
 21
1939.3543978665
 31
0.0
  0
LINE
  5
17E
330
1F
100
AcDbEntity
  8
0
  6
Continuous
 62
     7
370
    25
100
AcDbLine
 10
3838.6225156724
 20
1939.3543978665
 30
0.0
 11
3838.6225156724
 21
1937.7984397273
 31
0.0
  0
LINE
  5
17F
330
1F
100
AcDbEntity
  8
0
  6
Continuous
 62
     7
370
    25
100
AcDbLine
 10
3838.1225156724
 20
1955.7103560054
 30
0.0
 11
3838.6225156724
 21
1955.7103560054
 31
0.0
  0
LINE
  5
180
330
1F
100
AcDbEntity
  8
0
  6
Continuous
 62
     7
370
    25
100
AcDbLine
 10
3838.6225156724
 20
1955.7103560054
 30
0.0
 11
3838.6225156724
 21
1954.1543978661
 31
0.0
  0
LINE
  5
181
330
1F
100
AcDbEntity
  8
0
  6
Continuous
 62
     7
370
    25
100
AcDbLine
 10
3838.1225156724
 20
1954.1543978661
 30
0.0
 11
3838.6225156724
 21
1954.1543978661
 31
0.0
  0
LINE
  5
182
330
1F
100
AcDbEntity
  8
0
  6
Continuous
 62
     7
370
    25
100
AcDbLine
 10
3838.3225156724
 20
1928.3628237086
 30
0.0
 11
3838.6225156724
 21
1928.3628237086
 31
0.0
  0
LINE
  5
183
330
1F
100
AcDbEntity
  8
0
  6
Continuous
 62
     7
370
    25
100
AcDbLine
 10
3838.1225156724
 20
1928.3628237086
 30
0.0
 11
3838.3225156724
 21
1928.3628237086
 31
0.0
  0
LINE
  5
184
330
1F
100
AcDbEntity
  8
0
  6
Continuous
 62
     7
370
    25
100
AcDbLine
 10
3838.6225156724
 20
1928.3628237086
 30
0.0
 11
3838.6225156724
 21
1937.7984397273
 31
0.0
  0
LINE
  5
185
330
1F
100
AcDbEntity
  8
0
  6
Continuous
 62
     7
370
    25
100
AcDbLine
 10
3838.3225156724
 20
1965.1459720241
 30
0.0
 11
3838.1225156724
 21
1965.1459720241
 31
0.0
  0
LINE
  5
186
330
1F
100
AcDbEntity
  8
0
  6
Continuous
 62
     7
370
    25
100
AcDbLine
 10
3838.6225156724
 20
1965.1459720241
 30
0.0
 11
3838.3225156724
 21
1965.1459720241
 31
0.0
  0
LINE
  5
187
330
1F
100
AcDbEntity
  8
0
  6
Continuous
 62
     7
370
    25
100
AcDbLine
 10
3838.6225156724
 20
1955.7103560054
 30
0.0
 11
3838.6225156724
 21
1965.1459720241
 31
0.0
  0
SPLINE
  5
188
330
1F
100
AcDbEntity
  8
0
  6
Continuous
 62
     7
370
    25
100
AcDbSpline
210
0.0
220
0.0
230
1.0
 70
    24
 71
     3
 72
    12
 73
     8
 74
     0
 42
0.00000001
 43
0.00000001
 40
0.0
 40
0.0
 40
0.0
 40
0.0
 40
0.1234882189605989
 40
0.3047574776066691
 40
0.4857888495157843
 40
0.6670582153994857
 40
0.9999999999999999
 40
0.9999999999999999
 40
0.9999999999999999
 40
0.9999999999999999
 10
3840.122515672364
 20
1918.254397866319
 30
0.0
 10
3840.082769103328
 20
1918.254397866319
 30
0.0
 10
3839.98467825527
 20
1918.254397866319
 30
0.0
 10
3839.74470496691
 20
1918.254397866319
 30
0.0
 10
3839.429090778415
 20
1918.254397866319
 30
0.0
 10
3838.962180689316
 20
1918.25439786632
 30
0.0
 10
3838.573912089079
 20
1918.254397866318
 30
0.0
 10
3838.322515672363
 20
1918.254397866316
 30
0.0
  0
LINE
  5
189
330
1F
100
AcDbEntity
  8
0
  6
Continuous
 62
     7
370
    25
100
AcDbLine
 10
3838.3225156724
 20
1919.2543978663
 30
0.0
 11
3838.3225156724
 21
1918.2543978663
 31
0.0
  0
SPLINE
  5
18A
330
1F
100
AcDbEntity
  8
0
  6
Continuous
 62
     7
370
    25
100
AcDbSpline
210
0.0
220
0.0
230
1.0
 70
    24
 71
     3
 72
    12
 73
     8
 74
     0
 42
0.00000001
 43
0.00000001
 40
0.0
 40
0.0
 40
0.0
 40
0.0
 40
0.3329369653743847
 40
0.5139656098130708
 40
0.6952322446447788
 40
0.8762609961854433
 40
1.0
 40
1.0
 40
1.0
 40
1.0
 10
3838.322515672356
 20
1975.254397866315
 30
0.0
 10
3838.573913085499
 20
1975.254397866316
 30
0.0
 10
3838.962003439497
 20
1975.254397866318
 30
0.0
 10
3839.428932709172
 20
1975.254397866319
 30
0.0
 10
3839.744451598193
 20
1975.254397866319
 30
0.0
 10
3839.98457581671
 20
1975.254397866318
 30
0.0
 10
3840.082683067721
 20
1975.254397866318
 30
0.0
 10
3840.122515672364
 20
1975.254397866318
 30
0.0
  0
LINE
  5
18B
330
1F
100
AcDbEntity
  8
0
  6
Continuous
 62
     7
370
    25
100
AcDbLine
 10
3838.3225156724
 20
1974.2543978663
 30
0.0
 11
3838.3225156724
 21
1975.2543978663
 31
0.0
  0
LINE
  5
18C
330
1F
100
AcDbEntity
  8
0
  6
Continuous
 62
     7
370
    25
100
AcDbLine
 10
3838.1225156724
 20
1919.2543978663
 30
0.0
 11
3838.3225156724
 21
1919.2543978663
 31
0.0
  0
LINE
  5
18D
330
1F
100
AcDbEntity
  8
0
  6
Continuous
 62
     7
370
    25
100
AcDbLine
 10
3838.3225156724
 20
1919.2543978663
 30
0.0
 11
3838.3225156724
 21
1928.3628237086
 31
0.0
  0
SPLINE
  5
18E
330
1F
100
AcDbEntity
  8
0
  6
Continuous
 62
     7
370
    25
100
AcDbSpline
210
0.0
220
0.0
230
1.0
 70
     8
 71
     3
 72
    10
 73
     6
 74
     0
 42
0.00000001
 43
0.00000001
 40
0.0
 40
0.0
 40
0.0
 40
0.0
 40
0.037131194337306
 40
0.5486628195564056
 40
1.0
 40
1.0
 40
1.0
 40
1.0
 10
3840.122515672364
 20
1936.508633526147
 30
0.0
 10
3840.116892820151
 20
1936.515351873572
 30
0.0
 10
3840.033807694445
 20
1936.614624399196
 30
0.0
 10
3839.812251721861
 20
1936.715053312387
 30
0.0
 10
3839.580940832615
 20
1936.741841237217
 30
0.0
 10
3839.472515672361
 20
1936.754397866316
 30
0.0
  0
LINE
  5
18F
330
1F
100
AcDbEntity
  8
0
  6
Continuous
 62
     7
370
    25
100
AcDbLine
 10
3838.6225156724
 20
1936.7543978663
 30
0.0
 11
3839.4725156724
 21
1936.7543978663
 31
0.0
  0
SPLINE
  5
190
330
1F
100
AcDbEntity
  8
0
  6
Continuous
 62
     7
370
    25
100
AcDbSpline
210
0.0
220
0.0
230
1.0
 70
     8
 71
     3
 72
     9
 73
     5
 74
     0
 42
0.00000001
 43
0.00000001
 40
0.0
 40
0.0
 40
0.0
 40
0.0
 40
0.5050081268943643
 40
1.0
 40
1.0
 40
1.0
 40
1.0
 10
3839.472515672359
 20
1956.754397866316
 30
0.0
 10
3839.595811944226
 20
1956.7666177257
 30
0.0
 10
3839.839959048602
 20
1956.790815077649
 30
0.0
 10
3840.028961162155
 20
1956.927891150912
 30
0.0
 10
3840.122515672364
 20
1956.995742693174
 30
0.0
  0
LINE
  5
191
330
1F
100
AcDbEntity
  8
0
  6
Continuous
 62
     7
370
    25
100
AcDbLine
 10
3838.3225156724
 20
1965.1459720241
 30
0.0
 11
3838.3225156724
 21
1974.2543978663
 31
0.0
  0
LINE
  5
192
330
1F
100
AcDbEntity
  8
0
  6
Continuous
 62
     7
370
    25
100
AcDbLine
 10
3839.4725156724
 20
1956.7543978663
 30
0.0
 11
3838.6225156724
 21
1956.7543978663
 31
0.0
  0
LINE
  5
193
330
1F
100
AcDbEntity
  8
0
  6
Continuous
 62
     7
370
    25
100
AcDbLine
 10
3838.1225156724
 20
1974.2543978663
 30
0.0
 11
3838.3225156724
 21
1974.2543978663
 31
0.0
  0
LINE
  5
194
330
1F
100
AcDbEntity
  8
0
  6
Continuous
 62
     7
370
    25
100
AcDbLine
 10
3838.1225156724
 20
1918.2543978663
 30
0.0
 11
3838.3225156724
 21
1918.2543978663
 31
0.0
  0
LINE
  5
195
330
1F
100
AcDbEntity
  8
0
  6
Continuous
 62
     7
370
    25
100
AcDbLine
 10
3838.1225156724
 20
1975.2543978663
 30
0.0
 11
3838.3225156724
 21
1975.2543978663
 31
0.0
  0
LINE
  5
196
330
1F
100
AcDbEntity
  8
0
  6
Continuous
 62
     7
370
    25
100
AcDbLine
 10
3839.9877005974
 20
2308.3793978663
 30
0.0
 11
3839.9877005974
 21
2309.3043978663
 31
0.0
  0
LINE
  5
197
330
1F
100
AcDbEntity
  8
0
  6
Continuous
 62
     7
370
    25
100
AcDbLine
 10
3839.9877005974
 20
2324.2043978663
 30
0.0
 11
3839.9877005974
 21
2325.1293978663
 31
0.0
  0
LINE
  5
198
330
1F
100
AcDbEntity
  8
0
  6
Continuous
 62
     7
370
    25
100
AcDbLine
 10
3839.9877005974
 20
2325.1293978663
 30
0.0
 11
3840.1225156724
 21
2325.1293978663
 31
0.0
  0
LINE
  5
199
330
1F
100
AcDbEntity
  8
0
  6
Continuous
 62
     7
370
    25
100
AcDbLine
 10
3840.1225156724
 20
2308.3793978663
 30
0.0
 11
3839.9877005974
 21
2308.3793978663
 31
0.0
  0
LINE
  5
19A
330
1F
100
AcDbEntity
  8
0
  6
Continuous
 62
     7
370
    25
100
AcDbLine
 10
3838.6225156724
 20
2325.1293978663
 30
0.0
 11
3839.9877005974
 21
2325.1293978663
 31
0.0
  0
LINE
  5
19B
330
1F
100
AcDbEntity
  8
0
  6
Continuous
 62
     7
370
    25
100
AcDbLine
 10
3839.9877005974
 20
2308.3793978663
 30
0.0
 11
3838.6225156724
 21
2308.3793978663
 31
0.0
  0
LINE
  5
19C
330
1F
100
AcDbEntity
  8
0
  6
Continuous
 62
     7
370
    25
100
AcDbLine
 10
3839.9877005974
 20
688.3793978663
 30
0.0
 11
3839.9877005974
 21
689.3043978663
 31
0.0
  0
LINE
  5
19D
330
1F
100
AcDbEntity
  8
0
  6
Continuous
 62
     7
370
    25
100
AcDbLine
 10
3839.9877005974
 20
704.2043978663
 30
0.0
 11
3839.9877005974
 21
705.1293978663
 31
0.0
  0
LINE
  5
19E
330
1F
100
AcDbEntity
  8
0
  6
Continuous
 62
     7
370
    25
100
AcDbLine
 10
3839.9877005974
 20
705.1293978663
 30
0.0
 11
3840.1225156724
 21
705.1293978663
 31
0.0
  0
LINE
  5
19F
330
1F
100
AcDbEntity
  8
0
  6
Continuous
 62
     7
370
    25
100
AcDbLine
 10
3840.1225156724
 20
688.3793978663
 30
0.0
 11
3839.9877005974
 21
688.3793978663
 31
0.0
  0
LINE
  5
1A0
330
1F
100
AcDbEntity
  8
0
  6
Continuous
 62
     7
370
    25
100
AcDbLine
 10
3838.6225156724
 20
705.1293978663
 30
0.0
 11
3839.9877005974
 21
705.1293978663
 31
0.0
  0
LINE
  5
1A1
330
1F
100
AcDbEntity
  8
0
  6
Continuous
 62
     7
370
    25
100
AcDbLine
 10
3839.9877005974
 20
688.3793978663
 30
0.0
 11
3838.6225156724
 21
688.3793978663
 31
0.0
  0
LINE
  5
1A2
330
1F
100
AcDbEntity
  8
0
  6
Continuous
 62
     7
370
    25
100
AcDbLine
 10
3839.9877005974
 20
1408.3793978663
 30
0.0
 11
3839.9877005974
 21
1409.3043978663
 31
0.0
  0
LINE
  5
1A3
330
1F
100
AcDbEntity
  8
0
  6
Continuous
 62
     7
370
    25
100
AcDbLine
 10
3839.9877005974
 20
1424.2043978663
 30
0.0
 11
3839.9877005974
 21
1425.1293978663
 31
0.0
  0
LINE
  5
1A4
330
1F
100
AcDbEntity
  8
0
  6
Continuous
 62
     7
370
    25
100
AcDbLine
 10
3839.9877005974
 20
1425.1293978663
 30
0.0
 11
3840.1225156724
 21
1425.1293978663
 31
0.0
  0
LINE
  5
1A5
330
1F
100
AcDbEntity
  8
0
  6
Continuous
 62
     7
370
    25
100
AcDbLine
 10
3840.1225156724
 20
1408.3793978663
 30
0.0
 11
3839.9877005974
 21
1408.3793978663
 31
0.0
  0
LINE
  5
1A6
330
1F
100
AcDbEntity
  8
0
  6
Continuous
 62
     7
370
    25
100
AcDbLine
 10
3838.6225156724
 20
1425.1293978663
 30
0.0
 11
3839.9877005974
 21
1425.1293978663
 31
0.0
  0
LINE
  5
1A7
330
1F
100
AcDbEntity
  8
0
  6
Continuous
 62
     7
370
    25
100
AcDbLine
 10
3839.9877005974
 20
1408.3793978663
 30
0.0
 11
3838.6225156724
 21
1408.3793978663
 31
0.0
  0
LINE
  5
1A8
330
1F
100
AcDbEntity
  8
0
  6
Continuous
 62
     7
370
    25
100
AcDbLine
 10
3839.9877005974
 20
1938.3793978663
 30
0.0
 11
3839.9877005974
 21
1939.3043978663
 31
0.0
  0
LINE
  5
1A9
330
1F
100
AcDbEntity
  8
0
  6
Continuous
 62
     7
370
    25
100
AcDbLine
 10
3839.9877005974
 20
1954.2043978663
 30
0.0
 11
3839.9877005974
 21
1955.1293978663
 31
0.0
  0
LINE
  5
1AA
330
1F
100
AcDbEntity
  8
0
  6
Continuous
 62
     7
370
    25
100
AcDbLine
 10
3839.9877005974
 20
1955.1293978663
 30
0.0
 11
3840.1225156724
 21
1955.1293978663
 31
0.0
  0
LINE
  5
1AB
330
1F
100
AcDbEntity
  8
0
  6
Continuous
 62
     7
370
    25
100
AcDbLine
 10
3840.1225156724
 20
1938.3793978663
 30
0.0
 11
3839.9877005974
 21
1938.3793978663
 31
0.0
  0
LINE
  5
1AC
330
1F
100
AcDbEntity
  8
0
  6
Continuous
 62
     7
370
    25
100
AcDbLine
 10
3838.6225156724
 20
1955.1293978663
 30
0.0
 11
3839.9877005974
 21
1955.1293978663
 31
0.0
  0
LINE
  5
1AD
330
1F
100
AcDbEntity
  8
0
  6
Continuous
 62
     7
370
    25
100
AcDbLine
 10
3839.9877005974
 20
1938.3793978663
 30
0.0
 11
3838.6225156724
 21
1938.3793978663
 31
0.0
  0
LINE
  5
1AE
330
1F
100
AcDbEntity
  8
0
  6
Continuous
 62
     7
370
    25
100
AcDbLine
 10
3840.1225156724
 20
690.2543978663
 30
0.0
 11
3838.1225156724
 21
690.2543978663
 31
0.0
  0
LINE
  5
1AF
330
1F
100
AcDbEntity
  8
0
  6
Continuous
 62
     7
370
    25
100
AcDbLine
 10
3838.1225156724
 20
703.2543978663
 30
0.0
 11
3840.1225156724
 21
703.2543978663
 31
0.0
  0
LINE
  5
1B0
330
1F
100
AcDbEntity
  8
0
  6
Continuous
 62
     7
370
    25
100
AcDbLine
 10
3839.3937982176
 20
704.2043978663
 30
0.0
 11
3839.3937982176
 21
703.2543978663
 31
0.0
  0
LINE
  5
1B1
330
1F
100
AcDbEntity
  8
0
  6
Continuous
 62
     7
370
    25
100
AcDbLine
 10
3839.3937982176
 20
690.2543978663
 30
0.0
 11
3839.3937982176
 21
689.3043978663
 31
0.0
  0
LINE
  5
1B2
330
1F
100
AcDbEntity
  8
0
  6
Continuous
 62
     7
370
    25
100
AcDbLine
 10
3839.3937982176
 20
704.2043978663
 30
0.0
 11
3840.1225156724
 21
704.2043978663
 31
0.0
  0
LINE
  5
1B3
330
1F
100
AcDbEntity
  8
0
  6
Continuous
 62
     7
370
    25
100
AcDbLine
 10
3839.3937982176
 20
689.3043978663
 30
0.0
 11
3840.1225156724
 21
689.3043978663
 31
0.0
  0
LINE
  5
1B4
330
1F
100
AcDbEntity
  8
0
  6
Continuous
 62
     7
370
    25
100
AcDbLine
 10
3839.332428722
 20
704.2043978663
 30
0.0
 11
3839.332428722
 21
703.2543978663
 31
0.0
  0
LINE
  5
1B5
330
1F
100
AcDbEntity
  8
0
  6
Continuous
 62
     7
370
    25
100
AcDbLine
 10
3839.332428722
 20
690.2543978663
 30
0.0
 11
3839.332428722
 21
689.3043978663
 31
0.0
  0
LINE
  5
1B6
330
1F
100
AcDbEntity
  8
0
  6
Continuous
 62
     7
370
    25
100
AcDbLine
 10
3839.332428722
 20
704.2043978663
 30
0.0
 11
3839.3937982176
 21
704.2043978663
 31
0.0
  0
LINE
  5
1B7
330
1F
100
AcDbEntity
  8
0
  6
Continuous
 62
     7
370
    25
100
AcDbLine
 10
3839.332428722
 20
689.3043978663
 30
0.0
 11
3839.3937982176
 21
689.3043978663
 31
0.0
  0
LINE
  5
1B8
330
1F
100
AcDbEntity
  8
0
  6
Continuous
 62
     7
370
    25
100
AcDbLine
 10
3840.1225156724
 20
2310.2543978663
 30
0.0
 11
3838.1225156724
 21
2310.2543978663
 31
0.0
  0
LINE
  5
1B9
330
1F
100
AcDbEntity
  8
0
  6
Continuous
 62
     7
370
    25
100
AcDbLine
 10
3838.1225156724
 20
2323.2543978663
 30
0.0
 11
3840.1225156724
 21
2323.2543978663
 31
0.0
  0
LINE
  5
1BA
330
1F
100
AcDbEntity
  8
0
  6
Continuous
 62
     7
370
    25
100
AcDbLine
 10
3839.3937982176
 20
2324.2043978663
 30
0.0
 11
3839.3937982176
 21
2323.2543978663
 31
0.0
  0
LINE
  5
1BB
330
1F
100
AcDbEntity
  8
0
  6
Continuous
 62
     7
370
    25
100
AcDbLine
 10
3839.3937982176
 20
2310.2543978663
 30
0.0
 11
3839.3937982176
 21
2309.3043978663
 31
0.0
  0
LINE
  5
1BC
330
1F
100
AcDbEntity
  8
0
  6
Continuous
 62
     7
370
    25
100
AcDbLine
 10
3839.3937982176
 20
2324.2043978663
 30
0.0
 11
3840.1225156724
 21
2324.2043978663
 31
0.0
  0
LINE
  5
1BD
330
1F
100
AcDbEntity
  8
0
  6
Continuous
 62
     7
370
    25
100
AcDbLine
 10
3839.3937982176
 20
2309.3043978663
 30
0.0
 11
3840.1225156724
 21
2309.3043978663
 31
0.0
  0
LINE
  5
1BE
330
1F
100
AcDbEntity
  8
0
  6
Continuous
 62
     7
370
    25
100
AcDbLine
 10
3839.332428722
 20
2324.2043978663
 30
0.0
 11
3839.332428722
 21
2323.2543978663
 31
0.0
  0
LINE
  5
1BF
330
1F
100
AcDbEntity
  8
0
  6
Continuous
 62
     7
370
    25
100
AcDbLine
 10
3839.332428722
 20
2310.2543978663
 30
0.0
 11
3839.332428722
 21
2309.3043978663
 31
0.0
  0
LINE
  5
1C0
330
1F
100
AcDbEntity
  8
0
  6
Continuous
 62
     7
370
    25
100
AcDbLine
 10
3839.332428722
 20
2324.2043978663
 30
0.0
 11
3839.3937982176
 21
2324.2043978663
 31
0.0
  0
LINE
  5
1C1
330
1F
100
AcDbEntity
  8
0
  6
Continuous
 62
     7
370
    25
100
AcDbLine
 10
3839.332428722
 20
2309.3043978663
 30
0.0
 11
3839.3937982176
 21
2309.3043978663
 31
0.0
  0
LINE
  5
1C2
330
1F
100
AcDbEntity
  8
0
  6
Continuous
 62
     7
370
    25
100
AcDbLine
 10
3840.1225156724
 20
1410.2543978663
 30
0.0
 11
3838.1225156724
 21
1410.2543978663
 31
0.0
  0
LINE
  5
1C3
330
1F
100
AcDbEntity
  8
0
  6
Continuous
 62
     7
370
    25
100
AcDbLine
 10
3838.1225156724
 20
1423.2543978663
 30
0.0
 11
3840.1225156724
 21
1423.2543978663
 31
0.0
  0
LINE
  5
1C4
330
1F
100
AcDbEntity
  8
0
  6
Continuous
 62
     7
370
    25
100
AcDbLine
 10
3839.3937982176
 20
1424.2043978663
 30
0.0
 11
3839.3937982176
 21
1423.2543978663
 31
0.0
  0
LINE
  5
1C5
330
1F
100
AcDbEntity
  8
0
  6
Continuous
 62
     7
370
    25
100
AcDbLine
 10
3839.3937982176
 20
1410.2543978663
 30
0.0
 11
3839.3937982176
 21
1409.3043978663
 31
0.0
  0
LINE
  5
1C6
330
1F
100
AcDbEntity
  8
0
  6
Continuous
 62
     7
370
    25
100
AcDbLine
 10
3839.3937982176
 20
1424.2043978663
 30
0.0
 11
3840.1225156724
 21
1424.2043978663
 31
0.0
  0
LINE
  5
1C7
330
1F
100
AcDbEntity
  8
0
  6
Continuous
 62
     7
370
    25
100
AcDbLine
 10
3839.3937982176
 20
1409.3043978663
 30
0.0
 11
3840.1225156724
 21
1409.3043978663
 31
0.0
  0
LINE
  5
1C8
330
1F
100
AcDbEntity
  8
0
  6
Continuous
 62
     7
370
    25
100
AcDbLine
 10
3839.332428722
 20
1424.2043978663
 30
0.0
 11
3839.332428722
 21
1423.2543978663
 31
0.0
  0
LINE
  5
1C9
330
1F
100
AcDbEntity
  8
0
  6
Continuous
 62
     7
370
    25
100
AcDbLine
 10
3839.332428722
 20
1410.2543978663
 30
0.0
 11
3839.332428722
 21
1409.3043978663
 31
0.0
  0
LINE
  5
1CA
330
1F
100
AcDbEntity
  8
0
  6
Continuous
 62
     7
370
    25
100
AcDbLine
 10
3839.332428722
 20
1424.2043978663
 30
0.0
 11
3839.3937982176
 21
1424.2043978663
 31
0.0
  0
LINE
  5
1CB
330
1F
100
AcDbEntity
  8
0
  6
Continuous
 62
     7
370
    25
100
AcDbLine
 10
3839.332428722
 20
1409.3043978663
 30
0.0
 11
3839.3937982176
 21
1409.3043978663
 31
0.0
  0
LINE
  5
1CC
330
1F
100
AcDbEntity
  8
0
  6
Continuous
 62
     7
370
    25
100
AcDbLine
 10
3840.1225156724
 20
1940.2543978663
 30
0.0
 11
3838.1225156724
 21
1940.2543978663
 31
0.0
  0
LINE
  5
1CD
330
1F
100
AcDbEntity
  8
0
  6
Continuous
 62
     7
370
    25
100
AcDbLine
 10
3838.1225156724
 20
1953.2543978663
 30
0.0
 11
3840.1225156724
 21
1953.2543978663
 31
0.0
  0
LINE
  5
1CE
330
1F
100
AcDbEntity
  8
0
  6
Continuous
 62
     7
370
    25
100
AcDbLine
 10
3839.3937982176
 20
1954.2043978663
 30
0.0
 11
3839.3937982176
 21
1953.2543978663
 31
0.0
  0
LINE
  5
1CF
330
1F
100
AcDbEntity
  8
0
  6
Continuous
 62
     7
370
    25
100
AcDbLine
 10
3839.3937982176
 20
1940.2543978663
 30
0.0
 11
3839.3937982176
 21
1939.3043978663
 31
0.0
  0
LINE
  5
1D0
330
1F
100
AcDbEntity
  8
0
  6
Continuous
 62
     7
370
    25
100
AcDbLine
 10
3839.3937982176
 20
1954.2043978663
 30
0.0
 11
3840.1225156724
 21
1954.2043978663
 31
0.0
  0
LINE
  5
1D1
330
1F
100
AcDbEntity
  8
0
  6
Continuous
 62
     7
370
    25
100
AcDbLine
 10
3839.3937982176
 20
1939.3043978663
 30
0.0
 11
3840.1225156724
 21
1939.3043978663
 31
0.0
  0
LINE
  5
1D2
330
1F
100
AcDbEntity
  8
0
  6
Continuous
 62
     7
370
    25
100
AcDbLine
 10
3839.332428722
 20
1954.2043978663
 30
0.0
 11
3839.332428722
 21
1953.2543978663
 31
0.0
  0
LINE
  5
1D3
330
1F
100
AcDbEntity
  8
0
  6
Continuous
 62
     7
370
    25
100
AcDbLine
 10
3839.332428722
 20
1940.2543978663
 30
0.0
 11
3839.332428722
 21
1939.3043978663
 31
0.0
  0
LINE
  5
1D4
330
1F
100
AcDbEntity
  8
0
  6
Continuous
 62
     7
370
    25
100
AcDbLine
 10
3839.332428722
 20
1954.2043978663
 30
0.0
 11
3839.3937982176
 21
1954.2043978663
 31
0.0
  0
LINE
  5
1D5
330
1F
100
AcDbEntity
  8
0
  6
Continuous
 62
     7
370
    25
100
AcDbLine
 10
3839.332428722
 20
1939.3043978663
 30
0.0
 11
3839.3937982176
 21
1939.3043978663
 31
0.0
  0
LINE
  5
1D6
330
1F
100
AcDbEntity
  8
0
  6
Continuous
 62
     7
370
    25
100
AcDbLine
 10
3838.6225156724
 20
2324.2293978663
 30
0.0
 11
3838.9340814752
 21
2324.2293978663
 31
0.0
  0
LINE
  5
1D7
330
1F
100
AcDbEntity
  8
0
  6
Continuous
 62
     7
370
    25
100
AcDbLine
 10
3838.9340814752
 20
2309.2793978663
 30
0.0
 11
3838.9340814752
 21
2310.2543978663
 31
0.0
  0
LINE
  5
1D8
330
1F
100
AcDbEntity
  8
0
  6
Continuous
 62
     7
370
    25
100
AcDbLine
 10
3838.9340814752
 20
2323.2543978663
 30
0.0
 11
3838.9340814752
 21
2324.2293978663
 31
0.0
  0
LINE
  5
1D9
330
1F
100
AcDbEntity
  8
0
  6
Continuous
 62
     7
370
    25
100
AcDbLine
 10
3838.6225156724
 20
2309.2793978663
 30
0.0
 11
3838.9340814752
 21
2309.2793978663
 31
0.0
  0
LINE
  5
1DA
330
1F
100
AcDbEntity
  8
0
  6
Continuous
 62
     7
370
    25
100
AcDbLine
 10
3838.9340814752
 20
2324.2293978663
 30
0.0
 11
3838.9732240696
 21
2324.2293978663
 31
0.0
  0
LINE
  5
1DB
330
1F
100
AcDbEntity
  8
0
  6
Continuous
 62
     7
370
    25
100
AcDbLine
 10
3838.9340814752
 20
2309.2793978663
 30
0.0
 11
3838.9732240696
 21
2309.2793978663
 31
0.0
  0
LINE
  5
1DC
330
1F
100
AcDbEntity
  8
0
  6
Continuous
 62
     7
370
    25
100
AcDbLine
 10
3838.6225156724
 20
1424.2293978663
 30
0.0
 11
3838.9340814752
 21
1424.2293978663
 31
0.0
  0
LINE
  5
1DD
330
1F
100
AcDbEntity
  8
0
  6
Continuous
 62
     7
370
    25
100
AcDbLine
 10
3838.9340814752
 20
1409.2793978663
 30
0.0
 11
3838.9340814752
 21
1410.2543978663
 31
0.0
  0
LINE
  5
1DE
330
1F
100
AcDbEntity
  8
0
  6
Continuous
 62
     7
370
    25
100
AcDbLine
 10
3838.9340814752
 20
1423.2543978663
 30
0.0
 11
3838.9340814752
 21
1424.2293978663
 31
0.0
  0
LINE
  5
1DF
330
1F
100
AcDbEntity
  8
0
  6
Continuous
 62
     7
370
    25
100
AcDbLine
 10
3838.6225156724
 20
1409.2793978663
 30
0.0
 11
3838.9340814752
 21
1409.2793978663
 31
0.0
  0
LINE
  5
1E0
330
1F
100
AcDbEntity
  8
0
  6
Continuous
 62
     7
370
    25
100
AcDbLine
 10
3838.9340814752
 20
1424.2293978663
 30
0.0
 11
3838.9732240696
 21
1424.2293978663
 31
0.0
  0
LINE
  5
1E1
330
1F
100
AcDbEntity
  8
0
  6
Continuous
 62
     7
370
    25
100
AcDbLine
 10
3838.9340814752
 20
1409.2793978663
 30
0.0
 11
3838.9732240696
 21
1409.2793978663
 31
0.0
  0
LINE
  5
1E2
330
1F
100
AcDbEntity
  8
0
  6
Continuous
 62
     7
370
    25
100
AcDbLine
 10
3838.6225156724
 20
704.2293978663
 30
0.0
 11
3838.9340814752
 21
704.2293978663
 31
0.0
  0
LINE
  5
1E3
330
1F
100
AcDbEntity
  8
0
  6
Continuous
 62
     7
370
    25
100
AcDbLine
 10
3838.9340814752
 20
689.2793978663
 30
0.0
 11
3838.9340814752
 21
690.2543978663
 31
0.0
  0
LINE
  5
1E4
330
1F
100
AcDbEntity
  8
0
  6
Continuous
 62
     7
370
    25
100
AcDbLine
 10
3838.9340814752
 20
703.2543978663
 30
0.0
 11
3838.9340814752
 21
704.2293978663
 31
0.0
  0
LINE
  5
1E5
330
1F
100
AcDbEntity
  8
0
  6
Continuous
 62
     7
370
    25
100
AcDbLine
 10
3838.6225156724
 20
689.2793978663
 30
0.0
 11
3838.9340814752
 21
689.2793978663
 31
0.0
  0
LINE
  5
1E6
330
1F
100
AcDbEntity
  8
0
  6
Continuous
 62
     7
370
    25
100
AcDbLine
 10
3838.9340814752
 20
704.2293978663
 30
0.0
 11
3838.9732240696
 21
704.2293978663
 31
0.0
  0
LINE
  5
1E7
330
1F
100
AcDbEntity
  8
0
  6
Continuous
 62
     7
370
    25
100
AcDbLine
 10
3838.9340814752
 20
689.2793978663
 30
0.0
 11
3838.9732240696
 21
689.2793978663
 31
0.0
  0
LINE
  5
1E8
330
1F
100
AcDbEntity
  8
0
  6
Continuous
 62
     7
370
    25
100
AcDbLine
 10
3838.6225156724
 20
1954.2293978663
 30
0.0
 11
3838.9340814752
 21
1954.2293978663
 31
0.0
  0
LINE
  5
1E9
330
1F
100
AcDbEntity
  8
0
  6
Continuous
 62
     7
370
    25
100
AcDbLine
 10
3838.9340814752
 20
1939.2793978663
 30
0.0
 11
3838.9340814752
 21
1940.2543978663
 31
0.0
  0
LINE
  5
1EA
330
1F
100
AcDbEntity
  8
0
  6
Continuous
 62
     7
370
    25
100
AcDbLine
 10
3838.9340814752
 20
1953.2543978663
 30
0.0
 11
3838.9340814752
 21
1954.2293978663
 31
0.0
  0
LINE
  5
1EB
330
1F
100
AcDbEntity
  8
0
  6
Continuous
 62
     7
370
    25
100
AcDbLine
 10
3838.6225156724
 20
1939.2793978663
 30
0.0
 11
3838.9340814752
 21
1939.2793978663
 31
0.0
  0
LINE
  5
1EC
330
1F
100
AcDbEntity
  8
0
  6
Continuous
 62
     7
370
    25
100
AcDbLine
 10
3838.9340814752
 20
1954.2293978663
 30
0.0
 11
3838.9732240696
 21
1954.2293978663
 31
0.0
  0
LINE
  5
1ED
330
1F
100
AcDbEntity
  8
0
  6
Continuous
 62
     7
370
    25
100
AcDbLine
 10
3838.9340814752
 20
1939.2793978663
 30
0.0
 11
3838.9732240696
 21
1939.2793978663
 31
0.0
  0
LINE
  5
1EE
330
1F
100
AcDbEntity
  8
0
  6
Continuous
 62
     7
370
    25
100
AcDbLine
 10
4220.6002358345
 20
2309.2767567878
 30
0.0
 11
4220.4562626188
 21
2314.7748720752
 31
0.0
  0
LINE
  5
1EF
330
1F
100
AcDbEntity
  8
0
  6
Continuous
 62
     7
370
    25
100
AcDbLine
 10
4221.5905605531
 20
2328.7601066029
 30
0.0
 11
4221.8444965759
 21
2319.0626811288
 31
0.0
  0
LINE
  5
1F0
330
1F
100
AcDbEntity
  8
0
  6
Continuous
 62
     7
370
    25
100
AcDbLine
 10
4222.5946873533
 20
2319.0823255657
 30
0.0
 11
4222.0711483871
 21
2339.0754720652
 31
0.0
  0
LINE
  5
1F1
330
1F
100
AcDbEntity
  8
0
  6
Continuous
 62
     7
370
    25
100
AcDbLine
 10
4223.2948469519
 20
2338.0117271317
 30
0.0
 11
4223.7610367734
 21
2320.2086561083
 31
0.0
  0
LINE
  5
1F2
330
1F
100
AcDbEntity
  8
0
  6
Continuous
 62
     7
370
    25
100
AcDbLine
 10
4223.8590717937
 20
2321.8115145215
 30
0.0
 11
4223.4766347464
 21
2336.4161961367
 31
0.0
  0
LINE
  5
1F3
330
1F
100
AcDbEntity
  8
0
  6
Continuous
 62
     7
370
    25
100
AcDbLine
 10
4221.0007621351
 20
2324.5425144716
 30
0.0
 11
4220.8790973475
 21
2329.1887052587
 31
0.0
  0
LINE
  5
1F4
330
1F
100
AcDbEntity
  8
0
  6
Continuous
 62
     7
370
    25
100
AcDbLine
 10
4220.8790973475
 20
2329.1887052587
 30
0.0
 11
4220.7651717957
 21
2333.5393465579
 31
0.0
  0
LINE
  5
1F5
330
1F
100
AcDbEntity
  8
0
  6
Continuous
 62
     7
370
    25
100
AcDbLine
 10
3838.3225156724
 20
669.2543978663
 30
0.0
 11
3840.1225156724
 21
669.2543978663
 31
0.0
  0
LINE
  5
1F6
330
1F
100
AcDbEntity
  8
0
  6
Continuous
 62
     7
370
    25
100
AcDbLine
 10
3838.3225156724
 20
724.2543978663
 30
0.0
 11
3840.1225156724
 21
724.2543978663
 31
0.0
  0
LINE
  5
1F7
330
1F
100
AcDbEntity
  8
0
  6
Continuous
 62
     7
370
    25
100
AcDbLine
 10
3839.4725156724
 20
688.3793978663
 30
0.0
 11
3839.4725156724
 21
686.7543978663
 31
0.0
  0
LINE
  5
1F8
330
1F
100
AcDbEntity
  8
0
  6
Continuous
 62
     7
370
    25
100
AcDbLine
 10
3839.4725156724
 20
706.7543978663
 30
0.0
 11
3839.4725156724
 21
705.1293978663
 31
0.0
  0
LINE
  5
1F9
330
1F
100
AcDbEntity
  8
0
  6
Continuous
 62
     7
370
    25
100
AcDbLine
 10
3838.3225156724
 20
1389.2543978663
 30
0.0
 11
3840.1225156724
 21
1389.2543978663
 31
0.0
  0
LINE
  5
1FA
330
1F
100
AcDbEntity
  8
0
  6
Continuous
 62
     7
370
    25
100
AcDbLine
 10
3838.3225156724
 20
1444.2543978663
 30
0.0
 11
3840.1225156724
 21
1444.2543978663
 31
0.0
  0
LINE
  5
1FB
330
1F
100
AcDbEntity
  8
0
  6
Continuous
 62
     7
370
    25
100
AcDbLine
 10
3839.4725156724
 20
1408.3793978663
 30
0.0
 11
3839.4725156724
 21
1406.7543978663
 31
0.0
  0
LINE
  5
1FC
330
1F
100
AcDbEntity
  8
0
  6
Continuous
 62
     7
370
    25
100
AcDbLine
 10
3839.4725156724
 20
1426.7543978663
 30
0.0
 11
3839.4725156724
 21
1425.1293978663
 31
0.0
  0
LINE
  5
1FD
330
1F
100
AcDbEntity
  8
0
  6
Continuous
 62
     7
370
    25
100
AcDbLine
 10
3838.3225156724
 20
2289.2543978663
 30
0.0
 11
3840.1225156724
 21
2289.2543978663
 31
0.0
  0
LINE
  5
1FE
330
1F
100
AcDbEntity
  8
0
  6
Continuous
 62
     7
370
    25
100
AcDbLine
 10
3838.3225156724
 20
2344.2543978663
 30
0.0
 11
3840.1225156724
 21
2344.2543978663
 31
0.0
  0
LINE
  5
1FF
330
1F
100
AcDbEntity
  8
0
  6
Continuous
 62
     7
370
    25
100
AcDbLine
 10
3839.4725156724
 20
2308.3793978663
 30
0.0
 11
3839.4725156724
 21
2306.7543978663
 31
0.0
  0
LINE
  5
200
330
1F
100
AcDbEntity
  8
0
  6
Continuous
 62
     7
370
    25
100
AcDbLine
 10
3839.4725156724
 20
2326.7543978663
 30
0.0
 11
3839.4725156724
 21
2325.1293978663
 31
0.0
  0
LINE
  5
201
330
1F
100
AcDbEntity
  8
0
  6
Continuous
 62
     7
370
    25
100
AcDbLine
 10
3838.3225156724
 20
1919.2543978663
 30
0.0
 11
3840.1225156724
 21
1919.2543978663
 31
0.0
  0
LINE
  5
202
330
1F
100
AcDbEntity
  8
0
  6
Continuous
 62
     7
370
    25
100
AcDbLine
 10
3838.3225156724
 20
1974.2543978663
 30
0.0
 11
3840.1225156724
 21
1974.2543978663
 31
0.0
  0
LINE
  5
203
330
1F
100
AcDbEntity
  8
0
  6
Continuous
 62
     7
370
    25
100
AcDbLine
 10
3839.4725156724
 20
1938.3793978663
 30
0.0
 11
3839.4725156724
 21
1936.7543978663
 31
0.0
  0
LINE
  5
204
330
1F
100
AcDbEntity
  8
0
  6
Continuous
 62
     7
370
    25
100
AcDbLine
 10
3839.4725156724
 20
1956.7543978663
 30
0.0
 11
3839.4725156724
 21
1955.1293978663
 31
0.0
  0
SPLINE
  5
205
330
1F
100
AcDbEntity
  8
0
  6
Continuous
 62
     7
370
    25
100
AcDbSpline
210
0.0
220
0.0
230
1.0
 70
     8
 71
     3
 72
    16
 73
    12
 74
     0
 42
0.00000001
 43
0.00000001
 40
0.0
 40
0.0
 40
0.0
 40
0.0
 40
0.0490847390192332
 40
0.1518473045648532
 40
0.2358684990991647
 40
0.3090519161652135
 40
0.3734786142106274
 40
0.4370328180322685
 40
0.5258016248246323
 40
0.7068629655464458
 40
1.0
 40
1.0
 40
1.0
 40
1.0
 10
2637.925074168689
 20
3107.982522916333
 30
0.0
 10
2637.929765765423
 20
3108.048713308555
 30
0.0
 10
2637.944279570171
 20
3108.253478228319
 30
0.0
 10
2637.817101818801
 20
3108.557694887966
 30
0.0
 10
2637.612885409274
 20
3108.833758526987
 30
0.0
 10
2637.391873803409
 20
3109.007097001626
 30
0.0
 10
2637.200107235666
 20
3109.104101014128
 30
0.0
 10
2637.042893347483
 20
3109.158174379485
 30
0.0
 10
2636.877542172429
 20
3109.196807200857
 30
0.0
 10
2636.681828237503
 20
3109.226544086376
 30
0.0
 10
2636.454213845395
 20
3109.243759755648
 30
0.0
 10
2636.313508580691
 20
3109.254402032174
 30
0.0
  0
SPLINE
  5
206
330
1F
100
AcDbEntity
  8
0
  6
Continuous
 62
     7
370
    25
100
AcDbSpline
210
0.0
220
0.0
230
1.0
 70
     8
 71
     3
 72
    14
 73
    10
 74
     0
 42
0.00000001
 43
0.00000001
 40
0.0
 40
0.0
 40
0.0
 40
0.0
 40
0.4380448777708278
 40
0.588907202115686
 40
0.6648524542795337
 40
0.7505291071918375
 40
0.8517030556682128
 40
0.9620267314757353
 40
1.0
 40
1.0
 40
1.0
 40
1.0
 10
2619.5296910391
 20
3109.253278350246
 30
0.0
 10
2619.35758741922
 20
3109.238587326928
 30
0.0
 10
2619.126211442922
 20
3109.218836726298
 30
0.0
 10
2618.826901395468
 20
3109.158689060108
 30
0.0
 10
2618.553382146925
 20
3109.042171355417
 30
0.0
 10
2618.28918031714
 20
3108.85224502724
 30
0.0
 10
2618.060956382547
 20
3108.539748892962
 30
0.0
 10
2617.936910392517
 20
3108.217783907783
 30
0.0
 10
2617.958389890556
 20
3108.022470086411
 30
0.0
 10
2617.963889981946
 20
3107.972457564447
 30
0.0
  0
LINE
  5
207
330
1F
100
AcDbEntity
  8
0
  6
Continuous
 62
     7
370
    25
100
AcDbLine
 10
2637.9454585654
 20
3107.2318663251
 30
0.0
 11
2637.9454585654
 21
3107.9820571024
 31
0.0
  0
LINE
  5
208
330
1F
100
AcDbEntity
  8
0
  6
Continuous
 62
     7
370
    25
100
AcDbLine
 10
2617.9454585654
 20
3107.9820571024
 30
0.0
 11
2617.9454585654
 21
3107.2318663251
 31
0.0
  0
LINE
  5
209
330
1F
100
AcDbEntity
  8
0
  6
Continuous
 62
     7
370
    25
100
AcDbLine
 10
2636.44183279
 20
3109.2468479058
 30
0.0
 11
2634.9154268517
 21
3109.3742254403
 31
0.0
  0
LINE
  5
20A
330
1F
100
AcDbEntity
  8
0
  6
Continuous
 62
     7
370
    25
100
AcDbLine
 10
2620.975490279
 20
3109.3742254403
 30
0.0
 11
2619.4490843408
 21
3109.2468479058
 31
0.0
  0
SPLINE
  5
20B
330
1F
100
AcDbEntity
  8
0
  6
Continuous
 62
     7
370
    25
100
AcDbSpline
210
0.0
220
0.0
230
1.0
 70
     8
 71
     3
 72
    14
 73
    10
 74
     0
 42
0.00000001
 43
0.00000001
 40
0.0
 40
0.0
 40
0.0
 40
0.0
 40
0.0907475556428483
 40
0.2288563839002952
 40
0.4128530542466998
 40
0.6071420004333908
 40
0.7878282318393952
 40
0.9626611221744533
 40
1.0
 40
1.0
 40
1.0
 40
1.0
 10
2634.825460923744
 20
3109.379327213122
 30
0.0
 10
2634.613909756896
 20
3109.396159746671
 30
0.0
 10
2634.080398581727
 20
3109.438609735901
 30
0.0
 10
2633.219912941177
 20
3109.480570026113
 30
0.0
 10
2632.170112580995
 20
3109.517502171331
 30
0.0
 10
2630.935496063472
 20
3109.543227737953
 30
0.0
 10
2629.598989846269
 20
3109.559073656587
 30
0.0
 10
2628.588959722682
 20
3109.563885326825
 30
0.0
 10
2628.041757506847
 20
3109.564124910322
 30
0.0
 10
2627.94545856538
 20
3109.564167073231
 30
0.0
  0
SPLINE
  5
20C
330
1F
100
AcDbEntity
  8
0
  6
Continuous
 62
     7
370
    25
100
AcDbSpline
210
0.0
220
0.0
230
1.0
 70
     8
 71
     3
 72
    13
 73
     9
 74
     0
 42
0.00000001
 43
0.00000001
 40
0.0
 40
0.0
 40
0.0
 40
0.0
 40
0.0971790056424306
 40
0.284571033703078
 40
0.4775192778489946
 40
0.6890792027699846
 40
0.8771625243242046
 40
1.0
 40
1.0
 40
1.0
 40
1.0
 10
2627.94545856538
 20
3109.564167073231
 30
0.0
 10
2627.698437493671
 20
3109.563905304354
 30
0.0
 10
2626.975081237265
 20
3109.563138761836
 30
0.0
 10
2625.782482825138
 20
3109.554264289772
 30
0.0
 10
2624.412409207483
 20
3109.534024945502
 30
0.0
 10
2623.178104082223
 20
3109.500007999579
 30
0.0
 10
2622.148335398531
 20
3109.460504786334
 30
0.0
 10
2621.441932094437
 20
3109.406884625929
 30
0.0
 10
2621.162848805519
 20
3109.385700564881
 30
0.0
  0
LINE
  5
20D
330
1F
100
AcDbEntity
  8
0
  6
Continuous
 62
     7
370
    25
100
AcDbLine
 10
2632.4454585654
 20
3104.2716549046
 30
0.0
 11
2632.4454585654
 21
3106.5321061976
 31
0.0
  0
LINE
  5
20E
330
1F
100
AcDbEntity
  8
0
  6
Continuous
 62
     7
370
    25
100
AcDbLine
 10
2623.4454585654
 20
3106.5321061976
 30
0.0
 11
2623.4454585654
 21
3104.2716549046
 31
0.0
  0
SPLINE
  5
20F
330
1F
100
AcDbEntity
  8
0
  6
Continuous
 62
     7
370
    25
100
AcDbSpline
210
0.0
220
0.0
230
1.0
 70
     8
 71
     3
 72
    16
 73
    12
 74
     0
 42
0.00000001
 43
0.00000001
 40
0.0
 40
0.0
 40
0.0
 40
0.0
 40
0.049084739019293
 40
0.1518473045648689
 40
0.2358684990991587
 40
0.3090519161652059
 40
0.3734786142105698
 40
0.4370328180322403
 40
0.5258016248245931
 40
0.7068629655464287
 40
1.0
 40
1.0
 40
1.0
 40
1.0
 10
2261.425074168692
 20
3107.982522916339
 30
0.0
 10
2261.429765765427
 20
3108.04871330856
 30
0.0
 10
2261.444279570175
 20
3108.253478228325
 30
0.0
 10
2261.317101818804
 20
3108.557694887972
 30
0.0
 10
2261.112885409277
 20
3108.833758526992
 30
0.0
 10
2260.891873803412
 20
3109.007097001631
 30
0.0
 10
2260.700107235669
 20
3109.104101014134
 30
0.0
 10
2260.542893347486
 20
3109.15817437949
 30
0.0
 10
2260.377542172432
 20
3109.196807200862
 30
0.0
 10
2260.181828237506
 20
3109.226544086381
 30
0.0
 10
2259.954213845398
 20
3109.243759755653
 30
0.0
 10
2259.813508580694
 20
3109.254402032179
 30
0.0
  0
SPLINE
  5
210
330
1F
100
AcDbEntity
  8
0
  6
Continuous
 62
     7
370
    25
100
AcDbSpline
210
0.0
220
0.0
230
1.0
 70
     8
 71
     3
 72
    15
 73
    11
 74
     0
 42
0.00000001
 43
0.00000001
 40
0.0
 40
0.0
 40
0.0
 40
0.0
 40
0.0366146332908943
 40
0.4586206584971904
 40
0.6039592141587511
 40
0.6771237587644336
 40
0.7596633924487632
 40
0.8571328939030818
 40
0.9634171087776173
 40
1.0
 40
1.0
 40
1.0
 40
1.0
 10
2243.095706343198
 20
3109.257096001326
 30
0.0
 10
2243.07335731982
 20
3109.255823552656
 30
0.0
 10
2242.793422143709
 20
3109.239885355422
 30
0.0
 10
2242.637947923149
 20
3109.21883325616
 30
0.0
 10
2242.326115586845
 20
3109.158689292455
 30
0.0
 10
2242.053551867007
 20
3109.042171305241
 30
0.0
 10
2241.789122930569
 20
3108.852245044214
 30
0.0
 10
2241.560974971942
 20
3108.539748887471
 30
0.0
 10
2241.436909000238
 20
3108.2177839082
 30
0.0
 10
2241.458389606726
 20
3108.0224700865
 30
0.0
 10
2241.463889981949
 20
3107.972457564453
 30
0.0
  0
LINE
  5
211
330
1F
100
AcDbEntity
  8
0
  6
Continuous
 62
     7
370
    25
100
AcDbLine
 10
2261.4454585654
 20
3107.2318663251
 30
0.0
 11
2261.4454585654
 21
3107.9820571024
 31
0.0
  0
LINE
  5
212
330
1F
100
AcDbEntity
  8
0
  6
Continuous
 62
     7
370
    25
100
AcDbLine
 10
2241.4454585654
 20
3107.9820571024
 30
0.0
 11
2241.4454585654
 21
3107.2318663251
 31
0.0
  0
LINE
  5
213
330
1F
100
AcDbEntity
  8
0
  6
Continuous
 62
     7
370
    25
100
AcDbLine
 10
2259.94183279
 20
3109.2468479058
 30
0.0
 11
2258.4154268518
 21
3109.3742254403
 31
0.0
  0
LINE
  5
214
330
1F
100
AcDbEntity
  8
0
  6
Continuous
 62
     7
370
    25
100
AcDbLine
 10
2244.475490279
 20
3109.3742254403
 30
0.0
 11
2242.9490843408
 21
3109.2468479058
 31
0.0
  0
SPLINE
  5
215
330
1F
100
AcDbEntity
  8
0
  6
Continuous
 62
     7
370
    25
100
AcDbSpline
210
0.0
220
0.0
230
1.0
 70
     8
 71
     3
 72
    14
 73
    10
 74
     0
 42
0.00000001
 43
0.00000001
 40
0.0
 40
0.0
 40
0.0
 40
0.0
 40
0.0907475556427131
 40
0.2288563839001559
 40
0.412853054246469
 40
0.607142000433181
 40
0.7878282318391898
 40
0.9626611221742524
 40
0.9999999999999999
 40
0.9999999999999999
 40
0.9999999999999999
 40
0.9999999999999999
 10
2258.325460923748
 20
3109.379327213128
 30
0.0
 10
2258.1139097569
 20
3109.396159746676
 30
0.0
 10
2257.58039858173
 20
3109.438609735907
 30
0.0
 10
2256.719912941181
 20
3109.480570026118
 30
0.0
 10
2255.670112580999
 20
3109.517502171336
 30
0.0
 10
2254.435496063477
 20
3109.543227737958
 30
0.0
 10
2253.098989846274
 20
3109.559073656593
 30
0.0
 10
2252.088959722687
 20
3109.563885326831
 30
0.0
 10
2251.541757506851
 20
3109.564124910328
 30
0.0
 10
2251.445458565384
 20
3109.564167073236
 30
0.0
  0
SPLINE
  5
216
330
1F
100
AcDbEntity
  8
0
  6
Continuous
 62
     7
370
    25
100
AcDbSpline
210
0.0
220
0.0
230
1.0
 70
     8
 71
     3
 72
    13
 73
     9
 74
     0
 42
0.00000001
 43
0.00000001
 40
0.0
 40
0.0
 40
0.0
 40
0.0
 40
0.0971790056424311
 40
0.2845710337030761
 40
0.4775192778489954
 40
0.6890792027699887
 40
0.877162524324209
 40
1.0
 40
1.0
 40
1.0
 40
1.0
 10
2251.445458565384
 20
3109.564167073236
 30
0.0
 10
2251.198437493674
 20
3109.56390530436
 30
0.0
 10
2250.475081237268
 20
3109.563138761841
 30
0.0
 10
2249.282482825141
 20
3109.554264289777
 30
0.0
 10
2247.912409207486
 20
3109.534024945508
 30
0.0
 10
2246.678104082226
 20
3109.500007999585
 30
0.0
 10
2245.648335398535
 20
3109.460504786339
 30
0.0
 10
2244.94193209444
 20
3109.406884625935
 30
0.0
 10
2244.662848805522
 20
3109.385700564887
 30
0.0
  0
LINE
  5
217
330
1F
100
AcDbEntity
  8
0
  6
Continuous
 62
     7
370
    25
100
AcDbLine
 10
2255.9454585654
 20
3104.2716549046
 30
0.0
 11
2255.9454585654
 21
3106.5321061976
 31
0.0
  0
LINE
  5
218
330
1F
100
AcDbEntity
  8
0
  6
Continuous
 62
     7
370
    25
100
AcDbLine
 10
2246.9454585654
 20
3106.5321061976
 30
0.0
 11
2246.9454585654
 21
3104.2716549046
 31
0.0
  0
LINE
  5
219
330
1F
100
AcDbEntity
  8
0
  6
Continuous
 62
     7
370
    25
100
AcDbLine
 10
2664.9454585654
 20
2725.2716549046
 30
0.0
 11
2214.4454585654
 21
2725.2716549046
 31
0.0
  0
LINE
  5
21A
330
1F
100
AcDbEntity
  8
0
  6
Continuous
 62
     7
370
    25
100
AcDbLine
 10
2664.9454585654
 20
3104.2716549046
 30
0.0
 11
2214.4454585654
 21
3104.2716549046
 31
0.0
  0
LINE
  5
21B
330
1F
100
AcDbEntity
  8
0
  6
Continuous
 62
     7
370
    25
100
AcDbLine
 10
2214.4454585654
 20
3104.2716549046
 30
0.0
 11
2214.4454585654
 21
2725.2716549046
 31
0.0
  0
LINE
  5
21C
330
1F
100
AcDbEntity
  8
0
  6
Continuous
 62
     7
370
    25
100
AcDbLine
 10
2664.9454585654
 20
3104.2716549046
 30
0.0
 11
2664.9454585654
 21
2725.2716549046
 31
0.0
  0
LINE
  5
21D
330
1F
100
AcDbEntity
  8
0
  6
Continuous
 62
     7
370
    25
100
AcDbLine
 10
2662.4454585654
 20
2705.7716549046
 30
0.0
 11
2662.4454585654
 21
2723.7716549046
 31
0.0
  0
LINE
  5
21E
330
1F
100
AcDbEntity
  8
0
  6
Continuous
 62
     7
370
    25
100
AcDbLine
 10
2662.4454585654
 20
2705.7716549046
 30
0.0
 11
2216.4454585654
 21
2705.7716549046
 31
0.0
  0
LINE
  5
21F
330
1F
100
AcDbEntity
  8
0
  6
Continuous
 62
     7
370
    25
100
AcDbLine
 10
2662.4454585654
 20
2723.7716549046
 30
0.0
 11
2216.4454585654
 21
2723.7716549046
 31
0.0
  0
LINE
  5
220
330
1F
100
AcDbEntity
  8
0
  6
Continuous
 62
     7
370
    25
100
AcDbLine
 10
2216.4454585654
 20
2705.7716549046
 30
0.0
 11
2216.4454585654
 21
2723.7716549046
 31
0.0
  0
LINE
  5
221
330
1F
100
AcDbEntity
  8
0
  6
Continuous
 62
     7
370
    25
100
AcDbLine
 10
2240.4454585654
 20
2725.2716549046
 30
0.0
 11
2240.4454585654
 21
2723.7716549046
 31
0.0
  0
LINE
  5
222
330
1F
100
AcDbEntity
  8
0
  6
Continuous
 62
     7
370
    25
100
AcDbLine
 10
2280.4454585654
 20
2725.2716549046
 30
0.0
 11
2280.4454585654
 21
2723.7716549046
 31
0.0
  0
ARC
  5
223
330
1F
100
AcDbEntity
  8
0
  6
Continuous
 62
     7
370
    25
100
AcDbCircle
 10
2628.9487994323
 20
3299.2477776304
 30
0.0
 40
190.3064363907183
100
AcDbArc
 50
269.6979216021
 51
271.9898299979
  0
ARC
  5
224
330
1F
100
AcDbEntity
  8
0
  6
Continuous
 62
     7
370
    25
100
AcDbCircle
 10
2627.3807674914
 20
3343.5241370789
 30
0.0
 40
234.5808305676487
100
AcDbArc
 50
268.5008299501
 51
270.1379245117
  0
ARC
  5
225
330
1F
100
AcDbEntity
  8
0
  6
Continuous
 62
     7
370
    25
100
AcDbCircle
 10
2630.7883976533
 20
3189.5040519047
 30
0.0
 40
82.58290404770901
100
AcDbArc
 50
268.0271873052
 51
274.9717851391
  0
ARC
  5
226
330
1F
100
AcDbEntity
  8
0
  6
Continuous
 62
     7
370
    25
100
AcDbCircle
 10
2625.3258447337
 20
3198.0354228505
 30
0.0
 40
91.10299653501158
100
AcDbArc
 50
265.3532935281
 51
271.6477340277
  0
SPLINE
  5
227
330
1F
100
AcDbEntity
  8
0
  6
Continuous
 62
     7
370
    25
100
AcDbSpline
210
0.0
220
0.0
230
1.0
 70
     8
 71
     3
 72
    19
 73
    15
 74
     0
 42
0.00000001
 43
0.00000001
 40
0.0
 40
0.0
 40
0.0
 40
0.0
 40
0.0906600731282847
 40
0.2050734138974939
 40
0.2719074979494455
 40
0.3443210476358499
 40
0.4209983262120986
 40
0.4999999792228537
 40
0.5790016347260415
 40
0.6556789199259964
 40
0.7280924783130565
 40
0.794926570954179
 40
0.9093399235673084
 40
1.0
 40
1.0
 40
1.0
 40
1.0
 10
2637.745458565381
 20
3107.031934860083
 30
0.0
 10
2637.668604520714
 20
3107.007709314847
 30
0.0
 10
2637.494760393219
 20
3106.952911043748
 30
0.0
 10
2636.174903170743
 20
3106.886527760367
 30
0.0
 10
2634.418984010546
 20
3106.83661514972
 30
0.0
 10
2632.595890405664
 20
3106.803484284442
 30
0.0
 10
2630.414524317441
 20
3106.781051426678
 30
0.0
 10
2628.021572113854
 20
3106.772789316645
 30
0.0
 10
2625.624049624971
 20
3106.780087282529
 30
0.0
 10
2623.429764294556
 20
3106.801639484271
 30
0.0
 10
2621.587425031533
 20
3106.834032633703
 30
0.0
 10
2619.802394606057
 20
3106.883232581903
 30
0.0
 10
2618.443699588456
 20
3106.949076769696
 30
0.0
 10
2618.237687244364
 20
3107.003798592482
 30
0.0
 10
2618.146612086806
 20
3107.027990340089
 30
0.0
  0
LINE
  5
228
330
1F
100
AcDbEntity
  8
0
  6
Continuous
 62
     7
370
    25
100
AcDbLine
 10
2620.975490279
 20
3109.3742254403
 30
0.0
 11
2621.0274519144
 21
3109.3783936567
 31
0.0
  0
LINE
  5
229
330
1F
100
AcDbEntity
  8
0
  6
Continuous
 62
     7
370
    25
100
AcDbLine
 10
2632.6356302781
 20
3109.43111244
 30
0.0
 11
2632.6346783417
 21
3109.4335859309
 31
0.0
  0
LWPOLYLINE
  5
22A
330
1F
100
AcDbEntity
  8
0
  6
Continuous
 62
     7
370
    25
100
AcDbPolyline
 90
       23
 70
   128
 43
0.0
 10
2632.6346783417
 20
3109.4335859309
 10
2632.4194017973
 20
3109.4679610176
 10
2631.8439780752
 20
3109.499369837
 10
2630.9547281094
 20
3109.5252840161
 10
2629.8232354782
 20
3109.5436174939
 10
2628.54058401
 20
3109.552894447
 10
2627.2100256422
 20
3109.5523680914
 10
2625.9386687614
 20
3109.5420807983
 10
2624.8288561037
 20
3109.5228606826
 10
2623.9699262854
 20
3109.4962549411
 10
2623.4310221483
 20
3109.4644053047
 10
2623.2555248428
 20
3109.4298756318
 10
2623.457561696
 20
3109.3954455205
 10
2624.0208689783
 20
3109.3638865544
 10
2624.9001011149
 20
3109.3377391931
 10
2626.0244809511
 20
3109.3191082686
 10
2627.3034972299
 20
3109.3094935484
 10
2628.6341906426
 20
3109.3096690062
 10
2629.9094419317
 20
3109.3196205179
 10
2631.0265948654
 20
3109.3385469983
 10
2631.8957199443
 20
3109.3649248882
 10
2632.4468536198
 20
3109.3966307983
 10
2632.6356302781
 20
3109.43111244
  0
SPLINE
  5
22B
330
1F
100
AcDbEntity
  8
0
  6
Continuous
 62
     7
370
    25
100
AcDbSpline
210
0.0
220
0.0
230
1.0
 70
     8
 71
     3
 72
     9
 73
     5
 74
     0
 42
0.00000001
 43
0.00000001
 40
0.0
 40
0.0
 40
0.0
 40
0.0
 40
0.7246937986493025
 40
1.0
 40
1.0
 40
1.0
 40
1.0
 10
2623.44788725942
 20
3106.535975815351
 30
0.0
 10
2623.443212180531
 20
3106.60934713648
 30
0.0
 10
2623.436761071251
 20
3106.710591719042
 30
0.0
 10
2623.372422639863
 20
3106.785078969124
 30
0.0
 10
2623.354709870717
 20
3106.805585770993
 30
0.0
  0
LINE
  5
22C
330
1F
100
AcDbEntity
  8
0
  6
Continuous
 62
     7
370
    25
100
AcDbLine
 10
2625.4996091614
 20
3109.4176313116
 30
0.0
 11
2627.4304585654
 21
3109.4176313116
 31
0.0
  0
LINE
  5
22D
330
1F
100
AcDbEntity
  8
0
  6
Continuous
 62
     7
370
    25
100
AcDbLine
 10
2627.4304585654
 20
3109.4176313116
 30
0.0
 11
2627.4304585654
 21
3109.3670875666
 31
0.0
  0
ARC
  5
22E
330
1F
100
AcDbEntity
  8
0
  6
Continuous
 62
     7
370
    25
100
AcDbCircle
 10
2627.9454585654
 20
3203.6549486273
 30
0.0
 40
94.28926751434896
100
AcDbArc
 50
269.6870537449
 51
270.3129462551
  0
LINE
  5
22F
330
1F
100
AcDbEntity
  8
0
  6
Continuous
 62
     7
370
    25
100
AcDbLine
 10
2628.4604585654
 20
3109.3670875666
 30
0.0
 11
2628.4604585654
 21
3109.4176313116
 31
0.0
  0
LINE
  5
230
330
1F
100
AcDbEntity
  8
0
  6
Continuous
 62
     7
370
    25
100
AcDbLine
 10
2628.4604585654
 20
3109.4176313116
 30
0.0
 11
2630.3913079693
 21
3109.4176313116
 31
0.0
  0
LWPOLYLINE
  5
231
330
1F
100
AcDbEntity
  8
0
  6
Continuous
 62
     7
370
    25
100
AcDbPolyline
 90
        9
 70
   128
 43
0.0
 10
2630.3913079693
 20
3109.4445935684
 10
2630.4147242752
 20
3109.44125516
 10
2630.4314953662
 20
3109.4378894559
 10
2630.4415761084
 20
3109.4345055136
 10
2630.4449393728
 20
3109.43111244
 10
2630.4415761084
 20
3109.4277193664
 10
2630.4314953662
 20
3109.4243354242
 10
2630.4147242752
 20
3109.42096972
 10
2630.3913079693
 20
3109.4176313116
  0
LINE
  5
232
330
1F
100
AcDbEntity
  8
0
  6
Continuous
 62
     7
370
    25
100
AcDbLine
 10
2630.3913079693
 20
3109.4445935684
 30
0.0
 11
2628.4604585654
 21
3109.4445935684
 31
0.0
  0
LINE
  5
233
330
1F
100
AcDbEntity
  8
0
  6
Continuous
 62
     7
370
    25
100
AcDbLine
 10
2628.4604585654
 20
3109.4445935684
 30
0.0
 11
2628.4604585654
 21
3109.4951373134
 31
0.0
  0
ARC
  5
234
330
1F
100
AcDbEntity
  8
0
  6
Continuous
 62
     7
370
    25
100
AcDbCircle
 10
2627.9454585654
 20
3015.2072762105
 30
0.0
 40
94.28926755663733
100
AcDbArc
 50
89.687053745
 51
90.312946255
  0
LINE
  5
235
330
1F
100
AcDbEntity
  8
0
  6
Continuous
 62
     7
370
    25
100
AcDbLine
 10
2627.4304585654
 20
3109.4951373134
 30
0.0
 11
2627.4304585654
 21
3109.4445935684
 31
0.0
  0
LINE
  5
236
330
1F
100
AcDbEntity
  8
0
  6
Continuous
 62
     7
370
    25
100
AcDbLine
 10
2627.4304585654
 20
3109.4445935684
 30
0.0
 11
2625.4996091614
 21
3109.4445935684
 31
0.0
  0
LWPOLYLINE
  5
237
330
1F
100
AcDbEntity
  8
0
  6
Continuous
 62
     7
370
    25
100
AcDbPolyline
 90
        9
 70
   128
 43
0.0
 10
2625.4996091614
 20
3109.4176313116
 10
2625.4761928556
 20
3109.42096972
 10
2625.4594217646
 20
3109.4243354242
 10
2625.4493410224
 20
3109.4277193664
 10
2625.445977758
 20
3109.43111244
 10
2625.4493410224
 20
3109.4345055136
 10
2625.4594217646
 20
3109.4378894559
 10
2625.4761928556
 20
3109.44125516
 10
2625.4996091614
 20
3109.4445935684
  0
LINE
  5
238
330
1F
100
AcDbEntity
  8
0
  6
Continuous
 62
     7
370
    25
100
AcDbLine
 10
2625.5133329309
 20
3109.4176313116
 30
0.0
 11
2625.4996091614
 21
3109.4445935684
 31
0.0
  0
LINE
  5
239
330
1F
100
AcDbEntity
  8
0
  6
Continuous
 62
     7
370
    25
100
AcDbLine
 10
2628.4604585654
 20
3109.4445935684
 30
0.0
 11
2628.4604585654
 21
3109.4176313116
 31
0.0
  0
LINE
  5
23A
330
1F
100
AcDbEntity
  8
0
  6
Continuous
 62
     7
370
    25
100
AcDbLine
 10
2627.4304585654
 20
3109.4445935684
 30
0.0
 11
2627.4304585654
 21
3109.4176313116
 31
0.0
  0
ARC
  5
23B
330
1F
100
AcDbEntity
  8
0
  6
Continuous
 62
     7
370
    25
100
AcDbCircle
 10
2252.4487994325
 20
3299.2477776151
 30
0.0
 40
190.3064363753971
100
AcDbArc
 50
269.697921602
 51
271.989829998
  0
ARC
  5
23C
330
1F
100
AcDbEntity
  8
0
  6
Continuous
 62
     7
370
    25
100
AcDbCircle
 10
2250.8807674914
 20
3343.5241370816
 30
0.0
 40
234.5808305703626
100
AcDbArc
 50
268.5008299502
 51
270.1379245117
  0
ARC
  5
23D
330
1F
100
AcDbEntity
  8
0
  6
Continuous
 62
     7
370
    25
100
AcDbCircle
 10
2254.2883976533
 20
3189.5040519046
 30
0.0
 40
82.58290404754958
100
AcDbArc
 50
268.0271873052
 51
274.9717851391
  0
ARC
  5
23E
330
1F
100
AcDbEntity
  8
0
  6
Continuous
 62
     7
370
    25
100
AcDbCircle
 10
2248.8258447337
 20
3198.0354228505
 30
0.0
 40
91.10299653505113
100
AcDbArc
 50
265.3532935281
 51
271.6477340277
  0
SPLINE
  5
23F
330
1F
100
AcDbEntity
  8
0
  6
Continuous
 62
     7
370
    25
100
AcDbSpline
210
0.0
220
0.0
230
1.0
 70
     8
 71
     3
 72
    19
 73
    15
 74
     0
 42
0.00000001
 43
0.00000001
 40
0.0
 40
0.0
 40
0.0
 40
0.0
 40
0.0906600731282847
 40
0.2050734138974942
 40
0.2719074979494455
 40
0.3443210476358494
 40
0.4209983262120985
 40
0.4999999792228535
 40
0.5790016347260414
 40
0.6556789199259961
 40
0.7280924783130558
 40
0.7949265709541784
 40
0.9093399235673084
 40
1.0
 40
1.0
 40
1.0
 40
1.0
 10
2261.245458565384
 20
3107.031934860089
 30
0.0
 10
2261.168604520717
 20
3107.007709314852
 30
0.0
 10
2260.994760393222
 20
3106.952911043753
 30
0.0
 10
2259.674903170747
 20
3106.886527760373
 30
0.0
 10
2257.91898401055
 20
3106.836615149726
 30
0.0
 10
2256.095890405667
 20
3106.803484284447
 30
0.0
 10
2253.914524317444
 20
3106.781051426683
 30
0.0
 10
2251.521572113857
 20
3106.772789316651
 30
0.0
 10
2249.124049624974
 20
3106.780087282535
 30
0.0
 10
2246.92976429456
 20
3106.801639484276
 30
0.0
 10
2245.087425031536
 20
3106.834032633708
 30
0.0
 10
2243.30239460606
 20
3106.883232581908
 30
0.0
 10
2241.943699588459
 20
3106.949076769701
 30
0.0
 10
2241.737687244368
 20
3107.003798592487
 30
0.0
 10
2241.64661208681
 20
3107.027990340094
 30
0.0
  0
LINE
  5
240
330
1F
100
AcDbEntity
  8
0
  6
Continuous
 62
     7
370
    25
100
AcDbLine
 10
2244.475490279
 20
3109.3742254403
 30
0.0
 11
2244.5274519144
 21
3109.3783936567
 31
0.0
  0
LINE
  5
241
330
1F
100
AcDbEntity
  8
0
  6
Continuous
 62
     7
370
    25
100
AcDbLine
 10
2256.1356302781
 20
3109.43111244
 30
0.0
 11
2256.1346783417
 21
3109.4335859309
 31
0.0
  0
LWPOLYLINE
  5
242
330
1F
100
AcDbEntity
  8
0
  6
Continuous
 62
     7
370
    25
100
AcDbPolyline
 90
       23
 70
   128
 43
0.0
 10
2256.1346783417
 20
3109.4335859309
 10
2255.9194017973
 20
3109.4679610176
 10
2255.3439780752
 20
3109.499369837
 10
2254.4547281094
 20
3109.5252840161
 10
2253.3232354782
 20
3109.5436174939
 10
2252.04058401
 20
3109.552894447
 10
2250.7100256422
 20
3109.5523680914
 10
2249.4386687614
 20
3109.5420807983
 10
2248.3288561037
 20
3109.5228606826
 10
2247.4699262854
 20
3109.4962549411
 10
2246.9310221483
 20
3109.4644053047
 10
2246.7555248428
 20
3109.4298756318
 10
2246.957561696
 20
3109.3954455205
 10
2247.5208689783
 20
3109.3638865544
 10
2248.4001011149
 20
3109.3377391932
 10
2249.5244809511
 20
3109.3191082686
 10
2250.8034972299
 20
3109.3094935484
 10
2252.1341906426
 20
3109.3096690062
 10
2253.4094419317
 20
3109.3196205179
 10
2254.5265948654
 20
3109.3385469983
 10
2255.3957199443
 20
3109.3649248882
 10
2255.9468536198
 20
3109.3966307983
 10
2256.1356302781
 20
3109.43111244
  0
SPLINE
  5
243
330
1F
100
AcDbEntity
  8
0
  6
Continuous
 62
     7
370
    25
100
AcDbSpline
210
0.0
220
0.0
230
1.0
 70
     8
 71
     3
 72
     9
 73
     5
 74
     0
 42
0.00000001
 43
0.00000001
 40
0.0
 40
0.0
 40
0.0
 40
0.0
 40
0.7246937986493067
 40
1.0
 40
1.0
 40
1.0
 40
1.0
 10
2246.947887259423
 20
3106.535975815356
 30
0.0
 10
2246.943212180534
 20
3106.609347136486
 30
0.0
 10
2246.936761071255
 20
3106.710591719048
 30
0.0
 10
2246.872422639866
 20
3106.785078969129
 30
0.0
 10
2246.85470987072
 20
3106.805585770998
 30
0.0
  0
LINE
  5
244
330
1F
100
AcDbEntity
  8
0
  6
Continuous
 62
     7
370
    25
100
AcDbLine
 10
2248.9996091615
 20
3109.4176313116
 30
0.0
 11
2250.9304585654
 21
3109.4176313117
 31
0.0
  0
LINE
  5
245
330
1F
100
AcDbEntity
  8
0
  6
Continuous
 62
     7
370
    25
100
AcDbLine
 10
2250.9304585654
 20
3109.4176313117
 30
0.0
 11
2250.9304585654
 21
3109.3670875666
 31
0.0
  0
ARC
  5
246
330
1F
100
AcDbEntity
  8
0
  6
Continuous
 62
     7
370
    25
100
AcDbCircle
 10
2251.4454585654
 20
3203.6549486783
 30
0.0
 40
94.28926756535768
100
AcDbArc
 50
269.6870537451
 51
270.3129462549
  0
LINE
  5
247
330
1F
100
AcDbEntity
  8
0
  6
Continuous
 62
     7
370
    25
100
AcDbLine
 10
2251.9604585654
 20
3109.3670875666
 30
0.0
 11
2251.9604585654
 21
3109.4176313117
 31
0.0
  0
LINE
  5
248
330
1F
100
AcDbEntity
  8
0
  6
Continuous
 62
     7
370
    25
100
AcDbLine
 10
2251.9604585654
 20
3109.4176313117
 30
0.0
 11
2253.8913079693
 21
3109.4176313116
 31
0.0
  0
LWPOLYLINE
  5
249
330
1F
100
AcDbEntity
  8
0
  6
Continuous
 62
     7
370
    25
100
AcDbPolyline
 90
        9
 70
   128
 43
0.0
 10
2253.8913079693
 20
3109.4445935684
 10
2253.9147242752
 20
3109.44125516
 10
2253.9314953662
 20
3109.4378894559
 10
2253.9415761084
 20
3109.4345055136
 10
2253.9449393728
 20
3109.43111244
 10
2253.9415761084
 20
3109.4277193664
 10
2253.9314953662
 20
3109.4243354242
 10
2253.9147242752
 20
3109.42096972
 10
2253.8913079693
 20
3109.4176313116
  0
LINE
  5
24A
330
1F
100
AcDbEntity
  8
0
  6
Continuous
 62
     7
370
    25
100
AcDbLine
 10
2253.8913079693
 20
3109.4445935684
 30
0.0
 11
2251.9604585654
 21
3109.4445935684
 31
0.0
  0
LINE
  5
24B
330
1F
100
AcDbEntity
  8
0
  6
Continuous
 62
     7
370
    25
100
AcDbLine
 10
2251.9604585654
 20
3109.4445935684
 30
0.0
 11
2251.9604585654
 21
3109.4951373134
 31
0.0
  0
ARC
  5
24C
330
1F
100
AcDbEntity
  8
0
  6
Continuous
 62
     7
370
    25
100
AcDbCircle
 10
2251.4454585653
 20
3015.2072761782
 30
0.0
 40
94.28926758896326
100
AcDbArc
 50
89.6870537451
 51
90.3129462548
  0
LINE
  5
24D
330
1F
100
AcDbEntity
  8
0
  6
Continuous
 62
     7
370
    25
100
AcDbLine
 10
2250.9304585654
 20
3109.4951373134
 30
0.0
 11
2250.9304585654
 21
3109.4445935684
 31
0.0
  0
LINE
  5
24E
330
1F
100
AcDbEntity
  8
0
  6
Continuous
 62
     7
370
    25
100
AcDbLine
 10
2250.9304585654
 20
3109.4445935684
 30
0.0
 11
2248.9996091615
 21
3109.4445935684
 31
0.0
  0
LWPOLYLINE
  5
24F
330
1F
100
AcDbEntity
  8
0
  6
Continuous
 62
     7
370
    25
100
AcDbPolyline
 90
        9
 70
   128
 43
0.0
 10
2248.9996091615
 20
3109.4176313116
 10
2248.9761928556
 20
3109.42096972
 10
2248.9594217646
 20
3109.4243354242
 10
2248.9493410224
 20
3109.4277193664
 10
2248.945977758
 20
3109.43111244
 10
2248.9493410224
 20
3109.4345055136
 10
2248.9594217646
 20
3109.4378894559
 10
2248.9761928556
 20
3109.44125516
 10
2248.9996091615
 20
3109.4445935684
  0
LINE
  5
250
330
1F
100
AcDbEntity
  8
0
  6
Continuous
 62
     7
370
    25
100
AcDbLine
 10
2249.0133329309
 20
3109.4176313116
 30
0.0
 11
2248.9996091615
 21
3109.4445935684
 31
0.0
  0
LINE
  5
251
330
1F
100
AcDbEntity
  8
0
  6
Continuous
 62
     7
370
    25
100
AcDbLine
 10
2251.9604585654
 20
3109.4445935684
 30
0.0
 11
2251.9604585654
 21
3109.4176313117
 31
0.0
  0
LINE
  5
252
330
1F
100
AcDbEntity
  8
0
  6
Continuous
 62
     7
370
    25
100
AcDbLine
 10
2250.9304585654
 20
3109.4445935684
 30
0.0
 11
2250.9304585654
 21
3109.4176313117
 31
0.0
  0
LINE
  5
253
330
1F
100
AcDbEntity
  8
0
  6
Continuous
 62
     7
370
    25
100
AcDbLine
 10
2454.4454585654
 20
2724.9716549046
 30
0.0
 11
2454.4245088447
 21
2725.2716549046
 31
0.0
  0
LINE
  5
254
330
1F
100
AcDbEntity
  8
0
  6
Continuous
 62
     7
370
    25
100
AcDbLine
 10
2454.4454585654
 20
2723.7716549046
 30
0.0
 11
2454.4454585654
 21
2724.9716549046
 31
0.0
  0
LINE
  5
255
330
1F
100
AcDbEntity
  8
0
  6
Continuous
 62
     7
370
    25
100
AcDbLine
 10
2424.4454585654
 20
2724.9716549046
 30
0.0
 11
2424.4454585654
 21
2723.7716549046
 31
0.0
  0
LINE
  5
256
330
1F
100
AcDbEntity
  8
0
  6
Continuous
 62
     7
370
    25
100
AcDbLine
 10
2424.466408286
 20
2725.2716549046
 30
0.0
 11
2424.4454585654
 21
2724.9716549046
 31
0.0
  0
LINE
  5
257
330
1F
100
AcDbEntity
  8
0
  6
Continuous
 62
     7
370
    25
100
AcDbLine
 10
2429.0670931167
 20
2725.2716549046
 30
0.0
 11
2429.0468228464
 21
2724.9716549046
 31
0.0
  0
LINE
  5
258
330
1F
100
AcDbEntity
  8
0
  6
Continuous
 62
     7
370
    25
100
AcDbLine
 10
2429.0468228464
 20
2724.9716549046
 30
0.0
 11
2449.8440942843
 21
2724.9716549046
 31
0.0
  0
LINE
  5
259
330
1F
100
AcDbEntity
  8
0
  6
Continuous
 62
     7
370
    25
100
AcDbLine
 10
2449.8440942843
 20
2724.9716549046
 30
0.0
 11
2449.823824014
 21
2725.2716549046
 31
0.0
  0
LINE
  5
25A
330
1F
100
AcDbEntity
  8
0
  6
Continuous
 62
     7
370
    25
100
AcDbLine
 10
2642.945458561
 20
2723.7716549046
 30
0.0
 11
2642.945458561
 21
2723.9716549046
 31
0.0
  0
LINE
  5
25B
330
1F
100
AcDbEntity
  8
0
  6
Continuous
 62
     7
370
    25
100
AcDbLine
 10
2622.945458561
 20
2723.7716549046
 30
0.0
 11
2622.945458561
 21
2723.9716549046
 31
0.0
  0
LINE
  5
25C
330
1F
100
AcDbEntity
  8
0
  6
Continuous
 62
     7
370
    25
100
AcDbLine
 10
2621.945458561
 20
2723.7716549046
 30
0.0
 11
2621.945458561
 21
2723.9716549046
 31
0.0
  0
LINE
  5
25D
330
1F
100
AcDbEntity
  8
0
  6
Continuous
 62
     7
370
    25
100
AcDbLine
 10
2621.945458561
 20
2723.9716549046
 30
0.0
 11
2622.945458561
 21
2723.9716549046
 31
0.0
  0
LINE
  5
25E
330
1F
100
AcDbEntity
  8
0
  6
Continuous
 62
     7
370
    25
100
AcDbLine
 10
2643.945458561
 20
2723.9716549046
 30
0.0
 11
2642.945458561
 21
2723.9716549046
 31
0.0
  0
LINE
  5
25F
330
1F
100
AcDbEntity
  8
0
  6
Continuous
 62
     7
370
    25
100
AcDbLine
 10
2643.945458561
 20
2723.7716549046
 30
0.0
 11
2643.945458561
 21
2723.9716549046
 31
0.0
  0
ARC
  5
260
330
1F
100
AcDbEntity
  8
0
  6
Continuous
 62
     7
370
    25
100
AcDbCircle
 10
2624.945458561
 20
2723.9716549046
 30
0.0
 40
3.000000000000271
100
AcDbArc
 50
154.3207113804
 51
180.0
  0
ARC
  5
261
330
1F
100
AcDbEntity
  8
0
  6
Continuous
 62
     7
370
    25
100
AcDbCircle
 10
2640.945458561
 20
2723.9716549046
 30
0.0
 40
3.000000000000271
100
AcDbArc
 50
0.0
 51
25.6792886196
  0
LINE
  5
262
330
1F
100
AcDbEntity
  8
0
  6
Continuous
 62
     7
370
    25
100
AcDbLine
 10
2658.1331333148
 20
2724.2716549046
 30
0.0
 11
2643.945458561
 21
2724.2716549046
 31
0.0
  0
LINE
  5
263
330
1F
100
AcDbEntity
  8
0
  6
Continuous
 62
     7
370
    25
100
AcDbLine
 10
2658.1331333148
 20
2723.7716549046
 30
0.0
 11
2658.1331333148
 21
2724.2716549046
 31
0.0
  0
LINE
  5
264
330
1F
100
AcDbEntity
  8
0
  6
Continuous
 62
     7
370
    25
100
AcDbLine
 10
2643.945458561
 20
2724.2716549046
 30
0.0
 11
2643.945458561
 21
2723.9716549046
 31
0.0
  0
LINE
  5
265
330
1F
100
AcDbEntity
  8
0
  6
Continuous
 62
     7
370
    25
100
AcDbLine
 10
2644.7046611463
 20
2725.2716549046
 30
0.0
 11
2644.7277135023
 21
2724.2716549046
 31
0.0
  0
LINE
  5
266
330
1F
100
AcDbEntity
  8
0
  6
Continuous
 62
     7
370
    25
100
AcDbLine
 10
2646.0280588736
 20
2724.2716549046
 30
0.0
 11
2646.0050065176
 21
2725.2716549046
 31
0.0
  0
ARC
  5
267
330
1F
100
AcDbEntity
  8
0
  6
Continuous
 62
     7
370
    25
100
AcDbCircle
 10
2627.9448257767
 20
3254.649799617
 30
0.0
 40
147.0082502473818
100
AcDbArc
 50
266.0997819289
 51
273.9007124515
  0
LWPOLYLINE
  5
268
330
1F
100
AcDbEntity
  8
0
  6
Continuous
 62
     7
370
    25
100
AcDbPolyline
 90
        6
 70
   128
 43
0.0
 10
2635.556639358
 20
3109.056094891
 10
2636.2957539085
 20
3109.0961260079
 10
2636.7473606486
 20
3109.1417840506
 10
2636.8386164832
 20
3109.1888871583
 10
2636.5657853877
 20
3109.2355069245
 10
2636.44183279
 20
3109.2468479058
  0
LWPOLYLINE
  5
269
330
1F
100
AcDbEntity
  8
0
  6
Continuous
 62
     7
370
    25
100
AcDbPolyline
 90
        7
 70
   128
 43
0.0
 10
2619.4490843408
 20
3109.2468479058
 10
2619.325131743
 20
3109.2355069245
 10
2619.0523006476
 20
3109.1888871583
 10
2619.1435564822
 20
3109.1417840506
 10
2619.5951632222
 20
3109.0961260079
 10
2620.3886320348
 20
3109.0537822761
 10
2621.2435540403
 20
3109.0236025787
  0
LWPOLYLINE
  5
26A
330
1F
100
AcDbEntity
  8
0
  6
Continuous
 62
     7
370
    25
100
AcDbPolyline
 90
       19
 70
   128
 43
0.0
 10
2634.9154268518
 20
3109.3742254403
 10
2635.0671548704
 20
3109.3595426267
 10
2635.2503025606
 20
3109.3169925022
 10
2635.0671548704
 20
3109.2744423778
 10
2634.5268955899
 20
3109.2340258942
 10
2633.6566155753
 20
3109.1977697028
 10
2632.4999543005
 20
3109.1674918404
 10
2631.1149115917
 20
3109.1447105655
 10
2629.5709392736
 20
3109.1305682262
 10
2627.9454585654
 20
3109.1257739786
 10
2626.3199778572
 20
3109.1305682262
 10
2624.7760055391
 20
3109.1447105655
 10
2623.3909628302
 20
3109.1674918404
 10
2622.2343015554
 20
3109.1977697028
 10
2621.3640215408
 20
3109.2340258942
 10
2620.8237622604
 20
3109.2744423778
 10
2620.6406145702
 20
3109.3169925022
 10
2620.8237622604
 20
3109.3595426267
 10
2620.975490279
 20
3109.3742254403
  0
SPLINE
  5
26B
330
1F
100
AcDbEntity
  8
0
  6
Continuous
 62
     7
370
    25
100
AcDbSpline
210
0.0
220
0.0
230
1.0
 70
     8
 71
     3
 72
    10
 73
     6
 74
     0
 42
0.00000001
 43
0.00000001
 40
0.0
 40
0.0
 40
0.0
 40
0.0
 40
0.2348528608093666
 40
0.6323277900321594
 40
0.9999999999999999
 40
0.9999999999999999
 40
0.9999999999999999
 40
0.9999999999999999
 10
2632.6391613405
 20
3106.908496935376
 30
0.0
 10
2632.609898948602
 20
3106.888924055682
 30
0.0
 10
2632.531111645197
 20
3106.836225205352
 30
0.0
 10
2632.460702072951
 20
3106.695638695839
 30
0.0
 10
2632.448765629146
 20
3106.582569255204
 30
0.0
 10
2632.443029871345
 20
3106.528236579841
 30
0.0
  0
ARC
  5
26C
330
1F
100
AcDbEntity
  8
0
  6
Continuous
 62
     7
370
    25
100
AcDbCircle
 10
2627.9727661044
 20
3172.8487882408
 30
0.0
 40
66.47103753341315
100
AcDbArc
 50
266.0945910318
 51
273.8561261673
  0
LINE
  5
26D
330
1F
100
AcDbEntity
  8
0
  6
Continuous
 62
     7
370
    25
100
AcDbLine
 10
2632.4454585654
 20
3106.5321061976
 30
0.0
 11
2632.4430298712
 21
3106.5282365797
 31
0.0
  0
ARC
  5
26E
330
1F
100
AcDbEntity
  8
0
  6
Continuous
 62
     7
370
    25
100
AcDbCircle
 10
2251.4448257767
 20
3254.6497996169
 30
0.0
 40
147.0082502473063
100
AcDbArc
 50
266.0997819288
 51
273.9007124515
  0
LWPOLYLINE
  5
26F
330
1F
100
AcDbEntity
  8
0
  6
Continuous
 62
     7
370
    25
100
AcDbPolyline
 90
        6
 70
   128
 43
0.0
 10
2259.056639358
 20
3109.056094891
 10
2259.7957539085
 20
3109.0961260079
 10
2260.2473606486
 20
3109.1417840506
 10
2260.3386164832
 20
3109.1888871584
 10
2260.0657853877
 20
3109.2355069245
 10
2259.94183279
 20
3109.2468479058
  0
LWPOLYLINE
  5
270
330
1F
100
AcDbEntity
  8
0
  6
Continuous
 62
     7
370
    25
100
AcDbPolyline
 90
        7
 70
   128
 43
0.0
 10
2242.9490843408
 20
3109.2468479058
 10
2242.825131743
 20
3109.2355069245
 10
2242.5523006476
 20
3109.1888871584
 10
2242.6435564822
 20
3109.1417840506
 10
2243.0951632222
 20
3109.0961260079
 10
2243.8886320348
 20
3109.0537822761
 10
2244.7435540403
 20
3109.0236025787
  0
LWPOLYLINE
  5
271
330
1F
100
AcDbEntity
  8
0
  6
Continuous
 62
     7
370
    25
100
AcDbPolyline
 90
       19
 70
   128
 43
0.0
 10
2258.4154268518
 20
3109.3742254403
 10
2258.5671548704
 20
3109.3595426267
 10
2258.7503025606
 20
3109.3169925022
 10
2258.5671548704
 20
3109.2744423778
 10
2258.0268955899
 20
3109.2340258942
 10
2257.1566155753
 20
3109.1977697028
 10
2255.9999543005
 20
3109.1674918404
 10
2254.6149115917
 20
3109.1447105655
 10
2253.0709392736
 20
3109.1305682262
 10
2251.4454585654
 20
3109.1257739786
 10
2249.8199778572
 20
3109.1305682262
 10
2248.2760055391
 20
3109.1447105655
 10
2246.8909628302
 20
3109.1674918404
 10
2245.7343015554
 20
3109.1977697028
 10
2244.8640215408
 20
3109.2340258942
 10
2244.3237622604
 20
3109.2744423778
 10
2244.1406145702
 20
3109.3169925022
 10
2244.3237622604
 20
3109.3595426267
 10
2244.475490279
 20
3109.3742254403
  0
SPLINE
  5
272
330
1F
100
AcDbEntity
  8
0
  6
Continuous
 62
     7
370
    25
100
AcDbSpline
210
0.0
220
0.0
230
1.0
 70
     8
 71
     3
 72
    10
 73
     6
 74
     0
 42
0.00000001
 43
0.00000001
 40
0.0
 40
0.0
 40
0.0
 40
0.0
 40
0.2348528608094079
 40
0.6323277900321719
 40
0.9999999999999999
 40
0.9999999999999999
 40
0.9999999999999999
 40
0.9999999999999999
 10
2256.139161340504
 20
3106.908496935381
 30
0.0
 10
2256.109898948606
 20
3106.888924055688
 30
0.0
 10
2256.031111645201
 20
3106.836225205358
 30
0.0
 10
2255.960702072954
 20
3106.695638695845
 30
0.0
 10
2255.94876562915
 20
3106.582569255209
 30
0.0
 10
2255.943029871348
 20
3106.528236579846
 30
0.0
  0
ARC
  5
273
330
1F
100
AcDbEntity
  8
0
  6
Continuous
 62
     7
370
    25
100
AcDbCircle
 10
2251.4727661044
 20
3172.8487882408
 30
0.0
 40
66.47103753341722
100
AcDbArc
 50
266.0945910318
 51
273.8561261673
  0
LINE
  5
274
330
1F
100
AcDbEntity
  8
0
  6
Continuous
 62
     7
370
    25
100
AcDbLine
 10
2255.9454585654
 20
3106.5321061976
 30
0.0
 11
2255.9430298712
 21
3106.5282365797
 31
0.0
  0
SPLINE
  5
275
330
1F
100
AcDbEntity
  8
0
  6
Continuous
 62
     7
370
    25
100
AcDbSpline
210
0.0
220
0.0
230
1.0
 70
     8
 71
     3
 72
    10
 73
     6
 74
     0
 42
0.00000001
 43
0.00000001
 40
0.0
 40
0.0
 40
0.0
 40
0.0
 40
0.5286786081614601
 40
0.816138342984176
 40
1.0
 40
1.0
 40
1.0
 40
1.0
 10
2642.945458561025
 20
2723.97165490457
 30
0.0
 10
2642.91746792518
 20
2724.222169411546
 30
0.0
 10
2642.874257871274
 20
2724.608896794611
 30
0.0
 10
2642.656475964292
 20
2725.037913361
 30
0.0
 10
2642.509989972186
 20
2725.206060857857
 30
0.0
 10
2642.452846040879
 20
2725.271654904573
 30
0.0
  0
SPLINE
  5
276
330
1F
100
AcDbEntity
  8
0
  6
Continuous
 62
     7
370
    25
100
AcDbSpline
210
0.0
220
0.0
230
1.0
 70
     8
 71
     3
 72
    10
 73
     6
 74
     0
 42
0.00000001
 43
0.00000001
 40
0.0
 40
0.0
 40
0.0
 40
0.0
 40
0.183474033715039
 40
0.4713152133463501
 40
1.0
 40
1.0
 40
1.0
 40
1.0
 10
2623.438044111861
 20
2725.271654904573
 30
0.0
 10
2623.381017368608
 20
2725.206204370561
 30
0.0
 10
2623.234524858915
 20
2725.038072500471
 30
0.0
 10
2623.016685224799
 20
2724.609072556928
 30
0.0
 10
2622.973451537932
 20
2724.222168078664
 30
0.0
 10
2622.945458561025
 20
2723.971654904566
 30
0.0
  0
ENDSEC
  0
SECTION
  2
OBJECTS
  0
DICTIONARY
  5
C
330
0
100
AcDbDictionary
281
     1
  3
ACAD_GROUP
350
D
  3
ACAD_LAYOUT
350
1A
  3
ACAD_MLINESTYLE
350
17
  3
ACAD_PLOTSETTINGS
350
19
  3
ACAD_PLOTSTYLENAME
350
E
  3
ACAD_SCALELIST
350
47
  3
DWGPROPS
350
277
  0
DICTIONARY
  5
D
102
{ACAD_REACTORS
330
C
102
}
330
C
100
AcDbDictionary
281
     1
  0
DICTIONARY
  5
1A
102
{ACAD_REACTORS
330
C
102
}
330
C
100
AcDbDictionary
281
     1
  3
Layout1
350
1E
  3
Layout2
350
26
  3
Model
350
22
  0
DICTIONARY
  5
17
102
{ACAD_REACTORS
330
C
102
}
330
C
100
AcDbDictionary
281
     1
  3
Standard
350
18
  0
DICTIONARY
  5
19
102
{ACAD_REACTORS
330
C
102
}
330
C
100
AcDbDictionary
281
     1
  0
ACDBDICTIONARYWDFLT
  5
E
102
{ACAD_REACTORS
330
C
102
}
330
C
100
AcDbDictionary
281
     1
  3
Normal
350
F
100
AcDbDictionaryWithDefault
340
F
  0
DICTIONARY
  5
47
102
{ACAD_REACTORS
330
C
102
}
330
C
100
AcDbDictionary
281
     1
  3
A0
350
48
  3
A1
350
49
  3
A2
350
4A
  3
A3
350
4B
  3
A4
350
4C
  3
A5
350
4D
  3
A6
350
4E
  3
A7
350
4F
  3
A8
350
50
  3
A9
350
51
  3
B0
350
52
  3
B1
350
53
  3
B2
350
54
  3
B3
350
55
  3
B4
350
56
  3
B5
350
57
  3
B6
350
58
  0
XRECORD
  5
277
102
{ACAD_REACTORS
330
C
102
}
330
C
100
AcDbXrecord
280
     1
  1
DWGPROPS COOKIE
  2

  3

  4

  6

  7

  8
b
  9

300
=
301
=
302
=
303
=
304
=
305
=
306
=
307
=
308
=
309
=
 40
0.0
 41
2460384.300491725
 42
2460384.300492095
  1

 90
        0
  0
LAYOUT
  5
1E
102
{ACAD_REACTORS
330
1A
102
}
330
1A
100
AcDbPlotSettings
  1

  2
none_device
  4

  6

 40
0.0
 41
0.0
 42
0.0
 43
0.0
 44
0.0
 45
0.0
 46
0.0
 47
0.0
 48
0.0
 49
0.0
140
0.0
141
0.0
142
1.0
143
1.0
 70
   688
 72
     1
 73
     0
 74
     5
  7

 75
    16
147
1.0
148
0.0
149
0.0
100
AcDbLayout
  1
Layout1
 70
     1
 71
     1
 10
0.0
 20
0.0
 11
420.0
 21
297.0
 12
0.0
 22
0.0
 32
0.0
 14
1.0000000000E+20
 24
1.0000000000E+20
 34
1.0000000000E+20
 15
-1.0000000000E+20
 25
-1.0000000000E+20
 35
-1.0000000000E+20
146
0.0
 13
0.0
 23
0.0
 33
0.0
 16
1.0
 26
0.0
 36
0.0
 17
0.0
 27
1.0
 37
0.0
 76
     0
330
1B
  0
LAYOUT
  5
26
102
{ACAD_REACTORS
330
1A
102
}
330
1A
100
AcDbPlotSettings
  1

  2
none_device
  4

  6

 40
0.0
 41
0.0
 42
0.0
 43
0.0
 44
0.0
 45
0.0
 46
0.0
 47
0.0
 48
0.0
 49
0.0
140
0.0
141
0.0
142
1.0
143
1.0
 70
   688
 72
     1
 73
     0
 74
     5
  7

 75
    16
147
1.0
148
0.0
149
0.0
100
AcDbLayout
  1
Layout2
 70
     1
 71
     2
 10
0.0
 20
0.0
 11
0.0
 21
0.0
 12
0.0
 22
0.0
 32
0.0
 14
0.0
 24
0.0
 34
0.0
 15
0.0
 25
0.0
 35
0.0
146
0.0
 13
0.0
 23
0.0
 33
0.0
 16
1.0
 26
0.0
 36
0.0
 17
0.0
 27
1.0
 37
0.0
 76
     0
330
23
  0
LAYOUT
  5
22
102
{ACAD_REACTORS
330
1A
102
}
330
1A
100
AcDbPlotSettings
  1

  2
none_device
  4
Letter_(8.50_x_11.00_Inches)
  6

 40
6.35
 41
6.35
 42
6.35000508
 43
6.35000508
 44
215.9
 45
279.4
 46
0.0
 47
0.0
 48
0.0
 49
0.0
140
0.0
141
0.0
142
1.0
143
1.0
 70
  1712
 72
     1
 73
     0
 74
     0
  7

 75
     0
147
1.0
148
0.0
149
0.0
100
AcDbLayout
  1
Model
 70
     1
 71
     0
 10
0.0
 20
0.0
 11
5000.0
 21
3500.0
 12
0.0
 22
0.0
 32
0.0
 14
0.0
 24
0.0
 34
0.0
 15
5000.0
 25
3500.0
 35
0.0
146
0.0
 13
0.0
 23
0.0
 33
0.0
 16
1.0
 26
0.0
 36
0.0
 17
0.0
 27
1.0
 37
0.0
 76
     0
330
1F
331
29
  0
MLINESTYLE
  5
18
102
{ACAD_REACTORS
330
17
102
}
330
17
100
AcDbMlineStyle
  2
Standard
 70
     0
  3

 62
   256
 51
90.0
 52
90.0
 71
     2
 49
0.5
 62
   256
  6
BYLAYER
 49
-0.5
 62
   256
  6
BYLAYER
  0
ACDBPLACEHOLDER
  5
F
102
{ACAD_REACTORS
330
E
102
}
330
E
  0
SCALE
  5
48
102
{ACAD_REACTORS
330
47
102
}
330
47
100
AcDbScale
 70
     0
300
1:1
140
1.0
141
1.0
290
     1
  0
SCALE
  5
49
102
{ACAD_REACTORS
330
47
102
}
330
47
100
AcDbScale
 70
     0
300
1:2
140
1.0
141
2.0
290
     0
  0
SCALE
  5
4A
102
{ACAD_REACTORS
330
47
102
}
330
47
100
AcDbScale
 70
     0
300
1:4
140
1.0
141
4.0
290
     0
  0
SCALE
  5
4B
102
{ACAD_REACTORS
330
47
102
}
330
47
100
AcDbScale
 70
     0
300
1:5
140
1.0
141
5.0
290
     0
  0
SCALE
  5
4C
102
{ACAD_REACTORS
330
47
102
}
330
47
100
AcDbScale
 70
     0
300
1:8
140
1.0
141
8.0
290
     0
  0
SCALE
  5
4D
102
{ACAD_REACTORS
330
47
102
}
330
47
100
AcDbScale
 70
     0
300
1:10
140
1.0
141
10.0
290
     0
  0
SCALE
  5
4E
102
{ACAD_REACTORS
330
47
102
}
330
47
100
AcDbScale
 70
     0
300
1:16
140
1.0
141
16.0
290
     0
  0
SCALE
  5
4F
102
{ACAD_REACTORS
330
47
102
}
330
47
100
AcDbScale
 70
     0
300
1:20
140
1.0
141
20.0
290
     0
  0
SCALE
  5
50
102
{ACAD_REACTORS
330
47
102
}
330
47
100
AcDbScale
 70
     0
300
1:30
140
1.0
141
30.0
290
     0
  0
SCALE
  5
51
102
{ACAD_REACTORS
330
47
102
}
330
47
100
AcDbScale
 70
     0
300
1:40
140
1.0
141
40.0
290
     0
  0
SCALE
  5
52
102
{ACAD_REACTORS
330
47
102
}
330
47
100
AcDbScale
 70
     0
300
1:50
140
1.0
141
50.0
290
     0
  0
SCALE
  5
53
102
{ACAD_REACTORS
330
47
102
}
330
47
100
AcDbScale
 70
     0
300
1:100
140
1.0
141
100.0
290
     0
  0
SCALE
  5
54
102
{ACAD_REACTORS
330
47
102
}
330
47
100
AcDbScale
 70
     0
300
2:1
140
2.0
141
1.0
290
     0
  0
SCALE
  5
55
102
{ACAD_REACTORS
330
47
102
}
330
47
100
AcDbScale
 70
     0
300
4:1
140
4.0
141
1.0
290
     0
  0
SCALE
  5
56
102
{ACAD_REACTORS
330
47
102
}
330
47
100
AcDbScale
 70
     0
300
8:1
140
8.0
141
1.0
290
     0
  0
SCALE
  5
57
102
{ACAD_REACTORS
330
47
102
}
330
47
100
AcDbScale
 70
     0
300
10:1
140
10.0
141
1.0
290
     0
  0
SCALE
  5
58
102
{ACAD_REACTORS
330
47
102
}
330
47
100
AcDbScale
 70
     0
300
100:1
140
100.0
141
1.0
290
     0
  0
ENDSEC
  0
EOF
