  0
SECTION
  2
HEADER
  9
$ACADVER
  1
AC1015
  9
$ACADMAINTVER
 70
     6
  9
$DWGCODEPAGE
  3
DOS932
  9
$INSBASE
 10
0.0
 20
0.0
 30
0.0
  9
$EXTMIN
 10
0.0
 20
0.0
 30
0.0
  9
$EXTMAX
 10
5000.0
 20
3500.0
 30
0.0
  9
$LIMMIN
 10
0.0
 20
0.0
  9
$LIMMAX
 10
5000.0
 20
3500.0
  9
$ORTHOMODE
 70
     0
  9
$REGENMODE
 70
     1
  9
$FILLMODE
 70
     1
  9
$QTEXTMODE
 70
     0
  9
$MIRRTEXT
 70
     1
  9
$LTSCALE
 40
1.0
  9
$ATTMODE
 70
     1
  9
$TEXTSIZE
 40
3.5
  9
$TRACEWID
 40
1.0
  9
$TEXTSTYLE
  7
Standard
  9
$CLAYER
  8
0
  9
$CELTYPE
  6
ByLayer
  9
$CECOLOR
 62
   256
  9
$CELTSCALE
 40
1.0
  9
$DISPSILH
 70
     0
  9
$DIMSCALE
 40
1.0
  9
$DIMASZ
 40
3.302
  9
$DIMEXO
 40
1.0
  9
$DIMDLI
 40
3.75
  9
$DIMRND
 40
0.0
  9
$DIMDLE
 40
0.0
  9
$DIMEXE
 40
1.0
  9
$DIMTP
 40
0.0
  9
$DIMTM
 40
0.0
  9
$DIMTXT
 40
3.5
  9
$DIMCEN
 40
2.5
  9
$DIMTSZ
 40
0.0
  9
$DIMTOL
 70
     0
  9
$DIMLIM
 70
     0
  9
$DIMTIH
 70
     1
  9
$DIMTOH
 70
     1
  9
$DIMSE1
 70
     0
  9
$DIMSE2
 70
     0
  9
$DIMTAD
 70
     1
  9
$DIMZIN
 70
     0
  9
$DIMBLK
  1

  9
$DIMASO
 70
     1
  9
$DIMSHO
 70
     1
  9
$DIMPOST
  1

  9
$DIMAPOST
  1

  9
$DIMALT
 70
     0
  9
$DIMALTD
 70
     3
  9
$DIMALTF
 40
0.0393700787
  9
$DIMLFAC
 40
1.0
  9
$DIMTOFL
 70
     1
  9
$DIMTVP
 40
0.0
  9
$DIMTIX
 70
     0
  9
$DIMSOXD
 70
     0
  9
$DIMSAH
 70
     0
  9
$DIMBLK1
  1

  9
$DIMBLK2
  1

  9
$DIMSTYLE
  2
ISO-25
  9
$DIMCLRD
 70
     0
  9
$DIMCLRE
 70
     0
  9
$DIMCLRT
 70
     0
  9
$DIMTFAC
 40
1.0
  9
$DIMGAP
 40
1.524
  9
$DIMJUST
 70
     0
  9
$DIMSD1
 70
     0
  9
$DIMSD2
 70
     0
  9
$DIMTOLJ
 70
     0
  9
$DIMTZIN
 70
     0
  9
$DIMALTZ
 70
     0
  9
$DIMALTTZ
 70
     0
  9
$DIMUPT
 70
     0
  9
$DIMDEC
 70
     2
  9
$DIMTDEC
 70
     2
  9
$DIMALTU
 70
     2
  9
$DIMALTTD
 70
     3
  9
$DIMTXSTY
  7
Standard
  9
$DIMAUNIT
 70
     0
  9
$DIMADEC
 70
     2
  9
$DIMALTRND
 40
0.0
  9
$DIMAZIN
 70
     0
  9
$DIMDSEP
 70
    44
  9
$DIMATFIT
 70
     3
  9
$DIMFRAC
 70
     0
  9
$DIMLDRBLK
  1

  9
$DIMLUNIT
 70
     2
  9
$DIMLWD
 70
    -2
  9
$DIMLWE
 70
    -2
  9
$DIMTMOVE
 70
     0
  9
$LUNITS
 70
     2
  9
$LUPREC
 70
     3
  9
$SKETCHINC
 40
1.0
  9
$FILLETRAD
 40
0.0
  9
$AUNITS
 70
     0
  9
$AUPREC
 70
     2
  9
$MENU
  1
.
  9
$ELEVATION
 40
0.0
  9
$PELEVATION
 40
0.0
  9
$THICKNESS
 40
0.0
  9
$LIMCHECK
 70
     0
  9
$CHAMFERA
 40
0.0
  9
$CHAMFERB
 40
0.0
  9
$CHAMFERC
 40
0.0
  9
$CHAMFERD
 40
0.0
  9
$SKPOLY
 70
     0
  9
$TDCREATE
 40
2460384.690202836
  9
$TDUCREATE
 40
2460384.315202836
  9
$TDUPDATE
 40
2460384.69020309
  9
$TDUUPDATE
 40
2460384.31520309
  9
$TDINDWG
 40
0.0000000116
  9
$TDUSRTIMER
 40
0.0000000116
  9
$USRTIMER
 70
     1
  9
$ANGBASE
 50
0.0
  9
$ANGDIR
 70
     0
  9
$PDMODE
 70
     0
  9
$PDSIZE
 40
-1.0
  9
$PLINEWID
 40
0.0
  9
$SPLFRAME
 70
     0
  9
$SPLINETYPE
 70
     6
  9
$SPLINESEGS
 70
     8
  9
$HANDSEED
  5
2D4
  9
$SURFTAB1
 70
     6
  9
$SURFTAB2
 70
     6
  9
$SURFTYPE
 70
     6
  9
$SURFU
 70
     6
  9
$SURFV
 70
     6
  9
$UCSBASE
  2

  9
$UCSNAME
  2

  9
$UCSORG
 10
0.0
 20
0.0
 30
0.0
  9
$UCSXDIR
 10
1.0
 20
0.0
 30
0.0
  9
$UCSYDIR
 10
0.0
 20
1.0
 30
0.0
  9
$UCSORTHOREF
  2

  9
$UCSORTHOVIEW
 70
     0
  9
$UCSORGTOP
 10
0.0
 20
0.0
 30
0.0
  9
$UCSORGBOTTOM
 10
0.0
 20
0.0
 30
0.0
  9
$UCSORGLEFT
 10
0.0
 20
0.0
 30
0.0
  9
$UCSORGRIGHT
 10
0.0
 20
0.0
 30
0.0
  9
$UCSORGFRONT
 10
0.0
 20
0.0
 30
0.0
  9
$UCSORGBACK
 10
0.0
 20
0.0
 30
0.0
  9
$PUCSBASE
  2

  9
$PUCSNAME
  2

  9
$PUCSORG
 10
0.0
 20
0.0
 30
0.0
  9
$PUCSXDIR
 10
1.0
 20
0.0
 30
0.0
  9
$PUCSYDIR
 10
0.0
 20
1.0
 30
0.0
  9
$PUCSORTHOREF
  2

  9
$PUCSORTHOVIEW
 70
     0
  9
$PUCSORGTOP
 10
0.0
 20
0.0
 30
0.0
  9
$PUCSORGBOTTOM
 10
0.0
 20
0.0
 30
0.0
  9
$PUCSORGLEFT
 10
0.0
 20
0.0
 30
0.0
  9
$PUCSORGRIGHT
 10
0.0
 20
0.0
 30
0.0
  9
$PUCSORGFRONT
 10
0.0
 20
0.0
 30
0.0
  9
$PUCSORGBACK
 10
0.0
 20
0.0
 30
0.0
  9
$USERI1
 70
     0
  9
$USERI2
 70
     0
  9
$USERI3
 70
     0
  9
$USERI4
 70
     0
  9
$USERI5
 70
     0
  9
$USERR1
 40
0.0
  9
$USERR2
 40
0.0
  9
$USERR3
 40
0.0
  9
$USERR4
 40
0.0
  9
$USERR5
 40
0.0
  9
$WORLDVIEW
 70
     1
  9
$SHADEDGE
 70
     3
  9
$SHADEDIF
 70
    70
  9
$TILEMODE
 70
     1
  9
$MAXACTVP
 70
    64
  9
$PINSBASE
 10
0.0
 20
0.0
 30
0.0
  9
$PLIMCHECK
 70
     0
  9
$PEXTMIN
 10
1.0000000000E+20
 20
1.0000000000E+20
 30
1.0000000000E+20
  9
$PEXTMAX
 10
-1.0000000000E+20
 20
-1.0000000000E+20
 30
-1.0000000000E+20
  9
$PLIMMIN
 10
0.0
 20
0.0
  9
$PLIMMAX
 10
420.0
 20
297.0
  9
$UNITMODE
 70
     0
  9
$VISRETAIN
 70
     1
  9
$PLINEGEN
 70
     0
  9
$PSLTSCALE
 70
     1
  9
$TREEDEPTH
 70
  3020
  9
$CMLSTYLE
  2
Standard
  9
$CMLJUST
 70
     0
  9
$CMLSCALE
 40
20.0
  9
$PROXYGRAPHICS
 70
     1
  9
$MEASUREMENT
 70
     1
  9
$CELWEIGHT
370
    -1
  9
$ENDCAPS
280
     0
  9
$JOINSTYLE
280
     0
  9
$LWDISPLAY
290
     1
  9
$INSUNITS
 70
     4
  9
$HYPERLINKBASE
  1

  9
$STYLESHEET
  1

  9
$XEDIT
290
     1
  9
$CEPSNTYPE
380
     0
  9
$PSTYLEMODE
290
     1
  9
$FINGERPRINTGUID
  2
{5f93fda9-569f-4543-9fb3-30a2378696a6}
  9
$VERSIONGUID
  2
{FAEB1C32-E019-11D5-929B-00C0DF256EC4}
  9
$EXTNAMES
290
     1
  9
$PSVPSCALE
 40
0.0
  9
$OLESTARTUP
290
     0
  0
ENDSEC
  0
SECTION
  2
CLASSES
  0
CLASS
  1
ACDBDICTIONARYWDFLT
  2
AcDbDictionaryWithDefault
  3
ObjectDBX Classes
 90
        0
280
     0
281
     0
  0
CLASS
  1
VISUALSTYLE
  2
AcDbVisualStyle
  3
ObjectDBX Classes
 90
     4095
280
     0
281
     0
  0
CLASS
  1
MATERIAL
  2
AcDbMaterial
  3
ObjectDBX Classes
 90
     1153
280
     0
281
     0
  0
CLASS
  1
SCALE
  2
AcDbScale
  3
ObjectDBX Classes
 90
     1153
280
     0
281
     0
  0
CLASS
  1
TABLESTYLE
  2
AcDbTableStyle
  3
ObjectDBX Classes
 90
     4095
280
     0
281
     0
  0
CLASS
  1
MLEADERSTYLE
  2
AcDbMLeaderStyle
  3
ACDB_MLEADERSTYLE_CLASS
 90
     4095
280
     0
281
     0
  0
CLASS
  1
SUN
  2
AcDbSun
  3
SCENEOE
 90
     1153
280
     0
281
     0
  0
CLASS
  1
ACDBPLACEHOLDER
  2
AcDbPlaceHolder
  3
ObjectDBX Classes
 90
        0
280
     0
281
     0
  0
CLASS
  1
LAYOUT
  2
AcDbLayout
  3
ObjectDBX Classes
 90
        0
280
     0
281
     0
  0
ENDSEC
  0
SECTION
  2
TABLES
  0
TABLE
  2
VPORT
  5
8
330
0
100
AcDbSymbolTable
 70
     1
  0
VPORT
  5
29
330
8
100
AcDbSymbolTableRecord
100
AcDbViewportTableRecord
  2
*Active
 70
     0
 10
0.0
 20
0.0
 11
1.0
 21
1.0
 12
2500.0
 22
1750.0
 13
0.0
 23
0.0
 14
10.0
 24
10.0
 15
10.0
 25
10.0
 16
0.0
 26
0.0
 36
1.0
 17
0.0
 27
0.0
 37
0.0
 40
3500.0
 41
1.4285714286
 42
50.0
 43
0.0
 44
0.0
 50
0.0
 51
0.0
 71
     0
 72
  2000
 73
     1
 74
     3
 75
     0
 76
     0
 77
     0
 78
     0
281
     0
 65
     1
110
0.0
120
0.0
130
0.0
111
1.0
121
0.0
131
0.0
112
0.0
122
1.0
132
0.0
 79
     0
146
0.0
  0
ENDTAB
  0
TABLE
  2
LTYPE
  5
5
330
0
100
AcDbSymbolTable
 70
     6
  0
LTYPE
  5
14
330
5
100
AcDbSymbolTableRecord
100
AcDbLinetypeTableRecord
  2
ByBlock
 70
     0
  3

 72
    65
 73
     0
 40
0.0
  0
LTYPE
  5
15
330
5
100
AcDbSymbolTableRecord
100
AcDbLinetypeTableRecord
  2
ByLayer
 70
     0
  3

 72
    65
 73
     0
 40
0.0
  0
LTYPE
  5
16
330
5
100
AcDbSymbolTableRecord
100
AcDbLinetypeTableRecord
  2
Continuous
 70
     0
  3
Solid line
 72
    65
 73
     0
 40
0.0
  0
LTYPE
  5
5E
330
5
100
AcDbSymbolTableRecord
100
AcDbLinetypeTableRecord
  2
HIDDEN
 70
     0
  3
Hidden __ __ __ __ __ __ __ __ __ __ __ __ __ __
 72
    65
 73
     2
 40
1.905
 49
1.27
 74
     0
 49
-0.635
 74
     0
  0
LTYPE
  5
5F
330
5
100
AcDbSymbolTableRecord
100
AcDbLinetypeTableRecord
  2
PHANTOM
 70
     0
  3
Phantom ______  __  __  ______  __  __  ______
 72
    65
 73
     6
 40
12.7
 49
6.35
 74
     0
 49
-1.27
 74
     0
 49
1.27
 74
     0
 49
-1.27
 74
     0
 49
1.27
 74
     0
 49
-1.27
 74
     0
  0
LTYPE
  5
60
330
5
100
AcDbSymbolTableRecord
100
AcDbLinetypeTableRecord
  2
CENTER
 70
     0
  3
Center ____ _ ____ _ ____ _ ____ _ ____ _ ____
 72
    65
 73
     4
 40
10.16
 49
6.35
 74
     0
 49
-1.27
 74
     0
 49
1.27
 74
     0
 49
-1.27
 74
     0
  0
LTYPE
  5
61
330
5
100
AcDbSymbolTableRecord
100
AcDbLinetypeTableRecord
  2
CENTERX2
 70
     0
  3
Center (2x) ________  __  ________  __  _____
 72
    65
 73
     4
 40
20.32
 49
12.7
 74
     0
 49
-2.54
 74
     0
 49
2.54
 74
     0
 49
-2.54
 74
     0
  0
LTYPE
  5
62
330
5
100
AcDbSymbolTableRecord
100
AcDbLinetypeTableRecord
  2
DOT2
 70
     0
  3
Dot (.5x) ........................................
 72
    65
 73
     2
 40
0.635
 49
0.0
 74
     0
 49
-0.635
 74
     0
  0
ENDTAB
  0
TABLE
  2
LAYER
  5
2
330
0
100
AcDbSymbolTable
 70
     3
  0
LAYER
  5
10
330
2
100
AcDbSymbolTableRecord
100
AcDbLayerTableRecord
  2
0
 70
     0
 62
     7
  6
Continuous
370
    -3
390
F
  0
LAYER
  5
63
330
2
100
AcDbSymbolTableRecord
100
AcDbLayerTableRecord
  2
SLD-0
 70
     0
 62
   179
  6
Continuous
370
    -3
390
F
  0
LAYER
  5
64
330
2
100
AcDbSymbolTableRecord
100
AcDbLayerTableRecord
  2
寸法
 70
     0
 62
   179
  6
Continuous
370
    -3
390
F
  0
ENDTAB
  0
TABLE
  2
STYLE
  5
3
330
0
100
AcDbSymbolTable
 70
     2
  0
STYLE
  5
11
330
3
100
AcDbSymbolTableRecord
100
AcDbTextStyleTableRecord
  2
Standard
 70
     0
 40
0.0
 41
1.0
 50
0.0
 71
     0
 42
3.5
  3
txt
  4
bigfont
  0
STYLE
  5
66
330
3
100
AcDbSymbolTableRecord
100
AcDbTextStyleTableRecord
  2
SLDTEXTSTYLE0
 70
     0
 40
0.0
 41
0.75
 50
0.0
 71
     0
 42
3.5
  3
TXT
  4
bigfont
  0
ENDTAB
  0
TABLE
  2
VIEW
  5
6
330
0
100
AcDbSymbolTable
 70
     0
  0
ENDTAB
  0
TABLE
  2
UCS
  5
7
330
0
100
AcDbSymbolTable
 70
     0
  0
ENDTAB
  0
TABLE
  2
APPID
  5
9
330
0
100
AcDbSymbolTable
 70
     1
  0
APPID
  5
12
330
9
100
AcDbSymbolTableRecord
100
AcDbRegAppTableRecord
  2
ACAD
 70
     0
  0
ENDTAB
  0
TABLE
  2
DIMSTYLE
  5
A
330
0
100
AcDbSymbolTable
 70
     1
100
AcDbDimStyleTable
  0
DIMSTYLE
105
27
330
A
100
AcDbSymbolTableRecord
100
AcDbDimStyleTableRecord
  2
ISO-25
 70
     0
 41
2.5
 42
0.625
 43
3.75
 44
1.25
 73
     0
 74
     0
 77
     1
 78
     8
140
2.5
141
2.5
143
0.0393700787
147
0.625
171
     3
172
     1
178
     0
271
     2
272
     2
274
     3
278
    44
283
     0
284
     8
340
11
  0
ENDTAB
  0
TABLE
  2
BLOCK_RECORD
  5
1
330
0
100
AcDbSymbolTable
 70
     1
  0
BLOCK_RECORD
  5
1F
330
1
100
AcDbSymbolTableRecord
100
AcDbBlockTableRecord
  2
*Model_Space
340
22
  0
BLOCK_RECORD
  5
1B
330
1
100
AcDbSymbolTableRecord
100
AcDbBlockTableRecord
  2
*Paper_Space
340
1E
  0
BLOCK_RECORD
  5
23
330
1
100
AcDbSymbolTableRecord
100
AcDbBlockTableRecord
  2
*Paper_Space0
340
26
  0
ENDTAB
  0
ENDSEC
  0
SECTION
  2
BLOCKS
  0
BLOCK
  5
20
330
1F
100
AcDbEntity
  8
0
100
AcDbBlockBegin
  2
*Model_Space
 70
     0
 10
0.0
 20
0.0
 30
0.0
  3
*Model_Space
  1

  0
ENDBLK
  5
21
330
1F
100
AcDbEntity
  8
0
100
AcDbBlockEnd
  0
BLOCK
  5
1C
330
1B
100
AcDbEntity
 67
     1
  8
0
100
AcDbBlockBegin
  2
*Paper_Space
 70
     0
 10
0.0
 20
0.0
 30
0.0
  3
*Paper_Space
  1

  0
ENDBLK
  5
1D
330
1B
100
AcDbEntity
 67
     1
  8
0
100
AcDbBlockEnd
  0
BLOCK
  5
24
330
23
100
AcDbEntity
  8
0
100
AcDbBlockBegin
  2
*Paper_Space0
 70
     0
 10
0.0
 20
0.0
 30
0.0
  3
*Paper_Space0
  1

  0
ENDBLK
  5
25
330
23
100
AcDbEntity
  8
0
100
AcDbBlockEnd
  0
ENDSEC
  0
SECTION
  2
ENTITIES
  0
LINE
  5
65
330
1F
100
AcDbEntity
  8
0
  6
Continuous
 62
     7
370
    18
100
AcDbLine
 10
4801.663086451
 20
279.1403827252
 30
0.0
 11
3345.9062220501
 21
279.1403827252
 31
0.0
  0
MTEXT
  5
67
330
1F
100
AcDbEntity
  8
0
  6
Continuous
 62
     7
370
     0
100
AcDbMText
 10
1882.8324799637
 20
1935.1460221879
 30
0.0
 40
52.9166666667
 41
0.0
 71
     1
 72
     1
  1
＜正面＞
  7
SLDTEXTSTYLE0
 73
     1
 44
1.0
  0
MTEXT
  5
68
330
1F
100
AcDbEntity
  8
0
  6
Continuous
 62
     7
370
     0
100
AcDbMText
 10
3377.8142431891
 20
379.4057208634
 30
0.0
 40
52.9166666667
 41
0.0
 71
     1
 72
     1
  1
品名：
  7
SLDTEXTSTYLE0
 73
     1
 44
1.0
  0
MTEXT
  5
69
330
1F
100
AcDbEntity
  8
0
  6
Continuous
 62
     7
370
     0
100
AcDbMText
 10
4446.6634374817
 20
385.2343854145
 30
0.0
 40
52.9166666667
 41
0.0
 71
     1
 72
     1
  1
Pamouna
  7
SLDTEXTSTYLE0
 73
     1
 44
1.0
  0
MTEXT
  5
6A
330
1F
100
AcDbEntity
  8
寸法
 62
     7
100
AcDbMText
 10
4688.0073048854
 20
218.6255182943
 30
0.0
 40
52.9166666667
 41
0.0
 71
     1
 72
     1
  1
1/1
  7
SLDTEXTSTYLE0
 73
     1
 44
1.0
  0
MTEXT
  5
6B
330
1F
100
AcDbEntity
  8
寸法
 62
     7
100
AcDbMText
 10
3611.2831293492
 20
398.3924235142
 30
0.0
 40
66.1458333333
 41
0.0
 71
     1
 72
     1
  1
MAGB40L
  7
SLDTEXTSTYLE0
 73
     1
 44
1.0
  0
MTEXT
  5
6C
330
1F
100
AcDbEntity
  8
寸法
 62
     7
100
AcDbMText
 10
4198.7969392118
 20
218.6255210883
 30
0.0
 40
52.9166666667
 41
0.0
 71
     1
 72
     1
  1
2024/03/14
  7
SLDTEXTSTYLE0
 73
     1
 44
1.0
  0
MTEXT
  5
6D
330
1F
100
AcDbEntity
  8
寸法
 62
     7
100
AcDbMText
 10
3662.4665930518
 20
1930.6575766403
 30
0.0
 40
52.9166666667
 41
0.0
 71
     1
 72
     1
  1
＜右側面＞
  7
SLDTEXTSTYLE0
 73
     1
 44
1.0
  0
MTEXT
  5
6E
330
1F
100
AcDbEntity
  8
0
  6
Continuous
 62
     7
370
     0
100
AcDbMText
 10
1882.8017261557
 20
2875.5678091759
 30
0.0
 40
52.9166666667
 41
0.0
 71
     1
 72
     1
  1
＜上面＞
  7
SLDTEXTSTYLE0
 73
     1
 44
1.0
  0
MTEXT
  5
6F
330
1F
100
AcDbEntity
  8
0
  6
Continuous
 62
     7
370
     0
100
AcDbMText
 10
599.5723251208
 20
1930.5928474105
 30
0.0
 40
52.9166666667
 41
0.0
 71
     1
 72
     1
  1
＜左側面＞
  7
SLDTEXTSTYLE0
 73
     1
 44
1.0
  0
LINE
  5
70
330
1F
100
AcDbEntity
  8
0
  6
Continuous
 62
     7
370
    25
100
AcDbLine
 10
2612.7454585654
 20
1787.2543978663
 30
0.0
 11
2610.9454585654
 21
1787.2543978663
 31
0.0
  0
ARC
  5
71
330
1F
100
AcDbEntity
  8
0
  6
Continuous
 62
     7
370
    25
100
AcDbCircle
 10
2612.7454585654
 20
1787.0543978663
 30
0.0
 40
0.2000000000002728
100
AcDbArc
 50
0.0
 51
90.0
  0
LINE
  5
72
330
1F
100
AcDbEntity
  8
0
  6
Continuous
 62
     7
370
    25
100
AcDbLine
 10
2610.9454585654
 20
1787.2543978663
 30
0.0
 11
2218.9454585653
 21
1787.2543978663
 31
0.0
  0
ARC
  5
73
330
1F
100
AcDbEntity
  8
0
  6
Continuous
 62
     7
370
    25
100
AcDbCircle
 10
2217.1454585654
 20
1787.0543978663
 30
0.0
 40
0.2000000000000455
100
AcDbArc
 50
90.0
 51
180.0
  0
LINE
  5
74
330
1F
100
AcDbEntity
  8
0
  6
Continuous
 62
     7
370
    25
100
AcDbLine
 10
2218.9454585653
 20
1787.2543978663
 30
0.0
 11
2217.1454585653
 21
1787.2543978663
 31
0.0
  0
LINE
  5
75
330
1F
100
AcDbEntity
  8
0
  6
Continuous
 62
     7
370
    25
100
AcDbLine
 10
2471.4454585654
 20
897.7543978663
 30
0.0
 11
2357.9454585654
 21
897.7543978663
 31
0.0
  0
LINE
  5
76
330
1F
100
AcDbEntity
  8
0
  6
Continuous
 62
     7
370
    25
100
AcDbLine
 10
2614.9454585654
 20
1796.7543978663
 30
0.0
 11
2214.4454585654
 21
1796.7543978663
 31
0.0
  0
LINE
  5
77
330
1F
100
AcDbEntity
  8
0
  6
Continuous
 62
     7
370
    25
100
AcDbLine
 10
2614.9454585654
 20
1796.7543978663
 30
0.0
 11
2614.9454585654
 21
1768.2543978663
 31
0.0
  0
LINE
  5
78
330
1F
100
AcDbEntity
  8
0
  6
Continuous
 62
     7
370
    25
100
AcDbLine
 10
2614.9454585654
 20
1768.2543978663
 30
0.0
 11
2612.9454585654
 21
1768.2543978663
 31
0.0
  0
LINE
  5
79
330
1F
100
AcDbEntity
  8
0
  6
Continuous
 62
     7
370
    25
100
AcDbLine
 10
2216.9454585654
 20
1768.2543978663
 30
0.0
 11
2214.4454585654
 21
1768.2543978663
 31
0.0
  0
LINE
  5
7A
330
1F
100
AcDbEntity
  8
0
  6
Continuous
 62
     7
370
    25
100
AcDbLine
 10
2214.4454585654
 20
1796.7543978663
 30
0.0
 11
2214.4454585654
 21
1768.2543978663
 31
0.0
  0
LINE
  5
7B
330
1F
100
AcDbEntity
  8
0
  6
Continuous
 62
     7
370
    25
100
AcDbLine
 10
2594.1454585654
 20
902.7543978663
 30
0.0
 11
2596.4454585654
 21
902.7543978663
 31
0.0
  0
LINE
  5
7C
330
1F
100
AcDbEntity
  8
0
  6
Continuous
 62
     7
370
    25
100
AcDbLine
 10
2594.1454585654
 20
902.7543978663
 30
0.0
 11
2594.1454585654
 21
906.7543978663
 31
0.0
  0
LINE
  5
7D
330
1F
100
AcDbEntity
  8
0
  6
Continuous
 62
     7
370
    25
100
AcDbLine
 10
2596.4454585654
 20
897.7543978663
 30
0.0
 11
2594.1454585654
 21
897.7543978663
 31
0.0
  0
LINE
  5
7E
330
1F
100
AcDbEntity
  8
0
  6
Continuous
 62
     7
370
    25
100
AcDbLine
 10
2594.1454585654
 20
897.7543978663
 30
0.0
 11
2594.1454585654
 21
902.7543978663
 31
0.0
  0
LINE
  5
7F
330
1F
100
AcDbEntity
  8
0
  6
Continuous
 62
     7
370
    25
100
AcDbLine
 10
2594.1454585654
 20
897.7543978663
 30
0.0
 11
2593.1454585654
 21
897.7543978663
 31
0.0
  0
ARC
  5
80
330
1F
100
AcDbEntity
  8
0
  6
Continuous
 62
     7
370
    25
100
AcDbCircle
 10
2471.4454585654
 20
902.7543978663
 30
0.0
 40
4.999999999999886
100
AcDbArc
 50
180.0
 51
270.0
  0
LINE
  5
81
330
1F
100
AcDbEntity
  8
0
  6
Continuous
 62
     7
370
    25
100
AcDbLine
 10
2466.4454585654
 20
902.7543978663
 30
0.0
 11
2466.4454585654
 21
906.7543978663
 31
0.0
  0
ARC
  5
82
330
1F
100
AcDbEntity
  8
0
  6
Continuous
 62
     7
370
    25
100
AcDbCircle
 10
2476.4454585654
 20
907.7543978663
 30
0.0
 40
2.000000000000164
100
AcDbArc
 50
210.0
 51
330.0
  0
ARC
  5
83
330
1F
100
AcDbEntity
  8
0
  6
Continuous
 62
     7
370
    25
100
AcDbCircle
 10
2526.4454585654
 20
907.7543978663
 30
0.0
 40
2.000000000000164
100
AcDbArc
 50
210.0
 51
330.0
  0
ARC
  5
84
330
1F
100
AcDbEntity
  8
0
  6
Continuous
 62
     7
370
    25
100
AcDbCircle
 10
2576.4454585654
 20
907.7543978663
 30
0.0
 40
2.000000000000164
100
AcDbArc
 50
210.0
 51
330.0
  0
LINE
  5
85
330
1F
100
AcDbEntity
  8
0
  6
Continuous
 62
     7
370
    25
100
AcDbLine
 10
2593.1454585654
 20
897.7543978663
 30
0.0
 11
2471.4454585654
 21
897.7543978663
 31
0.0
  0
LINE
  5
86
330
1F
100
AcDbEntity
  8
0
  6
Continuous
 62
     7
370
    25
100
AcDbLine
 10
2232.9454585654
 20
902.7543978663
 30
0.0
 11
2235.2454585654
 21
902.7543978663
 31
0.0
  0
LINE
  5
87
330
1F
100
AcDbEntity
  8
0
  6
Continuous
 62
     7
370
    25
100
AcDbLine
 10
2235.2454585654
 20
902.7543978663
 30
0.0
 11
2235.2454585654
 21
897.7543978663
 31
0.0
  0
LINE
  5
88
330
1F
100
AcDbEntity
  8
0
  6
Continuous
 62
     7
370
    25
100
AcDbLine
 10
2235.2454585654
 20
897.7543978663
 30
0.0
 11
2232.9454585654
 21
897.7543978663
 31
0.0
  0
LINE
  5
89
330
1F
100
AcDbEntity
  8
0
  6
Continuous
 62
     7
370
    25
100
AcDbLine
 10
2235.2454585654
 20
906.7543978663
 30
0.0
 11
2235.2454585654
 21
902.7543978663
 31
0.0
  0
LINE
  5
8A
330
1F
100
AcDbEntity
  8
0
  6
Continuous
 62
     7
370
    25
100
AcDbLine
 10
2235.2454585654
 20
897.7543978663
 30
0.0
 11
2236.2454585654
 21
897.7543978663
 31
0.0
  0
LINE
  5
8B
330
1F
100
AcDbEntity
  8
0
  6
Continuous
 62
     7
370
    25
100
AcDbLine
 10
2362.9454585654
 20
906.7543978663
 30
0.0
 11
2362.9454585654
 21
902.7543978663
 31
0.0
  0
ARC
  5
8C
330
1F
100
AcDbEntity
  8
0
  6
Continuous
 62
     7
370
    25
100
AcDbCircle
 10
2357.9454585654
 20
902.7543978663
 30
0.0
 40
5.000000000000114
100
AcDbArc
 50
270.0
 51
0.0
  0
ARC
  5
8D
330
1F
100
AcDbEntity
  8
0
  6
Continuous
 62
     7
370
    25
100
AcDbCircle
 10
2352.9454585654
 20
907.7543978663
 30
0.0
 40
2.000000000000164
100
AcDbArc
 50
210.0
 51
330.0
  0
ARC
  5
8E
330
1F
100
AcDbEntity
  8
0
  6
Continuous
 62
     7
370
    25
100
AcDbCircle
 10
2302.9454585654
 20
907.7543978663
 30
0.0
 40
2.000000000000164
100
AcDbArc
 50
210.0
 51
330.0
  0
ARC
  5
8F
330
1F
100
AcDbEntity
  8
0
  6
Continuous
 62
     7
370
    25
100
AcDbCircle
 10
2252.9454585654
 20
907.7543978663
 30
0.0
 40
2.000000000000164
100
AcDbArc
 50
210.0
 51
330.0
  0
LINE
  5
90
330
1F
100
AcDbEntity
  8
0
  6
Continuous
 62
     7
370
    25
100
AcDbLine
 10
2236.2454585654
 20
897.7543978663
 30
0.0
 11
2357.9454585654
 21
897.7543978663
 31
0.0
  0
LINE
  5
91
330
1F
100
AcDbEntity
  8
0
  6
Continuous
 62
     7
370
    25
100
AcDbLine
 10
2613.9454585654
 20
896.7543978663
 30
0.0
 11
2613.9454585654
 21
1768.2543978663
 31
0.0
  0
LINE
  5
92
330
1F
100
AcDbEntity
  8
0
  6
Continuous
 62
     7
370
    25
100
AcDbLine
 10
2596.4454585654
 20
906.7543978663
 30
0.0
 11
2596.4454585654
 21
896.7543978663
 31
0.0
  0
LINE
  5
93
330
1F
100
AcDbEntity
  8
0
  6
Continuous
 62
     7
370
    25
100
AcDbLine
 10
2596.4454585654
 20
896.7543978663
 30
0.0
 11
2613.9454585654
 21
896.7543978663
 31
0.0
  0
LINE
  5
94
330
1F
100
AcDbEntity
  8
0
  6
Continuous
 62
     7
370
    25
100
AcDbLine
 10
2232.9454585654
 20
896.7543978663
 30
0.0
 11
2232.9454585654
 21
906.7543978663
 31
0.0
  0
LINE
  5
95
330
1F
100
AcDbEntity
  8
0
  6
Continuous
 62
     7
370
    25
100
AcDbLine
 10
2215.4454585654
 20
896.7543978663
 30
0.0
 11
2232.9454585654
 21
896.7543978663
 31
0.0
  0
LINE
  5
96
330
1F
100
AcDbEntity
  8
0
  6
Continuous
 62
     7
370
    25
100
AcDbLine
 10
2215.4454585654
 20
1768.2543978663
 30
0.0
 11
2215.4454585654
 21
896.7543978663
 31
0.0
  0
LINE
  5
97
330
1F
100
AcDbEntity
  8
0
  6
Continuous
 62
     7
370
    25
100
AcDbLine
 10
2612.9454585654
 20
1786.7543978663
 30
0.0
 11
2216.9454585654
 21
1786.7543978663
 31
0.0
  0
LINE
  5
98
330
1F
100
AcDbEntity
  8
0
  6
Continuous
 62
     7
370
    25
100
AcDbLine
 10
2216.9454585654
 20
906.7543978663
 30
0.0
 11
2612.9454585654
 21
906.7543978663
 31
0.0
  0
LINE
  5
99
330
1F
100
AcDbEntity
  8
0
  6
Continuous
 62
     7
370
    25
100
AcDbLine
 10
2216.9454585654
 20
1786.7543978663
 30
0.0
 11
2216.9454585654
 21
906.7543978663
 31
0.0
  0
LINE
  5
9A
330
1F
100
AcDbEntity
  8
0
  6
Continuous
 62
     7
370
    25
100
AcDbLine
 10
2612.9454585654
 20
906.7543978663
 30
0.0
 11
2612.9454585654
 21
1786.7543978663
 31
0.0
  0
LINE
  5
9B
330
1F
100
AcDbEntity
  8
0
  6
Continuous
 62
     7
370
    25
100
AcDbLine
 10
2612.9454585654
 20
1787.0432491446
 30
0.0
 11
2612.9454585654
 21
1786.9543978663
 31
0.0
  0
SPLINE
  5
9C
330
1F
100
AcDbEntity
  8
0
  6
Continuous
 62
     7
370
    25
100
AcDbSpline
210
0.0
220
0.0
230
1.0
 70
     8
 71
     3
 72
    13
 73
     9
 74
     0
 42
0.00000001
 43
0.00000001
 40
0.0
 40
0.0
 40
0.0
 40
0.0
 40
0.0075029974113267
 40
0.3818974549662932
 40
0.607001887327179
 40
0.7653769096344221
 40
0.8824605049809765
 40
1.0
 40
1.0
 40
1.0
 40
1.0
 10
2612.945458565365
 20
1786.954397866314
 30
0.0
 10
2612.945457609761
 20
1786.953959868419
 30
0.0
 10
2612.945408970146
 20
1786.931666074052
 30
0.0
 10
2612.939286865407
 20
1786.884781685834
 30
0.0
 10
2612.897270759933
 20
1786.818497248798
 30
0.0
 10
2612.848459957967
 20
1786.780235689626
 30
0.0
 10
2612.797729310652
 20
1786.75847991389
 30
0.0
 10
2612.762904703201
 20
1786.755760310341
 30
0.0
 10
2612.745458565365
 20
1786.754397866314
 30
0.0
  0
LINE
  5
9D
330
1F
100
AcDbEntity
  8
0
  6
Continuous
 62
     7
370
    25
100
AcDbLine
 10
2612.7454585654
 20
1786.7543978663
 30
0.0
 11
2612.7454585654
 21
1787.2404619641
 31
0.0
  0
ARC
  5
9E
330
1F
100
AcDbEntity
  8
0
  6
Continuous
 62
     7
370
    25
100
AcDbCircle
 10
2612.7468424451
 20
1787.0418457066
 30
0.0
 40
0.1986210785930907
100
AcDbArc
 50
0.4048499764
 51
90.3992079345
  0
LINE
  5
9F
330
1F
100
AcDbEntity
  8
0
  6
Continuous
 62
     7
370
    25
100
AcDbLine
 10
2610.9454585654
 20
1787.2404619641
 30
0.0
 11
2610.9454585654
 21
1786.7543978663
 31
0.0
  0
LINE
  5
A0
330
1F
100
AcDbEntity
  8
0
  6
Continuous
 62
     7
370
    25
100
AcDbLine
 10
2612.7454585654
 20
1787.2404619641
 30
0.0
 11
2610.9454585654
 21
1787.2404619641
 31
0.0
  0
LINE
  5
A1
330
1F
100
AcDbEntity
  8
0
  6
Continuous
 62
     7
370
    25
100
AcDbLine
 10
2610.9454585654
 20
1787.2543978663
 30
0.0
 11
2610.9454585654
 21
1787.2404619641
 31
0.0
  0
LINE
  5
A2
330
1F
100
AcDbEntity
  8
0
  6
Continuous
 62
     7
370
    25
100
AcDbLine
 10
2612.9454585654
 20
1787.0543978663
 30
0.0
 11
2612.9454585654
 21
1787.0432491446
 31
0.0
  0
LINE
  5
A3
330
1F
100
AcDbEntity
  8
0
  6
Continuous
 62
     7
370
    25
100
AcDbLine
 10
2612.9454585654
 20
1786.9543978663
 30
0.0
 11
2612.9454585654
 21
1786.7543978663
 31
0.0
  0
LINE
  5
A4
330
1F
100
AcDbEntity
  8
0
  6
Continuous
 62
     7
370
    25
100
AcDbLine
 10
2610.9454585654
 20
1787.2404619641
 30
0.0
 11
2218.9454585654
 21
1787.2404619641
 31
0.0
  0
LINE
  5
A5
330
1F
100
AcDbEntity
  8
0
  6
Continuous
 62
     7
370
    25
100
AcDbLine
 10
2218.9454585654
 20
1786.7543978663
 30
0.0
 11
2218.9454585654
 21
1787.2404619641
 31
0.0
  0
LINE
  5
A6
330
1F
100
AcDbEntity
  8
0
  6
Continuous
 62
     7
370
    25
100
AcDbLine
 10
2218.9454585654
 20
1787.2404619641
 30
0.0
 11
2218.9454585654
 21
1787.2543978663
 31
0.0
  0
LINE
  5
A7
330
1F
100
AcDbEntity
  8
0
  6
Continuous
 62
     7
370
    25
100
AcDbLine
 10
2216.9454585654
 20
1786.9543978663
 30
0.0
 11
2216.9454585654
 21
1787.0432491446
 31
0.0
  0
ARC
  5
A8
330
1F
100
AcDbEntity
  8
0
  6
Continuous
 62
     7
370
    25
100
AcDbCircle
 10
2217.1440746856
 20
1787.0418457066
 30
0.0
 40
0.1986210785930923
100
AcDbArc
 50
89.6007920656
 51
179.5951500235
  0
LINE
  5
A9
330
1F
100
AcDbEntity
  8
0
  6
Continuous
 62
     7
370
    25
100
AcDbLine
 10
2217.1454585654
 20
1787.2404619641
 30
0.0
 11
2217.1454585654
 21
1786.7543978663
 31
0.0
  0
SPLINE
  5
AA
330
1F
100
AcDbEntity
  8
0
  6
Continuous
 62
     7
370
    25
100
AcDbSpline
210
0.0
220
0.0
230
1.0
 70
     8
 71
     3
 72
    13
 73
     9
 74
     0
 42
0.00000001
 43
0.00000001
 40
0.0
 40
0.0
 40
0.0
 40
0.0
 40
0.007502997411325
 40
0.3818974549657506
 40
0.6070018873268765
 40
0.7653769096342172
 40
0.8824605049807507
 40
1.0
 40
1.0
 40
1.0
 40
1.0
 10
2216.945458565361
 20
1786.954397866314
 30
0.0
 10
2216.945459520966
 20
1786.953959868419
 30
0.0
 10
2216.945508160579
 20
1786.931666074047
 30
0.0
 10
2216.95163026532
 20
1786.884781685835
 30
0.0
 10
2216.993646370794
 20
1786.818497248798
 30
0.0
 10
2217.04245717276
 20
1786.780235689625
 30
0.0
 10
2217.093187820075
 20
1786.75847991389
 30
0.0
 10
2217.128012427525
 20
1786.75576031034
 30
0.0
 10
2217.145458565361
 20
1786.754397866314
 30
0.0
  0
LINE
  5
AB
330
1F
100
AcDbEntity
  8
0
  6
Continuous
 62
     7
370
    25
100
AcDbLine
 10
2218.9454585654
 20
1787.2404619641
 30
0.0
 11
2217.1454585654
 21
1787.2404619641
 31
0.0
  0
LINE
  5
AC
330
1F
100
AcDbEntity
  8
0
  6
Continuous
 62
     7
370
    25
100
AcDbLine
 10
2216.9454585654
 20
1787.0432491446
 30
0.0
 11
2216.9454585654
 21
1787.0543978663
 31
0.0
  0
LINE
  5
AD
330
1F
100
AcDbEntity
  8
0
  6
Continuous
 62
     7
370
    25
100
AcDbLine
 10
2216.9454585654
 20
1786.7543978663
 30
0.0
 11
2216.9454585654
 21
1786.9543978663
 31
0.0
  0
LINE
  5
AE
330
1F
100
AcDbEntity
  8
0
  6
Continuous
 62
     7
370
    25
100
AcDbLine
 10
2593.1454585654
 20
897.7543978663
 30
0.0
 11
2593.1454585654
 21
906.7543978663
 31
0.0
  0
LINE
  5
AF
330
1F
100
AcDbEntity
  8
0
  6
Continuous
 62
     7
370
    25
100
AcDbLine
 10
2236.2454585654
 20
906.7543978663
 30
0.0
 11
2236.2454585654
 21
897.7543978663
 31
0.0
  0
LINE
  5
B0
330
1F
100
AcDbEntity
  8
0
  6
Continuous
 62
     7
370
    25
100
AcDbLine
 10
2612.7454585654
 20
1787.2404619641
 30
0.0
 11
2612.7454585654
 21
1787.2543978663
 31
0.0
  0
LINE
  5
B1
330
1F
100
AcDbEntity
  8
0
  6
Continuous
 62
     7
370
    25
100
AcDbLine
 10
2217.1454585654
 20
1787.2543978663
 30
0.0
 11
2217.1454585654
 21
1787.2404619641
 31
0.0
  0
LINE
  5
B2
330
1F
100
AcDbEntity
  8
0
  6
Continuous
 62
     7
370
    25
100
AcDbLine
 10
755.7831445376
 20
1699.5267567878
 30
0.0
 11
757.7608646997
 21
1699.4749683628
 31
0.0
  0
LINE
  5
B3
330
1F
100
AcDbEntity
  8
0
  6
Continuous
 62
     7
370
    25
100
AcDbLine
 10
757.7608646997
 20
1704.9768537215
 30
0.0
 11
755.9271177533
 21
1705.0248720752
 31
0.0
  0
ARC
  5
B4
330
1F
100
AcDbEntity
  8
0
  6
Continuous
 62
     7
370
    25
100
AcDbCircle
 10
755.7909976221
 20
1699.8266539853
 30
0.0
 40
0.3000000000001063
100
AcDbArc
 50
178.5000000001
 51
268.5000000001
  0
ARC
  5
B5
330
1F
100
AcDbEntity
  8
0
  6
Continuous
 62
     7
370
    25
100
AcDbCircle
 10
755.9192646688
 20
1704.7249748777
 30
0.0
 40
0.3000000000001092
100
AcDbArc
 50
88.5
 51
178.5000000001
  0
ARC
  5
B6
330
1F
100
AcDbEntity
  8
0
  6
Continuous
 62
     7
370
    25
100
AcDbCircle
 10
754.280819647
 20
1728.1258832752
 30
0.0
 40
1.200000000000094
100
AcDbArc
 50
88.5000000001
 51
173.500000003
  0
ARC
  5
B7
330
1F
100
AcDbEntity
  8
0
  6
Continuous
 62
     7
370
    25
100
AcDbCircle
 10
753.8201053568
 20
1710.5319143556
 30
0.0
 40
1.199999999999974
100
AcDbArc
 50
183.4999999971
 51
268.5000000001
  0
LINE
  5
B8
330
1F
100
AcDbEntity
  8
0
  6
Continuous
 62
     7
370
    25
100
AcDbLine
 10
755.0624227623
 20
1729.3058276283
 30
0.0
 11
754.312231985
 21
1729.3254720652
 31
0.0
  0
LINE
  5
B9
330
1F
100
AcDbEntity
  8
0
  6
Continuous
 62
     7
370
    25
100
AcDbLine
 10
753.7886930188
 20
1709.3323255657
 30
0.0
 11
754.5388837961
 21
1709.3126811288
 31
0.0
  0
ARC
  5
BA
330
1F
100
AcDbEntity
  8
0
  6
Continuous
 62
     7
370
    25
100
AcDbCircle
 10
755.0571873726
 20
1729.1058961633
 30
0.0
 40
0.2000000000000808
100
AcDbArc
 50
358.5
 51
88.5000000001
  0
ARC
  5
BB
330
1F
100
AcDbEntity
  8
0
  6
Continuous
 62
     7
370
    25
100
AcDbCircle
 10
754.5441191858
 20
1709.5126125938
 30
0.0
 40
0.2000000000000748
100
AcDbArc
 50
268.5000000002
 51
358.5
  0
LINE
  5
BC
330
1F
100
AcDbEntity
  8
0
  6
Continuous
 62
     7
370
    25
100
AcDbLine
 10
753.0885334202
 20
1728.2617271316
 30
0.0
 11
752.9067456257
 21
1726.6661961367
 31
0.0
  0
LINE
  5
BD
330
1F
100
AcDbEntity
  8
0
  6
Continuous
 62
     7
370
    25
100
AcDbLine
 10
752.5243085784
 20
1712.0615145215
 30
0.0
 11
752.6223435987
 21
1710.4586561082
 31
0.0
  0
ARC
  5
BE
330
1F
100
AcDbEntity
  8
0
  6
Continuous
 62
     7
370
    25
100
AcDbCircle
 10
782.713901296
 20
1723.2700997237
 30
0.0
 40
30.00000000000221
100
AcDbArc
 50
173.5
 51
178.5000000001
  0
ARC
  5
BF
330
1F
100
AcDbEntity
  8
0
  6
Continuous
 62
     7
370
    25
100
AcDbCircle
 10
782.4683525311
 20
1713.8929707076
 30
0.0
 40
30.00000000000207
100
AcDbArc
 50
178.5000000001
 51
183.5000000001
  0
SPLINE
  5
C0
330
1F
100
AcDbEntity
  8
0
  6
Continuous
 62
     7
370
    25
100
AcDbSpline
210
0.0
220
0.0
230
1.0
 70
     8
 71
     3
 72
    13
 73
     9
 74
     0
 42
0.00000001
 43
0.00000001
 40
0.0
 40
0.0
 40
0.0
 40
0.0
 40
0.2397374167688364
 40
0.3685398007313967
 40
0.5000035787039455
 40
0.6314571620063465
 40
0.7602371999079925
 40
1.0
 40
1.0
 40
1.0
 40
1.0
 10
755.6182095108213
 20
1723.789382242829
 30
0.0
 10
755.5551483398788
 20
1723.797732001857
 30
0.0
 10
755.4582066455605
 20
1723.810567789319
 30
0.0
 10
755.3427620111784
 20
1723.876504447238
 30
0.0
 10
755.2641552458679
 20
1723.943613842765
 30
0.0
 10
755.2018152157541
 20
1724.025852176275
 30
0.0
 10
755.142982056956
 20
1724.144464357301
 30
0.0
 10
755.1360317651825
 20
1724.24103275122
 30
0.0
 10
755.1315101160135
 20
1724.303857221376
 30
0.0
  0
SPLINE
  5
C1
330
1F
100
AcDbEntity
  8
0
  6
Continuous
 62
     7
370
    25
100
AcDbSpline
210
0.0
220
0.0
230
1.0
 70
     8
 71
     3
 72
    13
 73
     9
 74
     0
 42
0.00000001
 43
0.00000001
 40
0.0
 40
0.0
 40
0.0
 40
0.0
 40
0.2397628000981694
 40
0.3685428380027725
 40
0.4999964213063512
 40
0.631460199277923
 40
0.760262583237714
 40
1.0
 40
1.0
 40
1.0
 40
1.0
 10
754.8696593723944
 20
1714.304180756397
 30
0.0
 10
754.8774628035213
 20
1714.366682482969
 30
0.0
 10
754.8894575694002
 20
1714.462754783098
 30
0.0
 10
754.9544177813143
 20
1714.578125320634
 30
0.0
 10
755.0209763984071
 20
1714.656988324282
 30
0.0
 10
755.1029876702654
 20
1714.719891788488
 30
0.0
 10
755.2217249498322
 20
1714.779696177177
 30
0.0
 10
755.3192055621388
 20
1714.78744083736
 30
0.0
 10
755.3826173025614
 20
1714.792478786647
 30
0.0
  0
LINE
  5
C2
330
1F
100
AcDbEntity
  8
0
  6
Continuous
 62
     7
370
    25
100
AcDbLine
 10
757.7608646997
 20
1723.7332810807
 30
0.0
 11
755.6182096741
 21
1723.7893884771
 31
0.0
  0
LINE
  5
C3
330
1F
100
AcDbEntity
  8
0
  6
Continuous
 62
     7
370
    25
100
AcDbLine
 10
755.3826171393
 20
1714.7924725523
 30
0.0
 11
757.7608646997
 21
1714.7301959483
 31
0.0
  0
LINE
  5
C4
330
1F
100
AcDbEntity
  8
0
  6
Continuous
 62
     7
370
    25
100
AcDbLine
 10
757.7608646997
 20
1796.7543978663
 30
0.0
 11
1136.7608646997
 21
1796.7543978663
 31
0.0
  0
LINE
  5
C5
330
1F
100
AcDbEntity
  8
0
  6
Continuous
 62
     7
370
    25
100
AcDbLine
 10
1136.7608646997
 20
1796.7543978663
 30
0.0
 11
1136.7608646997
 21
1768.2543978663
 31
0.0
  0
LINE
  5
C6
330
1F
100
AcDbEntity
  8
0
  6
Continuous
 62
     7
370
    25
100
AcDbLine
 10
1136.7608646997
 20
1768.2543978663
 30
0.0
 11
757.7608646997
 21
1768.2543978663
 31
0.0
  0
LINE
  5
C7
330
1F
100
AcDbEntity
  8
0
  6
Continuous
 62
     7
370
    25
100
AcDbLine
 10
757.7608646997
 20
1768.2543978663
 30
0.0
 11
757.7608646997
 21
1796.7543978663
 31
0.0
  0
LINE
  5
C8
330
1F
100
AcDbEntity
  8
0
  6
Continuous
 62
     7
370
    25
100
AcDbLine
 10
1136.2608646997
 20
1768.2543978663
 30
0.0
 11
1136.2608646997
 21
896.7543978663
 31
0.0
  0
LINE
  5
C9
330
1F
100
AcDbEntity
  8
0
  6
Continuous
 62
     7
370
    25
100
AcDbLine
 10
1136.2608646997
 20
896.7543978663
 30
0.0
 11
757.7608646997
 21
896.7543978663
 31
0.0
  0
LINE
  5
CA
330
1F
100
AcDbEntity
  8
0
  6
Continuous
 62
     7
370
    25
100
AcDbLine
 10
757.7608646997
 20
1768.2543978663
 30
0.0
 11
757.7608646997
 21
896.7543978663
 31
0.0
  0
LINE
  5
CB
330
1F
100
AcDbEntity
  8
0
  6
Continuous
 62
     7
370
    25
100
AcDbLine
 10
1139.7608646997
 20
1773.7543978663
 30
0.0
 11
1139.7608646997
 21
1753.2543978663
 31
0.0
  0
LINE
  5
CC
330
1F
100
AcDbEntity
  8
0
  6
Continuous
 62
     7
370
    25
100
AcDbLine
 10
1152.2608646997
 20
1773.7543978663
 30
0.0
 11
1139.7608646997
 21
1773.7543978663
 31
0.0
  0
LINE
  5
CD
330
1F
100
AcDbEntity
  8
0
  6
Continuous
 62
     7
370
    25
100
AcDbLine
 10
1152.2608646997
 20
1786.7543978663
 30
0.0
 11
1152.2608646997
 21
1773.7543978663
 31
0.0
  0
LINE
  5
CE
330
1F
100
AcDbEntity
  8
0
  6
Continuous
 62
     7
370
    25
100
AcDbLine
 10
1156.2608646997
 20
1786.7543978663
 30
0.0
 11
1152.2608646997
 21
1786.7543978663
 31
0.0
  0
LINE
  5
CF
330
1F
100
AcDbEntity
  8
0
  6
Continuous
 62
     7
370
    25
100
AcDbLine
 10
1156.2608646997
 20
1786.7543978663
 30
0.0
 11
1156.2608646997
 21
906.7543978663
 31
0.0
  0
LINE
  5
D0
330
1F
100
AcDbEntity
  8
0
  6
Continuous
 62
     7
370
    25
100
AcDbLine
 10
1156.2608646997
 20
906.7543978663
 30
0.0
 11
1138.2608646997
 21
906.7543978663
 31
0.0
  0
LINE
  5
D1
330
1F
100
AcDbEntity
  8
0
  6
Continuous
 62
     7
370
    25
100
AcDbLine
 10
1138.2608646997
 20
1753.2543978663
 30
0.0
 11
1138.2608646997
 21
906.7543978663
 31
0.0
  0
LINE
  5
D2
330
1F
100
AcDbEntity
  8
0
  6
Continuous
 62
     7
370
    25
100
AcDbLine
 10
1139.7608646997
 20
1753.2543978663
 30
0.0
 11
1138.2608646997
 21
1753.2543978663
 31
0.0
  0
SPLINE
  5
D3
330
1F
100
AcDbEntity
  8
0
  6
Continuous
 62
     7
370
    25
100
AcDbSpline
210
0.0
220
0.0
230
1.0
 70
     8
 71
     3
 72
    11
 73
     7
 74
     0
 42
0.00000001
 43
0.00000001
 40
0.0
 40
0.0
 40
0.0
 40
0.0
 40
0.238224734984773
 40
0.4921376904587506
 40
0.7460575595466356
 40
1.0
 40
1.0
 40
1.0
 40
1.0
 10
755.4913742188836
 20
1699.844962851263
 30
0.0
 10
755.49204660313
 20
1699.870640170779
 30
0.0
 10
755.4934356512913
 20
1699.923685782202
 30
0.0
 10
755.5069732494542
 20
1700.440665780924
 30
0.0
 10
755.5270738372199
 20
1701.208276326883
 30
0.0
 10
755.5434574874986
 20
1701.83394251891
 30
0.0
 10
755.5516496767144
 20
1702.146789518436
 30
0.0
  0
LINE
  5
D4
330
1F
100
AcDbEntity
  8
0
  6
Continuous
 62
     7
370
    25
100
AcDbLine
 10
755.5516496767
 20
1702.1467895184
 30
0.0
 11
755.555233948
 21
1702.283667516
 31
0.0
  0
SPLINE
  5
D5
330
1F
100
AcDbEntity
  8
0
  6
Continuous
 62
     7
370
    25
100
AcDbSpline
210
0.0
220
0.0
230
1.0
 70
    24
 71
     3
 72
    12
 73
     8
 74
     0
 42
0.00000001
 43
0.00000001
 40
0.0
 40
0.0
 40
0.0
 40
0.0
 40
0.2460973337377059
 40
0.4921955654186517
 40
0.7383025770436032
 40
0.9844160040481846
 40
0.9999999999999999
 40
0.9999999999999999
 40
0.9999999999999999
 40
0.9999999999999999
 10
755.555233947963
 20
1702.283667516012
 30
0.0
 10
755.5634634249637
 20
1702.597938563508
 30
0.0
 10
755.5799224089923
 20
1703.22648180519
 30
0.0
 10
755.601238412102
 20
1704.040507122349
 30
0.0
 10
755.6147786748475
 20
1704.557588895097
 30
0.0
 10
755.6206981519306
 20
1704.783644604752
 30
0.0
 10
755.6191779215918
 20
1704.725589350339
 30
0.0
 10
755.6190873923724
 20
1704.722132178925
 30
0.0
  0
SPLINE
  5
D6
330
1F
100
AcDbEntity
  8
0
  6
Continuous
 62
     7
370
    25
100
AcDbSpline
210
0.0
220
0.0
230
1.0
 70
    24
 71
     3
 72
    13
 73
     9
 74
     0
 42
0.00000001
 43
0.00000001
 40
0.0
 40
0.0
 40
0.0
 40
0.0
 40
0.1538581583651799
 40
0.3079676862452376
 40
0.4535077802384461
 40
0.5878340078344886
 40
0.8177872163812427
 40
0.9999999999999999
 40
0.9999999999999999
 40
0.9999999999999999
 40
0.9999999999999999
 10
755.2568851491645
 20
1729.09173657193
 30
0.0
 10
755.2555656725211
 20
1729.041347791838
 30
0.0
 10
755.2529245635072
 20
1728.940487907756
 30
0.0
 10
755.230697778095
 20
1728.091681217701
 30
0.0
 10
755.1985297677986
 20
1726.863234465786
 30
0.0
 10
755.1492668362107
 20
1724.981959007913
 30
0.0
 10
755.0834475074713
 20
1722.468420251283
 30
0.0
 10
755.0287224443239
 20
1720.378554404692
 30
0.0
 10
755.0045292641989
 20
1719.454654130202
 30
0.0
  0
SPLINE
  5
D7
330
1F
100
AcDbEntity
  8
0
  6
Continuous
 62
     7
370
    25
100
AcDbSpline
210
0.0
220
0.0
230
1.0
 70
    24
 71
     3
 72
    13
 73
     9
 74
     0
 42
0.00000001
 43
0.00000001
 40
0.0
 40
0.0
 40
0.0
 40
0.0
 40
0.1813201537905579
 40
0.410146844837893
 40
0.5438150184963808
 40
0.6886421238874934
 40
0.841996687412649
 40
1.0
 40
1.0
 40
1.0
 40
1.0
 10
755.000584744203
 20
1719.304018988888
 30
0.0
 10
754.9763578705606
 20
1718.378832010849
 30
0.0
 10
754.9215565946018
 20
1716.286055714363
 30
0.0
 10
754.8551963635792
 20
1713.751860732929
 30
0.0
 10
754.8052253470261
 20
1711.843544601186
 30
0.0
 10
754.7723032583107
 20
1710.586300756255
 30
0.0
 10
754.7490210995842
 20
1709.697190985349
 30
0.0
 10
754.7457289061753
 20
1709.571467191351
 30
0.0
 10
754.7440582323167
 20
1709.507666730701
 30
0.0
  0
LINE
  5
D8
330
1F
100
AcDbEntity
  8
0
  6
Continuous
 62
     7
370
    25
100
AcDbLine
 10
752.4786327818
 20
1714.6782791568
 30
0.0
 11
752.7241815467
 21
1724.0554081729
 31
0.0
  0
SPLINE
  5
D9
330
1F
100
AcDbEntity
  8
0
  6
Continuous
 62
     7
370
    25
100
AcDbSpline
210
0.0
220
0.0
230
1.0
 70
     8
 71
     3
 72
    11
 73
     7
 74
     0
 42
0.00000001
 43
0.00000001
 40
0.0
 40
0.0
 40
0.0
 40
0.0
 40
0.2702619356887885
 40
0.5624305486188851
 40
0.7897374073728121
 40
1.0
 40
1.0
 40
1.0
 40
1.0
 10
755.4965437889365
 20
1719.143155774586
 30
0.0
 10
755.4257065946487
 20
1719.144721041432
 30
0.0
 10
755.2782903410637
 20
1719.147978451281
 30
0.0
 10
755.1105191259072
 20
1719.147927095691
 30
0.0
 10
755.0127956958081
 20
1719.144958610178
 30
0.0
 10
755.0016438762464
 20
1719.141490841412
 30
0.0
 10
754.9962851600786
 20
1719.139824495535
 30
0.0
  0
ARC
  5
DA
330
1F
100
AcDbEntity
  8
0
  6
Continuous
 62
     7
370
    25
100
AcDbCircle
 10
1149.3440509297
 20
1776.7543978663
 30
0.0
 40
1.200000000000045
100
AcDbArc
 50
270.0
 51
355.0300534053
  0
LINE
  5
DB
330
1F
100
AcDbEntity
  8
0
  6
Continuous
 62
     7
370
    25
100
AcDbLine
 10
1151.3807278807
 20
1786.323704423
 30
0.0
 11
1150.539539262
 21
1776.6504380312
 31
0.0
  0
ARC
  5
DC
330
1F
100
AcDbEntity
  8
0
  6
Continuous
 62
     7
370
    25
100
AcDbCircle
 10
1152.1777201022
 20
1786.2543978663
 30
0.0
 40
0.8000000000001677
100
AcDbArc
 50
80.4234115189
 51
175.0300534053
  0
ARC
  5
DD
330
1F
100
AcDbEntity
  8
0
  6
Continuous
 62
     7
370
    25
100
AcDbCircle
 10
1152.2609030256
 20
1786.7474299152
 30
0.0
 40
0.3000000000000862
100
AcDbArc
 50
43.6216529673
 51
80.4234115189
  0
LINE
  5
DE
330
1F
100
AcDbEntity
  8
0
  6
Continuous
 62
     7
370
    25
100
AcDbLine
 10
1152.0608646997
 20
1786.9543978663
 30
0.0
 11
1152.4780763832
 21
1786.9543978663
 31
0.0
  0
LINE
  5
DF
330
1F
100
AcDbEntity
  8
0
  6
Continuous
 62
     7
370
    25
100
AcDbLine
 10
1152.0608646997
 20
1773.9543978663
 30
0.0
 11
1152.0608646997
 21
1786.9543978663
 31
0.0
  0
LINE
  5
E0
330
1F
100
AcDbEntity
  8
0
  6
Continuous
 62
     7
370
    25
100
AcDbLine
 10
1139.5608646997
 20
1773.9543978663
 30
0.0
 11
1152.0608646997
 21
1773.9543978663
 31
0.0
  0
LINE
  5
E1
330
1F
100
AcDbEntity
  8
0
  6
Continuous
 62
     7
370
    25
100
AcDbLine
 10
1139.5608646997
 20
1753.9543978663
 30
0.0
 11
1139.5608646997
 21
1773.9543978663
 31
0.0
  0
LINE
  5
E2
330
1F
100
AcDbEntity
  8
0
  6
Continuous
 62
     7
370
    25
100
AcDbLine
 10
1138.1608646997
 20
1753.9543978663
 30
0.0
 11
1139.5608646997
 21
1753.9543978663
 31
0.0
  0
LINE
  5
E3
330
1F
100
AcDbEntity
  8
0
  6
Continuous
 62
     7
370
    25
100
AcDbLine
 10
1138.1608646997
 20
1774.7543978663
 30
0.0
 11
1138.1608646997
 21
1753.9543978663
 31
0.0
  0
ARC
  5
E4
330
1F
100
AcDbEntity
  8
0
  6
Continuous
 62
     7
370
    25
100
AcDbCircle
 10
1138.9608646997
 20
1774.7543978663
 30
0.0
 40
0.7999999999999545
100
AcDbArc
 50
90.0
 51
180.0
  0
LINE
  5
E5
330
1F
100
AcDbEntity
  8
0
  6
Continuous
 62
     7
370
    25
100
AcDbLine
 10
1149.3440509297
 20
1775.5543978663
 30
0.0
 11
1138.9608646997
 21
1775.5543978663
 31
0.0
  0
LINE
  5
E6
330
1F
100
AcDbEntity
  8
0
  6
Continuous
 62
     7
370
    25
100
AcDbLine
 10
1150.539539262
 20
1776.6504380312
 30
0.0
 11
1150.3402912066
 21
1776.6677646704
 31
0.0
  0
LINE
  5
E7
330
1F
100
AcDbEntity
  8
0
  6
Continuous
 62
     7
370
    25
100
AcDbLine
 10
1150.3402912066
 20
1776.6677646704
 30
0.0
 11
1151.1814798253
 21
1786.3410310622
 31
0.0
  0
LINE
  5
E8
330
1F
100
AcDbEntity
  8
0
  6
Continuous
 62
     7
370
    25
100
AcDbLine
 10
1151.3807278807
 20
1786.323704423
 30
0.0
 11
1151.1814798253
 21
1786.3410310622
 31
0.0
  0
ARC
  5
E9
330
1F
100
AcDbEntity
  8
0
  6
Continuous
 62
     7
370
    25
100
AcDbCircle
 10
1152.1777201022
 20
1786.2543978663
 30
0.0
 40
1.000000000000125
100
AcDbArc
 50
80.4234115189
 51
175.0300534053
  0
LINE
  5
EA
330
1F
100
AcDbEntity
  8
0
  6
Continuous
 62
     7
370
    25
100
AcDbLine
 10
1152.3108127797
 20
1787.0432491446
 30
0.0
 11
1152.3440859491
 21
1787.2404619641
 31
0.0
  0
LINE
  5
EB
330
1F
100
AcDbEntity
  8
0
  6
Continuous
 62
     7
370
    25
100
AcDbLine
 10
1152.2608646997
 20
1786.7543978663
 30
0.0
 11
1152.0608646997
 21
1786.9543978663
 31
0.0
  0
SPLINE
  5
EC
330
1F
100
AcDbEntity
  8
0
  6
Continuous
 62
     7
370
    25
100
AcDbSpline
210
0.0
220
0.0
230
1.0
 70
     8
 71
     3
 72
    13
 73
     9
 74
     0
 42
0.00000001
 43
0.00000001
 40
0.0
 40
0.0
 40
0.0
 40
0.0
 40
0.007502997411325
 40
0.3818974549657506
 40
0.6070018873268765
 40
0.7653769096342172
 40
0.8824605049807507
 40
1.0
 40
1.0
 40
1.0
 40
1.0
 10
1152.47807638316
 20
1786.954397866314
 30
0.0
 10
1152.479094159776
 20
1786.953959868419
 30
0.0
 10
1152.530898295915
 20
1786.931666074047
 30
0.0
 10
1152.609483661282
 20
1786.884781685835
 30
0.0
 10
1152.692123125315
 20
1786.818497248798
 30
0.0
 10
1152.734219243413
 20
1786.780235689625
 30
0.0
 10
1152.756742670249
 20
1786.75847991389
 30
0.0
 10
1152.759482096363
 20
1786.75576031034
 30
0.0
 10
1152.76085447093
 20
1786.754397866314
 30
0.0
  0
LINE
  5
ED
330
1F
100
AcDbEntity
  8
0
  6
Continuous
 62
     7
370
    25
100
AcDbLine
 10
1152.2608646997
 20
1773.7543978663
 30
0.0
 11
1152.0608646997
 21
1773.9543978663
 31
0.0
  0
ARC
  5
EE
330
1F
100
AcDbEntity
  8
0
  6
Continuous
 62
     7
370
    25
100
AcDbCircle
 10
1152.2609030256
 20
1786.7474299152
 30
0.0
 40
0.5000000000000436
100
AcDbArc
 50
0.7984942261
 51
80.423411519
  0
LINE
  5
EF
330
1F
100
AcDbEntity
  8
0
  6
Continuous
 62
     7
370
    25
100
AcDbLine
 10
1137.9608646997
 20
1774.7543978663
 30
0.0
 11
1138.1608646997
 21
1774.7543978663
 31
0.0
  0
ARC
  5
F0
330
1F
100
AcDbEntity
  8
0
  6
Continuous
 62
     7
370
    25
100
AcDbCircle
 10
1138.9608646997
 20
1774.7543978663
 30
0.0
 40
1.0
100
AcDbArc
 50
90.0
 51
180.0
  0
LINE
  5
F1
330
1F
100
AcDbEntity
  8
0
  6
Continuous
 62
     7
370
    25
100
AcDbLine
 10
1138.9608646997
 20
1775.5543978663
 30
0.0
 11
1138.9608646997
 21
1775.7543978663
 31
0.0
  0
LINE
  5
F2
330
1F
100
AcDbEntity
  8
0
  6
Continuous
 62
     7
370
    25
100
AcDbLine
 10
1137.9608646997
 20
1753.9543978663
 30
0.0
 11
1137.9608646997
 21
1774.7543978663
 31
0.0
  0
LINE
  5
F3
330
1F
100
AcDbEntity
  8
0
  6
Continuous
 62
     7
370
    25
100
AcDbLine
 10
1137.9608646997
 20
1753.9543978663
 30
0.0
 11
1138.1608646997
 21
1753.9543978663
 31
0.0
  0
LINE
  5
F4
330
1F
100
AcDbEntity
  8
0
  6
Continuous
 62
     7
370
    25
100
AcDbLine
 10
1139.7608646997
 20
1773.7543978663
 30
0.0
 11
1139.5608646997
 21
1773.9543978663
 31
0.0
  0
LINE
  5
F5
330
1F
100
AcDbEntity
  8
0
  6
Continuous
 62
     7
370
    25
100
AcDbLine
 10
1149.3440509297
 20
1775.5543978663
 30
0.0
 11
1149.3440509297
 21
1775.7543978663
 31
0.0
  0
ARC
  5
F6
330
1F
100
AcDbEntity
  8
0
  6
Continuous
 62
     7
370
    25
100
AcDbCircle
 10
1149.3440509297
 20
1776.7543978663
 30
0.0
 40
1.000000000000227
100
AcDbArc
 50
270.0
 51
355.0300534053
  0
LINE
  5
F7
330
1F
100
AcDbEntity
  8
0
  6
Continuous
 62
     7
370
    25
100
AcDbLine
 10
1139.7608646997
 20
1753.7543978663
 30
0.0
 11
1139.5608646997
 21
1753.9543978663
 31
0.0
  0
LINE
  5
F8
330
1F
100
AcDbEntity
  8
0
  6
Continuous
 62
     7
370
    25
100
AcDbLine
 10
1138.1608646997
 20
1753.7543978663
 30
0.0
 11
1138.1608646997
 21
1753.9543978663
 31
0.0
  0
ARC
  5
F9
330
1F
100
AcDbEntity
  8
0
  6
Continuous
 62
     7
370
    25
100
AcDbCircle
 10
1138.1608646997
 20
1753.9543978663
 30
0.0
 40
0.2000000000002728
100
AcDbArc
 50
180.0
 51
270.0
  0
LINE
  5
FA
330
1F
100
AcDbEntity
  8
0
  6
Continuous
 62
     7
370
    25
100
AcDbLine
 10
1139.7608646997
 20
1753.7543978663
 30
0.0
 11
1138.1608646997
 21
1753.7543978663
 31
0.0
  0
LINE
  5
FB
330
1F
100
AcDbEntity
  8
0
  6
Continuous
 62
     7
370
    25
100
AcDbLine
 10
1138.9608646997
 20
1775.7543978663
 30
0.0
 11
1149.3440509297
 21
1775.7543978663
 31
0.0
  0
LINE
  5
FC
330
1F
100
AcDbEntity
  8
0
  6
Continuous
 62
     7
370
    25
100
AcDbLine
 10
1137.0608646997
 20
1754.0543978663
 30
0.0
 11
1137.0608646997
 21
1755.2543978663
 31
0.0
  0
LINE
  5
FD
330
1F
100
AcDbEntity
  8
0
  6
Continuous
 62
     7
370
    25
100
AcDbLine
 10
1136.2608646997
 20
1755.2543978663
 30
0.0
 11
1137.0608646997
 21
1755.2543978663
 31
0.0
  0
LINE
  5
FE
330
1F
100
AcDbEntity
  8
0
  6
Continuous
 62
     7
370
    25
100
AcDbLine
 10
1136.2608646997
 20
1754.0543978663
 30
0.0
 11
1137.0608646997
 21
1754.0543978663
 31
0.0
  0
LINE
  5
FF
330
1F
100
AcDbEntity
  8
0
  6
Continuous
 62
     7
370
    25
100
AcDbLine
 10
1137.0608646997
 20
1755.2543978663
 30
0.0
 11
1137.9608646997
 21
1755.2543978663
 31
0.0
  0
LINE
  5
100
330
1F
100
AcDbEntity
  8
0
  6
Continuous
 62
     7
370
    25
100
AcDbLine
 10
1137.0608646997
 20
1754.0543978663
 30
0.0
 11
1137.9608646997
 21
1754.0543978663
 31
0.0
  0
LINE
  5
101
330
1F
100
AcDbEntity
  8
0
  6
Continuous
 62
     7
370
    25
100
AcDbLine
 10
1137.0608646997
 20
1736.2543978663
 30
0.0
 11
1138.2608646997
 21
1736.2543978663
 31
0.0
  0
LINE
  5
102
330
1F
100
AcDbEntity
  8
0
  6
Continuous
 62
     7
370
    25
100
AcDbLine
 10
1137.0608646997
 20
1736.2543978663
 30
0.0
 11
1137.0608646997
 21
1754.0543978663
 31
0.0
  0
LINE
  5
103
330
1F
100
AcDbEntity
  8
0
  6
Continuous
 62
     7
370
    25
100
AcDbLine
 10
1138.2608646997
 20
1753.2543978663
 30
0.0
 11
1138.2608646997
 21
1753.7543978663
 31
0.0
  0
LINE
  5
104
330
1F
100
AcDbEntity
  8
0
  6
Continuous
 62
     7
370
    25
100
AcDbLine
 10
1137.0608646997
 20
1735.2510784443
 30
0.0
 11
1137.0608646997
 21
1736.2543978663
 31
0.0
  0
LINE
  5
105
330
1F
100
AcDbEntity
  8
0
  6
Continuous
 62
     7
370
    25
100
AcDbLine
 10
1137.7608646997
 20
1355.7103560054
 30
0.0
 11
1138.2608646997
 21
1355.7103560054
 31
0.0
  0
LINE
  5
106
330
1F
100
AcDbEntity
  8
0
  6
Continuous
 62
     7
370
    25
100
AcDbLine
 10
1137.7608646997
 20
1354.1543978661
 30
0.0
 11
1138.2608646997
 21
1354.1543978661
 31
0.0
  0
LINE
  5
107
330
1F
100
AcDbEntity
  8
0
  6
Continuous
 62
     7
370
    25
100
AcDbLine
 10
1137.7608646997
 20
1354.1543978661
 30
0.0
 11
1137.7608646997
 21
1355.7103560054
 31
0.0
  0
LINE
  5
108
330
1F
100
AcDbEntity
  8
0
  6
Continuous
 62
     7
370
    25
100
AcDbLine
 10
1138.2608646997
 20
1337.7984397272
 30
0.0
 11
1137.7608646997
 21
1337.7984397272
 31
0.0
  0
LINE
  5
109
330
1F
100
AcDbEntity
  8
0
  6
Continuous
 62
     7
370
    25
100
AcDbLine
 10
1137.7608646997
 20
1337.7984397272
 30
0.0
 11
1137.7608646997
 21
1339.3543978665
 31
0.0
  0
LINE
  5
10A
330
1F
100
AcDbEntity
  8
0
  6
Continuous
 62
     7
370
    25
100
AcDbLine
 10
1138.2608646997
 20
1339.3543978665
 30
0.0
 11
1137.7608646997
 21
1339.3543978665
 31
0.0
  0
LINE
  5
10B
330
1F
100
AcDbEntity
  8
0
  6
Continuous
 62
     7
370
    25
100
AcDbLine
 10
1138.0608646997
 20
1365.1459720241
 30
0.0
 11
1137.7608646997
 21
1365.1459720241
 31
0.0
  0
LINE
  5
10C
330
1F
100
AcDbEntity
  8
0
  6
Continuous
 62
     7
370
    25
100
AcDbLine
 10
1138.2608646997
 20
1365.1459720241
 30
0.0
 11
1138.0608646997
 21
1365.1459720241
 31
0.0
  0
LINE
  5
10D
330
1F
100
AcDbEntity
  8
0
  6
Continuous
 62
     7
370
    25
100
AcDbLine
 10
1137.7608646997
 20
1365.1459720241
 30
0.0
 11
1137.7608646997
 21
1355.7103560054
 31
0.0
  0
LINE
  5
10E
330
1F
100
AcDbEntity
  8
0
  6
Continuous
 62
     7
370
    25
100
AcDbLine
 10
1138.0608646997
 20
1328.3628237086
 30
0.0
 11
1138.2608646997
 21
1328.3628237086
 31
0.0
  0
LINE
  5
10F
330
1F
100
AcDbEntity
  8
0
  6
Continuous
 62
     7
370
    25
100
AcDbLine
 10
1137.7608646997
 20
1328.3628237086
 30
0.0
 11
1138.0608646997
 21
1328.3628237086
 31
0.0
  0
LINE
  5
110
330
1F
100
AcDbEntity
  8
0
  6
Continuous
 62
     7
370
    25
100
AcDbLine
 10
1137.7608646997
 20
1337.7984397272
 30
0.0
 11
1137.7608646997
 21
1328.3628237086
 31
0.0
  0
SPLINE
  5
111
330
1F
100
AcDbEntity
  8
0
  6
Continuous
 62
     7
370
    25
100
AcDbSpline
210
0.0
220
0.0
230
1.0
 70
    24
 71
     3
 72
    12
 73
     8
 74
     0
 42
0.00000001
 43
0.00000001
 40
0.0
 40
0.0
 40
0.0
 40
0.0
 40
0.1234882189599698
 40
0.30475747760619
 40
0.4857888495154239
 40
0.6670582153992519
 40
1.0
 40
1.0
 40
1.0
 40
1.0
 10
1136.2608646997
 20
1375.254397866311
 30
0.0
 10
1136.300611268736
 20
1375.254397866311
 30
0.0
 10
1136.398702116794
 20
1375.254397866311
 30
0.0
 10
1136.638675405153
 20
1375.254397866311
 30
0.0
 10
1136.954289593648
 20
1375.254397866311
 30
0.0
 10
1137.421199682747
 20
1375.254397866311
 30
0.0
 10
1137.809468282984
 20
1375.254397866313
 30
0.0
 10
1138.060864699701
 20
1375.254397866314
 30
0.0
  0
LINE
  5
112
330
1F
100
AcDbEntity
  8
0
  6
Continuous
 62
     7
370
    25
100
AcDbLine
 10
1138.0608646997
 20
1374.2543978663
 30
0.0
 11
1138.0608646997
 21
1375.2543978663
 31
0.0
  0
SPLINE
  5
113
330
1F
100
AcDbEntity
  8
0
  6
Continuous
 62
     7
370
    25
100
AcDbSpline
210
0.0
220
0.0
230
1.0
 70
    24
 71
     3
 72
    12
 73
     8
 74
     0
 42
0.00000001
 43
0.00000001
 40
0.0
 40
0.0
 40
0.0
 40
0.0
 40
0.3329369653746101
 40
0.5139656098134145
 40
0.6952322446452489
 40
0.8762609961860259
 40
1.0
 40
1.0
 40
1.0
 40
1.0
 10
1138.060864699707
 20
1318.254397866315
 30
0.0
 10
1137.809467286564
 20
1318.254397866314
 30
0.0
 10
1137.421376932566
 20
1318.254397866312
 30
0.0
 10
1136.954447662892
 20
1318.254397866312
 30
0.0
 10
1136.63892877387
 20
1318.254397866312
 30
0.0
 10
1136.398804555353
 20
1318.254397866312
 30
0.0
 10
1136.300697304343
 20
1318.254397866312
 30
0.0
 10
1136.2608646997
 20
1318.254397866312
 30
0.0
  0
LINE
  5
114
330
1F
100
AcDbEntity
  8
0
  6
Continuous
 62
     7
370
    25
100
AcDbLine
 10
1138.0608646997
 20
1319.2543978663
 30
0.0
 11
1138.0608646997
 21
1318.2543978663
 31
0.0
  0
LINE
  5
115
330
1F
100
AcDbEntity
  8
0
  6
Continuous
 62
     7
370
    25
100
AcDbLine
 10
1138.2608646997
 20
1374.2543978663
 30
0.0
 11
1138.0608646997
 21
1374.2543978663
 31
0.0
  0
LINE
  5
116
330
1F
100
AcDbEntity
  8
0
  6
Continuous
 62
     7
370
    25
100
AcDbLine
 10
1138.0608646997
 20
1374.2543978663
 30
0.0
 11
1138.0608646997
 21
1365.1459720241
 31
0.0
  0
SPLINE
  5
117
330
1F
100
AcDbEntity
  8
0
  6
Continuous
 62
     7
370
    25
100
AcDbSpline
210
0.0
220
0.0
230
1.0
 70
     8
 71
     3
 72
    10
 73
     6
 74
     0
 42
0.00000001
 43
0.00000001
 40
0.0
 40
0.0
 40
0.0
 40
0.0
 40
0.0371311943356953
 40
0.5486628195556505
 40
1.0
 40
1.0
 40
1.0
 40
1.0
 10
1136.2608646997
 20
1357.000162206482
 30
0.0
 10
1136.266487551913
 20
1356.993443859057
 30
0.0
 10
1136.349572677618
 20
1356.894171333436
 30
0.0
 10
1136.571128650202
 20
1356.793742420243
 30
0.0
 10
1136.802439539448
 20
1356.766954495413
 30
0.0
 10
1136.910864699703
 20
1356.754397866315
 30
0.0
  0
LINE
  5
118
330
1F
100
AcDbEntity
  8
0
  6
Continuous
 62
     7
370
    25
100
AcDbLine
 10
1137.7608646997
 20
1356.7543978663
 30
0.0
 11
1136.9108646997
 21
1356.7543978663
 31
0.0
  0
LINE
  5
119
330
1F
100
AcDbEntity
  8
0
  6
Continuous
 62
     7
370
    25
100
AcDbLine
 10
1138.2608646997
 20
1319.2543978663
 30
0.0
 11
1138.0608646997
 21
1319.2543978663
 31
0.0
  0
LINE
  5
11A
330
1F
100
AcDbEntity
  8
0
  6
Continuous
 62
     7
370
    25
100
AcDbLine
 10
1138.0608646997
 20
1328.3628237086
 30
0.0
 11
1138.0608646997
 21
1319.2543978663
 31
0.0
  0
SPLINE
  5
11B
330
1F
100
AcDbEntity
  8
0
  6
Continuous
 62
     7
370
    25
100
AcDbSpline
210
0.0
220
0.0
230
1.0
 70
     8
 71
     3
 72
     9
 73
     5
 74
     0
 42
0.00000001
 43
0.00000001
 40
0.0
 40
0.0
 40
0.0
 40
0.0
 40
0.5050081268949749
 40
1.0
 40
1.0
 40
1.0
 40
1.0
 10
1136.910864699705
 20
1336.754397866314
 30
0.0
 10
1136.787568427837
 20
1336.74217800693
 30
0.0
 10
1136.543421323462
 20
1336.717980654981
 30
0.0
 10
1136.354419209909
 20
1336.580904581719
 30
0.0
 10
1136.2608646997
 20
1336.513053039457
 30
0.0
  0
LINE
  5
11C
330
1F
100
AcDbEntity
  8
0
  6
Continuous
 62
     7
370
    25
100
AcDbLine
 10
1136.9108646997
 20
1336.7543978663
 30
0.0
 11
1137.7608646997
 21
1336.7543978663
 31
0.0
  0
LINE
  5
11D
330
1F
100
AcDbEntity
  8
0
  6
Continuous
 62
     7
370
    25
100
AcDbLine
 10
1138.2608646997
 20
1375.2543978663
 30
0.0
 11
1138.0608646997
 21
1375.2543978663
 31
0.0
  0
LINE
  5
11E
330
1F
100
AcDbEntity
  8
0
  6
Continuous
 62
     7
370
    25
100
AcDbLine
 10
1138.2608646997
 20
1318.2543978663
 30
0.0
 11
1138.0608646997
 21
1318.2543978663
 31
0.0
  0
LINE
  5
11F
330
1F
100
AcDbEntity
  8
0
  6
Continuous
 62
     7
370
    25
100
AcDbLine
 10
1137.7608646997
 20
1715.7103560054
 30
0.0
 11
1138.2608646997
 21
1715.7103560054
 31
0.0
  0
LINE
  5
120
330
1F
100
AcDbEntity
  8
0
  6
Continuous
 62
     7
370
    25
100
AcDbLine
 10
1137.7608646997
 20
1714.1543978661
 30
0.0
 11
1138.2608646997
 21
1714.1543978661
 31
0.0
  0
LINE
  5
121
330
1F
100
AcDbEntity
  8
0
  6
Continuous
 62
     7
370
    25
100
AcDbLine
 10
1137.7608646997
 20
1714.1543978661
 30
0.0
 11
1137.7608646997
 21
1715.7103560054
 31
0.0
  0
LINE
  5
122
330
1F
100
AcDbEntity
  8
0
  6
Continuous
 62
     7
370
    25
100
AcDbLine
 10
1138.2608646997
 20
1697.7984397272
 30
0.0
 11
1137.7608646997
 21
1697.7984397272
 31
0.0
  0
LINE
  5
123
330
1F
100
AcDbEntity
  8
0
  6
Continuous
 62
     7
370
    25
100
AcDbLine
 10
1137.7608646997
 20
1697.7984397272
 30
0.0
 11
1137.7608646997
 21
1699.3543978665
 31
0.0
  0
LINE
  5
124
330
1F
100
AcDbEntity
  8
0
  6
Continuous
 62
     7
370
    25
100
AcDbLine
 10
1138.2608646997
 20
1699.3543978665
 30
0.0
 11
1137.7608646997
 21
1699.3543978665
 31
0.0
  0
LINE
  5
125
330
1F
100
AcDbEntity
  8
0
  6
Continuous
 62
     7
370
    25
100
AcDbLine
 10
1138.0608646997
 20
1725.1459720241
 30
0.0
 11
1137.7608646997
 21
1725.1459720241
 31
0.0
  0
LINE
  5
126
330
1F
100
AcDbEntity
  8
0
  6
Continuous
 62
     7
370
    25
100
AcDbLine
 10
1138.2608646997
 20
1725.1459720241
 30
0.0
 11
1138.0608646997
 21
1725.1459720241
 31
0.0
  0
LINE
  5
127
330
1F
100
AcDbEntity
  8
0
  6
Continuous
 62
     7
370
    25
100
AcDbLine
 10
1137.7608646997
 20
1725.1459720241
 30
0.0
 11
1137.7608646997
 21
1715.7103560054
 31
0.0
  0
LINE
  5
128
330
1F
100
AcDbEntity
  8
0
  6
Continuous
 62
     7
370
    25
100
AcDbLine
 10
1138.0608646997
 20
1688.3628237086
 30
0.0
 11
1138.2608646997
 21
1688.3628237086
 31
0.0
  0
LINE
  5
129
330
1F
100
AcDbEntity
  8
0
  6
Continuous
 62
     7
370
    25
100
AcDbLine
 10
1137.7608646997
 20
1688.3628237086
 30
0.0
 11
1138.0608646997
 21
1688.3628237086
 31
0.0
  0
LINE
  5
12A
330
1F
100
AcDbEntity
  8
0
  6
Continuous
 62
     7
370
    25
100
AcDbLine
 10
1137.7608646997
 20
1697.7984397272
 30
0.0
 11
1137.7608646997
 21
1688.3628237086
 31
0.0
  0
SPLINE
  5
12B
330
1F
100
AcDbEntity
  8
0
  6
Continuous
 62
     7
370
    25
100
AcDbSpline
210
0.0
220
0.0
230
1.0
 70
    24
 71
     3
 72
    12
 73
     8
 74
     0
 42
0.00000001
 43
0.00000001
 40
0.0
 40
0.0
 40
0.0
 40
0.0
 40
0.1234882189598396
 40
0.3047574776060699
 40
0.4857888495153489
 40
0.6670582153992033
 40
0.9999999999999999
 40
0.9999999999999999
 40
0.9999999999999999
 40
0.9999999999999999
 10
1136.2608646997
 20
1735.254397866311
 30
0.0
 10
1136.300611268736
 20
1735.254397866311
 30
0.0
 10
1136.398702116794
 20
1735.254397866311
 30
0.0
 10
1136.638675405153
 20
1735.254397866311
 30
0.0
 10
1136.954289593648
 20
1735.254397866312
 30
0.0
 10
1137.421199682747
 20
1735.254397866311
 30
0.0
 10
1137.809468282984
 20
1735.254397866313
 30
0.0
 10
1138.0608646997
 20
1735.254397866314
 30
0.0
  0
LINE
  5
12C
330
1F
100
AcDbEntity
  8
0
  6
Continuous
 62
     7
370
    25
100
AcDbLine
 10
1138.0608646997
 20
1734.2543978663
 30
0.0
 11
1138.0608646997
 21
1735.2543978663
 31
0.0
  0
SPLINE
  5
12D
330
1F
100
AcDbEntity
  8
0
  6
Continuous
 62
     7
370
    25
100
AcDbSpline
210
0.0
220
0.0
230
1.0
 70
    24
 71
     3
 72
    12
 73
     8
 74
     0
 42
0.00000001
 43
0.00000001
 40
0.0
 40
0.0
 40
0.0
 40
0.0
 40
0.3329369653746735
 40
0.513965609813512
 40
0.6952322446453801
 40
0.8762609961861909
 40
1.0
 40
1.0
 40
1.0
 40
1.0
 10
1138.060864699707
 20
1678.254397866316
 30
0.0
 10
1137.809467286564
 20
1678.254397866314
 30
0.0
 10
1137.421376932566
 20
1678.254397866312
 30
0.0
 10
1136.954447662891
 20
1678.254397866312
 30
0.0
 10
1136.63892877387
 20
1678.254397866312
 30
0.0
 10
1136.398804555353
 20
1678.254397866312
 30
0.0
 10
1136.300697304343
 20
1678.254397866312
 30
0.0
 10
1136.2608646997
 20
1678.254397866312
 30
0.0
  0
LINE
  5
12E
330
1F
100
AcDbEntity
  8
0
  6
Continuous
 62
     7
370
    25
100
AcDbLine
 10
1138.0608646997
 20
1679.2543978663
 30
0.0
 11
1138.0608646997
 21
1678.2543978663
 31
0.0
  0
SPLINE
  5
12F
330
1F
100
AcDbEntity
  8
0
  6
Continuous
 62
     7
370
    25
100
AcDbSpline
210
0.0
220
0.0
230
1.0
 70
     8
 71
     3
 72
    10
 73
     6
 74
     0
 42
0.00000001
 43
0.00000001
 40
0.0
 40
0.0
 40
0.0
 40
0.0
 40
0.0371311943353716
 40
0.5486628195554989
 40
1.0
 40
1.0
 40
1.0
 40
1.0
 10
1136.2608646997
 20
1717.000162206482
 30
0.0
 10
1136.266487551913
 20
1716.993443859058
 30
0.0
 10
1136.349572677618
 20
1716.894171333436
 30
0.0
 10
1136.571128650202
 20
1716.793742420243
 30
0.0
 10
1136.802439539448
 20
1716.766954495413
 30
0.0
 10
1136.910864699703
 20
1716.754397866315
 30
0.0
  0
LINE
  5
130
330
1F
100
AcDbEntity
  8
0
  6
Continuous
 62
     7
370
    25
100
AcDbLine
 10
1138.0608646997
 20
1734.2543978663
 30
0.0
 11
1138.0608646997
 21
1725.1459720241
 31
0.0
  0
LINE
  5
131
330
1F
100
AcDbEntity
  8
0
  6
Continuous
 62
     7
370
    25
100
AcDbLine
 10
1137.7608646997
 20
1716.7543978663
 30
0.0
 11
1136.9108646997
 21
1716.7543978663
 31
0.0
  0
LINE
  5
132
330
1F
100
AcDbEntity
  8
0
  6
Continuous
 62
     7
370
    25
100
AcDbLine
 10
1138.2608646997
 20
1734.2543978663
 30
0.0
 11
1138.0608646997
 21
1734.2543978663
 31
0.0
  0
SPLINE
  5
133
330
1F
100
AcDbEntity
  8
0
  6
Continuous
 62
     7
370
    25
100
AcDbSpline
210
0.0
220
0.0
230
1.0
 70
     8
 71
     3
 72
     9
 73
     5
 74
     0
 42
0.00000001
 43
0.00000001
 40
0.0
 40
0.0
 40
0.0
 40
0.0
 40
0.5050081268951043
 40
1.0
 40
1.0
 40
1.0
 40
1.0
 10
1136.910864699705
 20
1696.754397866314
 30
0.0
 10
1136.787568427837
 20
1696.742178006931
 30
0.0
 10
1136.543421323462
 20
1696.717980654981
 30
0.0
 10
1136.354419209909
 20
1696.580904581719
 30
0.0
 10
1136.2608646997
 20
1696.513053039457
 30
0.0
  0
LINE
  5
134
330
1F
100
AcDbEntity
  8
0
  6
Continuous
 62
     7
370
    25
100
AcDbLine
 10
1138.0608646997
 20
1688.3628237086
 30
0.0
 11
1138.0608646997
 21
1679.2543978663
 31
0.0
  0
LINE
  5
135
330
1F
100
AcDbEntity
  8
0
  6
Continuous
 62
     7
370
    25
100
AcDbLine
 10
1136.9108646997
 20
1696.7543978663
 30
0.0
 11
1137.7608646997
 21
1696.7543978663
 31
0.0
  0
LINE
  5
136
330
1F
100
AcDbEntity
  8
0
  6
Continuous
 62
     7
370
    25
100
AcDbLine
 10
1138.2608646997
 20
1679.2543978663
 30
0.0
 11
1138.0608646997
 21
1679.2543978663
 31
0.0
  0
LINE
  5
137
330
1F
100
AcDbEntity
  8
0
  6
Continuous
 62
     7
370
    25
100
AcDbLine
 10
1138.2608646997
 20
1735.2543978663
 30
0.0
 11
1138.0608646997
 21
1735.2543978663
 31
0.0
  0
LINE
  5
138
330
1F
100
AcDbEntity
  8
0
  6
Continuous
 62
     7
370
    25
100
AcDbLine
 10
1138.2608646997
 20
1678.2543978663
 30
0.0
 11
1138.0608646997
 21
1678.2543978663
 31
0.0
  0
LINE
  5
139
330
1F
100
AcDbEntity
  8
0
  6
Continuous
 62
     7
370
    25
100
AcDbLine
 10
1137.7608646997
 20
995.7103560054
 30
0.0
 11
1138.2608646997
 21
995.7103560054
 31
0.0
  0
LINE
  5
13A
330
1F
100
AcDbEntity
  8
0
  6
Continuous
 62
     7
370
    25
100
AcDbLine
 10
1137.7608646997
 20
994.1543978661
 30
0.0
 11
1138.2608646997
 21
994.1543978661
 31
0.0
  0
LINE
  5
13B
330
1F
100
AcDbEntity
  8
0
  6
Continuous
 62
     7
370
    25
100
AcDbLine
 10
1137.7608646997
 20
994.1543978661
 30
0.0
 11
1137.7608646997
 21
995.7103560054
 31
0.0
  0
LINE
  5
13C
330
1F
100
AcDbEntity
  8
0
  6
Continuous
 62
     7
370
    25
100
AcDbLine
 10
1138.2608646997
 20
977.7984397272
 30
0.0
 11
1137.7608646997
 21
977.7984397272
 31
0.0
  0
LINE
  5
13D
330
1F
100
AcDbEntity
  8
0
  6
Continuous
 62
     7
370
    25
100
AcDbLine
 10
1137.7608646997
 20
977.7984397272
 30
0.0
 11
1137.7608646997
 21
979.3543978665
 31
0.0
  0
LINE
  5
13E
330
1F
100
AcDbEntity
  8
0
  6
Continuous
 62
     7
370
    25
100
AcDbLine
 10
1138.2608646997
 20
979.3543978665
 30
0.0
 11
1137.7608646997
 21
979.3543978665
 31
0.0
  0
LINE
  5
13F
330
1F
100
AcDbEntity
  8
0
  6
Continuous
 62
     7
370
    25
100
AcDbLine
 10
1138.0608646997
 20
1005.1459720241
 30
0.0
 11
1137.7608646997
 21
1005.1459720241
 31
0.0
  0
LINE
  5
140
330
1F
100
AcDbEntity
  8
0
  6
Continuous
 62
     7
370
    25
100
AcDbLine
 10
1138.2608646997
 20
1005.1459720241
 30
0.0
 11
1138.0608646997
 21
1005.1459720241
 31
0.0
  0
LINE
  5
141
330
1F
100
AcDbEntity
  8
0
  6
Continuous
 62
     7
370
    25
100
AcDbLine
 10
1137.7608646997
 20
1005.1459720241
 30
0.0
 11
1137.7608646997
 21
995.7103560054
 31
0.0
  0
LINE
  5
142
330
1F
100
AcDbEntity
  8
0
  6
Continuous
 62
     7
370
    25
100
AcDbLine
 10
1138.0608646997
 20
968.3628237086
 30
0.0
 11
1138.2608646997
 21
968.3628237086
 31
0.0
  0
LINE
  5
143
330
1F
100
AcDbEntity
  8
0
  6
Continuous
 62
     7
370
    25
100
AcDbLine
 10
1137.7608646997
 20
968.3628237086
 30
0.0
 11
1138.0608646997
 21
968.3628237086
 31
0.0
  0
LINE
  5
144
330
1F
100
AcDbEntity
  8
0
  6
Continuous
 62
     7
370
    25
100
AcDbLine
 10
1137.7608646997
 20
977.7984397272
 30
0.0
 11
1137.7608646997
 21
968.3628237086
 31
0.0
  0
SPLINE
  5
145
330
1F
100
AcDbEntity
  8
0
  6
Continuous
 62
     7
370
    25
100
AcDbSpline
210
0.0
220
0.0
230
1.0
 70
    24
 71
     3
 72
    12
 73
     8
 74
     0
 42
0.00000001
 43
0.00000001
 40
0.0
 40
0.0
 40
0.0
 40
0.0
 40
0.1234882189600066
 40
0.3047574776062187
 40
0.4857888495154466
 40
0.6670582153992889
 40
1.0
 40
1.0
 40
1.0
 40
1.0
 10
1136.2608646997
 20
1015.254397866311
 30
0.0
 10
1136.300611268736
 20
1015.254397866311
 30
0.0
 10
1136.398702116794
 20
1015.254397866311
 30
0.0
 10
1136.638675405153
 20
1015.254397866311
 30
0.0
 10
1136.954289593648
 20
1015.254397866311
 30
0.0
 10
1137.421199682747
 20
1015.254397866311
 30
0.0
 10
1137.809468282984
 20
1015.254397866313
 30
0.0
 10
1138.060864699701
 20
1015.254397866314
 30
0.0
  0
LINE
  5
146
330
1F
100
AcDbEntity
  8
0
  6
Continuous
 62
     7
370
    25
100
AcDbLine
 10
1138.0608646997
 20
1014.2543978663
 30
0.0
 11
1138.0608646997
 21
1015.2543978663
 31
0.0
  0
SPLINE
  5
147
330
1F
100
AcDbEntity
  8
0
  6
Continuous
 62
     7
370
    25
100
AcDbSpline
210
0.0
220
0.0
230
1.0
 70
    24
 71
     3
 72
    12
 73
     8
 74
     0
 42
0.00000001
 43
0.00000001
 40
0.0
 40
0.0
 40
0.0
 40
0.0
 40
0.3329369653746097
 40
0.5139656098134139
 40
0.695232244645248
 40
0.8762609961860248
 40
1.0
 40
1.0
 40
1.0
 40
1.0
 10
1138.060864699707
 20
958.2543978663151
 30
0.0
 10
1137.809467286564
 20
958.2543978663139
 30
0.0
 10
1137.421376932566
 20
958.2543978663116
 30
0.0
 10
1136.954447662892
 20
958.254397866312
 30
0.0
 10
1136.63892877387
 20
958.254397866312
 30
0.0
 10
1136.398804555353
 20
958.254397866312
 30
0.0
 10
1136.300697304343
 20
958.254397866312
 30
0.0
 10
1136.2608646997
 20
958.254397866312
 30
0.0
  0
LINE
  5
148
330
1F
100
AcDbEntity
  8
0
  6
Continuous
 62
     7
370
    25
100
AcDbLine
 10
1138.0608646997
 20
959.2543978663
 30
0.0
 11
1138.0608646997
 21
958.2543978663
 31
0.0
  0
SPLINE
  5
149
330
1F
100
AcDbEntity
  8
0
  6
Continuous
 62
     7
370
    25
100
AcDbSpline
210
0.0
220
0.0
230
1.0
 70
     8
 71
     3
 72
    10
 73
     6
 74
     0
 42
0.00000001
 43
0.00000001
 40
0.0
 40
0.0
 40
0.0
 40
0.0
 40
0.0371311943356972
 40
0.5486628195556497
 40
1.0
 40
1.0
 40
1.0
 40
1.0
 10
1136.2608646997
 20
997.0001622064824
 30
0.0
 10
1136.266487551913
 20
996.9934438590572
 30
0.0
 10
1136.349572677618
 20
996.8941713334362
 30
0.0
 10
1136.571128650203
 20
996.7937424202429
 30
0.0
 10
1136.802439539448
 20
996.7669544954127
 30
0.0
 10
1136.910864699703
 20
996.7543978663147
 30
0.0
  0
LINE
  5
14A
330
1F
100
AcDbEntity
  8
0
  6
Continuous
 62
     7
370
    25
100
AcDbLine
 10
1138.0608646997
 20
1014.2543978663
 30
0.0
 11
1138.0608646997
 21
1005.1459720241
 31
0.0
  0
LINE
  5
14B
330
1F
100
AcDbEntity
  8
0
  6
Continuous
 62
     7
370
    25
100
AcDbLine
 10
1137.7608646997
 20
996.7543978663
 30
0.0
 11
1136.9108646997
 21
996.7543978663
 31
0.0
  0
LINE
  5
14C
330
1F
100
AcDbEntity
  8
0
  6
Continuous
 62
     7
370
    25
100
AcDbLine
 10
1138.2608646997
 20
1014.2543978663
 30
0.0
 11
1138.0608646997
 21
1014.2543978663
 31
0.0
  0
LINE
  5
14D
330
1F
100
AcDbEntity
  8
0
  6
Continuous
 62
     7
370
    25
100
AcDbLine
 10
1138.2608646997
 20
959.2543978663
 30
0.0
 11
1138.0608646997
 21
959.2543978663
 31
0.0
  0
LINE
  5
14E
330
1F
100
AcDbEntity
  8
0
  6
Continuous
 62
     7
370
    25
100
AcDbLine
 10
1138.0608646997
 20
968.3628237086
 30
0.0
 11
1138.0608646997
 21
959.2543978663
 31
0.0
  0
SPLINE
  5
14F
330
1F
100
AcDbEntity
  8
0
  6
Continuous
 62
     7
370
    25
100
AcDbSpline
210
0.0
220
0.0
230
1.0
 70
     8
 71
     3
 72
     9
 73
     5
 74
     0
 42
0.00000001
 43
0.00000001
 40
0.0
 40
0.0
 40
0.0
 40
0.0
 40
0.505008126894967
 40
0.9999999999999999
 40
0.9999999999999999
 40
0.9999999999999999
 40
0.9999999999999999
 10
1136.910864699705
 20
976.7543978663142
 30
0.0
 10
1136.787568427837
 20
976.7421780069304
 30
0.0
 10
1136.543421323462
 20
976.7179806549809
 30
0.0
 10
1136.354419209909
 20
976.5809045817188
 30
0.0
 10
1136.2608646997
 20
976.5130530394567
 30
0.0
  0
LINE
  5
150
330
1F
100
AcDbEntity
  8
0
  6
Continuous
 62
     7
370
    25
100
AcDbLine
 10
1136.9108646997
 20
976.7543978663
 30
0.0
 11
1137.7608646997
 21
976.7543978663
 31
0.0
  0
LINE
  5
151
330
1F
100
AcDbEntity
  8
0
  6
Continuous
 62
     7
370
    25
100
AcDbLine
 10
1138.2608646997
 20
1015.2543978663
 30
0.0
 11
1138.0608646997
 21
1015.2543978663
 31
0.0
  0
LINE
  5
152
330
1F
100
AcDbEntity
  8
0
  6
Continuous
 62
     7
370
    25
100
AcDbLine
 10
1138.2608646997
 20
958.2543978663
 30
0.0
 11
1138.0608646997
 21
958.2543978663
 31
0.0
  0
LINE
  5
153
330
1F
100
AcDbEntity
  8
0
  6
Continuous
 62
     7
370
    25
100
AcDbLine
 10
1136.3956797746
 20
1715.1293978663
 30
0.0
 11
1136.3956797746
 21
1714.2043978663
 31
0.0
  0
LINE
  5
154
330
1F
100
AcDbEntity
  8
0
  6
Continuous
 62
     7
370
    25
100
AcDbLine
 10
1136.3956797746
 20
1699.3043978663
 30
0.0
 11
1136.3956797746
 21
1698.3793978663
 31
0.0
  0
LINE
  5
155
330
1F
100
AcDbEntity
  8
0
  6
Continuous
 62
     7
370
    25
100
AcDbLine
 10
1136.3956797746
 20
1698.3793978663
 30
0.0
 11
1136.2608646997
 21
1698.3793978663
 31
0.0
  0
LINE
  5
156
330
1F
100
AcDbEntity
  8
0
  6
Continuous
 62
     7
370
    25
100
AcDbLine
 10
1136.2608646997
 20
1715.1293978663
 30
0.0
 11
1136.3956797746
 21
1715.1293978663
 31
0.0
  0
LINE
  5
157
330
1F
100
AcDbEntity
  8
0
  6
Continuous
 62
     7
370
    25
100
AcDbLine
 10
1137.7608646997
 20
1698.3793978663
 30
0.0
 11
1136.3956797746
 21
1698.3793978663
 31
0.0
  0
LINE
  5
158
330
1F
100
AcDbEntity
  8
0
  6
Continuous
 62
     7
370
    25
100
AcDbLine
 10
1136.3956797746
 20
1715.1293978663
 30
0.0
 11
1137.7608646997
 21
1715.1293978663
 31
0.0
  0
LINE
  5
159
330
1F
100
AcDbEntity
  8
0
  6
Continuous
 62
     7
370
    25
100
AcDbLine
 10
1136.3956797746
 20
1355.1293978663
 30
0.0
 11
1136.3956797746
 21
1354.2043978663
 31
0.0
  0
LINE
  5
15A
330
1F
100
AcDbEntity
  8
0
  6
Continuous
 62
     7
370
    25
100
AcDbLine
 10
1136.3956797746
 20
1339.3043978663
 30
0.0
 11
1136.3956797746
 21
1338.3793978663
 31
0.0
  0
LINE
  5
15B
330
1F
100
AcDbEntity
  8
0
  6
Continuous
 62
     7
370
    25
100
AcDbLine
 10
1136.3956797746
 20
1338.3793978663
 30
0.0
 11
1136.2608646997
 21
1338.3793978663
 31
0.0
  0
LINE
  5
15C
330
1F
100
AcDbEntity
  8
0
  6
Continuous
 62
     7
370
    25
100
AcDbLine
 10
1136.2608646997
 20
1355.1293978663
 30
0.0
 11
1136.3956797746
 21
1355.1293978663
 31
0.0
  0
LINE
  5
15D
330
1F
100
AcDbEntity
  8
0
  6
Continuous
 62
     7
370
    25
100
AcDbLine
 10
1137.7608646997
 20
1338.3793978663
 30
0.0
 11
1136.3956797746
 21
1338.3793978663
 31
0.0
  0
LINE
  5
15E
330
1F
100
AcDbEntity
  8
0
  6
Continuous
 62
     7
370
    25
100
AcDbLine
 10
1136.3956797746
 20
1355.1293978663
 30
0.0
 11
1137.7608646997
 21
1355.1293978663
 31
0.0
  0
LINE
  5
15F
330
1F
100
AcDbEntity
  8
0
  6
Continuous
 62
     7
370
    25
100
AcDbLine
 10
1136.3956797746
 20
995.1293978663
 30
0.0
 11
1136.3956797746
 21
994.2043978663
 31
0.0
  0
LINE
  5
160
330
1F
100
AcDbEntity
  8
0
  6
Continuous
 62
     7
370
    25
100
AcDbLine
 10
1136.3956797746
 20
979.3043978663
 30
0.0
 11
1136.3956797746
 21
978.3793978663
 31
0.0
  0
LINE
  5
161
330
1F
100
AcDbEntity
  8
0
  6
Continuous
 62
     7
370
    25
100
AcDbLine
 10
1136.3956797746
 20
978.3793978663
 30
0.0
 11
1136.2608646997
 21
978.3793978663
 31
0.0
  0
LINE
  5
162
330
1F
100
AcDbEntity
  8
0
  6
Continuous
 62
     7
370
    25
100
AcDbLine
 10
1136.2608646997
 20
995.1293978663
 30
0.0
 11
1136.3956797746
 21
995.1293978663
 31
0.0
  0
LINE
  5
163
330
1F
100
AcDbEntity
  8
0
  6
Continuous
 62
     7
370
    25
100
AcDbLine
 10
1137.7608646997
 20
978.3793978663
 30
0.0
 11
1136.3956797746
 21
978.3793978663
 31
0.0
  0
LINE
  5
164
330
1F
100
AcDbEntity
  8
0
  6
Continuous
 62
     7
370
    25
100
AcDbLine
 10
1136.3956797746
 20
995.1293978663
 30
0.0
 11
1137.7608646997
 21
995.1293978663
 31
0.0
  0
LINE
  5
165
330
1F
100
AcDbEntity
  8
0
  6
Continuous
 62
     7
370
    25
100
AcDbLine
 10
1136.2608646997
 20
993.2543978663
 30
0.0
 11
1138.2608646997
 21
993.2543978663
 31
0.0
  0
LINE
  5
166
330
1F
100
AcDbEntity
  8
0
  6
Continuous
 62
     7
370
    25
100
AcDbLine
 10
1138.2608646997
 20
980.2543978663
 30
0.0
 11
1136.2608646997
 21
980.2543978663
 31
0.0
  0
LINE
  5
167
330
1F
100
AcDbEntity
  8
0
  6
Continuous
 62
     7
370
    25
100
AcDbLine
 10
1136.9895821545
 20
979.3043978663
 30
0.0
 11
1136.9895821545
 21
980.2543978663
 31
0.0
  0
LINE
  5
168
330
1F
100
AcDbEntity
  8
0
  6
Continuous
 62
     7
370
    25
100
AcDbLine
 10
1136.9895821545
 20
993.2543978663
 30
0.0
 11
1136.9895821545
 21
994.2043978663
 31
0.0
  0
LINE
  5
169
330
1F
100
AcDbEntity
  8
0
  6
Continuous
 62
     7
370
    25
100
AcDbLine
 10
1136.9895821545
 20
979.3043978663
 30
0.0
 11
1136.2608646997
 21
979.3043978663
 31
0.0
  0
LINE
  5
16A
330
1F
100
AcDbEntity
  8
0
  6
Continuous
 62
     7
370
    25
100
AcDbLine
 10
1136.9895821545
 20
994.2043978663
 30
0.0
 11
1136.2608646997
 21
994.2043978663
 31
0.0
  0
LINE
  5
16B
330
1F
100
AcDbEntity
  8
0
  6
Continuous
 62
     7
370
    25
100
AcDbLine
 10
1137.0509516501
 20
979.3043978663
 30
0.0
 11
1137.0509516501
 21
980.2543978663
 31
0.0
  0
LINE
  5
16C
330
1F
100
AcDbEntity
  8
0
  6
Continuous
 62
     7
370
    25
100
AcDbLine
 10
1137.0509516501
 20
993.2543978663
 30
0.0
 11
1137.0509516501
 21
994.2043978663
 31
0.0
  0
LINE
  5
16D
330
1F
100
AcDbEntity
  8
0
  6
Continuous
 62
     7
370
    25
100
AcDbLine
 10
1137.0509516501
 20
979.3043978663
 30
0.0
 11
1136.9895821545
 21
979.3043978663
 31
0.0
  0
LINE
  5
16E
330
1F
100
AcDbEntity
  8
0
  6
Continuous
 62
     7
370
    25
100
AcDbLine
 10
1137.0509516501
 20
994.2043978663
 30
0.0
 11
1136.9895821545
 21
994.2043978663
 31
0.0
  0
LINE
  5
16F
330
1F
100
AcDbEntity
  8
0
  6
Continuous
 62
     7
370
    25
100
AcDbLine
 10
1136.2608646997
 20
1713.2543978663
 30
0.0
 11
1138.2608646997
 21
1713.2543978663
 31
0.0
  0
LINE
  5
170
330
1F
100
AcDbEntity
  8
0
  6
Continuous
 62
     7
370
    25
100
AcDbLine
 10
1138.2608646997
 20
1700.2543978663
 30
0.0
 11
1136.2608646997
 21
1700.2543978663
 31
0.0
  0
LINE
  5
171
330
1F
100
AcDbEntity
  8
0
  6
Continuous
 62
     7
370
    25
100
AcDbLine
 10
1136.9895821545
 20
1699.3043978663
 30
0.0
 11
1136.9895821545
 21
1700.2543978663
 31
0.0
  0
LINE
  5
172
330
1F
100
AcDbEntity
  8
0
  6
Continuous
 62
     7
370
    25
100
AcDbLine
 10
1136.9895821545
 20
1713.2543978663
 30
0.0
 11
1136.9895821545
 21
1714.2043978663
 31
0.0
  0
LINE
  5
173
330
1F
100
AcDbEntity
  8
0
  6
Continuous
 62
     7
370
    25
100
AcDbLine
 10
1136.9895821545
 20
1699.3043978663
 30
0.0
 11
1136.2608646997
 21
1699.3043978663
 31
0.0
  0
LINE
  5
174
330
1F
100
AcDbEntity
  8
0
  6
Continuous
 62
     7
370
    25
100
AcDbLine
 10
1136.9895821545
 20
1714.2043978663
 30
0.0
 11
1136.2608646997
 21
1714.2043978663
 31
0.0
  0
LINE
  5
175
330
1F
100
AcDbEntity
  8
0
  6
Continuous
 62
     7
370
    25
100
AcDbLine
 10
1137.0509516501
 20
1699.3043978663
 30
0.0
 11
1137.0509516501
 21
1700.2543978663
 31
0.0
  0
LINE
  5
176
330
1F
100
AcDbEntity
  8
0
  6
Continuous
 62
     7
370
    25
100
AcDbLine
 10
1137.0509516501
 20
1713.2543978663
 30
0.0
 11
1137.0509516501
 21
1714.2043978663
 31
0.0
  0
LINE
  5
177
330
1F
100
AcDbEntity
  8
0
  6
Continuous
 62
     7
370
    25
100
AcDbLine
 10
1137.0509516501
 20
1699.3043978663
 30
0.0
 11
1136.9895821545
 21
1699.3043978663
 31
0.0
  0
LINE
  5
178
330
1F
100
AcDbEntity
  8
0
  6
Continuous
 62
     7
370
    25
100
AcDbLine
 10
1137.0509516501
 20
1714.2043978663
 30
0.0
 11
1136.9895821545
 21
1714.2043978663
 31
0.0
  0
LINE
  5
179
330
1F
100
AcDbEntity
  8
0
  6
Continuous
 62
     7
370
    25
100
AcDbLine
 10
1136.2608646997
 20
1353.2543978663
 30
0.0
 11
1138.2608646997
 21
1353.2543978663
 31
0.0
  0
LINE
  5
17A
330
1F
100
AcDbEntity
  8
0
  6
Continuous
 62
     7
370
    25
100
AcDbLine
 10
1138.2608646997
 20
1340.2543978663
 30
0.0
 11
1136.2608646997
 21
1340.2543978663
 31
0.0
  0
LINE
  5
17B
330
1F
100
AcDbEntity
  8
0
  6
Continuous
 62
     7
370
    25
100
AcDbLine
 10
1136.9895821545
 20
1339.3043978663
 30
0.0
 11
1136.9895821545
 21
1340.2543978663
 31
0.0
  0
LINE
  5
17C
330
1F
100
AcDbEntity
  8
0
  6
Continuous
 62
     7
370
    25
100
AcDbLine
 10
1136.9895821545
 20
1353.2543978663
 30
0.0
 11
1136.9895821545
 21
1354.2043978663
 31
0.0
  0
LINE
  5
17D
330
1F
100
AcDbEntity
  8
0
  6
Continuous
 62
     7
370
    25
100
AcDbLine
 10
1136.9895821545
 20
1339.3043978663
 30
0.0
 11
1136.2608646997
 21
1339.3043978663
 31
0.0
  0
LINE
  5
17E
330
1F
100
AcDbEntity
  8
0
  6
Continuous
 62
     7
370
    25
100
AcDbLine
 10
1136.9895821545
 20
1354.2043978663
 30
0.0
 11
1136.2608646997
 21
1354.2043978663
 31
0.0
  0
LINE
  5
17F
330
1F
100
AcDbEntity
  8
0
  6
Continuous
 62
     7
370
    25
100
AcDbLine
 10
1137.0509516501
 20
1339.3043978663
 30
0.0
 11
1137.0509516501
 21
1340.2543978663
 31
0.0
  0
LINE
  5
180
330
1F
100
AcDbEntity
  8
0
  6
Continuous
 62
     7
370
    25
100
AcDbLine
 10
1137.0509516501
 20
1353.2543978663
 30
0.0
 11
1137.0509516501
 21
1354.2043978663
 31
0.0
  0
LINE
  5
181
330
1F
100
AcDbEntity
  8
0
  6
Continuous
 62
     7
370
    25
100
AcDbLine
 10
1137.0509516501
 20
1339.3043978663
 30
0.0
 11
1136.9895821545
 21
1339.3043978663
 31
0.0
  0
LINE
  5
182
330
1F
100
AcDbEntity
  8
0
  6
Continuous
 62
     7
370
    25
100
AcDbLine
 10
1137.0509516501
 20
1354.2043978663
 30
0.0
 11
1136.9895821545
 21
1354.2043978663
 31
0.0
  0
LINE
  5
183
330
1F
100
AcDbEntity
  8
0
  6
Continuous
 62
     7
370
    25
100
AcDbLine
 10
1137.7608646997
 20
1699.2793978663
 30
0.0
 11
1137.4492988969
 21
1699.2793978663
 31
0.0
  0
LINE
  5
184
330
1F
100
AcDbEntity
  8
0
  6
Continuous
 62
     7
370
    25
100
AcDbLine
 10
1137.4492988969
 20
1714.2293978663
 30
0.0
 11
1137.4492988969
 21
1713.2543978663
 31
0.0
  0
LINE
  5
185
330
1F
100
AcDbEntity
  8
0
  6
Continuous
 62
     7
370
    25
100
AcDbLine
 10
1137.4492988969
 20
1700.2543978663
 30
0.0
 11
1137.4492988969
 21
1699.2793978663
 31
0.0
  0
LINE
  5
186
330
1F
100
AcDbEntity
  8
0
  6
Continuous
 62
     7
370
    25
100
AcDbLine
 10
1137.7608646997
 20
1714.2293978663
 30
0.0
 11
1137.4492988969
 21
1714.2293978663
 31
0.0
  0
LINE
  5
187
330
1F
100
AcDbEntity
  8
0
  6
Continuous
 62
     7
370
    25
100
AcDbLine
 10
1137.4492988969
 20
1699.2793978663
 30
0.0
 11
1137.4101563024
 21
1699.2793978663
 31
0.0
  0
LINE
  5
188
330
1F
100
AcDbEntity
  8
0
  6
Continuous
 62
     7
370
    25
100
AcDbLine
 10
1137.4492988969
 20
1714.2293978663
 30
0.0
 11
1137.4101563024
 21
1714.2293978663
 31
0.0
  0
LINE
  5
189
330
1F
100
AcDbEntity
  8
0
  6
Continuous
 62
     7
370
    25
100
AcDbLine
 10
1137.7608646997
 20
979.2793978663
 30
0.0
 11
1137.4492988969
 21
979.2793978663
 31
0.0
  0
LINE
  5
18A
330
1F
100
AcDbEntity
  8
0
  6
Continuous
 62
     7
370
    25
100
AcDbLine
 10
1137.4492988969
 20
994.2293978663
 30
0.0
 11
1137.4492988969
 21
993.2543978663
 31
0.0
  0
LINE
  5
18B
330
1F
100
AcDbEntity
  8
0
  6
Continuous
 62
     7
370
    25
100
AcDbLine
 10
1137.4492988969
 20
980.2543978663
 30
0.0
 11
1137.4492988969
 21
979.2793978663
 31
0.0
  0
LINE
  5
18C
330
1F
100
AcDbEntity
  8
0
  6
Continuous
 62
     7
370
    25
100
AcDbLine
 10
1137.7608646997
 20
994.2293978663
 30
0.0
 11
1137.4492988969
 21
994.2293978663
 31
0.0
  0
LINE
  5
18D
330
1F
100
AcDbEntity
  8
0
  6
Continuous
 62
     7
370
    25
100
AcDbLine
 10
1137.4492988969
 20
979.2793978663
 30
0.0
 11
1137.4101563024
 21
979.2793978663
 31
0.0
  0
LINE
  5
18E
330
1F
100
AcDbEntity
  8
0
  6
Continuous
 62
     7
370
    25
100
AcDbLine
 10
1137.4492988969
 20
994.2293978663
 30
0.0
 11
1137.4101563024
 21
994.2293978663
 31
0.0
  0
LINE
  5
18F
330
1F
100
AcDbEntity
  8
0
  6
Continuous
 62
     7
370
    25
100
AcDbLine
 10
1137.7608646997
 20
1339.2793978663
 30
0.0
 11
1137.4492988969
 21
1339.2793978663
 31
0.0
  0
LINE
  5
190
330
1F
100
AcDbEntity
  8
0
  6
Continuous
 62
     7
370
    25
100
AcDbLine
 10
1137.4492988969
 20
1354.2293978663
 30
0.0
 11
1137.4492988969
 21
1353.2543978663
 31
0.0
  0
LINE
  5
191
330
1F
100
AcDbEntity
  8
0
  6
Continuous
 62
     7
370
    25
100
AcDbLine
 10
1137.4492988969
 20
1340.2543978663
 30
0.0
 11
1137.4492988969
 21
1339.2793978663
 31
0.0
  0
LINE
  5
192
330
1F
100
AcDbEntity
  8
0
  6
Continuous
 62
     7
370
    25
100
AcDbLine
 10
1137.7608646997
 20
1354.2293978663
 30
0.0
 11
1137.4492988969
 21
1354.2293978663
 31
0.0
  0
LINE
  5
193
330
1F
100
AcDbEntity
  8
0
  6
Continuous
 62
     7
370
    25
100
AcDbLine
 10
1137.4492988969
 20
1339.2793978663
 30
0.0
 11
1137.4101563024
 21
1339.2793978663
 31
0.0
  0
LINE
  5
194
330
1F
100
AcDbEntity
  8
0
  6
Continuous
 62
     7
370
    25
100
AcDbLine
 10
1137.4492988969
 20
1354.2293978663
 30
0.0
 11
1137.4101563024
 21
1354.2293978663
 31
0.0
  0
LINE
  5
195
330
1F
100
AcDbEntity
  8
0
  6
Continuous
 62
     7
370
    25
100
AcDbLine
 10
755.9271177533
 20
1705.0248720752
 30
0.0
 11
755.7831445376
 21
1699.5267567878
 31
0.0
  0
LINE
  5
196
330
1F
100
AcDbEntity
  8
0
  6
Continuous
 62
     7
370
    25
100
AcDbLine
 10
754.312231985
 20
1729.3254720652
 30
0.0
 11
753.7886930188
 21
1709.3323255657
 31
0.0
  0
LINE
  5
197
330
1F
100
AcDbEntity
  8
0
  6
Continuous
 62
     7
370
    25
100
AcDbLine
 10
752.6223435987
 20
1710.4586561082
 30
0.0
 11
753.0885334202
 21
1728.2617271316
 31
0.0
  0
LINE
  5
198
330
1F
100
AcDbEntity
  8
0
  6
Continuous
 62
     7
370
    25
100
AcDbLine
 10
754.8081328374
 20
1719.5948871838
 30
0.0
 11
755.0624227623
 21
1729.3058276283
 31
0.0
  0
LINE
  5
199
330
1F
100
AcDbEntity
  8
0
  6
Continuous
 62
     7
370
    25
100
AcDbLine
 10
752.9067456257
 20
1726.6661961367
 30
0.0
 11
752.5243085784
 21
1712.0615145215
 31
0.0
  0
LINE
  5
19A
330
1F
100
AcDbEntity
  8
0
  6
Continuous
 62
     7
370
    25
100
AcDbLine
 10
755.6182085764
 20
1723.7893465579
 30
0.0
 11
755.4965437888
 21
1719.1431557708
 31
0.0
  0
LINE
  5
19B
330
1F
100
AcDbEntity
  8
0
  6
Continuous
 62
     7
370
    25
100
AcDbLine
 10
755.4965437888
 20
1719.1431557708
 30
0.0
 11
755.382618237
 21
1714.7925144716
 31
0.0
  0
LINE
  5
19C
330
1F
100
AcDbEntity
  8
0
  6
Continuous
 62
     7
370
    25
100
AcDbLine
 10
1138.0608646997
 20
1374.2543978663
 30
0.0
 11
1136.2608646997
 21
1374.2543978663
 31
0.0
  0
LINE
  5
19D
330
1F
100
AcDbEntity
  8
0
  6
Continuous
 62
     7
370
    25
100
AcDbLine
 10
1138.0608646997
 20
1319.2543978663
 30
0.0
 11
1136.2608646997
 21
1319.2543978663
 31
0.0
  0
LINE
  5
19E
330
1F
100
AcDbEntity
  8
0
  6
Continuous
 62
     7
370
    25
100
AcDbLine
 10
1136.9108646997
 20
1355.1293978663
 30
0.0
 11
1136.9108646997
 21
1356.7543978663
 31
0.0
  0
LINE
  5
19F
330
1F
100
AcDbEntity
  8
0
  6
Continuous
 62
     7
370
    25
100
AcDbLine
 10
1136.9108646997
 20
1336.7543978663
 30
0.0
 11
1136.9108646997
 21
1338.3793978663
 31
0.0
  0
LINE
  5
1A0
330
1F
100
AcDbEntity
  8
0
  6
Continuous
 62
     7
370
    25
100
AcDbLine
 10
1138.0608646997
 20
1734.2543978663
 30
0.0
 11
1136.2608646997
 21
1734.2543978663
 31
0.0
  0
LINE
  5
1A1
330
1F
100
AcDbEntity
  8
0
  6
Continuous
 62
     7
370
    25
100
AcDbLine
 10
1138.0608646997
 20
1679.2543978663
 30
0.0
 11
1136.2608646997
 21
1679.2543978663
 31
0.0
  0
LINE
  5
1A2
330
1F
100
AcDbEntity
  8
0
  6
Continuous
 62
     7
370
    25
100
AcDbLine
 10
1136.9108646997
 20
1715.1293978663
 30
0.0
 11
1136.9108646997
 21
1716.7543978663
 31
0.0
  0
LINE
  5
1A3
330
1F
100
AcDbEntity
  8
0
  6
Continuous
 62
     7
370
    25
100
AcDbLine
 10
1136.9108646997
 20
1696.7543978663
 30
0.0
 11
1136.9108646997
 21
1698.3793978663
 31
0.0
  0
LINE
  5
1A4
330
1F
100
AcDbEntity
  8
0
  6
Continuous
 62
     7
370
    25
100
AcDbLine
 10
1138.0608646997
 20
1014.2543978663
 30
0.0
 11
1136.2608646997
 21
1014.2543978663
 31
0.0
  0
LINE
  5
1A5
330
1F
100
AcDbEntity
  8
0
  6
Continuous
 62
     7
370
    25
100
AcDbLine
 10
1138.0608646997
 20
959.2543978663
 30
0.0
 11
1136.2608646997
 21
959.2543978663
 31
0.0
  0
LINE
  5
1A6
330
1F
100
AcDbEntity
  8
0
  6
Continuous
 62
     7
370
    25
100
AcDbLine
 10
1136.9108646997
 20
995.1293978663
 30
0.0
 11
1136.9108646997
 21
996.7543978663
 31
0.0
  0
LINE
  5
1A7
330
1F
100
AcDbEntity
  8
0
  6
Continuous
 62
     7
370
    25
100
AcDbLine
 10
1136.9108646997
 20
976.7543978663
 30
0.0
 11
1136.9108646997
 21
978.3793978663
 31
0.0
  0
LINE
  5
1A8
330
1F
100
AcDbEntity
  8
0
  6
Continuous
 62
     7
370
    25
100
AcDbLine
 10
4220.4562626188
 20
1705.0248720752
 30
0.0
 11
4218.6225156724
 21
1704.9768537215
 31
0.0
  0
LINE
  5
1A9
330
1F
100
AcDbEntity
  8
0
  6
Continuous
 62
     7
370
    25
100
AcDbLine
 10
4218.6225156724
 20
1699.4749683628
 30
0.0
 11
4220.6002358345
 21
1699.5267567878
 31
0.0
  0
ARC
  5
1AA
330
1F
100
AcDbEntity
  8
0
  6
Continuous
 62
     7
370
    25
100
AcDbCircle
 10
4220.4641157033
 20
1704.7249748777
 30
0.0
 40
0.3000000000003306
100
AcDbArc
 50
1.4999999999
 51
91.5
  0
ARC
  5
1AB
330
1F
100
AcDbEntity
  8
0
  6
Continuous
 62
     7
370
    25
100
AcDbCircle
 10
4220.59238275
 20
1699.8266539853
 30
0.0
 40
0.3000000000003306
100
AcDbArc
 50
271.5
 51
1.4999999999
  0
LINE
  5
1AC
330
1F
100
AcDbEntity
  8
0
  6
Continuous
 62
     7
370
    25
100
AcDbLine
 10
4221.8444965759
 20
1709.3126811288
 30
0.0
 11
4222.5946873532
 21
1709.3323255657
 31
0.0
  0
LINE
  5
1AD
330
1F
100
AcDbEntity
  8
0
  6
Continuous
 62
     7
370
    25
100
AcDbLine
 10
4222.0711483871
 20
1729.3254720652
 30
0.0
 11
4221.3209576098
 21
1729.3058276283
 31
0.0
  0
ARC
  5
1AE
330
1F
100
AcDbEntity
  8
0
  6
Continuous
 62
     7
370
    25
100
AcDbCircle
 10
4221.8392611863
 20
1709.5126125938
 30
0.0
 40
0.2000000000000808
100
AcDbArc
 50
181.5
 51
271.5
  0
ARC
  5
1AF
330
1F
100
AcDbEntity
  8
0
  6
Continuous
 62
     7
370
    25
100
AcDbCircle
 10
4221.3261929995
 20
1729.1058961633
 30
0.0
 40
0.2000000000000808
100
AcDbArc
 50
91.5
 51
181.5
  0
ARC
  5
1B0
330
1F
100
AcDbEntity
  8
0
  6
Continuous
 62
     7
370
    25
100
AcDbCircle
 10
4222.5632750153
 20
1710.5319143556
 30
0.0
 40
1.200000000000659
100
AcDbArc
 50
271.5
 51
356.5000000029
  0
ARC
  5
1B1
330
1F
100
AcDbEntity
  8
0
  6
Continuous
 62
     7
370
    25
100
AcDbCircle
 10
4222.1025607251
 20
1728.1258832752
 30
0.0
 40
1.199999999999982
100
AcDbArc
 50
6.499999997
 51
91.5
  0
LINE
  5
1B2
330
1F
100
AcDbEntity
  8
0
  6
Continuous
 62
     7
370
    25
100
AcDbLine
 10
4223.7610367734
 20
1710.4586561082
 30
0.0
 11
4223.8590717937
 21
1712.0615145215
 31
0.0
  0
LINE
  5
1B3
330
1F
100
AcDbEntity
  8
0
  6
Continuous
 62
     7
370
    25
100
AcDbLine
 10
4223.4766347464
 20
1726.6661961367
 30
0.0
 11
4223.2948469519
 21
1728.2617271316
 31
0.0
  0
ARC
  5
1B4
330
1F
100
AcDbEntity
  8
0
  6
Continuous
 62
     7
370
    25
100
AcDbCircle
 10
4193.915027841
 20
1713.8929707076
 30
0.0
 40
30.00000000000259
100
AcDbArc
 50
356.4999999999
 51
1.4999999999
  0
ARC
  5
1B5
330
1F
100
AcDbEntity
  8
0
  6
Continuous
 62
     7
370
    25
100
AcDbCircle
 10
4193.6694790761
 20
1723.2700997237
 30
0.0
 40
30.00000000000346
100
AcDbArc
 50
1.4999999999
 51
6.5
  0
LINE
  5
1B6
330
1F
100
AcDbEntity
  8
0
  6
Continuous
 62
     7
370
    25
100
AcDbLine
 10
4223.7844466987
 20
1719.2723848583
 30
0.0
 11
4223.7819732078
 21
1719.3668436648
 31
0.0
  0
SPLINE
  5
1B7
330
1F
100
AcDbEntity
  8
0
  6
Continuous
 62
     7
370
    25
100
AcDbSpline
210
0.0
220
0.0
230
1.0
 70
     8
 71
     3
 72
    13
 73
     9
 74
     0
 42
0.00000001
 43
0.00000001
 40
0.0
 40
0.0
 40
0.0
 40
0.0
 40
0.2397374167622849
 40
0.3685398007220733
 40
0.5000035786936439
 40
0.6314571619972221
 40
0.7602371999018245
 40
0.9999999999999999
 40
0.9999999999999999
 40
0.9999999999999999
 40
0.9999999999999999
 10
4221.000763069504
 20
1714.792478786646
 30
0.0
 10
4221.064174809927
 20
1714.787440837359
 30
0.0
 10
4221.161655422234
 20
1714.779696177175
 30
0.0
 10
4221.2803927018
 20
1714.719891788487
 30
0.0
 10
4221.362403973658
 20
1714.65698832428
 30
0.0
 10
4221.428962590751
 20
1714.578125320633
 30
0.0
 10
4221.493922802665
 20
1714.462754783097
 30
0.0
 10
4221.505917568544
 20
1714.366682482968
 30
0.0
 10
4221.51372099967
 20
1714.304180756396
 30
0.0
  0
SPLINE
  5
1B8
330
1F
100
AcDbEntity
  8
0
  6
Continuous
 62
     7
370
    25
100
AcDbSpline
210
0.0
220
0.0
230
1.0
 70
     8
 71
     3
 72
    13
 73
     9
 74
     0
 42
0.00000001
 43
0.00000001
 40
0.0
 40
0.0
 40
0.0
 40
0.0
 40
0.239762800092007
 40
0.3685428379936485
 40
0.499996421296053
 40
0.6314601992685921
 40
0.7602625832311573
 40
1.0
 40
1.0
 40
1.0
 40
1.0
 10
4221.251870256052
 20
1724.303857221375
 30
0.0
 10
4221.247348606883
 20
1724.241032751219
 30
0.0
 10
4221.240398315109
 20
1724.1444643573
 30
0.0
 10
4221.181565156311
 20
1724.025852176274
 30
0.0
 10
4221.119225126198
 20
1723.943613842764
 30
0.0
 10
4221.040618360887
 20
1723.876504447236
 30
0.0
 10
4220.925173726505
 20
1723.810567789318
 30
0.0
 10
4220.828232032186
 20
1723.797732001856
 30
0.0
 10
4220.765170861244
 20
1723.789382242828
 30
0.0
  0
LINE
  5
1B9
330
1F
100
AcDbEntity
  8
0
  6
Continuous
 62
     7
370
    25
100
AcDbLine
 10
4218.6225156724
 20
1714.7301959483
 30
0.0
 11
4221.0007632328
 21
1714.7924725523
 31
0.0
  0
LINE
  5
1BA
330
1F
100
AcDbEntity
  8
0
  6
Continuous
 62
     7
370
    25
100
AcDbLine
 10
4220.765170698
 20
1723.7893884771
 30
0.0
 11
4218.6225156724
 21
1723.7332810807
 31
0.0
  0
LINE
  5
1BB
330
1F
100
AcDbEntity
  8
0
  6
Continuous
 62
     7
370
    25
100
AcDbLine
 10
3839.6225156724
 20
1768.2543978663
 30
0.0
 11
4218.6225156724
 21
1768.2543978663
 31
0.0
  0
LINE
  5
1BC
330
1F
100
AcDbEntity
  8
0
  6
Continuous
 62
     7
370
    25
100
AcDbLine
 10
3839.6225156724
 20
1796.7543978663
 30
0.0
 11
3839.6225156724
 21
1768.2543978663
 31
0.0
  0
LINE
  5
1BD
330
1F
100
AcDbEntity
  8
0
  6
Continuous
 62
     7
370
    25
100
AcDbLine
 10
4218.6225156724
 20
1796.7543978663
 30
0.0
 11
3839.6225156724
 21
1796.7543978663
 31
0.0
  0
LINE
  5
1BE
330
1F
100
AcDbEntity
  8
0
  6
Continuous
 62
     7
370
    25
100
AcDbLine
 10
4218.6225156724
 20
1768.2543978663
 30
0.0
 11
4218.6225156724
 21
1796.7543978663
 31
0.0
  0
LINE
  5
1BF
330
1F
100
AcDbEntity
  8
0
  6
Continuous
 62
     7
370
    25
100
AcDbLine
 10
3840.1225156724
 20
896.7543978663
 30
0.0
 11
4218.6225156724
 21
896.7543978663
 31
0.0
  0
LINE
  5
1C0
330
1F
100
AcDbEntity
  8
0
  6
Continuous
 62
     7
370
    25
100
AcDbLine
 10
3840.1225156724
 20
896.7543978663
 30
0.0
 11
3840.1225156724
 21
1768.2543978663
 31
0.0
  0
LINE
  5
1C1
330
1F
100
AcDbEntity
  8
0
  6
Continuous
 62
     7
370
    25
100
AcDbLine
 10
4218.6225156724
 20
896.7543978663
 30
0.0
 11
4218.6225156724
 21
1768.2543978663
 31
0.0
  0
LINE
  5
1C2
330
1F
100
AcDbEntity
  8
0
  6
Continuous
 62
     7
370
    25
100
AcDbLine
 10
3838.1225156724
 20
906.7543978663
 30
0.0
 11
3838.1225156724
 21
1753.2543978663
 31
0.0
  0
LINE
  5
1C3
330
1F
100
AcDbEntity
  8
0
  6
Continuous
 62
     7
370
    25
100
AcDbLine
 10
3820.1225156724
 20
906.7543978663
 30
0.0
 11
3838.1225156724
 21
906.7543978663
 31
0.0
  0
LINE
  5
1C4
330
1F
100
AcDbEntity
  8
0
  6
Continuous
 62
     7
370
    25
100
AcDbLine
 10
3820.1225156724
 20
906.7543978663
 30
0.0
 11
3820.1225156724
 21
1786.7543978663
 31
0.0
  0
LINE
  5
1C5
330
1F
100
AcDbEntity
  8
0
  6
Continuous
 62
     7
370
    25
100
AcDbLine
 10
3820.1225156724
 20
1786.7543978663
 30
0.0
 11
3824.1225156724
 21
1786.7543978663
 31
0.0
  0
LINE
  5
1C6
330
1F
100
AcDbEntity
  8
0
  6
Continuous
 62
     7
370
    25
100
AcDbLine
 10
3824.1225156724
 20
1773.7543978663
 30
0.0
 11
3824.1225156724
 21
1786.7543978663
 31
0.0
  0
LINE
  5
1C7
330
1F
100
AcDbEntity
  8
0
  6
Continuous
 62
     7
370
    25
100
AcDbLine
 10
3838.1225156724
 20
1753.2543978663
 30
0.0
 11
3836.6225156724
 21
1753.2543978663
 31
0.0
  0
LINE
  5
1C8
330
1F
100
AcDbEntity
  8
0
  6
Continuous
 62
     7
370
    25
100
AcDbLine
 10
3836.6225156724
 20
1773.7543978663
 30
0.0
 11
3824.1225156724
 21
1773.7543978663
 31
0.0
  0
LINE
  5
1C9
330
1F
100
AcDbEntity
  8
0
  6
Continuous
 62
     7
370
    25
100
AcDbLine
 10
3836.6225156724
 20
1753.2543978663
 30
0.0
 11
3836.6225156724
 21
1773.7543978663
 31
0.0
  0
SPLINE
  5
1CA
330
1F
100
AcDbEntity
  8
0
  6
Continuous
 62
     7
370
    25
100
AcDbSpline
210
0.0
220
0.0
230
1.0
 70
    24
 71
     3
 72
    12
 73
     8
 74
     0
 42
0.00000001
 43
0.00000001
 40
0.0
 40
0.0
 40
0.0
 40
0.0
 40
0.2460973337403352
 40
0.4921955654204326
 40
0.7383025770445392
 40
0.9844160040482546
 40
0.9999999999999999
 40
0.9999999999999999
 40
0.9999999999999999
 40
0.9999999999999999
 10
4220.828146424102
 20
1702.283667516011
 30
0.0
 10
4220.836375901104
 20
1701.969396468511
 30
0.0
 10
4220.852834885133
 20
1701.340853226824
 30
0.0
 10
4220.874150888242
 20
1700.52682790966
 30
0.0
 10
4220.887691150987
 20
1700.009746136912
 30
0.0
 10
4220.893610628071
 20
1699.783690427257
 30
0.0
 10
4220.892090397733
 20
1699.841745681671
 30
0.0
 10
4220.891999868513
 20
1699.845202853085
 30
0.0
  0
SPLINE
  5
1CB
330
1F
100
AcDbEntity
  8
0
  6
Continuous
 62
     7
370
    25
100
AcDbSpline
210
0.0
220
0.0
230
1.0
 70
     8
 71
     3
 72
    11
 73
     7
 74
     0
 42
0.00000001
 43
0.00000001
 40
0.0
 40
0.0
 40
0.0
 40
0.0
 40
0.2382247349857176
 40
0.4921376904605903
 40
0.7460575595492559
 40
1.0
 40
1.0
 40
1.0
 40
1.0
 10
4220.764286695025
 20
1704.722372180747
 30
0.0
 10
4220.764959079327
 20
1704.696694861233
 30
0.0
 10
4220.766348127606
 20
1704.643649249812
 30
0.0
 10
4220.779885724843
 20
1704.126669251066
 30
0.0
 10
4220.799986316176
 20
1703.359058705204
 30
0.0
 10
4220.816369957569
 20
1702.73339251295
 30
0.0
 10
4220.824562142341
 20
1702.420545513312
 30
0.0
  0
LINE
  5
1CC
330
1F
100
AcDbEntity
  8
0
  6
Continuous
 62
     7
370
    25
100
AcDbLine
 10
4220.8245621423
 20
1702.4205455133
 30
0.0
 11
4220.8281464241
 21
1702.283667516
 31
0.0
  0
SPLINE
  5
1CD
330
1F
100
AcDbEntity
  8
0
  6
Continuous
 62
     7
370
    25
100
AcDbSpline
210
0.0
220
0.0
230
1.0
 70
    24
 71
     3
 72
    13
 73
     9
 74
     0
 42
0.00000001
 43
0.00000001
 40
0.0
 40
0.0
 40
0.0
 40
0.0
 40
0.1813201537912004
 40
0.4101468448383505
 40
0.5438150184967404
 40
0.6886421238877374
 40
0.8419966874127728
 40
1.0
 40
1.0
 40
1.0
 40
1.0
 10
4221.382795627861
 20
1719.304018988884
 30
0.0
 10
4221.358568754218
 20
1720.229205966928
 30
0.0
 10
4221.303767478259
 20
1722.321982263418
 30
0.0
 10
4221.237407247237
 20
1724.856177244856
 30
0.0
 10
4221.187436230684
 20
1726.764493376599
 30
0.0
 10
4221.154514141969
 20
1728.02173722153
 30
0.0
 10
4221.131231983242
 20
1728.910846992436
 30
0.0
 10
4221.127939789833
 20
1729.036570786434
 30
0.0
 10
4221.126269115974
 20
1729.100371247083
 30
0.0
  0
SPLINE
  5
1CE
330
1F
100
AcDbEntity
  8
0
  6
Continuous
 62
     7
370
    25
100
AcDbSpline
210
0.0
220
0.0
230
1.0
 70
    24
 71
     3
 72
    13
 73
     9
 74
     0
 42
0.00000001
 43
0.00000001
 40
0.0
 40
0.0
 40
0.0
 40
0.0
 40
0.1538581583653429
 40
0.307967686245489
 40
0.4535077802387814
 40
0.5878340078349005
 40
0.8177872163817913
 40
1.0
 40
1.0
 40
1.0
 40
1.0
 10
4221.639096032823
 20
1709.516301405855
 30
0.0
 10
4221.637776556179
 20
1709.566690185947
 30
0.0
 10
4221.635135447165
 20
1709.667550070029
 30
0.0
 10
4221.612908661752
 20
1710.516356760083
 30
0.0
 10
4221.580740651456
 20
1711.744803512
 30
0.0
 10
4221.531477719868
 20
1713.626078969871
 30
0.0
 10
4221.465658391129
 20
1716.1396177265
 30
0.0
 10
4221.410933327982
 20
1718.229483573087
 30
0.0
 10
4221.386740147857
 20
1719.153383847573
 30
0.0
  0
LINE
  5
1CF
330
1F
100
AcDbEntity
  8
0
  6
Continuous
 62
     7
370
    25
100
AcDbLine
 10
4223.7844466987
 20
1719.2723848582
 30
0.0
 11
4223.9047475903
 21
1714.6782791568
 31
0.0
  0
LINE
  5
1D0
330
1F
100
AcDbEntity
  8
0
  6
Continuous
 62
     7
370
    25
100
AcDbLine
 10
4223.6591988253
 20
1724.0554081729
 30
0.0
 11
4223.7819732078
 21
1719.3668436648
 31
0.0
  0
SPLINE
  5
1D1
330
1F
100
AcDbEntity
  8
0
  6
Continuous
 62
     7
370
    25
100
AcDbSpline
210
0.0
220
0.0
230
1.0
 70
     8
 71
     3
 72
    11
 73
     7
 74
     0
 42
0.00000001
 43
0.00000001
 40
0.0
 40
0.0
 40
0.0
 40
0.0
 40
0.2702602051674836
 40
0.5624283659894794
 40
0.78973595867316
 40
1.0
 40
1.0
 40
1.0
 40
1.0
 10
4221.378496043736
 20
1719.468213482243
 30
0.0
 10
4221.369746636025
 20
1719.465656025562
 30
0.0
 10
4221.351538572133
 20
1719.460333798484
 30
0.0
 10
4221.216480299727
 20
1719.451285824099
 30
0.0
 10
4221.048418110194
 20
1719.443677152427
 30
0.0
 10
4220.934052746302
 20
1719.440318953097
 30
0.0
 10
4220.879097347619
 20
1719.438705254886
 30
0.0
  0
LINE
  5
1D2
330
1F
100
AcDbEntity
  8
0
  6
Continuous
 62
     7
370
    25
100
AcDbLine
 10
3824.3225156724
 20
1786.9543978663
 30
0.0
 11
3824.3225156724
 21
1773.9543978663
 31
0.0
  0
LINE
  5
1D3
330
1F
100
AcDbEntity
  8
0
  6
Continuous
 62
     7
370
    25
100
AcDbLine
 10
3823.9053039889
 20
1786.9543978663
 30
0.0
 11
3824.3225156724
 21
1786.9543978663
 31
0.0
  0
ARC
  5
1D4
330
1F
100
AcDbEntity
  8
0
  6
Continuous
 62
     7
370
    25
100
AcDbCircle
 10
3824.1224773464
 20
1786.7474299152
 30
0.0
 40
0.3000000000002718
100
AcDbArc
 50
99.5765884811
 51
136.3783470327
  0
ARC
  5
1D5
330
1F
100
AcDbEntity
  8
0
  6
Continuous
 62
     7
370
    25
100
AcDbCircle
 10
3824.2056602699
 20
1786.2543978663
 30
0.0
 40
0.8000000000002055
100
AcDbArc
 50
4.9699465947
 51
99.5765884811
  0
LINE
  5
1D6
330
1F
100
AcDbEntity
  8
0
  6
Continuous
 62
     7
370
    25
100
AcDbLine
 10
3825.84384111
 20
1776.6504380312
 30
0.0
 11
3825.0026524914
 21
1786.323704423
 31
0.0
  0
ARC
  5
1D7
330
1F
100
AcDbEntity
  8
0
  6
Continuous
 62
     7
370
    25
100
AcDbCircle
 10
3827.0393294423
 20
1776.7543978663
 30
0.0
 40
1.199999999999941
100
AcDbArc
 50
184.9699465947
 51
270.0
  0
LINE
  5
1D8
330
1F
100
AcDbEntity
  8
0
  6
Continuous
 62
     7
370
    25
100
AcDbLine
 10
3837.4225156724
 20
1775.5543978663
 30
0.0
 11
3827.0393294423
 21
1775.5543978663
 31
0.0
  0
ARC
  5
1D9
330
1F
100
AcDbEntity
  8
0
  6
Continuous
 62
     7
370
    25
100
AcDbCircle
 10
3837.4225156724
 20
1774.7543978663
 30
0.0
 40
0.7999999999999545
100
AcDbArc
 50
0.0
 51
90.0
  0
LINE
  5
1DA
330
1F
100
AcDbEntity
  8
0
  6
Continuous
 62
     7
370
    25
100
AcDbLine
 10
3838.2225156724
 20
1753.9543978663
 30
0.0
 11
3838.2225156724
 21
1774.7543978663
 31
0.0
  0
LINE
  5
1DB
330
1F
100
AcDbEntity
  8
0
  6
Continuous
 62
     7
370
    25
100
AcDbLine
 10
3836.8225156724
 20
1753.9543978663
 30
0.0
 11
3838.2225156724
 21
1753.9543978663
 31
0.0
  0
LINE
  5
1DC
330
1F
100
AcDbEntity
  8
0
  6
Continuous
 62
     7
370
    25
100
AcDbLine
 10
3836.8225156724
 20
1773.9543978663
 30
0.0
 11
3836.8225156724
 21
1753.9543978663
 31
0.0
  0
LINE
  5
1DD
330
1F
100
AcDbEntity
  8
0
  6
Continuous
 62
     7
370
    25
100
AcDbLine
 10
3824.3225156724
 20
1773.9543978663
 30
0.0
 11
3836.8225156724
 21
1773.9543978663
 31
0.0
  0
SPLINE
  5
1DE
330
1F
100
AcDbEntity
  8
0
  6
Continuous
 62
     7
370
    25
100
AcDbSpline
210
0.0
220
0.0
230
1.0
 70
     8
 71
     3
 72
    13
 73
     9
 74
     0
 42
0.00000001
 43
0.00000001
 40
0.0
 40
0.0
 40
0.0
 40
0.0
 40
0.0075029974113267
 40
0.3818974549662932
 40
0.607001887327179
 40
0.7653769096344221
 40
0.8824605049809765
 40
1.0
 40
1.0
 40
1.0
 40
1.0
 10
3823.905303988905
 20
1786.954397866314
 30
0.0
 10
3823.904286212289
 20
1786.953959868419
 30
0.0
 10
3823.852482076149
 20
1786.931666074052
 30
0.0
 10
3823.773896710783
 20
1786.884781685834
 30
0.0
 10
3823.691257246751
 20
1786.818497248798
 30
0.0
 10
3823.649161128652
 20
1786.780235689626
 30
0.0
 10
3823.626637701817
 20
1786.75847991389
 30
0.0
 10
3823.623898275702
 20
1786.755760310341
 30
0.0
 10
3823.622525901135
 20
1786.754397866314
 30
0.0
  0
ARC
  5
1DF
330
1F
100
AcDbEntity
  8
0
  6
Continuous
 62
     7
370
    25
100
AcDbCircle
 10
3824.1224773464
 20
1786.7474299152
 30
0.0
 40
0.5000000000001923
100
AcDbArc
 50
99.5765884811
 51
179.2015057739
  0
LINE
  5
1E0
330
1F
100
AcDbEntity
  8
0
  6
Continuous
 62
     7
370
    25
100
AcDbLine
 10
3824.0725675924
 20
1787.0432491446
 30
0.0
 11
3824.039294423
 21
1787.2404619641
 31
0.0
  0
LINE
  5
1E1
330
1F
100
AcDbEntity
  8
0
  6
Continuous
 62
     7
370
    25
100
AcDbLine
 10
3824.3225156724
 20
1786.9543978663
 30
0.0
 11
3824.1225156724
 21
1786.7543978663
 31
0.0
  0
LINE
  5
1E2
330
1F
100
AcDbEntity
  8
0
  6
Continuous
 62
     7
370
    25
100
AcDbLine
 10
3825.2019005468
 20
1786.3410310622
 30
0.0
 11
3826.0430891654
 21
1776.6677646704
 31
0.0
  0
LINE
  5
1E3
330
1F
100
AcDbEntity
  8
0
  6
Continuous
 62
     7
370
    25
100
AcDbLine
 10
3826.0430891654
 20
1776.6677646704
 30
0.0
 11
3825.84384111
 21
1776.6504380312
 31
0.0
  0
LINE
  5
1E4
330
1F
100
AcDbEntity
  8
0
  6
Continuous
 62
     7
370
    25
100
AcDbLine
 10
3825.0026524914
 20
1786.323704423
 30
0.0
 11
3825.2019005468
 21
1786.3410310622
 31
0.0
  0
ARC
  5
1E5
330
1F
100
AcDbEntity
  8
0
  6
Continuous
 62
     7
370
    25
100
AcDbCircle
 10
3824.2056602699
 20
1786.2543978663
 30
0.0
 40
1.000000000000163
100
AcDbArc
 50
4.9699465947
 51
99.5765884811
  0
LINE
  5
1E6
330
1F
100
AcDbEntity
  8
0
  6
Continuous
 62
     7
370
    25
100
AcDbLine
 10
3824.3225156724
 20
1773.9543978663
 30
0.0
 11
3824.1225156724
 21
1773.7543978663
 31
0.0
  0
LINE
  5
1E7
330
1F
100
AcDbEntity
  8
0
  6
Continuous
 62
     7
370
    25
100
AcDbLine
 10
3836.6225156724
 20
1753.7543978663
 30
0.0
 11
3836.8225156724
 21
1753.9543978663
 31
0.0
  0
LINE
  5
1E8
330
1F
100
AcDbEntity
  8
0
  6
Continuous
 62
     7
370
    25
100
AcDbLine
 10
3836.8225156724
 20
1773.9543978663
 30
0.0
 11
3836.6225156724
 21
1773.7543978663
 31
0.0
  0
LINE
  5
1E9
330
1F
100
AcDbEntity
  8
0
  6
Continuous
 62
     7
370
    25
100
AcDbLine
 10
3827.0393294423
 20
1775.7543978663
 30
0.0
 11
3837.4225156724
 21
1775.7543978663
 31
0.0
  0
LINE
  5
1EA
330
1F
100
AcDbEntity
  8
0
  6
Continuous
 62
     7
370
    25
100
AcDbLine
 10
3837.4225156724
 20
1775.7543978663
 30
0.0
 11
3837.4225156724
 21
1775.5543978663
 31
0.0
  0
LINE
  5
1EB
330
1F
100
AcDbEntity
  8
0
  6
Continuous
 62
     7
370
    25
100
AcDbLine
 10
3827.0393294423
 20
1775.7543978663
 30
0.0
 11
3827.0393294423
 21
1775.5543978663
 31
0.0
  0
ARC
  5
1EC
330
1F
100
AcDbEntity
  8
0
  6
Continuous
 62
     7
370
    25
100
AcDbCircle
 10
3837.4225156724
 20
1774.7543978663
 30
0.0
 40
1.0
100
AcDbArc
 50
0.0
 51
90.0
  0
LINE
  5
1ED
330
1F
100
AcDbEntity
  8
0
  6
Continuous
 62
     7
370
    25
100
AcDbLine
 10
3838.4225156724
 20
1774.7543978663
 30
0.0
 11
3838.2225156724
 21
1774.7543978663
 31
0.0
  0
ARC
  5
1EE
330
1F
100
AcDbEntity
  8
0
  6
Continuous
 62
     7
370
    25
100
AcDbCircle
 10
3827.0393294423
 20
1776.7543978663
 30
0.0
 40
1.0
100
AcDbArc
 50
184.9699465947
 51
270.0
  0
LINE
  5
1EF
330
1F
100
AcDbEntity
  8
0
  6
Continuous
 62
     7
370
    25
100
AcDbLine
 10
3838.2225156724
 20
1753.7543978663
 30
0.0
 11
3838.2225156724
 21
1753.9543978663
 31
0.0
  0
LINE
  5
1F0
330
1F
100
AcDbEntity
  8
0
  6
Continuous
 62
     7
370
    25
100
AcDbLine
 10
3838.4225156724
 20
1753.9543978663
 30
0.0
 11
3838.2225156724
 21
1753.9543978663
 31
0.0
  0
ARC
  5
1F1
330
1F
100
AcDbEntity
  8
0
  6
Continuous
 62
     7
370
    25
100
AcDbCircle
 10
3838.2225156724
 20
1753.9543978663
 30
0.0
 40
0.2000000000002728
100
AcDbArc
 50
270.0
 51
0.0
  0
LINE
  5
1F2
330
1F
100
AcDbEntity
  8
0
  6
Continuous
 62
     7
370
    25
100
AcDbLine
 10
3838.4225156724
 20
1774.7543978663
 30
0.0
 11
3838.4225156724
 21
1753.9543978663
 31
0.0
  0
LINE
  5
1F3
330
1F
100
AcDbEntity
  8
0
  6
Continuous
 62
     7
370
    25
100
AcDbLine
 10
3838.2225156724
 20
1753.7543978663
 30
0.0
 11
3836.6225156724
 21
1753.7543978663
 31
0.0
  0
LINE
  5
1F4
330
1F
100
AcDbEntity
  8
0
  6
Continuous
 62
     7
370
    25
100
AcDbLine
 10
3839.3225156724
 20
1754.0543978663
 30
0.0
 11
3839.3225156724
 21
1755.2543978663
 31
0.0
  0
LINE
  5
1F5
330
1F
100
AcDbEntity
  8
0
  6
Continuous
 62
     7
370
    25
100
AcDbLine
 10
3839.3225156724
 20
1754.0543978663
 30
0.0
 11
3840.1225156724
 21
1754.0543978663
 31
0.0
  0
LINE
  5
1F6
330
1F
100
AcDbEntity
  8
0
  6
Continuous
 62
     7
370
    25
100
AcDbLine
 10
3839.3225156724
 20
1755.2543978663
 30
0.0
 11
3840.1225156724
 21
1755.2543978663
 31
0.0
  0
LINE
  5
1F7
330
1F
100
AcDbEntity
  8
0
  6
Continuous
 62
     7
370
    25
100
AcDbLine
 10
3838.4225156724
 20
1754.0543978663
 30
0.0
 11
3839.3225156724
 21
1754.0543978663
 31
0.0
  0
LINE
  5
1F8
330
1F
100
AcDbEntity
  8
0
  6
Continuous
 62
     7
370
    25
100
AcDbLine
 10
3838.4225156724
 20
1755.2543978663
 30
0.0
 11
3839.3225156724
 21
1755.2543978663
 31
0.0
  0
LINE
  5
1F9
330
1F
100
AcDbEntity
  8
0
  6
Continuous
 62
     7
370
    25
100
AcDbLine
 10
3838.1225156724
 20
1736.2543978663
 30
0.0
 11
3839.3225156724
 21
1736.2543978663
 31
0.0
  0
LINE
  5
1FA
330
1F
100
AcDbEntity
  8
0
  6
Continuous
 62
     7
370
    25
100
AcDbLine
 10
3838.1225156724
 20
1753.2543978663
 30
0.0
 11
3838.1225156724
 21
1753.7543978663
 31
0.0
  0
LINE
  5
1FB
330
1F
100
AcDbEntity
  8
0
  6
Continuous
 62
     7
370
    25
100
AcDbLine
 10
3839.3225156724
 20
1736.2543978663
 30
0.0
 11
3839.3225156724
 21
1754.0543978663
 31
0.0
  0
LINE
  5
1FC
330
1F
100
AcDbEntity
  8
0
  6
Continuous
 62
     7
370
    25
100
AcDbLine
 10
3839.3225156724
 20
1733.2543978663
 30
0.0
 11
3838.1225156724
 21
1733.2543978663
 31
0.0
  0
LINE
  5
1FD
330
1F
100
AcDbEntity
  8
0
  6
Continuous
 62
     7
370
    25
100
AcDbLine
 10
3839.3225156724
 20
1736.2543978663
 30
0.0
 11
3839.3225156724
 21
1733.2543978663
 31
0.0
  0
SPLINE
  5
1FE
330
1F
100
AcDbEntity
  8
0
  6
Continuous
 62
     7
370
    25
100
AcDbSpline
210
0.0
220
0.0
230
1.0
 70
    24
 71
     3
 72
    12
 73
     8
 74
     0
 42
0.00000001
 43
0.00000001
 40
0.0
 40
0.0
 40
0.0
 40
0.0
 40
0.1234882189617473
 40
0.304757477607269
 40
0.4857888495162539
 40
0.6670582153984362
 40
1.0
 40
1.0
 40
1.0
 40
1.0
 10
3840.122515672362
 20
1318.254397866312
 30
0.0
 10
3840.082769103326
 20
1318.254397866312
 30
0.0
 10
3839.984678255267
 20
1318.254397866312
 30
0.0
 10
3839.744704966906
 20
1318.254397866312
 30
0.0
 10
3839.429090778412
 20
1318.254397866312
 30
0.0
 10
3838.96218068931
 20
1318.254397866312
 30
0.0
 10
3838.573912089072
 20
1318.254397866312
 30
0.0
 10
3838.322515672354
 20
1318.254397866313
 30
0.0
  0
LINE
  5
1FF
330
1F
100
AcDbEntity
  8
0
  6
Continuous
 62
     7
370
    25
100
AcDbLine
 10
3838.3225156724
 20
1319.2543978663
 30
0.0
 11
3838.3225156724
 21
1318.2543978663
 31
0.0
  0
LINE
  5
200
330
1F
100
AcDbEntity
  8
0
  6
Continuous
 62
     7
370
    25
100
AcDbLine
 10
3838.3225156724
 20
1375.2543978663
 30
0.0
 11
3838.3225156724
 21
1374.2543978663
 31
0.0
  0
SPLINE
  5
201
330
1F
100
AcDbEntity
  8
0
  6
Continuous
 62
     7
370
    25
100
AcDbSpline
210
0.0
220
0.0
230
1.0
 70
    24
 71
     3
 72
    12
 73
     8
 74
     0
 42
0.00000001
 43
0.00000001
 40
0.0
 40
0.0
 40
0.0
 40
0.0
 40
0.3329369653767253
 40
0.5139656098173494
 40
0.6952322446484861
 40
0.8762609961869765
 40
1.0
 40
1.0
 40
1.0
 40
1.0
 10
3838.322515672358
 20
1375.254397866311
 30
0.0
 10
3838.573913085502
 20
1375.254397866311
 30
0.0
 10
3838.962003439501
 20
1375.254397866311
 30
0.0
 10
3839.428932709176
 20
1375.254397866311
 30
0.0
 10
3839.744451598197
 20
1375.254397866311
 30
0.0
 10
3839.984575816709
 20
1375.254397866311
 30
0.0
 10
3840.082683067719
 20
1375.254397866311
 30
0.0
 10
3840.122515672362
 20
1375.254397866311
 30
0.0
  0
LINE
  5
202
330
1F
100
AcDbEntity
  8
0
  6
Continuous
 62
     7
370
    25
100
AcDbLine
 10
3838.3225156724
 20
1319.2543978663
 30
0.0
 11
3838.3225156724
 21
1374.2543978663
 31
0.0
  0
LINE
  5
203
330
1F
100
AcDbEntity
  8
0
  6
Continuous
 62
     7
370
    25
100
AcDbLine
 10
3838.1225156724
 20
1374.2543978663
 30
0.0
 11
3838.3225156724
 21
1374.2543978663
 31
0.0
  0
LINE
  5
204
330
1F
100
AcDbEntity
  8
0
  6
Continuous
 62
     7
370
    25
100
AcDbLine
 10
3838.1225156724
 20
1319.2543978663
 30
0.0
 11
3838.3225156724
 21
1319.2543978663
 31
0.0
  0
LINE
  5
205
330
1F
100
AcDbEntity
  8
0
  6
Continuous
 62
     7
370
    25
100
AcDbLine
 10
3838.1225156724
 20
1318.2543978663
 30
0.0
 11
3838.3225156724
 21
1318.2543978663
 31
0.0
  0
LINE
  5
206
330
1F
100
AcDbEntity
  8
0
  6
Continuous
 62
     7
370
    25
100
AcDbLine
 10
3838.3225156724
 20
1375.2543978663
 30
0.0
 11
3838.1225156724
 21
1375.2543978663
 31
0.0
  0
SPLINE
  5
207
330
1F
100
AcDbEntity
  8
0
  6
Continuous
 62
     7
370
    25
100
AcDbSpline
210
0.0
220
0.0
230
1.0
 70
    24
 71
     3
 72
    12
 73
     8
 74
     0
 42
0.00000001
 43
0.00000001
 40
0.0
 40
0.0
 40
0.0
 40
0.0
 40
0.1234882189614207
 40
0.3047574776070095
 40
0.4857888495160632
 40
0.6670582153983126
 40
1.0
 40
1.0
 40
1.0
 40
1.0
 10
3840.122515672362
 20
1678.254397866312
 30
0.0
 10
3840.082769103326
 20
1678.254397866312
 30
0.0
 10
3839.984678255268
 20
1678.254397866312
 30
0.0
 10
3839.744704966907
 20
1678.254397866312
 30
0.0
 10
3839.429090778413
 20
1678.254397866312
 30
0.0
 10
3838.96218068931
 20
1678.254397866312
 30
0.0
 10
3838.573912089072
 20
1678.254397866312
 30
0.0
 10
3838.322515672354
 20
1678.254397866313
 30
0.0
  0
LINE
  5
208
330
1F
100
AcDbEntity
  8
0
  6
Continuous
 62
     7
370
    25
100
AcDbLine
 10
3838.3225156724
 20
1679.2543978663
 30
0.0
 11
3838.3225156724
 21
1678.2543978663
 31
0.0
  0
SPLINE
  5
209
330
1F
100
AcDbEntity
  8
0
  6
Continuous
 62
     7
370
    25
100
AcDbSpline
210
0.0
220
0.0
230
1.0
 70
    24
 71
     3
 72
    11
 73
     7
 74
     0
 42
0.00000001
 43
0.00000001
 40
0.0
 40
0.0
 40
0.0
 40
0.0
 40
0.0916613905668049
 40
0.4304264786861985
 40
0.768746992134301
 40
1.0
 40
1.0
 40
1.0
 40
1.0
 10
3839.322515672365
 20
1735.254397866311
 30
0.0
 10
3839.355581504844
 20
1735.254397866311
 30
0.0
 10
3839.51085309467
 20
1735.254397866312
 30
0.0
 10
3839.742393292372
 20
1735.254397866311
 30
0.0
 10
3839.984905319968
 20
1735.254397866311
 30
0.0
 10
3840.082778217689
 20
1735.254397866311
 30
0.0
 10
3840.122515672362
 20
1735.254397866311
 30
0.0
  0
LINE
  5
20A
330
1F
100
AcDbEntity
  8
0
  6
Continuous
 62
     7
370
    25
100
AcDbLine
 10
3838.1225156724
 20
1679.2543978663
 30
0.0
 11
3838.3225156724
 21
1679.2543978663
 31
0.0
  0
LINE
  5
20B
330
1F
100
AcDbEntity
  8
0
  6
Continuous
 62
     7
370
    25
100
AcDbLine
 10
3838.1225156724
 20
1678.2543978663
 30
0.0
 11
3838.3225156724
 21
1678.2543978663
 31
0.0
  0
SPLINE
  5
20C
330
1F
100
AcDbEntity
  8
0
  6
Continuous
 62
     7
370
    25
100
AcDbSpline
210
0.0
220
0.0
230
1.0
 70
    24
 71
     3
 72
    12
 73
     8
 74
     0
 42
0.00000001
 43
0.00000001
 40
0.0
 40
0.0
 40
0.0
 40
0.0
 40
0.1234882189617473
 40
0.304757477607269
 40
0.4857888495162539
 40
0.6670582153984362
 40
1.0
 40
1.0
 40
1.0
 40
1.0
 10
3840.122515672362
 20
958.254397866312
 30
0.0
 10
3840.082769103326
 20
958.254397866312
 30
0.0
 10
3839.984678255267
 20
958.254397866312
 30
0.0
 10
3839.744704966906
 20
958.254397866312
 30
0.0
 10
3839.429090778412
 20
958.254397866312
 30
0.0
 10
3838.96218068931
 20
958.254397866312
 30
0.0
 10
3838.573912089072
 20
958.2543978663123
 30
0.0
 10
3838.322515672354
 20
958.2543978663125
 30
0.0
  0
LINE
  5
20D
330
1F
100
AcDbEntity
  8
0
  6
Continuous
 62
     7
370
    25
100
AcDbLine
 10
3838.3225156724
 20
959.2543978663
 30
0.0
 11
3838.3225156724
 21
958.2543978663
 31
0.0
  0
LINE
  5
20E
330
1F
100
AcDbEntity
  8
0
  6
Continuous
 62
     7
370
    25
100
AcDbLine
 10
3838.3225156724
 20
1015.2543978663
 30
0.0
 11
3838.3225156724
 21
1014.2543978663
 31
0.0
  0
SPLINE
  5
20F
330
1F
100
AcDbEntity
  8
0
  6
Continuous
 62
     7
370
    25
100
AcDbSpline
210
0.0
220
0.0
230
1.0
 70
    24
 71
     3
 72
    12
 73
     8
 74
     0
 42
0.00000001
 43
0.00000001
 40
0.0
 40
0.0
 40
0.0
 40
0.0
 40
0.3329369653767253
 40
0.5139656098173494
 40
0.6952322446484861
 40
0.8762609961869765
 40
1.0
 40
1.0
 40
1.0
 40
1.0
 10
3838.322515672358
 20
1015.254397866311
 30
0.0
 10
3838.573913085502
 20
1015.254397866311
 30
0.0
 10
3838.962003439501
 20
1015.254397866311
 30
0.0
 10
3839.428932709176
 20
1015.254397866311
 30
0.0
 10
3839.744451598197
 20
1015.254397866311
 30
0.0
 10
3839.984575816709
 20
1015.254397866311
 30
0.0
 10
3840.082683067719
 20
1015.254397866311
 30
0.0
 10
3840.122515672362
 20
1015.254397866311
 30
0.0
  0
LINE
  5
210
330
1F
100
AcDbEntity
  8
0
  6
Continuous
 62
     7
370
    25
100
AcDbLine
 10
3838.3225156724
 20
959.2543978663
 30
0.0
 11
3838.3225156724
 21
1014.2543978663
 31
0.0
  0
LINE
  5
211
330
1F
100
AcDbEntity
  8
0
  6
Continuous
 62
     7
370
    25
100
AcDbLine
 10
3838.1225156724
 20
1014.2543978663
 30
0.0
 11
3838.3225156724
 21
1014.2543978663
 31
0.0
  0
LINE
  5
212
330
1F
100
AcDbEntity
  8
0
  6
Continuous
 62
     7
370
    25
100
AcDbLine
 10
3838.1225156724
 20
959.2543978663
 30
0.0
 11
3838.3225156724
 21
959.2543978663
 31
0.0
  0
LINE
  5
213
330
1F
100
AcDbEntity
  8
0
  6
Continuous
 62
     7
370
    25
100
AcDbLine
 10
3838.1225156724
 20
958.2543978663
 30
0.0
 11
3838.3225156724
 21
958.2543978663
 31
0.0
  0
LINE
  5
214
330
1F
100
AcDbEntity
  8
0
  6
Continuous
 62
     7
370
    25
100
AcDbLine
 10
3838.3225156724
 20
1015.2543978663
 30
0.0
 11
3838.1225156724
 21
1015.2543978663
 31
0.0
  0
LINE
  5
215
330
1F
100
AcDbEntity
  8
0
  6
Continuous
 62
     7
370
    25
100
AcDbLine
 10
4220.6002358345
 20
1699.5267567878
 30
0.0
 11
4220.4562626188
 21
1705.0248720752
 31
0.0
  0
LINE
  5
216
330
1F
100
AcDbEntity
  8
0
  6
Continuous
 62
     7
370
    25
100
AcDbLine
 10
4221.590560553
 20
1719.0101066029
 30
0.0
 11
4221.8444965759
 21
1709.3126811288
 31
0.0
  0
LINE
  5
217
330
1F
100
AcDbEntity
  8
0
  6
Continuous
 62
     7
370
    25
100
AcDbLine
 10
4222.5946873532
 20
1709.3323255657
 30
0.0
 11
4222.0711483871
 21
1729.3254720652
 31
0.0
  0
LINE
  5
218
330
1F
100
AcDbEntity
  8
0
  6
Continuous
 62
     7
370
    25
100
AcDbLine
 10
4223.2948469519
 20
1728.2617271316
 30
0.0
 11
4223.7610367734
 21
1710.4586561082
 31
0.0
  0
LINE
  5
219
330
1F
100
AcDbEntity
  8
0
  6
Continuous
 62
     7
370
    25
100
AcDbLine
 10
4223.8590717937
 20
1712.0615145215
 30
0.0
 11
4223.4766347464
 21
1726.6661961367
 31
0.0
  0
LINE
  5
21A
330
1F
100
AcDbEntity
  8
0
  6
Continuous
 62
     7
370
    25
100
AcDbLine
 10
4221.0007621351
 20
1714.7925144716
 30
0.0
 11
4220.8790973475
 21
1719.4387052586
 31
0.0
  0
LINE
  5
21B
330
1F
100
AcDbEntity
  8
0
  6
Continuous
 62
     7
370
    25
100
AcDbLine
 10
4220.8790973475
 20
1719.4387052586
 30
0.0
 11
4220.7651717957
 21
1723.7893465579
 31
0.0
  0
LINE
  5
21C
330
1F
100
AcDbEntity
  8
0
  6
Continuous
 62
     7
370
    25
100
AcDbLine
 10
3838.3225156724
 20
1319.2543978663
 30
0.0
 11
3840.1225156724
 21
1319.2543978663
 31
0.0
  0
LINE
  5
21D
330
1F
100
AcDbEntity
  8
0
  6
Continuous
 62
     7
370
    25
100
AcDbLine
 10
3840.1225156724
 20
1374.2543978663
 30
0.0
 11
3838.3225156724
 21
1374.2543978663
 31
0.0
  0
LINE
  5
21E
330
1F
100
AcDbEntity
  8
0
  6
Continuous
 62
     7
370
    25
100
AcDbLine
 10
3838.3225156724
 20
1679.2543978663
 30
0.0
 11
3840.1225156724
 21
1679.2543978663
 31
0.0
  0
LINE
  5
21F
330
1F
100
AcDbEntity
  8
0
  6
Continuous
 62
     7
370
    25
100
AcDbLine
 10
3840.1225156724
 20
1734.2543978663
 30
0.0
 11
3839.3225156724
 21
1734.2543978663
 31
0.0
  0
LINE
  5
220
330
1F
100
AcDbEntity
  8
0
  6
Continuous
 62
     7
370
    25
100
AcDbLine
 10
3838.3225156724
 20
1679.2543978663
 30
0.0
 11
3838.3225156724
 21
1733.2543978663
 31
0.0
  0
LINE
  5
221
330
1F
100
AcDbEntity
  8
0
  6
Continuous
 62
     7
370
    25
100
AcDbLine
 10
3838.3225156724
 20
959.2543978663
 30
0.0
 11
3840.1225156724
 21
959.2543978663
 31
0.0
  0
LINE
  5
222
330
1F
100
AcDbEntity
  8
0
  6
Continuous
 62
     7
370
    25
100
AcDbLine
 10
3840.1225156724
 20
1014.2543978663
 30
0.0
 11
3838.3225156724
 21
1014.2543978663
 31
0.0
  0
SPLINE
  5
223
330
1F
100
AcDbEntity
  8
0
  6
Continuous
 62
     7
370
    25
100
AcDbSpline
210
0.0
220
0.0
230
1.0
 70
     8
 71
     3
 72
    16
 73
    12
 74
     0
 42
0.00000001
 43
0.00000001
 40
0.0
 40
0.0
 40
0.0
 40
0.0
 40
0.0490847390192498
 40
0.1518473045648568
 40
0.2358684990991665
 40
0.3090519161652254
 40
0.3734786142106219
 40
0.4370328180322627
 40
0.5258016248246269
 40
0.7068629655464407
 40
1.0
 40
1.0
 40
1.0
 40
1.0
 10
2587.925074168664
 20
2737.98252291633
 30
0.0
 10
2587.929765765399
 20
2738.048713308552
 30
0.0
 10
2587.944279570147
 20
2738.253478228317
 30
0.0
 10
2587.817101818776
 20
2738.557694887963
 30
0.0
 10
2587.61288540925
 20
2738.833758526984
 30
0.0
 10
2587.391873803384
 20
2739.007097001622
 30
0.0
 10
2587.200107235641
 20
2739.104101014125
 30
0.0
 10
2587.042893347458
 20
2739.158174379482
 30
0.0
 10
2586.877542172405
 20
2739.196807200854
 30
0.0
 10
2586.681828237479
 20
2739.226544086374
 30
0.0
 10
2586.454213845371
 20
2739.243759755645
 30
0.0
 10
2586.313508580666
 20
2739.25440203217
 30
0.0
  0
SPLINE
  5
224
330
1F
100
AcDbEntity
  8
0
  6
Continuous
 62
     7
370
    25
100
AcDbSpline
210
0.0
220
0.0
230
1.0
 70
     8
 71
     3
 72
    15
 73
    11
 74
     0
 42
0.00000001
 43
0.00000001
 40
0.0
 40
0.0
 40
0.0
 40
0.0
 40
0.0366146332908652
 40
0.4586206584971525
 40
0.6039592141587421
 40
0.6771237587644289
 40
0.7596633924487624
 40
0.8571328939030868
 40
0.9634171087776114
 40
1.0
 40
1.0
 40
1.0
 40
1.0
 10
2569.59570634317
 20
2739.257096001317
 30
0.0
 10
2569.573357319792
 20
2739.255823552648
 30
0.0
 10
2569.293422143681
 20
2739.239885355413
 30
0.0
 10
2569.137947923121
 20
2739.218833256152
 30
0.0
 10
2568.826115586817
 20
2739.158689292446
 30
0.0
 10
2568.55355186698
 20
2739.042171305233
 30
0.0
 10
2568.289122930541
 20
2738.852245044205
 30
0.0
 10
2568.060974971914
 20
2738.539748887463
 30
0.0
 10
2567.936909000211
 20
2738.217783908192
 30
0.0
 10
2567.958389606699
 20
2738.022470086491
 30
0.0
 10
2567.963889981921
 20
2737.972457564444
 30
0.0
  0
LINE
  5
225
330
1F
100
AcDbEntity
  8
0
  6
Continuous
 62
     7
370
    25
100
AcDbLine
 10
2587.9454585654
 20
2737.2318663251
 30
0.0
 11
2587.9454585654
 21
2737.9820571024
 31
0.0
  0
LINE
  5
226
330
1F
100
AcDbEntity
  8
0
  6
Continuous
 62
     7
370
    25
100
AcDbLine
 10
2567.9454585654
 20
2737.9820571024
 30
0.0
 11
2567.9454585654
 21
2737.2318663251
 31
0.0
  0
LINE
  5
227
330
1F
100
AcDbEntity
  8
0
  6
Continuous
 62
     7
370
    25
100
AcDbLine
 10
2586.4418327899
 20
2739.2468479058
 30
0.0
 11
2584.9154268517
 21
2739.3742254403
 31
0.0
  0
LINE
  5
228
330
1F
100
AcDbEntity
  8
0
  6
Continuous
 62
     7
370
    25
100
AcDbLine
 10
2570.975490279
 20
2739.3742254403
 30
0.0
 11
2569.4490843408
 21
2739.2468479058
 31
0.0
  0
SPLINE
  5
229
330
1F
100
AcDbEntity
  8
0
  6
Continuous
 62
     7
370
    25
100
AcDbSpline
210
0.0
220
0.0
230
1.0
 70
     8
 71
     3
 72
    14
 73
    10
 74
     0
 42
0.00000001
 43
0.00000001
 40
0.0
 40
0.0
 40
0.0
 40
0.0
 40
0.0907475556426501
 40
0.2288563839000706
 40
0.4128530542463538
 40
0.6071420004330713
 40
0.7878282318390859
 40
0.9626611221741516
 40
1.0
 40
1.0
 40
1.0
 40
1.0
 10
2584.825460923719
 20
2739.379327213119
 30
0.0
 10
2584.613909756872
 20
2739.396159746668
 30
0.0
 10
2584.080398581703
 20
2739.438609735899
 30
0.0
 10
2583.219912941154
 20
2739.48057002611
 30
0.0
 10
2582.170112580972
 20
2739.517502171328
 30
0.0
 10
2580.935496063449
 20
2739.54322773795
 30
0.0
 10
2579.598989846247
 20
2739.559073656584
 30
0.0
 10
2578.588959722659
 20
2739.563885326823
 30
0.0
 10
2578.041757506823
 20
2739.564124910319
 30
0.0
 10
2577.945458565356
 20
2739.564167073228
 30
0.0
  0
SPLINE
  5
22A
330
1F
100
AcDbEntity
  8
0
  6
Continuous
 62
     7
370
    25
100
AcDbSpline
210
0.0
220
0.0
230
1.0
 70
     8
 71
     3
 72
    13
 73
     9
 74
     0
 42
0.00000001
 43
0.00000001
 40
0.0
 40
0.0
 40
0.0
 40
0.0
 40
0.0971790056424303
 40
0.2845710337030821
 40
0.4775192778489998
 40
0.689079202769997
 40
0.8771625243242038
 40
1.0
 40
1.0
 40
1.0
 40
1.0
 10
2577.945458565356
 20
2739.564167073228
 30
0.0
 10
2577.698437493647
 20
2739.563905304352
 30
0.0
 10
2576.97508123724
 20
2739.563138761833
 30
0.0
 10
2575.782482825113
 20
2739.554264289769
 30
0.0
 10
2574.412409207458
 20
2739.534024945499
 30
0.0
 10
2573.178104082199
 20
2739.500007999576
 30
0.0
 10
2572.148335398507
 20
2739.460504786331
 30
0.0
 10
2571.441932094412
 20
2739.406884625926
 30
0.0
 10
2571.162848805494
 20
2739.385700564879
 30
0.0
  0
LINE
  5
22B
330
1F
100
AcDbEntity
  8
0
  6
Continuous
 62
     7
370
    25
100
AcDbLine
 10
2582.4454585654
 20
2734.2716549046
 30
0.0
 11
2582.4454585654
 21
2736.5321061976
 31
0.0
  0
LINE
  5
22C
330
1F
100
AcDbEntity
  8
0
  6
Continuous
 62
     7
370
    25
100
AcDbLine
 10
2573.4454585654
 20
2736.5321061976
 30
0.0
 11
2573.4454585654
 21
2734.2716549046
 31
0.0
  0
SPLINE
  5
22D
330
1F
100
AcDbEntity
  8
0
  6
Continuous
 62
     7
370
    25
100
AcDbSpline
210
0.0
220
0.0
230
1.0
 70
     8
 71
     3
 72
    16
 73
    12
 74
     0
 42
0.00000001
 43
0.00000001
 40
0.0
 40
0.0
 40
0.0
 40
0.0
 40
0.0490847390192582
 40
0.1518473045648626
 40
0.2358684990991693
 40
0.3090519161652204
 40
0.3734786142106166
 40
0.4370328180322747
 40
0.5258016248246145
 40
0.7068629655464473
 40
1.0
 40
1.0
 40
1.0
 40
1.0
 10
2261.425074168664
 20
2737.982522916329
 30
0.0
 10
2261.429765765399
 20
2738.04871330855
 30
0.0
 10
2261.444279570147
 20
2738.253478228315
 30
0.0
 10
2261.317101818776
 20
2738.557694887962
 30
0.0
 10
2261.11288540925
 20
2738.833758526983
 30
0.0
 10
2260.891873803384
 20
2739.007097001621
 30
0.0
 10
2260.700107235641
 20
2739.104101014123
 30
0.0
 10
2260.542893347458
 20
2739.15817437948
 30
0.0
 10
2260.377542172405
 20
2739.196807200852
 30
0.0
 10
2260.181828237478
 20
2739.226544086372
 30
0.0
 10
2259.954213845371
 20
2739.243759755643
 30
0.0
 10
2259.813508580666
 20
2739.254402032169
 30
0.0
  0
SPLINE
  5
22E
330
1F
100
AcDbEntity
  8
0
  6
Continuous
 62
     7
370
    25
100
AcDbSpline
210
0.0
220
0.0
230
1.0
 70
     8
 71
     3
 72
    15
 73
    11
 74
     0
 42
0.00000001
 43
0.00000001
 40
0.0
 40
0.0
 40
0.0
 40
0.0
 40
0.0366146332908363
 40
0.4586206584971361
 40
0.6039592141587308
 40
0.6771237587644181
 40
0.7596633924487523
 40
0.8571328939030827
 40
0.9634171087776101
 40
1.0
 40
1.0
 40
1.0
 40
1.0
 10
2243.09570634317
 20
2739.257096001316
 30
0.0
 10
2243.073357319791
 20
2739.255823552646
 30
0.0
 10
2242.793422143681
 20
2739.239885355413
 30
0.0
 10
2242.637947923121
 20
2739.21883325615
 30
0.0
 10
2242.326115586816
 20
2739.158689292445
 30
0.0
 10
2242.053551866979
 20
2739.042171305231
 30
0.0
 10
2241.789122930541
 20
2738.852245044204
 30
0.0
 10
2241.560974971914
 20
2738.539748887462
 30
0.0
 10
2241.436909000211
 20
2738.21778390819
 30
0.0
 10
2241.458389606698
 20
2738.022470086489
 30
0.0
 10
2241.463889981921
 20
2737.972457564443
 30
0.0
  0
LINE
  5
22F
330
1F
100
AcDbEntity
  8
0
  6
Continuous
 62
     7
370
    25
100
AcDbLine
 10
2261.4454585654
 20
2737.2318663251
 30
0.0
 11
2261.4454585654
 21
2737.9820571024
 31
0.0
  0
LINE
  5
230
330
1F
100
AcDbEntity
  8
0
  6
Continuous
 62
     7
370
    25
100
AcDbLine
 10
2241.4454585654
 20
2737.9820571024
 30
0.0
 11
2241.4454585654
 21
2737.2318663251
 31
0.0
  0
LINE
  5
231
330
1F
100
AcDbEntity
  8
0
  6
Continuous
 62
     7
370
    25
100
AcDbLine
 10
2259.9418327899
 20
2739.2468479058
 30
0.0
 11
2258.4154268517
 21
2739.3742254403
 31
0.0
  0
LINE
  5
232
330
1F
100
AcDbEntity
  8
0
  6
Continuous
 62
     7
370
    25
100
AcDbLine
 10
2244.475490279
 20
2739.3742254403
 30
0.0
 11
2242.9490843408
 21
2739.2468479058
 31
0.0
  0
SPLINE
  5
233
330
1F
100
AcDbEntity
  8
0
  6
Continuous
 62
     7
370
    25
100
AcDbSpline
210
0.0
220
0.0
230
1.0
 70
     8
 71
     3
 72
    14
 73
    10
 74
     0
 42
0.00000001
 43
0.00000001
 40
0.0
 40
0.0
 40
0.0
 40
0.0
 40
0.0907475556427913
 40
0.2288563839002389
 40
0.412853054246604
 40
0.6071420004333057
 40
0.7878282318393075
 40
0.962661122174371
 40
1.0
 40
1.0
 40
1.0
 40
1.0
 10
2258.325460923719
 20
2739.379327213117
 30
0.0
 10
2258.113909756871
 20
2739.396159746666
 30
0.0
 10
2257.580398581702
 20
2739.438609735897
 30
0.0
 10
2256.719912941153
 20
2739.480570026109
 30
0.0
 10
2255.67011258097
 20
2739.517502171326
 30
0.0
 10
2254.435496063448
 20
2739.543227737948
 30
0.0
 10
2253.098989846245
 20
2739.559073656583
 30
0.0
 10
2252.088959722658
 20
2739.563885326821
 30
0.0
 10
2251.541757506822
 20
2739.564124910318
 30
0.0
 10
2251.445458565356
 20
2739.564167073226
 30
0.0
  0
SPLINE
  5
234
330
1F
100
AcDbEntity
  8
0
  6
Continuous
 62
     7
370
    25
100
AcDbSpline
210
0.0
220
0.0
230
1.0
 70
     8
 71
     3
 72
    13
 73
     9
 74
     0
 42
0.00000001
 43
0.00000001
 40
0.0
 40
0.0
 40
0.0
 40
0.0
 40
0.0971790056424318
 40
0.2845710337030812
 40
0.477519277849001
 40
0.6890792027699973
 40
0.877162524324211
 40
1.0
 40
1.0
 40
1.0
 40
1.0
 10
2251.445458565356
 20
2739.564167073226
 30
0.0
 10
2251.198437493647
 20
2739.56390530435
 30
0.0
 10
2250.47508123724
 20
2739.563138761831
 30
0.0
 10
2249.282482825113
 20
2739.554264289767
 30
0.0
 10
2247.912409207458
 20
2739.534024945498
 30
0.0
 10
2246.678104082198
 20
2739.500007999575
 30
0.0
 10
2245.648335398506
 20
2739.460504786329
 30
0.0
 10
2244.941932094412
 20
2739.406884625924
 30
0.0
 10
2244.662848805494
 20
2739.385700564877
 30
0.0
  0
LINE
  5
235
330
1F
100
AcDbEntity
  8
0
  6
Continuous
 62
     7
370
    25
100
AcDbLine
 10
2255.9454585654
 20
2734.2716549046
 30
0.0
 11
2255.9454585654
 21
2736.5321061976
 31
0.0
  0
LINE
  5
236
330
1F
100
AcDbEntity
  8
0
  6
Continuous
 62
     7
370
    25
100
AcDbLine
 10
2246.9454585654
 20
2736.5321061976
 30
0.0
 11
2246.9454585654
 21
2734.2716549046
 31
0.0
  0
LINE
  5
237
330
1F
100
AcDbEntity
  8
0
  6
Continuous
 62
     7
370
    25
100
AcDbLine
 10
2614.9454585654
 20
2355.2716549046
 30
0.0
 11
2214.4454585654
 21
2355.2716549046
 31
0.0
  0
LINE
  5
238
330
1F
100
AcDbEntity
  8
0
  6
Continuous
 62
     7
370
    25
100
AcDbLine
 10
2614.9454585654
 20
2734.2716549046
 30
0.0
 11
2614.9454585654
 21
2355.2716549046
 31
0.0
  0
LINE
  5
239
330
1F
100
AcDbEntity
  8
0
  6
Continuous
 62
     7
370
    25
100
AcDbLine
 10
2614.9454585654
 20
2734.2716549046
 30
0.0
 11
2214.4454585654
 21
2734.2716549046
 31
0.0
  0
LINE
  5
23A
330
1F
100
AcDbEntity
  8
0
  6
Continuous
 62
     7
370
    25
100
AcDbLine
 10
2214.4454585654
 20
2734.2716549046
 30
0.0
 11
2214.4454585654
 21
2355.2716549046
 31
0.0
  0
LINE
  5
23B
330
1F
100
AcDbEntity
  8
0
  6
Continuous
 62
     7
370
    25
100
AcDbLine
 10
2612.9454585654
 20
2335.7716549046
 30
0.0
 11
2612.9454585654
 21
2339.5544432195
 31
0.0
  0
LINE
  5
23C
330
1F
100
AcDbEntity
  8
0
  6
Continuous
 62
     7
370
    25
100
AcDbLine
 10
2612.9454585654
 20
2335.7716549046
 30
0.0
 11
2216.9454585654
 21
2335.7716549046
 31
0.0
  0
LINE
  5
23D
330
1F
100
AcDbEntity
  8
0
  6
Continuous
 62
     7
370
    25
100
AcDbLine
 10
2216.9454585654
 20
2335.7716549046
 30
0.0
 11
2216.9454585654
 21
2339.5544432196
 31
0.0
  0
ARC
  5
23E
330
1F
100
AcDbEntity
  8
0
  6
Continuous
 62
     7
370
    25
100
AcDbCircle
 10
2578.9487994325
 20
2929.2477776136
 30
0.0
 40
190.3064363739024
100
AcDbArc
 50
269.697921602
 51
271.989829998
  0
ARC
  5
23F
330
1F
100
AcDbEntity
  8
0
  6
Continuous
 62
     7
370
    25
100
AcDbCircle
 10
2577.3807674913
 20
2973.5241370731
 30
0.0
 40
234.5808305619459
100
AcDbArc
 50
268.5008299501
 51
270.1379245117
  0
ARC
  5
240
330
1F
100
AcDbEntity
  8
0
  6
Continuous
 62
     7
370
    25
100
AcDbCircle
 10
2580.7883976532
 20
2819.504051905
 30
0.0
 40
82.58290404796323
100
AcDbArc
 50
268.0271873052
 51
274.971785139
  0
ARC
  5
241
330
1F
100
AcDbEntity
  8
0
  6
Continuous
 62
     7
370
    25
100
AcDbCircle
 10
2575.3258447337
 20
2828.0354228507
 30
0.0
 40
91.10299653526178
100
AcDbArc
 50
265.3532935281
 51
271.6477340277
  0
SPLINE
  5
242
330
1F
100
AcDbEntity
  8
0
  6
Continuous
 62
     7
370
    25
100
AcDbSpline
210
0.0
220
0.0
230
1.0
 70
     8
 71
     3
 72
    19
 73
    15
 74
     0
 42
0.00000001
 43
0.00000001
 40
0.0
 40
0.0
 40
0.0
 40
0.0
 40
0.0906600731282847
 40
0.205073413897494
 40
0.2719074979494457
 40
0.3443210476358501
 40
0.4209983262120976
 40
0.4999999792228531
 40
0.5790016347260414
 40
0.6556789199259938
 40
0.7280924783130559
 40
0.7949265709541784
 40
0.9093399235673049
 40
1.0
 40
1.0
 40
1.0
 40
1.0
 10
2587.745458565356
 20
2737.03193486008
 30
0.0
 10
2587.66860452069
 20
2737.007709314844
 30
0.0
 10
2587.494760393194
 20
2736.952911043745
 30
0.0
 10
2586.174903170719
 20
2736.886527760364
 30
0.0
 10
2584.418984010522
 20
2736.836615149717
 30
0.0
 10
2582.595890405639
 20
2736.803484284439
 30
0.0
 10
2580.414524317416
 20
2736.781051426675
 30
0.0
 10
2578.021572113829
 20
2736.772789316643
 30
0.0
 10
2575.624049624946
 20
2736.780087282526
 30
0.0
 10
2573.429764294532
 20
2736.801639484268
 30
0.0
 10
2571.587425031508
 20
2736.8340326337
 30
0.0
 10
2569.802394606032
 20
2736.8832325819
 30
0.0
 10
2568.443699588431
 20
2736.949076769693
 30
0.0
 10
2568.23768724434
 20
2737.003798592478
 30
0.0
 10
2568.146612086782
 20
2737.027990340085
 30
0.0
  0
LINE
  5
243
330
1F
100
AcDbEntity
  8
0
  6
Continuous
 62
     7
370
    25
100
AcDbLine
 10
2570.975490279
 20
2739.3742254403
 30
0.0
 11
2571.0274519143
 21
2739.3783936567
 31
0.0
  0
LINE
  5
244
330
1F
100
AcDbEntity
  8
0
  6
Continuous
 62
     7
370
    25
100
AcDbLine
 10
2582.6356302781
 20
2739.43111244
 30
0.0
 11
2582.6346783417
 21
2739.4335859309
 31
0.0
  0
LWPOLYLINE
  5
245
330
1F
100
AcDbEntity
  8
0
  6
Continuous
 62
     7
370
    25
100
AcDbPolyline
 90
       23
 70
   128
 43
0.0
 10
2582.6346783417
 20
2739.4335859309
 10
2582.4194017973
 20
2739.4679610176
 10
2581.8439780751
 20
2739.499369837
 10
2580.9547281093
 20
2739.5252840161
 10
2579.8232354781
 20
2739.5436174939
 10
2578.54058401
 20
2739.5528944469
 10
2577.2100256422
 20
2739.5523680914
 10
2575.9386687613
 20
2739.5420807983
 10
2574.8288561037
 20
2739.5228606826
 10
2573.9699262854
 20
2739.4962549411
 10
2573.4310221482
 20
2739.4644053047
 10
2573.2555248428
 20
2739.4298756318
 10
2573.4575616959
 20
2739.3954455205
 10
2574.0208689783
 20
2739.3638865544
 10
2574.9001011149
 20
2739.3377391931
 10
2576.024480951
 20
2739.3191082686
 10
2577.3034972299
 20
2739.3094935484
 10
2578.6341906426
 20
2739.3096690062
 10
2579.9094419316
 20
2739.3196205179
 10
2581.0265948654
 20
2739.3385469983
 10
2581.8957199443
 20
2739.3649248882
 10
2582.4468536198
 20
2739.3966307983
 10
2582.6356302781
 20
2739.43111244
  0
SPLINE
  5
246
330
1F
100
AcDbEntity
  8
0
  6
Continuous
 62
     7
370
    25
100
AcDbSpline
210
0.0
220
0.0
230
1.0
 70
     8
 71
     3
 72
     9
 73
     5
 74
     0
 42
0.00000001
 43
0.00000001
 40
0.0
 40
0.0
 40
0.0
 40
0.0
 40
0.7246937986492985
 40
1.0
 40
1.0
 40
1.0
 40
1.0
 10
2573.447887259395
 20
2736.535975815348
 30
0.0
 10
2573.443212180506
 20
2736.609347136477
 30
0.0
 10
2573.436761071227
 20
2736.71059171904
 30
0.0
 10
2573.372422639838
 20
2736.78507896912
 30
0.0
 10
2573.354709870692
 20
2736.805585770989
 30
0.0
  0
LINE
  5
247
330
1F
100
AcDbEntity
  8
0
  6
Continuous
 62
     7
370
    25
100
AcDbLine
 10
2575.4996091614
 20
2739.4176313116
 30
0.0
 11
2577.4304585654
 21
2739.4176313116
 31
0.0
  0
LINE
  5
248
330
1F
100
AcDbEntity
  8
0
  6
Continuous
 62
     7
370
    25
100
AcDbLine
 10
2577.4304585654
 20
2739.4176313116
 30
0.0
 11
2577.4304585654
 21
2739.3670875666
 31
0.0
  0
ARC
  5
249
330
1F
100
AcDbEntity
  8
0
  6
Continuous
 62
     7
370
    25
100
AcDbCircle
 10
2577.9454585654
 20
2833.6549486223
 30
0.0
 40
94.28926750936523
100
AcDbArc
 50
269.6870537449
 51
270.3129462551
  0
LINE
  5
24A
330
1F
100
AcDbEntity
  8
0
  6
Continuous
 62
     7
370
    25
100
AcDbLine
 10
2578.4604585654
 20
2739.3670875666
 30
0.0
 11
2578.4604585654
 21
2739.4176313116
 31
0.0
  0
LINE
  5
24B
330
1F
100
AcDbEntity
  8
0
  6
Continuous
 62
     7
370
    25
100
AcDbLine
 10
2578.4604585654
 20
2739.4176313116
 30
0.0
 11
2580.3913079693
 21
2739.4176313116
 31
0.0
  0
LWPOLYLINE
  5
24C
330
1F
100
AcDbEntity
  8
0
  6
Continuous
 62
     7
370
    25
100
AcDbPolyline
 90
        9
 70
   128
 43
0.0
 10
2580.3913079693
 20
2739.4445935684
 10
2580.4147242752
 20
2739.44125516
 10
2580.4314953661
 20
2739.4378894559
 10
2580.4415761083
 20
2739.4345055136
 10
2580.4449393728
 20
2739.43111244
 10
2580.4415761083
 20
2739.4277193664
 10
2580.4314953661
 20
2739.4243354242
 10
2580.4147242752
 20
2739.42096972
 10
2580.3913079693
 20
2739.4176313116
  0
LINE
  5
24D
330
1F
100
AcDbEntity
  8
0
  6
Continuous
 62
     7
370
    25
100
AcDbLine
 10
2580.3913079693
 20
2739.4445935684
 30
0.0
 11
2578.4604585654
 21
2739.4445935684
 31
0.0
  0
LINE
  5
24E
330
1F
100
AcDbEntity
  8
0
  6
Continuous
 62
     7
370
    25
100
AcDbLine
 10
2578.4604585654
 20
2739.4445935684
 30
0.0
 11
2578.4604585654
 21
2739.4951373134
 31
0.0
  0
ARC
  5
24F
330
1F
100
AcDbEntity
  8
0
  6
Continuous
 62
     7
370
    25
100
AcDbCircle
 10
2577.9454585653
 20
2645.2072761883
 30
0.0
 40
94.28926757880163
100
AcDbArc
 50
89.6870537451
 51
90.3129462549
  0
LINE
  5
250
330
1F
100
AcDbEntity
  8
0
  6
Continuous
 62
     7
370
    25
100
AcDbLine
 10
2577.4304585654
 20
2739.4951373134
 30
0.0
 11
2577.4304585654
 21
2739.4445935684
 31
0.0
  0
LINE
  5
251
330
1F
100
AcDbEntity
  8
0
  6
Continuous
 62
     7
370
    25
100
AcDbLine
 10
2577.4304585654
 20
2739.4445935684
 30
0.0
 11
2575.4996091614
 21
2739.4445935684
 31
0.0
  0
LWPOLYLINE
  5
252
330
1F
100
AcDbEntity
  8
0
  6
Continuous
 62
     7
370
    25
100
AcDbPolyline
 90
        9
 70
   128
 43
0.0
 10
2575.4996091614
 20
2739.4176313116
 10
2575.4761928555
 20
2739.42096972
 10
2575.4594217646
 20
2739.4243354242
 10
2575.4493410224
 20
2739.4277193664
 10
2575.4459777579
 20
2739.43111244
 10
2575.4493410224
 20
2739.4345055136
 10
2575.4594217646
 20
2739.4378894559
 10
2575.4761928555
 20
2739.44125516
 10
2575.4996091614
 20
2739.4445935684
  0
LINE
  5
253
330
1F
100
AcDbEntity
  8
0
  6
Continuous
 62
     7
370
    25
100
AcDbLine
 10
2575.5133329309
 20
2739.4176313116
 30
0.0
 11
2575.4996091614
 21
2739.4445935684
 31
0.0
  0
LINE
  5
254
330
1F
100
AcDbEntity
  8
0
  6
Continuous
 62
     7
370
    25
100
AcDbLine
 10
2578.4604585654
 20
2739.4445935684
 30
0.0
 11
2578.4604585654
 21
2739.4176313116
 31
0.0
  0
LINE
  5
255
330
1F
100
AcDbEntity
  8
0
  6
Continuous
 62
     7
370
    25
100
AcDbLine
 10
2577.4304585654
 20
2739.4445935684
 30
0.0
 11
2577.4304585654
 21
2739.4176313116
 31
0.0
  0
ARC
  5
256
330
1F
100
AcDbEntity
  8
0
  6
Continuous
 62
     7
370
    25
100
AcDbCircle
 10
2252.4487994322
 20
2929.2477776298
 30
0.0
 40
190.3064363901122
100
AcDbArc
 50
269.6979216021
 51
271.9898299979
  0
ARC
  5
257
330
1F
100
AcDbEntity
  8
0
  6
Continuous
 62
     7
370
    25
100
AcDbCircle
 10
2250.8807674914
 20
2973.524137077
 30
0.0
 40
234.5808305657675
100
AcDbArc
 50
268.5008299501
 51
270.1379245117
  0
ARC
  5
258
330
1F
100
AcDbEntity
  8
0
  6
Continuous
 62
     7
370
    25
100
AcDbCircle
 10
2254.2883976532
 20
2819.5040519046
 30
0.0
 40
82.58290404759272
100
AcDbArc
 50
268.0271873052
 51
274.9717851391
  0
ARC
  5
259
330
1F
100
AcDbEntity
  8
0
  6
Continuous
 62
     7
370
    25
100
AcDbCircle
 10
2248.8258447337
 20
2828.0354228505
 30
0.0
 40
91.10299653501795
100
AcDbArc
 50
265.3532935281
 51
271.6477340277
  0
SPLINE
  5
25A
330
1F
100
AcDbEntity
  8
0
  6
Continuous
 62
     7
370
    25
100
AcDbSpline
210
0.0
220
0.0
230
1.0
 70
     8
 71
     3
 72
    19
 73
    15
 74
     0
 42
0.00000001
 43
0.00000001
 40
0.0
 40
0.0
 40
0.0
 40
0.0
 40
0.0906600731282848
 40
0.2050734138974943
 40
0.2719074979494455
 40
0.3443210476358496
 40
0.4209983262120975
 40
0.4999999792228533
 40
0.5790016347260414
 40
0.6556789199259936
 40
0.7280924783130553
 40
0.794926570954178
 40
0.9093399235673048
 40
1.0
 40
1.0
 40
1.0
 40
1.0
 10
2261.245458565356
 20
2737.031934860079
 30
0.0
 10
2261.16860452069
 20
2737.007709314842
 30
0.0
 10
2260.994760393194
 20
2736.952911043744
 30
0.0
 10
2259.674903170718
 20
2736.886527760363
 30
0.0
 10
2257.918984010522
 20
2736.836615149716
 30
0.0
 10
2256.095890405639
 20
2736.803484284437
 30
0.0
 10
2253.914524317416
 20
2736.781051426673
 30
0.0
 10
2251.521572113829
 20
2736.772789316641
 30
0.0
 10
2249.124049624946
 20
2736.780087282525
 30
0.0
 10
2246.929764294531
 20
2736.801639484266
 30
0.0
 10
2245.087425031508
 20
2736.834032633698
 30
0.0
 10
2243.302394606032
 20
2736.883232581898
 30
0.0
 10
2241.943699588431
 20
2736.949076769691
 30
0.0
 10
2241.73768724434
 20
2737.003798592477
 30
0.0
 10
2241.646612086782
 20
2737.027990340084
 30
0.0
  0
LINE
  5
25B
330
1F
100
AcDbEntity
  8
0
  6
Continuous
 62
     7
370
    25
100
AcDbLine
 10
2244.475490279
 20
2739.3742254403
 30
0.0
 11
2244.5274519143
 21
2739.3783936567
 31
0.0
  0
LINE
  5
25C
330
1F
100
AcDbEntity
  8
0
  6
Continuous
 62
     7
370
    25
100
AcDbLine
 10
2256.1356302781
 20
2739.43111244
 30
0.0
 11
2256.1346783417
 21
2739.4335859309
 31
0.0
  0
LWPOLYLINE
  5
25D
330
1F
100
AcDbEntity
  8
0
  6
Continuous
 62
     7
370
    25
100
AcDbPolyline
 90
       23
 70
   128
 43
0.0
 10
2256.1346783417
 20
2739.4335859309
 10
2255.9194017973
 20
2739.4679610176
 10
2255.3439780751
 20
2739.499369837
 10
2254.4547281093
 20
2739.5252840161
 10
2253.3232354781
 20
2739.5436174939
 10
2252.04058401
 20
2739.5528944469
 10
2250.7100256422
 20
2739.5523680914
 10
2249.4386687613
 20
2739.5420807983
 10
2248.3288561037
 20
2739.5228606826
 10
2247.4699262854
 20
2739.4962549411
 10
2246.9310221482
 20
2739.4644053047
 10
2246.7555248428
 20
2739.4298756318
 10
2246.9575616959
 20
2739.3954455205
 10
2247.5208689783
 20
2739.3638865544
 10
2248.4001011149
 20
2739.3377391931
 10
2249.524480951
 20
2739.3191082686
 10
2250.8034972299
 20
2739.3094935484
 10
2252.1341906426
 20
2739.3096690062
 10
2253.4094419316
 20
2739.3196205179
 10
2254.5265948654
 20
2739.3385469983
 10
2255.3957199443
 20
2739.3649248882
 10
2255.9468536198
 20
2739.3966307983
 10
2256.1356302781
 20
2739.43111244
  0
SPLINE
  5
25E
330
1F
100
AcDbEntity
  8
0
  6
Continuous
 62
     7
370
    25
100
AcDbSpline
210
0.0
220
0.0
230
1.0
 70
     8
 71
     3
 72
     9
 73
     5
 74
     0
 42
0.00000001
 43
0.00000001
 40
0.0
 40
0.0
 40
0.0
 40
0.0
 40
0.724693798649304
 40
1.0
 40
1.0
 40
1.0
 40
1.0
 10
2246.947887259395
 20
2736.535975815346
 30
0.0
 10
2246.943212180506
 20
2736.609347136475
 30
0.0
 10
2246.936761071227
 20
2736.710591719038
 30
0.0
 10
2246.872422639838
 20
2736.785078969119
 30
0.0
 10
2246.854709870691
 20
2736.805585770988
 30
0.0
  0
LINE
  5
25F
330
1F
100
AcDbEntity
  8
0
  6
Continuous
 62
     7
370
    25
100
AcDbLine
 10
2248.9996091614
 20
2739.4176313116
 30
0.0
 11
2250.9304585654
 21
2739.4176313116
 31
0.0
  0
LINE
  5
260
330
1F
100
AcDbEntity
  8
0
  6
Continuous
 62
     7
370
    25
100
AcDbLine
 10
2250.9304585654
 20
2739.4176313116
 30
0.0
 11
2250.9304585654
 21
2739.3670875666
 31
0.0
  0
ARC
  5
261
330
1F
100
AcDbEntity
  8
0
  6
Continuous
 62
     7
370
    25
100
AcDbCircle
 10
2251.4454585654
 20
2833.6549486138
 30
0.0
 40
94.28926750086363
100
AcDbArc
 50
269.6870537448
 51
270.3129462551
  0
LINE
  5
262
330
1F
100
AcDbEntity
  8
0
  6
Continuous
 62
     7
370
    25
100
AcDbLine
 10
2251.9604585654
 20
2739.3670875666
 30
0.0
 11
2251.9604585654
 21
2739.4176313116
 31
0.0
  0
LINE
  5
263
330
1F
100
AcDbEntity
  8
0
  6
Continuous
 62
     7
370
    25
100
AcDbLine
 10
2251.9604585654
 20
2739.4176313116
 30
0.0
 11
2253.8913079693
 21
2739.4176313116
 31
0.0
  0
LWPOLYLINE
  5
264
330
1F
100
AcDbEntity
  8
0
  6
Continuous
 62
     7
370
    25
100
AcDbPolyline
 90
        9
 70
   128
 43
0.0
 10
2253.8913079693
 20
2739.4445935684
 10
2253.9147242752
 20
2739.44125516
 10
2253.9314953661
 20
2739.4378894559
 10
2253.9415761083
 20
2739.4345055136
 10
2253.9449393728
 20
2739.43111244
 10
2253.9415761083
 20
2739.4277193664
 10
2253.9314953661
 20
2739.4243354241
 10
2253.9147242752
 20
2739.42096972
 10
2253.8913079693
 20
2739.4176313116
  0
LINE
  5
265
330
1F
100
AcDbEntity
  8
0
  6
Continuous
 62
     7
370
    25
100
AcDbLine
 10
2253.8913079693
 20
2739.4445935684
 30
0.0
 11
2251.9604585654
 21
2739.4445935684
 31
0.0
  0
LINE
  5
266
330
1F
100
AcDbEntity
  8
0
  6
Continuous
 62
     7
370
    25
100
AcDbLine
 10
2251.9604585654
 20
2739.4445935684
 30
0.0
 11
2251.9604585654
 21
2739.4951373134
 31
0.0
  0
ARC
  5
267
330
1F
100
AcDbEntity
  8
0
  6
Continuous
 62
     7
370
    25
100
AcDbCircle
 10
2251.4454585653
 20
2645.2072762155
 30
0.0
 40
94.28926755164451
100
AcDbArc
 50
89.687053745
 51
90.3129462549
  0
LINE
  5
268
330
1F
100
AcDbEntity
  8
0
  6
Continuous
 62
     7
370
    25
100
AcDbLine
 10
2250.9304585654
 20
2739.4951373134
 30
0.0
 11
2250.9304585654
 21
2739.4445935684
 31
0.0
  0
LINE
  5
269
330
1F
100
AcDbEntity
  8
0
  6
Continuous
 62
     7
370
    25
100
AcDbLine
 10
2250.9304585654
 20
2739.4445935684
 30
0.0
 11
2248.9996091614
 21
2739.4445935684
 31
0.0
  0
LWPOLYLINE
  5
26A
330
1F
100
AcDbEntity
  8
0
  6
Continuous
 62
     7
370
    25
100
AcDbPolyline
 90
        9
 70
   128
 43
0.0
 10
2248.9996091614
 20
2739.4176313116
 10
2248.9761928555
 20
2739.42096972
 10
2248.9594217646
 20
2739.4243354241
 10
2248.9493410224
 20
2739.4277193664
 10
2248.9459777579
 20
2739.43111244
 10
2248.9493410224
 20
2739.4345055136
 10
2248.9594217646
 20
2739.4378894559
 10
2248.9761928555
 20
2739.44125516
 10
2248.9996091614
 20
2739.4445935684
  0
LINE
  5
26B
330
1F
100
AcDbEntity
  8
0
  6
Continuous
 62
     7
370
    25
100
AcDbLine
 10
2249.0133329309
 20
2739.4176313116
 30
0.0
 11
2248.9996091614
 21
2739.4445935684
 31
0.0
  0
LINE
  5
26C
330
1F
100
AcDbEntity
  8
0
  6
Continuous
 62
     7
370
    25
100
AcDbLine
 10
2251.9604585654
 20
2739.4445935684
 30
0.0
 11
2251.9604585654
 21
2739.4176313116
 31
0.0
  0
LINE
  5
26D
330
1F
100
AcDbEntity
  8
0
  6
Continuous
 62
     7
370
    25
100
AcDbLine
 10
2250.9304585654
 20
2739.4445935684
 30
0.0
 11
2250.9304585654
 21
2739.4176313116
 31
0.0
  0
LINE
  5
26E
330
1F
100
AcDbEntity
  8
0
  6
Continuous
 62
     7
370
    25
100
AcDbLine
 10
2612.9454585654
 20
2340.6517917236
 30
0.0
 11
2612.9454585654
 21
2339.7217068246
 31
0.0
  0
ARC
  5
26F
330
1F
100
AcDbEntity
  8
0
  6
Continuous
 62
     7
370
    25
100
AcDbCircle
 10
2612.7940746856
 20
2340.013930987
 30
0.0
 40
0.3291079460479541
100
AcDbArc
 50
261.5051279085
 51
297.3859751202
  0
LINE
  5
270
330
1F
100
AcDbEntity
  8
0
  6
Continuous
 62
     7
370
    25
100
AcDbLine
 10
2612.7454585654
 20
2339.6884336552
 30
0.0
 11
2612.7454585654
 21
2340.851039779
 31
0.0
  0
ARC
  5
271
330
1F
100
AcDbEntity
  8
0
  6
Continuous
 62
     7
370
    25
100
AcDbCircle
 10
2612.7458338309
 20
2340.6514150419
 30
0.0
 40
0.1996250898589466
100
AcDbArc
 50
0.1081141024
 51
90.1077076222
  0
LINE
  5
272
330
1F
100
AcDbEntity
  8
0
  6
Continuous
 62
     7
370
    25
100
AcDbLine
 10
2612.7454585654
 20
2340.851039779
 30
0.0
 11
2610.9454585654
 21
2340.851039779
 31
0.0
  0
LINE
  5
273
330
1F
100
AcDbEntity
  8
0
  6
Continuous
 62
     7
370
    25
100
AcDbLine
 10
2612.7454585654
 20
2339.6884336552
 30
0.0
 11
2610.9454585654
 21
2339.6884336552
 31
0.0
  0
LINE
  5
274
330
1F
100
AcDbEntity
  8
0
  6
Continuous
 62
     7
370
    25
100
AcDbLine
 10
2610.9454585654
 20
2340.851039779
 30
0.0
 11
2610.9454585654
 21
2339.6884336552
 31
0.0
  0
LINE
  5
275
330
1F
100
AcDbEntity
  8
0
  6
Continuous
 62
     7
370
    25
100
AcDbLine
 10
2612.9454585654
 20
2339.7217068246
 30
0.0
 11
2612.9454585654
 21
2339.5544432211
 31
0.0
  0
SPLINE
  5
276
330
1F
100
AcDbEntity
  8
0
  6
Continuous
 62
     7
370
    25
100
AcDbSpline
210
0.0
220
0.0
230
1.0
 70
     8
 71
     3
 72
    13
 73
     9
 74
     0
 42
0.00000001
 43
0.00000001
 40
0.0
 40
0.0
 40
0.0
 40
0.0
 40
0.0075029974113267
 40
0.3818974549662932
 40
0.607001887327179
 40
0.7653769096344221
 40
0.8824605049809765
 40
1.0
 40
1.0
 40
1.0
 40
1.0
 10
2612.945458565365
 20
2339.554443221124
 30
0.0
 10
2612.945457609761
 20
2339.553425444508
 30
0.0
 10
2612.945408970146
 20
2339.501621308367
 30
0.0
 10
2612.939286865407
 20
2339.423035943002
 30
0.0
 10
2612.897270759933
 20
2339.340396478969
 30
0.0
 10
2612.848459957967
 20
2339.29830036087
 30
0.0
 10
2612.797729310652
 20
2339.275776934035
 30
0.0
 10
2612.762904703201
 20
2339.273037507921
 30
0.0
 10
2612.745458565365
 20
2339.271665133354
 30
0.0
  0
LINE
  5
277
330
1F
100
AcDbEntity
  8
0
  6
Continuous
 62
     7
370
    25
100
AcDbLine
 10
2612.7454585654
 20
2339.2716651334
 30
0.0
 11
2612.7454585654
 21
2339.6884336552
 31
0.0
  0
LINE
  5
278
330
1F
100
AcDbEntity
  8
0
  6
Continuous
 62
     7
370
    25
100
AcDbLine
 10
2612.7454585654
 20
2339.2716651334
 30
0.0
 11
2610.9454585654
 21
2339.2716651334
 31
0.0
  0
LINE
  5
279
330
1F
100
AcDbEntity
  8
0
  6
Continuous
 62
     7
370
    25
100
AcDbLine
 10
2610.9454585654
 20
2339.6884336552
 30
0.0
 11
2610.9454585654
 21
2339.2716651334
 31
0.0
  0
LINE
  5
27A
330
1F
100
AcDbEntity
  8
0
  6
Continuous
 62
     7
370
    25
100
AcDbLine
 10
2612.7454585654
 20
2340.851039779
 30
0.0
 11
2612.7454585654
 21
2341.6922283976
 31
0.0
  0
ARC
  5
27B
330
1F
100
AcDbEntity
  8
0
  6
Continuous
 62
     7
370
    25
100
AcDbCircle
 10
2612.7458338309
 20
2341.4926036605
 30
0.0
 40
0.1996250898584911
100
AcDbArc
 50
0.1081141022
 51
90.1077076224
  0
LINE
  5
27C
330
1F
100
AcDbEntity
  8
0
  6
Continuous
 62
     7
370
    25
100
AcDbLine
 10
2612.9454585654
 20
2341.4929803423
 30
0.0
 11
2612.9454585654
 21
2340.6517917236
 31
0.0
  0
LINE
  5
27D
330
1F
100
AcDbEntity
  8
0
  6
Continuous
 62
     7
370
    25
100
AcDbLine
 10
2612.7454585654
 20
2341.6922283976
 30
0.0
 11
2610.9454585654
 21
2341.6922283976
 31
0.0
  0
LINE
  5
27E
330
1F
100
AcDbEntity
  8
0
  6
Continuous
 62
     7
370
    25
100
AcDbLine
 10
2610.9454585654
 20
2341.6922283976
 30
0.0
 11
2610.9454585654
 21
2340.851039779
 31
0.0
  0
LINE
  5
27F
330
1F
100
AcDbEntity
  8
0
  6
Continuous
 62
     7
370
    25
100
AcDbLine
 10
2612.7454585654
 20
2341.6922283976
 30
0.0
 11
2612.7454585654
 21
2342.6884686746
 31
0.0
  0
LINE
  5
280
330
1F
100
AcDbEntity
  8
0
  6
Continuous
 62
     7
370
    25
100
AcDbLine
 10
2612.7454585654
 20
2342.6884686746
 30
0.0
 11
2612.9454585654
 21
2342.6884686746
 31
0.0
  0
LINE
  5
281
330
1F
100
AcDbEntity
  8
0
  6
Continuous
 62
     7
370
    25
100
AcDbLine
 10
2612.9454585654
 20
2342.6884686746
 30
0.0
 11
2612.9454585654
 21
2341.4929803423
 31
0.0
  0
LINE
  5
282
330
1F
100
AcDbEntity
  8
0
  6
Continuous
 62
     7
370
    25
100
AcDbLine
 10
2610.9454585654
 20
2342.6884686746
 30
0.0
 11
2612.7454585654
 21
2342.6884686746
 31
0.0
  0
LINE
  5
283
330
1F
100
AcDbEntity
  8
0
  6
Continuous
 62
     7
370
    25
100
AcDbLine
 10
2610.9454585654
 20
2342.6884686746
 30
0.0
 11
2610.9454585654
 21
2341.6922283976
 31
0.0
  0
LINE
  5
284
330
1F
100
AcDbEntity
  8
0
  6
Continuous
 62
     7
370
    25
100
AcDbLine
 10
2610.9454585654
 20
2354.0716549046
 30
0.0
 11
2612.7454585654
 21
2354.0716549046
 31
0.0
  0
LINE
  5
285
330
1F
100
AcDbEntity
  8
0
  6
Continuous
 62
     7
370
    25
100
AcDbLine
 10
2612.7454585654
 20
2353.0716549046
 30
0.0
 11
2612.7454585654
 21
2354.0716549046
 31
0.0
  0
LINE
  5
286
330
1F
100
AcDbEntity
  8
0
  6
Continuous
 62
     7
370
    25
100
AcDbLine
 10
2612.7454585654
 20
2353.0716549046
 30
0.0
 11
2610.9454585654
 21
2353.0716549046
 31
0.0
  0
LINE
  5
287
330
1F
100
AcDbEntity
  8
0
  6
Continuous
 62
     7
370
    25
100
AcDbLine
 10
2610.9454585654
 20
2353.0716549046
 30
0.0
 11
2610.9454585654
 21
2354.0716549046
 31
0.0
  0
LINE
  5
288
330
1F
100
AcDbEntity
  8
0
  6
Continuous
 62
     7
370
    25
100
AcDbLine
 10
2612.7454585654
 20
2342.6884686746
 30
0.0
 11
2612.7454585654
 21
2353.0716549046
 31
0.0
  0
LINE
  5
289
330
1F
100
AcDbEntity
  8
0
  6
Continuous
 62
     7
370
    25
100
AcDbLine
 10
2612.7454585654
 20
2353.0716549046
 30
0.0
 11
2612.9454585654
 21
2353.0716549046
 31
0.0
  0
LINE
  5
28A
330
1F
100
AcDbEntity
  8
0
  6
Continuous
 62
     7
370
    25
100
AcDbLine
 10
2612.9454585654
 20
2353.0716549046
 30
0.0
 11
2612.9454585654
 21
2342.6884686746
 31
0.0
  0
ARC
  5
28B
330
1F
100
AcDbEntity
  8
0
  6
Continuous
 62
     7
370
    25
100
AcDbCircle
 10
2612.7454585654
 20
2353.8716549046
 30
0.0
 40
0.2000000000002728
100
AcDbArc
 50
0.0
 51
90.0
  0
LINE
  5
28C
330
1F
100
AcDbEntity
  8
0
  6
Continuous
 62
     7
370
    25
100
AcDbLine
 10
2612.9454585654
 20
2353.8716549046
 30
0.0
 11
2612.9454585654
 21
2353.0716549046
 31
0.0
  0
LINE
  5
28D
330
1F
100
AcDbEntity
  8
0
  6
Continuous
 62
     7
370
    25
100
AcDbLine
 10
2610.9454585654
 20
2353.0716549046
 30
0.0
 11
2610.9454585654
 21
2342.6884686746
 31
0.0
  0
LINE
  5
28E
330
1F
100
AcDbEntity
  8
0
  6
Continuous
 62
     7
370
    25
100
AcDbLine
 10
2610.9454585654
 20
2340.851039779
 30
0.0
 11
2218.9454585654
 21
2340.851039779
 31
0.0
  0
LINE
  5
28F
330
1F
100
AcDbEntity
  8
0
  6
Continuous
 62
     7
370
    25
100
AcDbLine
 10
2610.9454585654
 20
2339.6884336552
 30
0.0
 11
2218.9454585654
 21
2339.6884336552
 31
0.0
  0
LINE
  5
290
330
1F
100
AcDbEntity
  8
0
  6
Continuous
 62
     7
370
    25
100
AcDbLine
 10
2218.9454585654
 20
2339.6884336552
 30
0.0
 11
2218.9454585654
 21
2340.851039779
 31
0.0
  0
LINE
  5
291
330
1F
100
AcDbEntity
  8
0
  6
Continuous
 62
     7
370
    25
100
AcDbLine
 10
2610.9454585654
 20
2339.2716651334
 30
0.0
 11
2218.9454585654
 21
2339.2716651334
 31
0.0
  0
LINE
  5
292
330
1F
100
AcDbEntity
  8
0
  6
Continuous
 62
     7
370
    25
100
AcDbLine
 10
2218.9454585654
 20
2339.2716651334
 30
0.0
 11
2218.9454585654
 21
2339.6884336552
 31
0.0
  0
LINE
  5
293
330
1F
100
AcDbEntity
  8
0
  6
Continuous
 62
     7
370
    25
100
AcDbLine
 10
2610.9454585654
 20
2341.6922283976
 30
0.0
 11
2218.9454585654
 21
2341.6922283976
 31
0.0
  0
LINE
  5
294
330
1F
100
AcDbEntity
  8
0
  6
Continuous
 62
     7
370
    25
100
AcDbLine
 10
2218.9454585654
 20
2340.851039779
 30
0.0
 11
2218.9454585654
 21
2341.6922283976
 31
0.0
  0
LINE
  5
295
330
1F
100
AcDbEntity
  8
0
  6
Continuous
 62
     7
370
    25
100
AcDbLine
 10
2218.9454585654
 20
2342.6884686746
 30
0.0
 11
2610.9454585654
 21
2342.6884686746
 31
0.0
  0
LINE
  5
296
330
1F
100
AcDbEntity
  8
0
  6
Continuous
 62
     7
370
    25
100
AcDbLine
 10
2218.9454585654
 20
2341.6922283976
 30
0.0
 11
2218.9454585654
 21
2342.6884686746
 31
0.0
  0
LINE
  5
297
330
1F
100
AcDbEntity
  8
0
  6
Continuous
 62
     7
370
    25
100
AcDbLine
 10
2610.9454585654
 20
2353.0716549046
 30
0.0
 11
2218.9454585654
 21
2353.0716549046
 31
0.0
  0
LINE
  5
298
330
1F
100
AcDbEntity
  8
0
  6
Continuous
 62
     7
370
    25
100
AcDbLine
 10
2218.9454585654
 20
2354.0716549046
 30
0.0
 11
2610.9454585654
 21
2354.0716549046
 31
0.0
  0
LINE
  5
299
330
1F
100
AcDbEntity
  8
0
  6
Continuous
 62
     7
370
    25
100
AcDbLine
 10
2218.9454585654
 20
2354.0716549046
 30
0.0
 11
2218.9454585654
 21
2353.0716549046
 31
0.0
  0
LINE
  5
29A
330
1F
100
AcDbEntity
  8
0
  6
Continuous
 62
     7
370
    25
100
AcDbLine
 10
2218.9454585654
 20
2342.6884686746
 30
0.0
 11
2218.9454585654
 21
2353.0716549046
 31
0.0
  0
LINE
  5
29B
330
1F
100
AcDbEntity
  8
0
  6
Continuous
 62
     7
370
    25
100
AcDbLine
 10
2216.9454585654
 20
2339.7217068246
 30
0.0
 11
2216.9454585654
 21
2340.6517917236
 31
0.0
  0
ARC
  5
29C
330
1F
100
AcDbEntity
  8
0
  6
Continuous
 62
     7
370
    25
100
AcDbCircle
 10
2217.1450832998
 20
2340.6514150419
 30
0.0
 40
0.1996250898584902
100
AcDbArc
 50
89.8922923778
 51
179.8918858979
  0
LINE
  5
29D
330
1F
100
AcDbEntity
  8
0
  6
Continuous
 62
     7
370
    25
100
AcDbLine
 10
2217.1454585654
 20
2340.851039779
 30
0.0
 11
2217.1454585654
 21
2339.6884336552
 31
0.0
  0
ARC
  5
29E
330
1F
100
AcDbEntity
  8
0
  6
Continuous
 62
     7
370
    25
100
AcDbCircle
 10
2217.0968424451
 20
2340.013930987
 30
0.0
 40
0.3291079460492134
100
AcDbArc
 50
242.6140248799
 51
278.4948720914
  0
LINE
  5
29F
330
1F
100
AcDbEntity
  8
0
  6
Continuous
 62
     7
370
    25
100
AcDbLine
 10
2218.9454585654
 20
2339.6884336552
 30
0.0
 11
2217.1454585654
 21
2339.6884336552
 31
0.0
  0
LINE
  5
2A0
330
1F
100
AcDbEntity
  8
0
  6
Continuous
 62
     7
370
    25
100
AcDbLine
 10
2218.9454585654
 20
2340.851039779
 30
0.0
 11
2217.1454585654
 21
2340.851039779
 31
0.0
  0
LINE
  5
2A1
330
1F
100
AcDbEntity
  8
0
  6
Continuous
 62
     7
370
    25
100
AcDbLine
 10
2216.9454585654
 20
2339.5544432211
 30
0.0
 11
2216.9454585654
 21
2339.7217068246
 31
0.0
  0
LINE
  5
2A2
330
1F
100
AcDbEntity
  8
0
  6
Continuous
 62
     7
370
    25
100
AcDbLine
 10
2217.1454585654
 20
2339.6884336552
 30
0.0
 11
2217.1454585654
 21
2339.2716651334
 31
0.0
  0
SPLINE
  5
2A3
330
1F
100
AcDbEntity
  8
0
  6
Continuous
 62
     7
370
    25
100
AcDbSpline
210
0.0
220
0.0
230
1.0
 70
     8
 71
     3
 72
    13
 73
     9
 74
     0
 42
0.00000001
 43
0.00000001
 40
0.0
 40
0.0
 40
0.0
 40
0.0
 40
0.007502997411325
 40
0.3818974549657506
 40
0.6070018873268765
 40
0.7653769096342172
 40
0.8824605049807507
 40
1.0
 40
1.0
 40
1.0
 40
1.0
 10
2216.945458565361
 20
2339.554443221123
 30
0.0
 10
2216.945459520966
 20
2339.553425444507
 30
0.0
 10
2216.945508160579
 20
2339.501621308367
 30
0.0
 10
2216.95163026532
 20
2339.423035943001
 30
0.0
 10
2216.993646370794
 20
2339.340396478968
 30
0.0
 10
2217.04245717276
 20
2339.298300360869
 30
0.0
 10
2217.093187820075
 20
2339.275776934034
 30
0.0
 10
2217.128012427525
 20
2339.27303750792
 30
0.0
 10
2217.145458565361
 20
2339.271665133353
 30
0.0
  0
LINE
  5
2A4
330
1F
100
AcDbEntity
  8
0
  6
Continuous
 62
     7
370
    25
100
AcDbLine
 10
2218.9454585654
 20
2339.2716651334
 30
0.0
 11
2217.1454585654
 21
2339.2716651334
 31
0.0
  0
ARC
  5
2A5
330
1F
100
AcDbEntity
  8
0
  6
Continuous
 62
     7
370
    25
100
AcDbCircle
 10
2217.1450832998
 20
2341.4926036605
 30
0.0
 40
0.1996250898584902
100
AcDbArc
 50
89.8922923778
 51
179.8918858979
  0
LINE
  5
2A6
330
1F
100
AcDbEntity
  8
0
  6
Continuous
 62
     7
370
    25
100
AcDbLine
 10
2217.1454585654
 20
2341.6922283976
 30
0.0
 11
2217.1454585654
 21
2340.851039779
 31
0.0
  0
LINE
  5
2A7
330
1F
100
AcDbEntity
  8
0
  6
Continuous
 62
     7
370
    25
100
AcDbLine
 10
2216.9454585654
 20
2340.6517917236
 30
0.0
 11
2216.9454585654
 21
2341.4929803423
 31
0.0
  0
LINE
  5
2A8
330
1F
100
AcDbEntity
  8
0
  6
Continuous
 62
     7
370
    25
100
AcDbLine
 10
2218.9454585654
 20
2341.6922283976
 30
0.0
 11
2217.1454585654
 21
2341.6922283976
 31
0.0
  0
LINE
  5
2A9
330
1F
100
AcDbEntity
  8
0
  6
Continuous
 62
     7
370
    25
100
AcDbLine
 10
2217.1454585654
 20
2342.6884686746
 30
0.0
 11
2217.1454585654
 21
2341.6922283976
 31
0.0
  0
LINE
  5
2AA
330
1F
100
AcDbEntity
  8
0
  6
Continuous
 62
     7
370
    25
100
AcDbLine
 10
2217.1454585654
 20
2342.6884686746
 30
0.0
 11
2218.9454585654
 21
2342.6884686746
 31
0.0
  0
LINE
  5
2AB
330
1F
100
AcDbEntity
  8
0
  6
Continuous
 62
     7
370
    25
100
AcDbLine
 10
2216.9454585654
 20
2342.6884686746
 30
0.0
 11
2217.1454585654
 21
2342.6884686746
 31
0.0
  0
LINE
  5
2AC
330
1F
100
AcDbEntity
  8
0
  6
Continuous
 62
     7
370
    25
100
AcDbLine
 10
2216.9454585654
 20
2341.4929803423
 30
0.0
 11
2216.9454585654
 21
2342.6884686746
 31
0.0
  0
LINE
  5
2AD
330
1F
100
AcDbEntity
  8
0
  6
Continuous
 62
     7
370
    25
100
AcDbLine
 10
2218.9454585654
 20
2353.0716549046
 30
0.0
 11
2217.1454585654
 21
2353.0716549046
 31
0.0
  0
LINE
  5
2AE
330
1F
100
AcDbEntity
  8
0
  6
Continuous
 62
     7
370
    25
100
AcDbLine
 10
2217.1454585654
 20
2354.0716549046
 30
0.0
 11
2217.1454585654
 21
2353.0716549046
 31
0.0
  0
LINE
  5
2AF
330
1F
100
AcDbEntity
  8
0
  6
Continuous
 62
     7
370
    25
100
AcDbLine
 10
2217.1454585654
 20
2354.0716549046
 30
0.0
 11
2218.9454585654
 21
2354.0716549046
 31
0.0
  0
ARC
  5
2B0
330
1F
100
AcDbEntity
  8
0
  6
Continuous
 62
     7
370
    25
100
AcDbCircle
 10
2217.1454585654
 20
2353.8716549046
 30
0.0
 40
0.1999999999998181
100
AcDbArc
 50
90.0
 51
180.0
  0
LINE
  5
2B1
330
1F
100
AcDbEntity
  8
0
  6
Continuous
 62
     7
370
    25
100
AcDbLine
 10
2216.9454585654
 20
2353.0716549046
 30
0.0
 11
2217.1454585654
 21
2353.0716549046
 31
0.0
  0
LINE
  5
2B2
330
1F
100
AcDbEntity
  8
0
  6
Continuous
 62
     7
370
    25
100
AcDbLine
 10
2216.9454585654
 20
2353.0716549046
 30
0.0
 11
2216.9454585654
 21
2353.8716549046
 31
0.0
  0
LINE
  5
2B3
330
1F
100
AcDbEntity
  8
0
  6
Continuous
 62
     7
370
    25
100
AcDbLine
 10
2217.1454585654
 20
2353.0716549046
 30
0.0
 11
2217.1454585654
 21
2342.6884686746
 31
0.0
  0
LINE
  5
2B4
330
1F
100
AcDbEntity
  8
0
  6
Continuous
 62
     7
370
    25
100
AcDbLine
 10
2216.9454585654
 20
2342.6884686746
 30
0.0
 11
2216.9454585654
 21
2353.0716549046
 31
0.0
  0
LINE
  5
2B5
330
1F
100
AcDbEntity
  8
0
  6
Continuous
 62
     7
370
    25
100
AcDbLine
 10
2429.9454585654
 20
2354.0716549046
 30
0.0
 11
2429.9454585654
 21
2354.9716549046
 31
0.0
  0
LINE
  5
2B6
330
1F
100
AcDbEntity
  8
0
  6
Continuous
 62
     7
370
    25
100
AcDbLine
 10
2399.9454585654
 20
2354.9716549046
 30
0.0
 11
2399.9454585654
 21
2354.0716549046
 31
0.0
  0
LINE
  5
2B7
330
1F
100
AcDbEntity
  8
0
  6
Continuous
 62
     7
370
    25
100
AcDbLine
 10
2399.966408286
 20
2355.2716549046
 30
0.0
 11
2399.9454585654
 21
2354.9716549046
 31
0.0
  0
LINE
  5
2B8
330
1F
100
AcDbEntity
  8
0
  6
Continuous
 62
     7
370
    25
100
AcDbLine
 10
2404.5468228464
 20
2354.9716549046
 30
0.0
 11
2425.3440942843
 21
2354.9716549046
 31
0.0
  0
LINE
  5
2B9
330
1F
100
AcDbEntity
  8
0
  6
Continuous
 62
     7
370
    25
100
AcDbLine
 10
2429.9454585654
 20
2354.9716549046
 30
0.0
 11
2429.9245088447
 21
2355.2716549046
 31
0.0
  0
LINE
  5
2BA
330
1F
100
AcDbEntity
  8
0
  6
Continuous
 62
     7
370
    25
100
AcDbLine
 10
2404.5670931167
 20
2355.2716549046
 30
0.0
 11
2404.5468228464
 21
2354.9716549046
 31
0.0
  0
LINE
  5
2BB
330
1F
100
AcDbEntity
  8
0
  6
Continuous
 62
     7
370
    25
100
AcDbLine
 10
2425.3440942843
 20
2354.9716549046
 30
0.0
 11
2425.323824014
 21
2355.2716549046
 31
0.0
  0
ARC
  5
2BC
330
1F
100
AcDbEntity
  8
0
  6
Continuous
 62
     7
370
    25
100
AcDbCircle
 10
2238.4454585697
 20
2353.9716549046
 30
0.0
 40
3.000000000000136
100
AcDbArc
 50
154.3207113805
 51
178.0897868283
  0
ARC
  5
2BD
330
1F
100
AcDbEntity
  8
0
  6
Continuous
 62
     7
370
    25
100
AcDbCircle
 10
2254.4454585697
 20
2353.9716549046
 30
0.0
 40
3.000000000000373
100
AcDbArc
 50
1.9102131718
 51
25.6792886195
  0
LINE
  5
2BE
330
1F
100
AcDbEntity
  8
0
  6
Continuous
 62
     7
370
    25
100
AcDbLine
 10
2235.4454585697
 20
2354.2716549046
 30
0.0
 11
2221.2577838159
 21
2354.2716549046
 31
0.0
  0
LINE
  5
2BF
330
1F
100
AcDbEntity
  8
0
  6
Continuous
 62
     7
370
    25
100
AcDbLine
 10
2235.4454585697
 20
2354.0716549046
 30
0.0
 11
2235.4454585697
 21
2354.2716549046
 31
0.0
  0
LINE
  5
2C0
330
1F
100
AcDbEntity
  8
0
  6
Continuous
 62
     7
370
    25
100
AcDbLine
 10
2221.2577838159
 20
2354.2716549046
 30
0.0
 11
2221.2577838159
 21
2354.0716549046
 31
0.0
  0
LINE
  5
2C1
330
1F
100
AcDbEntity
  8
0
  6
Continuous
 62
     7
370
    25
100
AcDbLine
 10
2233.3859106131
 20
2355.2716549046
 30
0.0
 11
2233.3628582571
 21
2354.2716549046
 31
0.0
  0
LINE
  5
2C2
330
1F
100
AcDbEntity
  8
0
  6
Continuous
 62
     7
370
    25
100
AcDbLine
 10
2234.6632036285
 20
2354.2716549046
 30
0.0
 11
2234.6862559845
 21
2355.2716549046
 31
0.0
  0
ARC
  5
2C3
330
1F
100
AcDbEntity
  8
0
  6
Continuous
 62
     7
370
    25
100
AcDbCircle
 10
2577.9448257767
 20
2884.6497996171
 30
0.0
 40
147.008250247478
100
AcDbArc
 50
266.0997819289
 51
273.9007124515
  0
LWPOLYLINE
  5
2C4
330
1F
100
AcDbEntity
  8
0
  6
Continuous
 62
     7
370
    25
100
AcDbPolyline
 90
        6
 70
   128
 43
0.0
 10
2585.556639358
 20
2739.056094891
 10
2586.2957539085
 20
2739.0961260079
 10
2586.7473606486
 20
2739.1417840506
 10
2586.8386164832
 20
2739.1888871583
 10
2586.5657853877
 20
2739.2355069245
 10
2586.4418327899
 20
2739.2468479058
  0
LWPOLYLINE
  5
2C5
330
1F
100
AcDbEntity
  8
0
  6
Continuous
 62
     7
370
    25
100
AcDbPolyline
 90
        7
 70
   128
 43
0.0
 10
2569.4490843408
 20
2739.2468479058
 10
2569.325131743
 20
2739.2355069245
 10
2569.0523006475
 20
2739.1888871583
 10
2569.1435564821
 20
2739.1417840506
 10
2569.5951632222
 20
2739.0961260079
 10
2570.3886320347
 20
2739.0537822761
 10
2571.2435540402
 20
2739.0236025787
  0
LWPOLYLINE
  5
2C6
330
1F
100
AcDbEntity
  8
0
  6
Continuous
 62
     7
370
    25
100
AcDbPolyline
 90
       19
 70
   128
 43
0.0
 10
2584.9154268517
 20
2739.3742254403
 10
2585.0671548704
 20
2739.3595426267
 10
2585.2503025605
 20
2739.3169925022
 10
2585.0671548704
 20
2739.2744423778
 10
2584.5268955899
 20
2739.2340258942
 10
2583.6566155753
 20
2739.1977697028
 10
2582.4999543005
 20
2739.1674918404
 10
2581.1149115917
 20
2739.1447105655
 10
2579.5709392736
 20
2739.1305682262
 10
2577.9454585654
 20
2739.1257739786
 10
2576.3199778571
 20
2739.1305682262
 10
2574.7760055391
 20
2739.1447105655
 10
2573.3909628302
 20
2739.1674918404
 10
2572.2343015554
 20
2739.1977697028
 10
2571.3640215408
 20
2739.2340258942
 10
2570.8237622603
 20
2739.2744423778
 10
2570.6406145702
 20
2739.3169925022
 10
2570.8237622603
 20
2739.3595426267
 10
2570.975490279
 20
2739.3742254403
  0
SPLINE
  5
2C7
330
1F
100
AcDbEntity
  8
0
  6
Continuous
 62
     7
370
    25
100
AcDbSpline
210
0.0
220
0.0
230
1.0
 70
     8
 71
     3
 72
    10
 73
     6
 74
     0
 42
0.00000001
 43
0.00000001
 40
0.0
 40
0.0
 40
0.0
 40
0.0
 40
0.2348528608093768
 40
0.6323277900321516
 40
1.0
 40
1.0
 40
1.0
 40
1.0
 10
2582.639161340476
 20
2736.908496935372
 30
0.0
 10
2582.609898948577
 20
2736.888924055679
 30
0.0
 10
2582.531111645173
 20
2736.836225205349
 30
0.0
 10
2582.460702072927
 20
2736.695638695837
 30
0.0
 10
2582.448765629122
 20
2736.582569255201
 30
0.0
 10
2582.443029871321
 20
2736.528236579838
 30
0.0
  0
ARC
  5
2C8
330
1F
100
AcDbEntity
  8
0
  6
Continuous
 62
     7
370
    25
100
AcDbCircle
 10
2577.9727661044
 20
2802.8487882407
 30
0.0
 40
66.47103753339296
100
AcDbArc
 50
266.0945910318
 51
273.8561261673
  0
LINE
  5
2C9
330
1F
100
AcDbEntity
  8
0
  6
Continuous
 62
     7
370
    25
100
AcDbLine
 10
2582.4454585654
 20
2736.5321061976
 30
0.0
 11
2582.4430298712
 21
2736.5282365797
 31
0.0
  0
ARC
  5
2CA
330
1F
100
AcDbEntity
  8
0
  6
Continuous
 62
     7
370
    25
100
AcDbCircle
 10
2251.4448257767
 20
2884.6497996171
 30
0.0
 40
147.0082502475399
100
AcDbArc
 50
266.0997819289
 51
273.9007124515
  0
LWPOLYLINE
  5
2CB
330
1F
100
AcDbEntity
  8
0
  6
Continuous
 62
     7
370
    25
100
AcDbPolyline
 90
        6
 70
   128
 43
0.0
 10
2259.056639358
 20
2739.056094891
 10
2259.7957539085
 20
2739.0961260079
 10
2260.2473606486
 20
2739.1417840506
 10
2260.3386164832
 20
2739.1888871583
 10
2260.0657853877
 20
2739.2355069245
 10
2259.9418327899
 20
2739.2468479058
  0
LWPOLYLINE
  5
2CC
330
1F
100
AcDbEntity
  8
0
  6
Continuous
 62
     7
370
    25
100
AcDbPolyline
 90
        7
 70
   128
 43
0.0
 10
2242.9490843408
 20
2739.2468479058
 10
2242.825131743
 20
2739.2355069245
 10
2242.5523006475
 20
2739.1888871583
 10
2242.6435564821
 20
2739.1417840506
 10
2243.0951632222
 20
2739.0961260079
 10
2243.8886320347
 20
2739.0537822761
 10
2244.7435540402
 20
2739.0236025787
  0
LWPOLYLINE
  5
2CD
330
1F
100
AcDbEntity
  8
0
  6
Continuous
 62
     7
370
    25
100
AcDbPolyline
 90
       19
 70
   128
 43
0.0
 10
2258.4154268517
 20
2739.3742254403
 10
2258.5671548704
 20
2739.3595426267
 10
2258.7503025605
 20
2739.3169925022
 10
2258.5671548704
 20
2739.2744423778
 10
2258.0268955899
 20
2739.2340258942
 10
2257.1566155753
 20
2739.1977697028
 10
2255.9999543005
 20
2739.1674918404
 10
2254.6149115917
 20
2739.1447105655
 10
2253.0709392736
 20
2739.1305682262
 10
2251.4454585654
 20
2739.1257739786
 10
2249.8199778571
 20
2739.1305682262
 10
2248.2760055391
 20
2739.1447105655
 10
2246.8909628302
 20
2739.1674918404
 10
2245.7343015554
 20
2739.1977697028
 10
2244.8640215408
 20
2739.2340258942
 10
2244.3237622603
 20
2739.2744423778
 10
2244.1406145702
 20
2739.3169925022
 10
2244.3237622603
 20
2739.3595426267
 10
2244.475490279
 20
2739.3742254403
  0
SPLINE
  5
2CE
330
1F
100
AcDbEntity
  8
0
  6
Continuous
 62
     7
370
    25
100
AcDbSpline
210
0.0
220
0.0
230
1.0
 70
     8
 71
     3
 72
    10
 73
     6
 74
     0
 42
0.00000001
 43
0.00000001
 40
0.0
 40
0.0
 40
0.0
 40
0.0
 40
0.2348528608094075
 40
0.632327790032164
 40
1.0
 40
1.0
 40
1.0
 40
1.0
 10
2256.139161340476
 20
2736.908496935371
 30
0.0
 10
2256.109898948577
 20
2736.888924055677
 30
0.0
 10
2256.031111645173
 20
2736.836225205348
 30
0.0
 10
2255.960702072926
 20
2736.695638695835
 30
0.0
 10
2255.948765629122
 20
2736.582569255199
 30
0.0
 10
2255.943029871321
 20
2736.528236579836
 30
0.0
  0
ARC
  5
2CF
330
1F
100
AcDbEntity
  8
0
  6
Continuous
 62
     7
370
    25
100
AcDbCircle
 10
2251.4727661044
 20
2802.8487882408
 30
0.0
 40
66.47103753348459
100
AcDbArc
 50
266.0945910318
 51
273.8561261673
  0
LINE
  5
2D0
330
1F
100
AcDbEntity
  8
0
  6
Continuous
 62
     7
370
    25
100
AcDbLine
 10
2255.9454585654
 20
2736.5321061976
 30
0.0
 11
2255.9430298712
 21
2736.5282365797
 31
0.0
  0
SPLINE
  5
2D1
330
1F
100
AcDbEntity
  8
0
  6
Continuous
 62
     7
370
    25
100
AcDbSpline
210
0.0
220
0.0
230
1.0
 70
     8
 71
     3
 72
    10
 73
     6
 74
     0
 42
0.00000001
 43
0.00000001
 40
0.0
 40
0.0
 40
0.0
 40
0.0
 40
0.1834740337130563
 40
0.4713152133472069
 40
1.0
 40
1.0
 40
1.0
 40
1.0
 10
2236.938044120535
 20
2355.271654904581
 30
0.0
 10
2236.881017377284
 20
2355.20620437057
 30
0.0
 10
2236.73452486759
 20
2355.03807250048
 30
0.0
 10
2236.516685233475
 20
2354.60907255694
 30
0.0
 10
2236.473451546609
 20
2354.222168078678
 30
0.0
 10
2236.445458569702
 20
2353.971654904582
 30
0.0
  0
SPLINE
  5
2D2
330
1F
100
AcDbEntity
  8
0
  6
Continuous
 62
     7
370
    25
100
AcDbSpline
210
0.0
220
0.0
230
1.0
 70
     8
 71
     3
 72
    10
 73
     6
 74
     0
 42
0.00000001
 43
0.00000001
 40
0.0
 40
0.0
 40
0.0
 40
0.0
 40
0.5286786081633333
 40
0.8161383429881239
 40
1.0
 40
1.0
 40
1.0
 40
1.0
 10
2256.445458569704
 20
2353.971654904577
 30
0.0
 10
2256.417467933859
 20
2354.222169411554
 30
0.0
 10
2256.374257879954
 20
2354.608896794622
 30
0.0
 10
2256.156475972971
 20
2355.037913361011
 30
0.0
 10
2256.009989980865
 20
2355.206060857866
 30
0.0
 10
2255.95284604956
 20
2355.271654904581
 30
0.0
  0
ENDSEC
  0
SECTION
  2
OBJECTS
  0
DICTIONARY
  5
C
330
0
100
AcDbDictionary
281
     1
  3
ACAD_GROUP
350
D
  3
ACAD_LAYOUT
350
1A
  3
ACAD_MLINESTYLE
350
17
  3
ACAD_PLOTSETTINGS
350
19
  3
ACAD_PLOTSTYLENAME
350
E
  3
ACAD_SCALELIST
350
47
  3
DWGPROPS
350
2D3
  0
DICTIONARY
  5
D
102
{ACAD_REACTORS
330
C
102
}
330
C
100
AcDbDictionary
281
     1
  0
DICTIONARY
  5
1A
102
{ACAD_REACTORS
330
C
102
}
330
C
100
AcDbDictionary
281
     1
  3
Layout1
350
1E
  3
Layout2
350
26
  3
Model
350
22
  0
DICTIONARY
  5
17
102
{ACAD_REACTORS
330
C
102
}
330
C
100
AcDbDictionary
281
     1
  3
Standard
350
18
  0
DICTIONARY
  5
19
102
{ACAD_REACTORS
330
C
102
}
330
C
100
AcDbDictionary
281
     1
  0
ACDBDICTIONARYWDFLT
  5
E
102
{ACAD_REACTORS
330
C
102
}
330
C
100
AcDbDictionary
281
     1
  3
Normal
350
F
100
AcDbDictionaryWithDefault
340
F
  0
DICTIONARY
  5
47
102
{ACAD_REACTORS
330
C
102
}
330
C
100
AcDbDictionary
281
     1
  3
A0
350
48
  3
A1
350
49
  3
A2
350
4A
  3
A3
350
4B
  3
A4
350
4C
  3
A5
350
4D
  3
A6
350
4E
  3
A7
350
4F
  3
A8
350
50
  3
A9
350
51
  3
B0
350
52
  3
B1
350
53
  3
B2
350
54
  3
B3
350
55
  3
B4
350
56
  3
B5
350
57
  3
B6
350
58
  0
XRECORD
  5
2D3
102
{ACAD_REACTORS
330
C
102
}
330
C
100
AcDbXrecord
280
     1
  1
DWGPROPS COOKIE
  2

  3

  4

  6

  7

  8
b
  9

300
=
301
=
302
=
303
=
304
=
305
=
306
=
307
=
308
=
309
=
 40
0.0
 41
2460384.315202836
 42
2460384.31520309
  1

 90
        0
  0
LAYOUT
  5
1E
102
{ACAD_REACTORS
330
1A
102
}
330
1A
100
AcDbPlotSettings
  1

  2
none_device
  4

  6

 40
0.0
 41
0.0
 42
0.0
 43
0.0
 44
0.0
 45
0.0
 46
0.0
 47
0.0
 48
0.0
 49
0.0
140
0.0
141
0.0
142
1.0
143
1.0
 70
   688
 72
     1
 73
     0
 74
     5
  7

 75
    16
147
1.0
148
0.0
149
0.0
100
AcDbLayout
  1
Layout1
 70
     1
 71
     1
 10
0.0
 20
0.0
 11
420.0
 21
297.0
 12
0.0
 22
0.0
 32
0.0
 14
1.0000000000E+20
 24
1.0000000000E+20
 34
1.0000000000E+20
 15
-1.0000000000E+20
 25
-1.0000000000E+20
 35
-1.0000000000E+20
146
0.0
 13
0.0
 23
0.0
 33
0.0
 16
1.0
 26
0.0
 36
0.0
 17
0.0
 27
1.0
 37
0.0
 76
     0
330
1B
  0
LAYOUT
  5
26
102
{ACAD_REACTORS
330
1A
102
}
330
1A
100
AcDbPlotSettings
  1

  2
none_device
  4

  6

 40
0.0
 41
0.0
 42
0.0
 43
0.0
 44
0.0
 45
0.0
 46
0.0
 47
0.0
 48
0.0
 49
0.0
140
0.0
141
0.0
142
1.0
143
1.0
 70
   688
 72
     1
 73
     0
 74
     5
  7

 75
    16
147
1.0
148
0.0
149
0.0
100
AcDbLayout
  1
Layout2
 70
     1
 71
     2
 10
0.0
 20
0.0
 11
0.0
 21
0.0
 12
0.0
 22
0.0
 32
0.0
 14
0.0
 24
0.0
 34
0.0
 15
0.0
 25
0.0
 35
0.0
146
0.0
 13
0.0
 23
0.0
 33
0.0
 16
1.0
 26
0.0
 36
0.0
 17
0.0
 27
1.0
 37
0.0
 76
     0
330
23
  0
LAYOUT
  5
22
102
{ACAD_REACTORS
330
1A
102
}
330
1A
100
AcDbPlotSettings
  1

  2
none_device
  4
Letter_(8.50_x_11.00_Inches)
  6

 40
6.35
 41
6.35
 42
6.35000508
 43
6.35000508
 44
215.9
 45
279.4
 46
0.0
 47
0.0
 48
0.0
 49
0.0
140
0.0
141
0.0
142
1.0
143
1.0
 70
  1712
 72
     1
 73
     0
 74
     0
  7

 75
     0
147
1.0
148
0.0
149
0.0
100
AcDbLayout
  1
Model
 70
     1
 71
     0
 10
0.0
 20
0.0
 11
5000.0
 21
3500.0
 12
0.0
 22
0.0
 32
0.0
 14
0.0
 24
0.0
 34
0.0
 15
5000.0
 25
3500.0
 35
0.0
146
0.0
 13
0.0
 23
0.0
 33
0.0
 16
1.0
 26
0.0
 36
0.0
 17
0.0
 27
1.0
 37
0.0
 76
     0
330
1F
331
29
  0
MLINESTYLE
  5
18
102
{ACAD_REACTORS
330
17
102
}
330
17
100
AcDbMlineStyle
  2
Standard
 70
     0
  3

 62
   256
 51
90.0
 52
90.0
 71
     2
 49
0.5
 62
   256
  6
BYLAYER
 49
-0.5
 62
   256
  6
BYLAYER
  0
ACDBPLACEHOLDER
  5
F
102
{ACAD_REACTORS
330
E
102
}
330
E
  0
SCALE
  5
48
102
{ACAD_REACTORS
330
47
102
}
330
47
100
AcDbScale
 70
     0
300
1:1
140
1.0
141
1.0
290
     1
  0
SCALE
  5
49
102
{ACAD_REACTORS
330
47
102
}
330
47
100
AcDbScale
 70
     0
300
1:2
140
1.0
141
2.0
290
     0
  0
SCALE
  5
4A
102
{ACAD_REACTORS
330
47
102
}
330
47
100
AcDbScale
 70
     0
300
1:4
140
1.0
141
4.0
290
     0
  0
SCALE
  5
4B
102
{ACAD_REACTORS
330
47
102
}
330
47
100
AcDbScale
 70
     0
300
1:5
140
1.0
141
5.0
290
     0
  0
SCALE
  5
4C
102
{ACAD_REACTORS
330
47
102
}
330
47
100
AcDbScale
 70
     0
300
1:8
140
1.0
141
8.0
290
     0
  0
SCALE
  5
4D
102
{ACAD_REACTORS
330
47
102
}
330
47
100
AcDbScale
 70
     0
300
1:10
140
1.0
141
10.0
290
     0
  0
SCALE
  5
4E
102
{ACAD_REACTORS
330
47
102
}
330
47
100
AcDbScale
 70
     0
300
1:16
140
1.0
141
16.0
290
     0
  0
SCALE
  5
4F
102
{ACAD_REACTORS
330
47
102
}
330
47
100
AcDbScale
 70
     0
300
1:20
140
1.0
141
20.0
290
     0
  0
SCALE
  5
50
102
{ACAD_REACTORS
330
47
102
}
330
47
100
AcDbScale
 70
     0
300
1:30
140
1.0
141
30.0
290
     0
  0
SCALE
  5
51
102
{ACAD_REACTORS
330
47
102
}
330
47
100
AcDbScale
 70
     0
300
1:40
140
1.0
141
40.0
290
     0
  0
SCALE
  5
52
102
{ACAD_REACTORS
330
47
102
}
330
47
100
AcDbScale
 70
     0
300
1:50
140
1.0
141
50.0
290
     0
  0
SCALE
  5
53
102
{ACAD_REACTORS
330
47
102
}
330
47
100
AcDbScale
 70
     0
300
1:100
140
1.0
141
100.0
290
     0
  0
SCALE
  5
54
102
{ACAD_REACTORS
330
47
102
}
330
47
100
AcDbScale
 70
     0
300
2:1
140
2.0
141
1.0
290
     0
  0
SCALE
  5
55
102
{ACAD_REACTORS
330
47
102
}
330
47
100
AcDbScale
 70
     0
300
4:1
140
4.0
141
1.0
290
     0
  0
SCALE
  5
56
102
{ACAD_REACTORS
330
47
102
}
330
47
100
AcDbScale
 70
     0
300
8:1
140
8.0
141
1.0
290
     0
  0
SCALE
  5
57
102
{ACAD_REACTORS
330
47
102
}
330
47
100
AcDbScale
 70
     0
300
10:1
140
10.0
141
1.0
290
     0
  0
SCALE
  5
58
102
{ACAD_REACTORS
330
47
102
}
330
47
100
AcDbScale
 70
     0
300
100:1
140
100.0
141
1.0
290
     0
  0
ENDSEC
  0
EOF
