  0
SECTION
  2
HEADER
  9
$ACADVER
  1
AC1015
  9
$ACADMAINTVER
 70
     6
  9
$DWGCODEPAGE
  3
DOS932
  9
$INSBASE
 10
0.0
 20
0.0
 30
0.0
  9
$EXTMIN
 10
0.0
 20
0.0
 30
0.0
  9
$EXTMAX
 10
5000.0
 20
3500.0
 30
0.0
  9
$LIMMIN
 10
0.0
 20
0.0
  9
$LIMMAX
 10
5000.0
 20
3500.0
  9
$ORTHOMODE
 70
     0
  9
$REGENMODE
 70
     1
  9
$FILLMODE
 70
     1
  9
$QTEXTMODE
 70
     0
  9
$MIRRTEXT
 70
     1
  9
$LTSCALE
 40
1.0
  9
$ATTMODE
 70
     1
  9
$TEXTSIZE
 40
3.5
  9
$TRACEWID
 40
1.0
  9
$TEXTSTYLE
  7
Standard
  9
$CLAYER
  8
0
  9
$CELTYPE
  6
ByLayer
  9
$CECOLOR
 62
   256
  9
$CELTSCALE
 40
1.0
  9
$DISPSILH
 70
     0
  9
$DIMSCALE
 40
1.0
  9
$DIMASZ
 40
3.302
  9
$DIMEXO
 40
1.0
  9
$DIMDLI
 40
3.75
  9
$DIMRND
 40
0.0
  9
$DIMDLE
 40
0.0
  9
$DIMEXE
 40
1.0
  9
$DIMTP
 40
0.0
  9
$DIMTM
 40
0.0
  9
$DIMTXT
 40
3.5
  9
$DIMCEN
 40
2.5
  9
$DIMTSZ
 40
0.0
  9
$DIMTOL
 70
     0
  9
$DIMLIM
 70
     0
  9
$DIMTIH
 70
     1
  9
$DIMTOH
 70
     1
  9
$DIMSE1
 70
     0
  9
$DIMSE2
 70
     0
  9
$DIMTAD
 70
     1
  9
$DIMZIN
 70
     0
  9
$DIMBLK
  1

  9
$DIMASO
 70
     1
  9
$DIMSHO
 70
     1
  9
$DIMPOST
  1

  9
$DIMAPOST
  1

  9
$DIMALT
 70
     0
  9
$DIMALTD
 70
     3
  9
$DIMALTF
 40
0.0393700787
  9
$DIMLFAC
 40
1.0
  9
$DIMTOFL
 70
     1
  9
$DIMTVP
 40
0.0
  9
$DIMTIX
 70
     0
  9
$DIMSOXD
 70
     0
  9
$DIMSAH
 70
     0
  9
$DIMBLK1
  1

  9
$DIMBLK2
  1

  9
$DIMSTYLE
  2
ISO-25
  9
$DIMCLRD
 70
     0
  9
$DIMCLRE
 70
     0
  9
$DIMCLRT
 70
     0
  9
$DIMTFAC
 40
1.0
  9
$DIMGAP
 40
1.524
  9
$DIMJUST
 70
     0
  9
$DIMSD1
 70
     0
  9
$DIMSD2
 70
     0
  9
$DIMTOLJ
 70
     0
  9
$DIMTZIN
 70
     0
  9
$DIMALTZ
 70
     0
  9
$DIMALTTZ
 70
     0
  9
$DIMUPT
 70
     0
  9
$DIMDEC
 70
     2
  9
$DIMTDEC
 70
     2
  9
$DIMALTU
 70
     2
  9
$DIMALTTD
 70
     3
  9
$DIMTXSTY
  7
Standard
  9
$DIMAUNIT
 70
     0
  9
$DIMADEC
 70
     2
  9
$DIMALTRND
 40
0.0
  9
$DIMAZIN
 70
     0
  9
$DIMDSEP
 70
    44
  9
$DIMATFIT
 70
     3
  9
$DIMFRAC
 70
     0
  9
$DIMLDRBLK
  1

  9
$DIMLUNIT
 70
     2
  9
$DIMLWD
 70
    -2
  9
$DIMLWE
 70
    -2
  9
$DIMTMOVE
 70
     0
  9
$LUNITS
 70
     2
  9
$LUPREC
 70
     3
  9
$SKETCHINC
 40
1.0
  9
$FILLETRAD
 40
0.0
  9
$AUNITS
 70
     0
  9
$AUPREC
 70
     2
  9
$MENU
  1
.
  9
$ELEVATION
 40
0.0
  9
$PELEVATION
 40
0.0
  9
$THICKNESS
 40
0.0
  9
$LIMCHECK
 70
     0
  9
$CHAMFERA
 40
0.0
  9
$CHAMFERB
 40
0.0
  9
$CHAMFERC
 40
0.0
  9
$CHAMFERD
 40
0.0
  9
$SKPOLY
 70
     0
  9
$TDCREATE
 40
2460383.701264676
  9
$TDUCREATE
 40
2460383.326264676
  9
$TDUPDATE
 40
2460383.701264919
  9
$TDUUPDATE
 40
2460383.326264919
  9
$TDINDWG
 40
0.0000000116
  9
$TDUSRTIMER
 40
0.0000000116
  9
$USRTIMER
 70
     1
  9
$ANGBASE
 50
0.0
  9
$ANGDIR
 70
     0
  9
$PDMODE
 70
     0
  9
$PDSIZE
 40
-1.0
  9
$PLINEWID
 40
0.0
  9
$SPLFRAME
 70
     0
  9
$SPLINETYPE
 70
     6
  9
$SPLINESEGS
 70
     8
  9
$HANDSEED
  5
3FA
  9
$SURFTAB1
 70
     6
  9
$SURFTAB2
 70
     6
  9
$SURFTYPE
 70
     6
  9
$SURFU
 70
     6
  9
$SURFV
 70
     6
  9
$UCSBASE
  2

  9
$UCSNAME
  2

  9
$UCSORG
 10
0.0
 20
0.0
 30
0.0
  9
$UCSXDIR
 10
1.0
 20
0.0
 30
0.0
  9
$UCSYDIR
 10
0.0
 20
1.0
 30
0.0
  9
$UCSORTHOREF
  2

  9
$UCSORTHOVIEW
 70
     0
  9
$UCSORGTOP
 10
0.0
 20
0.0
 30
0.0
  9
$UCSORGBOTTOM
 10
0.0
 20
0.0
 30
0.0
  9
$UCSORGLEFT
 10
0.0
 20
0.0
 30
0.0
  9
$UCSORGRIGHT
 10
0.0
 20
0.0
 30
0.0
  9
$UCSORGFRONT
 10
0.0
 20
0.0
 30
0.0
  9
$UCSORGBACK
 10
0.0
 20
0.0
 30
0.0
  9
$PUCSBASE
  2

  9
$PUCSNAME
  2

  9
$PUCSORG
 10
0.0
 20
0.0
 30
0.0
  9
$PUCSXDIR
 10
1.0
 20
0.0
 30
0.0
  9
$PUCSYDIR
 10
0.0
 20
1.0
 30
0.0
  9
$PUCSORTHOREF
  2

  9
$PUCSORTHOVIEW
 70
     0
  9
$PUCSORGTOP
 10
0.0
 20
0.0
 30
0.0
  9
$PUCSORGBOTTOM
 10
0.0
 20
0.0
 30
0.0
  9
$PUCSORGLEFT
 10
0.0
 20
0.0
 30
0.0
  9
$PUCSORGRIGHT
 10
0.0
 20
0.0
 30
0.0
  9
$PUCSORGFRONT
 10
0.0
 20
0.0
 30
0.0
  9
$PUCSORGBACK
 10
0.0
 20
0.0
 30
0.0
  9
$USERI1
 70
     0
  9
$USERI2
 70
     0
  9
$USERI3
 70
     0
  9
$USERI4
 70
     0
  9
$USERI5
 70
     0
  9
$USERR1
 40
0.0
  9
$USERR2
 40
0.0
  9
$USERR3
 40
0.0
  9
$USERR4
 40
0.0
  9
$USERR5
 40
0.0
  9
$WORLDVIEW
 70
     1
  9
$SHADEDGE
 70
     3
  9
$SHADEDIF
 70
    70
  9
$TILEMODE
 70
     1
  9
$MAXACTVP
 70
    64
  9
$PINSBASE
 10
0.0
 20
0.0
 30
0.0
  9
$PLIMCHECK
 70
     0
  9
$PEXTMIN
 10
1.0000000000E+20
 20
1.0000000000E+20
 30
1.0000000000E+20
  9
$PEXTMAX
 10
-1.0000000000E+20
 20
-1.0000000000E+20
 30
-1.0000000000E+20
  9
$PLIMMIN
 10
0.0
 20
0.0
  9
$PLIMMAX
 10
420.0
 20
297.0
  9
$UNITMODE
 70
     0
  9
$VISRETAIN
 70
     1
  9
$PLINEGEN
 70
     0
  9
$PSLTSCALE
 70
     1
  9
$TREEDEPTH
 70
  3020
  9
$CMLSTYLE
  2
Standard
  9
$CMLJUST
 70
     0
  9
$CMLSCALE
 40
20.0
  9
$PROXYGRAPHICS
 70
     1
  9
$MEASUREMENT
 70
     1
  9
$CELWEIGHT
370
    -1
  9
$ENDCAPS
280
     0
  9
$JOINSTYLE
280
     0
  9
$LWDISPLAY
290
     1
  9
$INSUNITS
 70
     4
  9
$HYPERLINKBASE
  1

  9
$STYLESHEET
  1

  9
$XEDIT
290
     1
  9
$CEPSNTYPE
380
     0
  9
$PSTYLEMODE
290
     1
  9
$FINGERPRINTGUID
  2
{1757aad9-0216-4b1f-a8ef-9467e5036fe0}
  9
$VERSIONGUID
  2
{FAEB1C32-E019-11D5-929B-00C0DF256EC4}
  9
$EXTNAMES
290
     1
  9
$PSVPSCALE
 40
0.0
  9
$OLESTARTUP
290
     0
  0
ENDSEC
  0
SECTION
  2
CLASSES
  0
CLASS
  1
ACDBDICTIONARYWDFLT
  2
AcDbDictionaryWithDefault
  3
ObjectDBX Classes
 90
        0
280
     0
281
     0
  0
CLASS
  1
VISUALSTYLE
  2
AcDbVisualStyle
  3
ObjectDBX Classes
 90
     4095
280
     0
281
     0
  0
CLASS
  1
MATERIAL
  2
AcDbMaterial
  3
ObjectDBX Classes
 90
     1153
280
     0
281
     0
  0
CLASS
  1
SCALE
  2
AcDbScale
  3
ObjectDBX Classes
 90
     1153
280
     0
281
     0
  0
CLASS
  1
TABLESTYLE
  2
AcDbTableStyle
  3
ObjectDBX Classes
 90
     4095
280
     0
281
     0
  0
CLASS
  1
MLEADERSTYLE
  2
AcDbMLeaderStyle
  3
ACDB_MLEADERSTYLE_CLASS
 90
     4095
280
     0
281
     0
  0
CLASS
  1
SUN
  2
AcDbSun
  3
SCENEOE
 90
     1153
280
     0
281
     0
  0
CLASS
  1
ACDBPLACEHOLDER
  2
AcDbPlaceHolder
  3
ObjectDBX Classes
 90
        0
280
     0
281
     0
  0
CLASS
  1
LAYOUT
  2
AcDbLayout
  3
ObjectDBX Classes
 90
        0
280
     0
281
     0
  0
ENDSEC
  0
SECTION
  2
TABLES
  0
TABLE
  2
VPORT
  5
8
330
0
100
AcDbSymbolTable
 70
     1
  0
VPORT
  5
29
330
8
100
AcDbSymbolTableRecord
100
AcDbViewportTableRecord
  2
*Active
 70
     0
 10
0.0
 20
0.0
 11
1.0
 21
1.0
 12
2500.0
 22
1750.0
 13
0.0
 23
0.0
 14
10.0
 24
10.0
 15
10.0
 25
10.0
 16
0.0
 26
0.0
 36
1.0
 17
0.0
 27
0.0
 37
0.0
 40
3500.0
 41
1.4285714286
 42
50.0
 43
0.0
 44
0.0
 50
0.0
 51
0.0
 71
     0
 72
  2000
 73
     1
 74
     3
 75
     0
 76
     0
 77
     0
 78
     0
281
     0
 65
     1
110
0.0
120
0.0
130
0.0
111
1.0
121
0.0
131
0.0
112
0.0
122
1.0
132
0.0
 79
     0
146
0.0
  0
ENDTAB
  0
TABLE
  2
LTYPE
  5
5
330
0
100
AcDbSymbolTable
 70
     6
  0
LTYPE
  5
14
330
5
100
AcDbSymbolTableRecord
100
AcDbLinetypeTableRecord
  2
ByBlock
 70
     0
  3

 72
    65
 73
     0
 40
0.0
  0
LTYPE
  5
15
330
5
100
AcDbSymbolTableRecord
100
AcDbLinetypeTableRecord
  2
ByLayer
 70
     0
  3

 72
    65
 73
     0
 40
0.0
  0
LTYPE
  5
16
330
5
100
AcDbSymbolTableRecord
100
AcDbLinetypeTableRecord
  2
Continuous
 70
     0
  3
Solid line
 72
    65
 73
     0
 40
0.0
  0
LTYPE
  5
5E
330
5
100
AcDbSymbolTableRecord
100
AcDbLinetypeTableRecord
  2
HIDDEN
 70
     0
  3
Hidden __ __ __ __ __ __ __ __ __ __ __ __ __ __
 72
    65
 73
     2
 40
1.905
 49
1.27
 74
     0
 49
-0.635
 74
     0
  0
LTYPE
  5
5F
330
5
100
AcDbSymbolTableRecord
100
AcDbLinetypeTableRecord
  2
PHANTOM
 70
     0
  3
Phantom ______  __  __  ______  __  __  ______
 72
    65
 73
     6
 40
12.7
 49
6.35
 74
     0
 49
-1.27
 74
     0
 49
1.27
 74
     0
 49
-1.27
 74
     0
 49
1.27
 74
     0
 49
-1.27
 74
     0
  0
LTYPE
  5
60
330
5
100
AcDbSymbolTableRecord
100
AcDbLinetypeTableRecord
  2
CENTER
 70
     0
  3
Center ____ _ ____ _ ____ _ ____ _ ____ _ ____
 72
    65
 73
     4
 40
10.16
 49
6.35
 74
     0
 49
-1.27
 74
     0
 49
1.27
 74
     0
 49
-1.27
 74
     0
  0
LTYPE
  5
61
330
5
100
AcDbSymbolTableRecord
100
AcDbLinetypeTableRecord
  2
CENTERX2
 70
     0
  3
Center (2x) ________  __  ________  __  _____
 72
    65
 73
     4
 40
20.32
 49
12.7
 74
     0
 49
-2.54
 74
     0
 49
2.54
 74
     0
 49
-2.54
 74
     0
  0
LTYPE
  5
62
330
5
100
AcDbSymbolTableRecord
100
AcDbLinetypeTableRecord
  2
DOT2
 70
     0
  3
Dot (.5x) ........................................
 72
    65
 73
     2
 40
0.635
 49
0.0
 74
     0
 49
-0.635
 74
     0
  0
ENDTAB
  0
TABLE
  2
LAYER
  5
2
330
0
100
AcDbSymbolTable
 70
     3
  0
LAYER
  5
10
330
2
100
AcDbSymbolTableRecord
100
AcDbLayerTableRecord
  2
0
 70
     0
 62
     7
  6
Continuous
370
    -3
390
F
  0
LAYER
  5
63
330
2
100
AcDbSymbolTableRecord
100
AcDbLayerTableRecord
  2
SLD-0
 70
     0
 62
   179
  6
Continuous
370
    -3
390
F
  0
LAYER
  5
64
330
2
100
AcDbSymbolTableRecord
100
AcDbLayerTableRecord
  2
寸法
 70
     0
 62
   179
  6
Continuous
370
    -3
390
F
  0
ENDTAB
  0
TABLE
  2
STYLE
  5
3
330
0
100
AcDbSymbolTable
 70
     2
  0
STYLE
  5
11
330
3
100
AcDbSymbolTableRecord
100
AcDbTextStyleTableRecord
  2
Standard
 70
     0
 40
0.0
 41
1.0
 50
0.0
 71
     0
 42
3.5
  3
txt
  4
bigfont
  0
STYLE
  5
66
330
3
100
AcDbSymbolTableRecord
100
AcDbTextStyleTableRecord
  2
SLDTEXTSTYLE0
 70
     0
 40
0.0
 41
0.75
 50
0.0
 71
     0
 42
3.5
  3
TXT
  4
bigfont
  0
ENDTAB
  0
TABLE
  2
VIEW
  5
6
330
0
100
AcDbSymbolTable
 70
     0
  0
ENDTAB
  0
TABLE
  2
UCS
  5
7
330
0
100
AcDbSymbolTable
 70
     0
  0
ENDTAB
  0
TABLE
  2
APPID
  5
9
330
0
100
AcDbSymbolTable
 70
     1
  0
APPID
  5
12
330
9
100
AcDbSymbolTableRecord
100
AcDbRegAppTableRecord
  2
ACAD
 70
     0
  0
ENDTAB
  0
TABLE
  2
DIMSTYLE
  5
A
330
0
100
AcDbSymbolTable
 70
     1
100
AcDbDimStyleTable
  0
DIMSTYLE
105
27
330
A
100
AcDbSymbolTableRecord
100
AcDbDimStyleTableRecord
  2
ISO-25
 70
     0
 41
2.5
 42
0.625
 43
3.75
 44
1.25
 73
     0
 74
     0
 77
     1
 78
     8
140
2.5
141
2.5
143
0.0393700787
147
0.625
171
     3
172
     1
178
     0
271
     2
272
     2
274
     3
278
    44
283
     0
284
     8
340
11
  0
ENDTAB
  0
TABLE
  2
BLOCK_RECORD
  5
1
330
0
100
AcDbSymbolTable
 70
     1
  0
BLOCK_RECORD
  5
1F
330
1
100
AcDbSymbolTableRecord
100
AcDbBlockTableRecord
  2
*Model_Space
340
22
  0
BLOCK_RECORD
  5
1B
330
1
100
AcDbSymbolTableRecord
100
AcDbBlockTableRecord
  2
*Paper_Space
340
1E
  0
BLOCK_RECORD
  5
23
330
1
100
AcDbSymbolTableRecord
100
AcDbBlockTableRecord
  2
*Paper_Space0
340
26
  0
ENDTAB
  0
ENDSEC
  0
SECTION
  2
BLOCKS
  0
BLOCK
  5
20
330
1F
100
AcDbEntity
  8
0
100
AcDbBlockBegin
  2
*Model_Space
 70
     0
 10
0.0
 20
0.0
 30
0.0
  3
*Model_Space
  1

  0
ENDBLK
  5
21
330
1F
100
AcDbEntity
  8
0
100
AcDbBlockEnd
  0
BLOCK
  5
1C
330
1B
100
AcDbEntity
 67
     1
  8
0
100
AcDbBlockBegin
  2
*Paper_Space
 70
     0
 10
0.0
 20
0.0
 30
0.0
  3
*Paper_Space
  1

  0
ENDBLK
  5
1D
330
1B
100
AcDbEntity
 67
     1
  8
0
100
AcDbBlockEnd
  0
BLOCK
  5
24
330
23
100
AcDbEntity
  8
0
100
AcDbBlockBegin
  2
*Paper_Space0
 70
     0
 10
0.0
 20
0.0
 30
0.0
  3
*Paper_Space0
  1

  0
ENDBLK
  5
25
330
23
100
AcDbEntity
  8
0
100
AcDbBlockEnd
  0
ENDSEC
  0
SECTION
  2
ENTITIES
  0
LINE
  5
65
330
1F
100
AcDbEntity
  8
0
  6
Continuous
 62
     7
370
    18
100
AcDbLine
 10
4801.663086451
 20
279.1403827252
 30
0.0
 11
3345.9062220501
 21
279.1403827252
 31
0.0
  0
MTEXT
  5
67
330
1F
100
AcDbEntity
  8
0
  6
Continuous
 62
     7
370
     0
100
AcDbMText
 10
2182.8324799637
 20
2519.2846179971
 30
0.0
 40
52.9166666667
 41
0.0
 71
     1
 72
     1
  1
＜正面＞
  7
SLDTEXTSTYLE0
 73
     1
 44
1.0
  0
MTEXT
  5
68
330
1F
100
AcDbEntity
  8
0
  6
Continuous
 62
     7
370
     0
100
AcDbMText
 10
3377.8142431891
 20
379.4057208634
 30
0.0
 40
52.9166666667
 41
0.0
 71
     1
 72
     1
  1
品名：
  7
SLDTEXTSTYLE0
 73
     1
 44
1.0
  0
MTEXT
  5
69
330
1F
100
AcDbEntity
  8
0
  6
Continuous
 62
     7
370
     0
100
AcDbMText
 10
4446.6634374817
 20
385.2343854145
 30
0.0
 40
52.9166666667
 41
0.0
 71
     1
 72
     1
  1
Pamouna
  7
SLDTEXTSTYLE0
 73
     1
 44
1.0
  0
MTEXT
  5
6A
330
1F
100
AcDbEntity
  8
寸法
 62
     7
100
AcDbMText
 10
4688.0073048854
 20
218.6255182943
 30
0.0
 40
52.9166666667
 41
0.0
 71
     1
 72
     1
  1
1/1
  7
SLDTEXTSTYLE0
 73
     1
 44
1.0
  0
MTEXT
  5
6B
330
1F
100
AcDbEntity
  8
寸法
 62
     7
100
AcDbMText
 10
3611.2831293492
 20
398.3924235142
 30
0.0
 40
66.1458333333
 41
0.0
 71
     1
 72
     1
  1
MAG800
  7
SLDTEXTSTYLE0
 73
     1
 44
1.0
  0
MTEXT
  5
6C
330
1F
100
AcDbEntity
  8
寸法
 62
     7
100
AcDbMText
 10
4198.7969392118
 20
218.6255210883
 30
0.0
 40
52.9166666667
 41
0.0
 71
     1
 72
     1
  1
2024/03/13
  7
SLDTEXTSTYLE0
 73
     1
 44
1.0
  0
MTEXT
  5
6D
330
1F
100
AcDbEntity
  8
寸法
 62
     7
100
AcDbMText
 10
3972.4665930518
 20
2520.4136708187
 30
0.0
 40
52.9166666667
 41
0.0
 71
     1
 72
     1
  1
＜右側面＞
  7
SLDTEXTSTYLE0
 73
     1
 44
1.0
  0
MTEXT
  5
6E
330
1F
100
AcDbEntity
  8
0
  6
Continuous
 62
     7
370
     0
100
AcDbMText
 10
669.5723251208
 20
2520.6918468275
 30
0.0
 40
52.9166666667
 41
0.0
 71
     1
 72
     1
  1
＜左側面＞
  7
SLDTEXTSTYLE0
 73
     1
 44
1.0
  0
MTEXT
  5
6F
330
1F
100
AcDbEntity
  8
0
  6
Continuous
 62
     7
370
     0
100
AcDbMText
 10
2185.2858929776
 20
3225.5678091759
 30
0.0
 40
52.9166666667
 41
0.0
 71
     1
 72
     1
  1
＜上面＞
  7
SLDTEXTSTYLE0
 73
     1
 44
1.0
  0
LINE
  5
70
330
1F
100
AcDbEntity
  8
0
  6
Continuous
 62
     7
370
    25
100
AcDbLine
 10
2187.1454585654
 20
616.2543978663
 30
0.0
 11
2188.9454585654
 21
616.2543978663
 31
0.0
  0
ARC
  5
71
330
1F
100
AcDbEntity
  8
0
  6
Continuous
 62
     7
370
    25
100
AcDbCircle
 10
2187.1454585654
 20
616.4543978663
 30
0.0
 40
0.1999999999999318
100
AcDbArc
 50
180.0
 51
270.0
  0
ARC
  5
72
330
1F
100
AcDbEntity
  8
0
  6
Continuous
 62
     7
370
    25
100
AcDbCircle
 10
2586.6454585654
 20
616.4543978663
 30
0.0
 40
0.1999999999999318
100
AcDbArc
 50
180.0
 51
270.0
  0
LINE
  5
73
330
1F
100
AcDbEntity
  8
0
  6
Continuous
 62
     7
370
    25
100
AcDbLine
 10
2586.6454585654
 20
616.2543978663
 30
0.0
 11
2588.4454585654
 21
616.2543978663
 31
0.0
  0
LINE
  5
74
330
1F
100
AcDbEntity
  8
0
  6
Continuous
 62
     7
370
    25
100
AcDbLine
 10
2588.4454585654
 20
616.2543978663
 30
0.0
 11
2980.4454585654
 21
616.2543978663
 31
0.0
  0
LINE
  5
75
330
1F
100
AcDbEntity
  8
0
  6
Continuous
 62
     7
370
    25
100
AcDbLine
 10
2188.9454585654
 20
616.2543978663
 30
0.0
 11
2580.9454585654
 21
616.2543978663
 31
0.0
  0
LINE
  5
76
330
1F
100
AcDbEntity
  8
0
  6
Continuous
 62
     7
370
    25
100
AcDbLine
 10
2580.9454585654
 20
616.2543978663
 30
0.0
 11
2582.7454585654
 21
616.2543978663
 31
0.0
  0
ARC
  5
77
330
1F
100
AcDbEntity
  8
0
  6
Continuous
 62
     7
370
    25
100
AcDbCircle
 10
2582.7454585654
 20
616.4543978663
 30
0.0
 40
0.2000000000000455
100
AcDbArc
 50
270.0
 51
0.0
  0
LINE
  5
78
330
1F
100
AcDbEntity
  8
0
  6
Continuous
 62
     7
370
    25
100
AcDbLine
 10
2980.4454585654
 20
616.2543978663
 30
0.0
 11
2982.2454585654
 21
616.2543978663
 31
0.0
  0
ARC
  5
79
330
1F
100
AcDbEntity
  8
0
  6
Continuous
 62
     7
370
    25
100
AcDbCircle
 10
2982.2454585654
 20
616.4543978663
 30
0.0
 40
0.2000000000000455
100
AcDbArc
 50
270.0
 51
0.0
  0
LINE
  5
7A
330
1F
100
AcDbEntity
  8
0
  6
Continuous
 62
     7
370
    25
100
AcDbLine
 10
2982.4454585654
 20
2396.7543978663
 30
0.0
 11
2586.4454585654
 21
2396.7543978663
 31
0.0
  0
LINE
  5
7B
330
1F
100
AcDbEntity
  8
0
  6
Continuous
 62
     7
370
    25
100
AcDbLine
 10
2982.4454585654
 20
616.7543978663
 30
0.0
 11
2982.4454585654
 21
2396.7543978663
 31
0.0
  0
LINE
  5
7C
330
1F
100
AcDbEntity
  8
0
  6
Continuous
 62
     7
370
    25
100
AcDbLine
 10
2586.4454585654
 20
616.7543978663
 30
0.0
 11
2982.4454585654
 21
616.7543978663
 31
0.0
  0
LINE
  5
7D
330
1F
100
AcDbEntity
  8
0
  6
Continuous
 62
     7
370
    25
100
AcDbLine
 10
2586.4454585654
 20
2396.7543978663
 30
0.0
 11
2586.4454585654
 21
616.7543978663
 31
0.0
  0
LINE
  5
7E
330
1F
100
AcDbEntity
  8
0
  6
Continuous
 62
     7
370
    25
100
AcDbLine
 10
2582.9454585654
 20
2396.7543978663
 30
0.0
 11
2186.9454585654
 21
2396.7543978663
 31
0.0
  0
LINE
  5
7F
330
1F
100
AcDbEntity
  8
0
  6
Continuous
 62
     7
370
    25
100
AcDbLine
 10
2186.9454585654
 20
616.7543978663
 30
0.0
 11
2582.9454585654
 21
616.7543978663
 31
0.0
  0
LINE
  5
80
330
1F
100
AcDbEntity
  8
0
  6
Continuous
 62
     7
370
    25
100
AcDbLine
 10
2186.9454585654
 20
2396.7543978663
 30
0.0
 11
2186.9454585654
 21
616.7543978663
 31
0.0
  0
LINE
  5
81
330
1F
100
AcDbEntity
  8
0
  6
Continuous
 62
     7
370
    25
100
AcDbLine
 10
2582.9454585654
 20
616.7543978663
 30
0.0
 11
2582.9454585654
 21
2396.7543978663
 31
0.0
  0
LINE
  5
82
330
1F
100
AcDbEntity
  8
0
  6
Continuous
 62
     7
370
    25
100
AcDbLine
 10
2582.9454585654
 20
636.5043978663
 30
0.0
 11
2586.4454585654
 21
636.5043978663
 31
0.0
  0
LINE
  5
83
330
1F
100
AcDbEntity
  8
0
  6
Continuous
 62
     7
370
    25
100
AcDbLine
 10
2586.4454585654
 20
2378.0043978663
 30
0.0
 11
2582.9454585654
 21
2378.0043978663
 31
0.0
  0
LINE
  5
84
330
1F
100
AcDbEntity
  8
0
  6
Continuous
 62
     7
370
    25
100
AcDbLine
 10
2966.4454585654
 20
616.2543978663
 30
0.0
 11
2966.4454585654
 21
606.7543978663
 31
0.0
  0
LINE
  5
85
330
1F
100
AcDbEntity
  8
0
  6
Continuous
 62
     7
370
    25
100
AcDbLine
 10
2983.9454585654
 20
606.7543978663
 30
0.0
 11
2983.9454585654
 21
2378.2543978663
 31
0.0
  0
LINE
  5
86
330
1F
100
AcDbEntity
  8
0
  6
Continuous
 62
     7
370
    25
100
AcDbLine
 10
2966.4454585654
 20
606.7543978663
 30
0.0
 11
2983.9454585654
 21
606.7543978663
 31
0.0
  0
LINE
  5
87
330
1F
100
AcDbEntity
  8
0
  6
Continuous
 62
     7
370
    25
100
AcDbLine
 10
2185.4454585654
 20
606.7543978663
 30
0.0
 11
2202.9454585654
 21
606.7543978663
 31
0.0
  0
LINE
  5
88
330
1F
100
AcDbEntity
  8
0
  6
Continuous
 62
     7
370
    25
100
AcDbLine
 10
2185.4454585654
 20
2378.2543978663
 30
0.0
 11
2185.4454585654
 21
606.7543978663
 31
0.0
  0
LINE
  5
89
330
1F
100
AcDbEntity
  8
0
  6
Continuous
 62
     7
370
    25
100
AcDbLine
 10
2202.9454585654
 20
606.7543978663
 30
0.0
 11
2202.9454585654
 21
616.2543978663
 31
0.0
  0
LINE
  5
8A
330
1F
100
AcDbEntity
  8
0
  6
Continuous
 62
     7
370
    25
100
AcDbLine
 10
2586.4454585654
 20
636.2543978663
 30
0.0
 11
2582.9454585654
 21
636.2543978663
 31
0.0
  0
LINE
  5
8B
330
1F
100
AcDbEntity
  8
0
  6
Continuous
 62
     7
370
    25
100
AcDbLine
 10
2966.4454585654
 20
607.7543978663
 30
0.0
 11
2202.9454585654
 21
607.7543978663
 31
0.0
  0
LINE
  5
8C
330
1F
100
AcDbEntity
  8
0
  6
Continuous
 62
     7
370
    25
100
AcDbLine
 10
2586.4454585654
 20
1506.7543978663
 30
0.0
 11
2582.9454585654
 21
1506.7543978663
 31
0.0
  0
LINE
  5
8D
330
1F
100
AcDbEntity
  8
0
  6
Continuous
 62
     7
370
    25
100
AcDbLine
 10
2586.4454585654
 20
1478.2543978663
 30
0.0
 11
2582.9454585654
 21
1478.2543978663
 31
0.0
  0
LINE
  5
8E
330
1F
100
AcDbEntity
  8
0
  6
Continuous
 62
     7
370
    25
100
AcDbLine
 10
2984.9454585654
 20
2406.7543978663
 30
0.0
 11
2984.9454585654
 21
2378.2543978663
 31
0.0
  0
LINE
  5
8F
330
1F
100
AcDbEntity
  8
0
  6
Continuous
 62
     7
370
    25
100
AcDbLine
 10
2984.9454585654
 20
2378.2543978663
 30
0.0
 11
2982.4454585654
 21
2378.2543978663
 31
0.0
  0
LINE
  5
90
330
1F
100
AcDbEntity
  8
0
  6
Continuous
 62
     7
370
    25
100
AcDbLine
 10
2586.4454585654
 20
2378.2543978663
 30
0.0
 11
2582.9454585654
 21
2378.2543978663
 31
0.0
  0
LINE
  5
91
330
1F
100
AcDbEntity
  8
0
  6
Continuous
 62
     7
370
    25
100
AcDbLine
 10
2186.9454585654
 20
2378.2543978663
 30
0.0
 11
2184.4454585654
 21
2378.2543978663
 31
0.0
  0
LINE
  5
92
330
1F
100
AcDbEntity
  8
0
  6
Continuous
 62
     7
370
    25
100
AcDbLine
 10
2184.4454585654
 20
2406.7543978663
 30
0.0
 11
2184.4454585654
 21
2378.2543978663
 31
0.0
  0
LINE
  5
93
330
1F
100
AcDbEntity
  8
0
  6
Continuous
 62
     7
370
    25
100
AcDbLine
 10
2984.9454585654
 20
2406.7543978663
 30
0.0
 11
2184.4454585654
 21
2406.7543978663
 31
0.0
  0
LINE
  5
94
330
1F
100
AcDbEntity
  8
0
  6
Continuous
 62
     7
370
    25
100
AcDbLine
 10
2586.4454585654
 20
2003.2543978663
 30
0.0
 11
2582.9454585654
 21
2003.2543978663
 31
0.0
  0
LINE
  5
95
330
1F
100
AcDbEntity
  8
0
  6
Continuous
 62
     7
370
    25
100
AcDbLine
 10
2582.9454585654
 20
2015.2543978663
 30
0.0
 11
2586.4454585654
 21
2015.2543978663
 31
0.0
  0
LINE
  5
96
330
1F
100
AcDbEntity
  8
0
  6
Continuous
 62
     7
370
    25
100
AcDbLine
 10
2586.4454585654
 20
2123.2543978663
 30
0.0
 11
2582.9454585654
 21
2123.2543978663
 31
0.0
  0
LINE
  5
97
330
1F
100
AcDbEntity
  8
0
  6
Continuous
 62
     7
370
    25
100
AcDbLine
 10
2582.9454585654
 20
2135.2543978663
 30
0.0
 11
2586.4454585654
 21
2135.2543978663
 31
0.0
  0
LINE
  5
98
330
1F
100
AcDbEntity
  8
0
  6
Continuous
 62
     7
370
    25
100
AcDbLine
 10
2586.4454585654
 20
903.2543978663
 30
0.0
 11
2582.9454585654
 21
903.2543978663
 31
0.0
  0
LINE
  5
99
330
1F
100
AcDbEntity
  8
0
  6
Continuous
 62
     7
370
    25
100
AcDbLine
 10
2582.9454585654
 20
915.2543978663
 30
0.0
 11
2586.4454585654
 21
915.2543978663
 31
0.0
  0
LINE
  5
9A
330
1F
100
AcDbEntity
  8
0
  6
Continuous
 62
     7
370
    25
100
AcDbLine
 10
2586.4454585654
 20
1240.2543978663
 30
0.0
 11
2582.9454585654
 21
1240.2543978663
 31
0.0
  0
LINE
  5
9B
330
1F
100
AcDbEntity
  8
0
  6
Continuous
 62
     7
370
    25
100
AcDbLine
 10
2582.9454585654
 20
1252.2543978663
 30
0.0
 11
2586.4454585654
 21
1252.2543978663
 31
0.0
  0
LINE
  5
9C
330
1F
100
AcDbEntity
  8
0
  6
Continuous
 62
     7
370
    25
100
AcDbLine
 10
2586.4454585654
 20
1360.2543978663
 30
0.0
 11
2582.9454585654
 21
1360.2543978663
 31
0.0
  0
LINE
  5
9D
330
1F
100
AcDbEntity
  8
0
  6
Continuous
 62
     7
370
    25
100
AcDbLine
 10
2582.9454585654
 20
1372.2543978663
 30
0.0
 11
2586.4454585654
 21
1372.2543978663
 31
0.0
  0
LINE
  5
9E
330
1F
100
AcDbEntity
  8
0
  6
Continuous
 62
     7
370
    25
100
AcDbLine
 10
2586.4454585654
 20
1090.2543978663
 30
0.0
 11
2582.9454585654
 21
1090.2543978663
 31
0.0
  0
LINE
  5
9F
330
1F
100
AcDbEntity
  8
0
  6
Continuous
 62
     7
370
    25
100
AcDbLine
 10
2582.9454585654
 20
1102.2543978663
 30
0.0
 11
2586.4454585654
 21
1102.2543978663
 31
0.0
  0
LINE
  5
A0
330
1F
100
AcDbEntity
  8
0
  6
Continuous
 62
     7
370
    25
100
AcDbLine
 10
2586.4454585654
 20
2243.2543978663
 30
0.0
 11
2582.9454585654
 21
2243.2543978663
 31
0.0
  0
LINE
  5
A1
330
1F
100
AcDbEntity
  8
0
  6
Continuous
 62
     7
370
    25
100
AcDbLine
 10
2582.9454585654
 20
2255.2543978663
 30
0.0
 11
2586.4454585654
 21
2255.2543978663
 31
0.0
  0
LINE
  5
A2
330
1F
100
AcDbEntity
  8
0
  6
Continuous
 62
     7
370
    25
100
AcDbLine
 10
2586.4454585654
 20
1905.2543978663
 30
0.0
 11
2582.9454585654
 21
1905.2543978663
 31
0.0
  0
LINE
  5
A3
330
1F
100
AcDbEntity
  8
0
  6
Continuous
 62
     7
370
    25
100
AcDbLine
 10
2582.9454585654
 20
1917.2543978663
 30
0.0
 11
2586.4454585654
 21
1917.2543978663
 31
0.0
  0
LINE
  5
A4
330
1F
100
AcDbEntity
  8
0
  6
Continuous
 62
     7
370
    25
100
AcDbLine
 10
2586.4454585654
 20
753.2543978663
 30
0.0
 11
2582.9454585654
 21
753.2543978663
 31
0.0
  0
LINE
  5
A5
330
1F
100
AcDbEntity
  8
0
  6
Continuous
 62
     7
370
    25
100
AcDbLine
 10
2582.9454585654
 20
765.2543978663
 30
0.0
 11
2586.4454585654
 21
765.2543978663
 31
0.0
  0
LINE
  5
A6
330
1F
100
AcDbEntity
  8
0
  6
Continuous
 62
     7
370
    25
100
AcDbLine
 10
2586.4454585654
 20
1755.2543978663
 30
0.0
 11
2582.9454585654
 21
1755.2543978663
 31
0.0
  0
LINE
  5
A7
330
1F
100
AcDbEntity
  8
0
  6
Continuous
 62
     7
370
    25
100
AcDbLine
 10
2582.9454585654
 20
1767.2543978663
 30
0.0
 11
2586.4454585654
 21
1767.2543978663
 31
0.0
  0
LINE
  5
A8
330
1F
100
AcDbEntity
  8
0
  6
Continuous
 62
     7
370
    25
100
AcDbLine
 10
2186.9454585654
 20
616.4655465881
 30
0.0
 11
2186.9454585654
 21
616.5543978663
 31
0.0
  0
SPLINE
  5
A9
330
1F
100
AcDbEntity
  8
0
  6
Continuous
 62
     7
370
    25
100
AcDbSpline
210
0.0
220
0.0
230
1.0
 70
     8
 71
     3
 72
    13
 73
     9
 74
     0
 42
0.00000001
 43
0.00000001
 40
0.0
 40
0.0
 40
0.0
 40
0.0
 40
0.0075029974113208
 40
0.3818974549663102
 40
0.6070018873270905
 40
0.7653769096342375
 40
0.882460504980979
 40
1.0
 40
1.0
 40
1.0
 40
1.0
 10
2186.945458565359
 20
616.5543978663139
 30
0.0
 10
2186.945459520963
 20
616.554835864209
 30
0.0
 10
2186.945508160578
 20
616.5771296585782
 30
0.0
 10
2186.951630265317
 20
616.6240140467941
 30
0.0
 10
2186.993646370791
 20
616.6902984838302
 30
0.0
 10
2187.042457172757
 20
616.728560043003
 30
0.0
 10
2187.093187820072
 20
616.7503158187379
 30
0.0
 10
2187.128012427523
 20
616.7530354222877
 30
0.0
 10
2187.145458565359
 20
616.7543978663139
 30
0.0
  0
LINE
  5
AA
330
1F
100
AcDbEntity
  8
0
  6
Continuous
 62
     7
370
    25
100
AcDbLine
 10
2187.1454585654
 20
616.7543978663
 30
0.0
 11
2187.1454585654
 21
616.2683337685
 31
0.0
  0
ARC
  5
AB
330
1F
100
AcDbEntity
  8
0
  6
Continuous
 62
     7
370
    25
100
AcDbCircle
 10
2187.1440746856
 20
616.466950026
 30
0.0
 40
0.1986210785913448
100
AcDbArc
 50
180.404849976
 51
270.3992079349
  0
LINE
  5
AC
330
1F
100
AcDbEntity
  8
0
  6
Continuous
 62
     7
370
    25
100
AcDbLine
 10
2188.9454585654
 20
616.2683337685
 30
0.0
 11
2188.9454585654
 21
616.7543978663
 31
0.0
  0
LINE
  5
AD
330
1F
100
AcDbEntity
  8
0
  6
Continuous
 62
     7
370
    25
100
AcDbLine
 10
2187.1454585654
 20
616.2683337685
 30
0.0
 11
2188.9454585654
 21
616.2683337685
 31
0.0
  0
LINE
  5
AE
330
1F
100
AcDbEntity
  8
0
  6
Continuous
 62
     7
370
    25
100
AcDbLine
 10
2188.9454585654
 20
616.2543978663
 30
0.0
 11
2188.9454585654
 21
616.2683337685
 31
0.0
  0
LINE
  5
AF
330
1F
100
AcDbEntity
  8
0
  6
Continuous
 62
     7
370
    25
100
AcDbLine
 10
2186.9454585654
 20
616.4543978663
 30
0.0
 11
2186.9454585654
 21
616.4655465881
 31
0.0
  0
LINE
  5
B0
330
1F
100
AcDbEntity
  8
0
  6
Continuous
 62
     7
370
    25
100
AcDbLine
 10
2186.9454585654
 20
616.5543978663
 30
0.0
 11
2186.9454585654
 21
616.7543978663
 31
0.0
  0
LINE
  5
B1
330
1F
100
AcDbEntity
  8
0
  6
Continuous
 62
     7
370
    25
100
AcDbLine
 10
2586.4454585654
 20
616.4655465881
 30
0.0
 11
2586.4454585654
 21
616.5543978663
 31
0.0
  0
LINE
  5
B2
330
1F
100
AcDbEntity
  8
0
  6
Continuous
 62
     7
370
    25
100
AcDbLine
 10
2586.6454585654
 20
616.7543978663
 30
0.0
 11
2586.6454585654
 21
616.2683337685
 31
0.0
  0
ARC
  5
B3
330
1F
100
AcDbEntity
  8
0
  6
Continuous
 62
     7
370
    25
100
AcDbCircle
 10
2586.6440746856
 20
616.466950026
 30
0.0
 40
0.1986210785931511
100
AcDbArc
 50
180.4048499765
 51
270.3992079344
  0
SPLINE
  5
B4
330
1F
100
AcDbEntity
  8
0
  6
Continuous
 62
     7
370
    25
100
AcDbSpline
210
0.0
220
0.0
230
1.0
 70
     8
 71
     3
 72
    13
 73
     9
 74
     0
 42
0.00000001
 43
0.00000001
 40
0.0
 40
0.0
 40
0.0
 40
0.0
 40
0.0075029974113208
 40
0.3818974549663109
 40
0.6070018873270916
 40
0.765376909634237
 40
0.8824605049809787
 40
0.9999999999999999
 40
0.9999999999999999
 40
0.9999999999999999
 40
0.9999999999999999
 10
2586.445458565359
 20
616.5543978663139
 30
0.0
 10
2586.445459520963
 20
616.554835864209
 30
0.0
 10
2586.445508160579
 20
616.5771296585782
 30
0.0
 10
2586.451630265317
 20
616.6240140467941
 30
0.0
 10
2586.493646370792
 20
616.6902984838302
 30
0.0
 10
2586.542457172757
 20
616.728560043003
 30
0.0
 10
2586.593187820072
 20
616.7503158187379
 30
0.0
 10
2586.628012427523
 20
616.7530354222877
 30
0.0
 10
2586.645458565358
 20
616.7543978663139
 30
0.0
  0
LINE
  5
B5
330
1F
100
AcDbEntity
  8
0
  6
Continuous
 62
     7
370
    25
100
AcDbLine
 10
2588.4454585654
 20
616.2683337685
 30
0.0
 11
2588.4454585654
 21
616.7543978663
 31
0.0
  0
LINE
  5
B6
330
1F
100
AcDbEntity
  8
0
  6
Continuous
 62
     7
370
    25
100
AcDbLine
 10
2586.6454585654
 20
616.2683337685
 30
0.0
 11
2588.4454585654
 21
616.2683337685
 31
0.0
  0
LINE
  5
B7
330
1F
100
AcDbEntity
  8
0
  6
Continuous
 62
     7
370
    25
100
AcDbLine
 10
2586.4454585654
 20
616.4543978663
 30
0.0
 11
2586.4454585654
 21
616.4655465881
 31
0.0
  0
LINE
  5
B8
330
1F
100
AcDbEntity
  8
0
  6
Continuous
 62
     7
370
    25
100
AcDbLine
 10
2588.4454585654
 20
616.2543978663
 30
0.0
 11
2588.4454585654
 21
616.2683337685
 31
0.0
  0
LINE
  5
B9
330
1F
100
AcDbEntity
  8
0
  6
Continuous
 62
     7
370
    25
100
AcDbLine
 10
2586.4454585654
 20
616.5543978663
 30
0.0
 11
2586.4454585654
 21
616.7543978663
 31
0.0
  0
LINE
  5
BA
330
1F
100
AcDbEntity
  8
0
  6
Continuous
 62
     7
370
    25
100
AcDbLine
 10
2588.4454585654
 20
616.2683337685
 30
0.0
 11
2980.4454585654
 21
616.2683337685
 31
0.0
  0
LINE
  5
BB
330
1F
100
AcDbEntity
  8
0
  6
Continuous
 62
     7
370
    25
100
AcDbLine
 10
2980.4454585654
 20
616.7543978663
 30
0.0
 11
2980.4454585654
 21
616.2683337685
 31
0.0
  0
LINE
  5
BC
330
1F
100
AcDbEntity
  8
0
  6
Continuous
 62
     7
370
    25
100
AcDbLine
 10
2980.4454585654
 20
616.2683337685
 30
0.0
 11
2980.4454585654
 21
616.2543978663
 31
0.0
  0
LINE
  5
BD
330
1F
100
AcDbEntity
  8
0
  6
Continuous
 62
     7
370
    25
100
AcDbLine
 10
2188.9454585654
 20
616.2683337685
 30
0.0
 11
2580.9454585654
 21
616.2683337685
 31
0.0
  0
LINE
  5
BE
330
1F
100
AcDbEntity
  8
0
  6
Continuous
 62
     7
370
    25
100
AcDbLine
 10
2580.9454585654
 20
616.7543978663
 30
0.0
 11
2580.9454585654
 21
616.2683337685
 31
0.0
  0
LINE
  5
BF
330
1F
100
AcDbEntity
  8
0
  6
Continuous
 62
     7
370
    25
100
AcDbLine
 10
2580.9454585654
 20
616.2683337685
 30
0.0
 11
2580.9454585654
 21
616.2543978663
 31
0.0
  0
LINE
  5
C0
330
1F
100
AcDbEntity
  8
0
  6
Continuous
 62
     7
370
    25
100
AcDbLine
 10
2582.9454585654
 20
616.5543978663
 30
0.0
 11
2582.9454585654
 21
616.4655465881
 31
0.0
  0
ARC
  5
C1
330
1F
100
AcDbEntity
  8
0
  6
Continuous
 62
     7
370
    25
100
AcDbCircle
 10
2582.7468424451
 20
616.466950026
 30
0.0
 40
0.198621078592248
100
AcDbArc
 50
269.6007920653
 51
359.5951500238
  0
LINE
  5
C2
330
1F
100
AcDbEntity
  8
0
  6
Continuous
 62
     7
370
    25
100
AcDbLine
 10
2582.7454585654
 20
616.2683337685
 30
0.0
 11
2582.7454585654
 21
616.7543978663
 31
0.0
  0
SPLINE
  5
C3
330
1F
100
AcDbEntity
  8
0
  6
Continuous
 62
     7
370
    25
100
AcDbSpline
210
0.0
220
0.0
230
1.0
 70
     8
 71
     3
 72
    13
 73
     9
 74
     0
 42
0.00000001
 43
0.00000001
 40
0.0
 40
0.0
 40
0.0
 40
0.0
 40
0.0075029974113214
 40
0.3818974549657648
 40
0.6070018873267128
 40
0.7653769096342216
 40
0.8824605049805154
 40
1.0
 40
1.0
 40
1.0
 40
1.0
 10
2582.945458565366
 20
616.5543978663148
 30
0.0
 10
2582.945457609762
 20
616.5548358642098
 30
0.0
 10
2582.945408970149
 20
616.5771296585791
 30
0.0
 10
2582.939286865407
 20
616.6240140467947
 30
0.0
 10
2582.897270759933
 20
616.6902984838312
 30
0.0
 10
2582.848459957967
 20
616.7285600430038
 30
0.0
 10
2582.797729310652
 20
616.7503158187388
 30
0.0
 10
2582.762904703202
 20
616.7530354222886
 30
0.0
 10
2582.745458565366
 20
616.7543978663148
 30
0.0
  0
LINE
  5
C4
330
1F
100
AcDbEntity
  8
0
  6
Continuous
 62
     7
370
    25
100
AcDbLine
 10
2580.9454585654
 20
616.2683337685
 30
0.0
 11
2582.7454585654
 21
616.2683337685
 31
0.0
  0
LINE
  5
C5
330
1F
100
AcDbEntity
  8
0
  6
Continuous
 62
     7
370
    25
100
AcDbLine
 10
2582.9454585654
 20
616.4655465881
 30
0.0
 11
2582.9454585654
 21
616.4543978663
 31
0.0
  0
LINE
  5
C6
330
1F
100
AcDbEntity
  8
0
  6
Continuous
 62
     7
370
    25
100
AcDbLine
 10
2582.9454585654
 20
616.7543978663
 30
0.0
 11
2582.9454585654
 21
616.5543978663
 31
0.0
  0
LINE
  5
C7
330
1F
100
AcDbEntity
  8
0
  6
Continuous
 62
     7
370
    25
100
AcDbLine
 10
2982.4454585654
 20
616.5543978663
 30
0.0
 11
2982.4454585654
 21
616.4655465881
 31
0.0
  0
ARC
  5
C8
330
1F
100
AcDbEntity
  8
0
  6
Continuous
 62
     7
370
    25
100
AcDbCircle
 10
2982.2468424451
 20
616.466950026
 30
0.0
 40
0.1986210785924754
100
AcDbArc
 50
269.6007920653
 51
359.5951500237
  0
LINE
  5
C9
330
1F
100
AcDbEntity
  8
0
  6
Continuous
 62
     7
370
    25
100
AcDbLine
 10
2982.2454585654
 20
616.2683337685
 30
0.0
 11
2982.2454585654
 21
616.7543978663
 31
0.0
  0
SPLINE
  5
CA
330
1F
100
AcDbEntity
  8
0
  6
Continuous
 62
     7
370
    25
100
AcDbSpline
210
0.0
220
0.0
230
1.0
 70
     8
 71
     3
 72
    13
 73
     9
 74
     0
 42
0.00000001
 43
0.00000001
 40
0.0
 40
0.0
 40
0.0
 40
0.0
 40
0.0075029974113214
 40
0.3818974549657648
 40
0.6070018873267128
 40
0.7653769096342216
 40
0.8824605049805154
 40
1.0
 40
1.0
 40
1.0
 40
1.0
 10
2982.445458565366
 20
616.5543978663123
 30
0.0
 10
2982.445457609762
 20
616.5548358642076
 30
0.0
 10
2982.445408970149
 20
616.5771296585767
 30
0.0
 10
2982.439286865407
 20
616.6240140467925
 30
0.0
 10
2982.397270759933
 20
616.6902984838288
 30
0.0
 10
2982.348459957968
 20
616.7285600430014
 30
0.0
 10
2982.297729310652
 20
616.7503158187366
 30
0.0
 10
2982.262904703201
 20
616.7530354222861
 30
0.0
 10
2982.245458565366
 20
616.7543978663124
 30
0.0
  0
LINE
  5
CB
330
1F
100
AcDbEntity
  8
0
  6
Continuous
 62
     7
370
    25
100
AcDbLine
 10
2980.4454585654
 20
616.2683337685
 30
0.0
 11
2982.2454585654
 21
616.2683337685
 31
0.0
  0
LINE
  5
CC
330
1F
100
AcDbEntity
  8
0
  6
Continuous
 62
     7
370
    25
100
AcDbLine
 10
2982.4454585654
 20
616.4655465881
 30
0.0
 11
2982.4454585654
 21
616.4543978663
 31
0.0
  0
LINE
  5
CD
330
1F
100
AcDbEntity
  8
0
  6
Continuous
 62
     7
370
    25
100
AcDbLine
 10
2982.4454585654
 20
616.7543978663
 30
0.0
 11
2982.4454585654
 21
616.5543978663
 31
0.0
  0
LINE
  5
CE
330
1F
100
AcDbEntity
  8
0
  6
Continuous
 62
     7
370
    25
100
AcDbLine
 10
2187.1454585654
 20
616.2683337685
 30
0.0
 11
2187.1454585654
 21
616.2543978663
 31
0.0
  0
LINE
  5
CF
330
1F
100
AcDbEntity
  8
0
  6
Continuous
 62
     7
370
    25
100
AcDbLine
 10
2586.6454585654
 20
616.2683337685
 30
0.0
 11
2586.6454585654
 21
616.2543978663
 31
0.0
  0
LINE
  5
D0
330
1F
100
AcDbEntity
  8
0
  6
Continuous
 62
     7
370
    25
100
AcDbLine
 10
2582.7454585654
 20
616.2543978663
 30
0.0
 11
2582.7454585654
 21
616.2683337685
 31
0.0
  0
LINE
  5
D1
330
1F
100
AcDbEntity
  8
0
  6
Continuous
 62
     7
370
    25
100
AcDbLine
 10
2982.2454585654
 20
616.2543978663
 30
0.0
 11
2982.2454585654
 21
616.2683337685
 31
0.0
  0
LINE
  5
D2
330
1F
100
AcDbEntity
  8
0
  6
Continuous
 62
     7
370
    25
100
AcDbLine
 10
858.1292233787
 20
1796.2543978663
 30
0.0
 11
856.1292233787
 21
1796.2543978663
 31
0.0
  0
LINE
  5
D3
330
1F
100
AcDbEntity
  8
0
  6
Continuous
 62
     7
370
    25
100
AcDbLine
 10
856.1292233787
 20
1761.2543978663
 30
0.0
 11
858.1292233787
 21
1761.2543978663
 31
0.0
  0
LINE
  5
D4
330
1F
100
AcDbEntity
  8
0
  6
Continuous
 62
     7
370
    25
100
AcDbLine
 10
856.1292233787
 20
2250.7543978663
 30
0.0
 11
858.1292233787
 21
2250.7543978663
 31
0.0
  0
LINE
  5
D5
330
1F
100
AcDbEntity
  8
0
  6
Continuous
 62
     7
370
    25
100
AcDbLine
 10
858.1292233787
 20
822.7543978663
 30
0.0
 11
856.1292233787
 21
822.7543978663
 31
0.0
  0
LINE
  5
D6
330
1F
100
AcDbEntity
  8
0
  6
Continuous
 62
     7
370
    25
100
AcDbLine
 10
858.1292233787
 20
1313.2543978663
 30
0.0
 11
856.1292233787
 21
1313.2543978663
 31
0.0
  0
LINE
  5
D7
330
1F
100
AcDbEntity
  8
0
  6
Continuous
 62
     7
370
    25
100
AcDbLine
 10
856.1292233787
 20
1278.2543978663
 30
0.0
 11
858.1292233787
 21
1278.2543978663
 31
0.0
  0
LINE
  5
D8
330
1F
100
AcDbEntity
  8
0
  6
Continuous
 62
     7
370
    25
100
AcDbLine
 10
475.6515032166
 20
2309.2767567878
 30
0.0
 11
477.6292233787
 21
2309.2249683628
 31
0.0
  0
LINE
  5
D9
330
1F
100
AcDbEntity
  8
0
  6
Continuous
 62
     7
370
    25
100
AcDbLine
 10
477.6292233787
 20
2314.7268537215
 30
0.0
 11
475.7954764323
 21
2314.7748720752
 31
0.0
  0
ARC
  5
DA
330
1F
100
AcDbEntity
  8
0
  6
Continuous
 62
     7
370
    25
100
AcDbCircle
 10
475.6593563011
 20
2309.5766539853
 30
0.0
 40
0.2999999999999956
100
AcDbArc
 50
178.5
 51
268.5000000001
  0
ARC
  5
DB
330
1F
100
AcDbEntity
  8
0
  6
Continuous
 62
     7
370
    25
100
AcDbCircle
 10
475.7876233478
 20
2314.4749748777
 30
0.0
 40
0.3000000000000643
100
AcDbArc
 50
88.5000000001
 51
178.5
  0
ARC
  5
DC
330
1F
100
AcDbEntity
  8
0
  6
Continuous
 62
     7
370
    25
100
AcDbCircle
 10
474.149178326
 20
2337.8758832752
 30
0.0
 40
1.200000000000428
100
AcDbArc
 50
88.5000000001
 51
173.5000000033
  0
ARC
  5
DD
330
1F
100
AcDbEntity
  8
0
  6
Continuous
 62
     7
370
    25
100
AcDbCircle
 10
473.6884640358
 20
2320.2819143556
 30
0.0
 40
1.199999999999943
100
AcDbArc
 50
183.4999999968
 51
268.5000000001
  0
LINE
  5
DE
330
1F
100
AcDbEntity
  8
0
  6
Continuous
 62
     7
370
    25
100
AcDbLine
 10
474.9307814413
 20
2339.0558276283
 30
0.0
 11
474.1805906639
 21
2339.0754720652
 31
0.0
  0
LINE
  5
DF
330
1F
100
AcDbEntity
  8
0
  6
Continuous
 62
     7
370
    25
100
AcDbLine
 10
473.6570516978
 20
2319.0823255656
 30
0.0
 11
474.4072424751
 21
2319.0626811288
 31
0.0
  0
ARC
  5
E0
330
1F
100
AcDbEntity
  8
0
  6
Continuous
 62
     7
370
    25
100
AcDbCircle
 10
474.9255460516
 20
2338.8558961633
 30
0.0
 40
0.2000000000000718
100
AcDbArc
 50
358.5000000001
 51
88.5000000001
  0
ARC
  5
E1
330
1F
100
AcDbEntity
  8
0
  6
Continuous
 62
     7
370
    25
100
AcDbCircle
 10
474.4124778648
 20
2319.2626125938
 30
0.0
 40
0.2000000000000718
100
AcDbArc
 50
268.5000000001
 51
358.5000000001
  0
LINE
  5
E2
330
1F
100
AcDbEntity
  8
0
  6
Continuous
 62
     7
370
    25
100
AcDbLine
 10
472.9568920992
 20
2338.0117271316
 30
0.0
 11
472.7751043047
 21
2336.4161961367
 31
0.0
  0
LINE
  5
E3
330
1F
100
AcDbEntity
  8
0
  6
Continuous
 62
     7
370
    25
100
AcDbLine
 10
472.3926672574
 20
2321.8115145215
 30
0.0
 11
472.4907022777
 21
2320.2086561082
 31
0.0
  0
ARC
  5
E4
330
1F
100
AcDbEntity
  8
0
  6
Continuous
 62
     7
370
    25
100
AcDbCircle
 10
502.582259975
 20
2333.0200997237
 30
0.0
 40
30.00000000000206
100
AcDbArc
 50
173.5000000001
 51
178.5000000001
  0
ARC
  5
E5
330
1F
100
AcDbEntity
  8
0
  6
Continuous
 62
     7
370
    25
100
AcDbCircle
 10
502.33671121
 20
2323.6429707076
 30
0.0
 40
30.00000000000204
100
AcDbArc
 50
178.5000000001
 51
183.5000000001
  0
SPLINE
  5
E6
330
1F
100
AcDbEntity
  8
0
  6
Continuous
 62
     7
370
    25
100
AcDbSpline
210
0.0
220
0.0
230
1.0
 70
     8
 71
     3
 72
    11
 73
     7
 74
     0
 42
0.00000001
 43
0.00000001
 40
0.0
 40
0.0
 40
0.0
 40
0.0
 40
0.2706712709043879
 40
0.5632120728000524
 40
0.7903891635243521
 40
1.0
 40
1.0
 40
1.0
 40
1.0
 10
475.4865683530554
 20
2333.539388477126
 30
0.0
 10
475.4152270988133
 20
2333.550264842407
 30
0.0
 10
475.2667804035156
 20
2333.572896354848
 30
0.0
 10
475.1018876864364
 20
2333.715140595836
 30
0.0
 10
475.0097743679686
 20
2333.888327175567
 30
0.0
 10
475.0031785439335
 20
2334.003907998129
 30
0.0
 10
475.0000132636977
 20
2334.059374258501
 30
0.0
  0
SPLINE
  5
E7
330
1F
100
AcDbEntity
  8
0
  6
Continuous
 62
     7
370
    25
100
AcDbSpline
210
0.0
220
0.0
230
1.0
 70
     8
 71
     3
 72
    11
 73
     7
 74
     0
 42
0.00000001
 43
0.00000001
 40
0.0
 40
0.0
 40
0.0
 40
0.0
 40
0.2695105035984221
 40
0.5617364405774963
 40
0.789422493127888
 40
1.0
 40
1.0
 40
1.0
 40
1.0
 10
474.7378735826758
 20
2324.048663719285
 30
0.0
 10
474.7476781320566
 20
2324.119837570831
 30
0.0
 10
474.7681135978258
 20
2324.268184093494
 30
0.0
 10
474.9074349462579
 20
2324.435140957512
 30
0.0
 10
475.0794174078799
 20
2324.530232716835
 30
0.0
 10
475.1952975571222
 20
2324.538500186574
 30
0.0
 10
475.2509758182935
 20
2324.542472552353
 30
0.0
  0
LINE
  5
E8
330
1F
100
AcDbEntity
  8
0
  6
Continuous
 62
     7
370
    25
100
AcDbLine
 10
477.6292233787
 20
2333.4832810807
 30
0.0
 11
475.4865683531
 21
2333.5393884771
 31
0.0
  0
LINE
  5
E9
330
1F
100
AcDbEntity
  8
0
  6
Continuous
 62
     7
370
    25
100
AcDbLine
 10
475.2509758183
 20
2324.5424725523
 30
0.0
 11
477.6292233787
 21
2324.4801959483
 31
0.0
  0
LINE
  5
EA
330
1F
100
AcDbEntity
  8
0
  6
Continuous
 62
     7
370
    25
100
AcDbLine
 10
856.1292233787
 20
2270.7543978663
 30
0.0
 11
858.1292233787
 21
2270.7543978663
 31
0.0
  0
LINE
  5
EB
330
1F
100
AcDbEntity
  8
0
  6
Continuous
 62
     7
370
    25
100
AcDbLine
 10
856.1292233787
 20
742.7543978663
 30
0.0
 11
858.1292233787
 21
742.7543978663
 31
0.0
  0
LINE
  5
EC
330
1F
100
AcDbEntity
  8
0
  6
Continuous
 62
     7
370
    25
100
AcDbLine
 10
856.1292233787
 20
802.7543978663
 30
0.0
 11
858.1292233787
 21
802.7543978663
 31
0.0
  0
LINE
  5
ED
330
1F
100
AcDbEntity
  8
0
  6
Continuous
 62
     7
370
    25
100
AcDbLine
 10
858.1292233787
 20
2396.7543978663
 30
0.0
 11
858.1292233787
 21
650.2543978663
 31
0.0
  0
LINE
  5
EE
330
1F
100
AcDbEntity
  8
0
  6
Continuous
 62
     7
370
    25
100
AcDbLine
 10
876.1292233787
 20
2396.7543978663
 30
0.0
 11
876.1292233787
 21
616.7543978663
 31
0.0
  0
LINE
  5
EF
330
1F
100
AcDbEntity
  8
0
  6
Continuous
 62
     7
370
    25
100
AcDbLine
 10
876.1292233787
 20
616.7543978663
 30
0.0
 11
872.1292233787
 21
616.7543978663
 31
0.0
  0
LINE
  5
F0
330
1F
100
AcDbEntity
  8
0
  6
Continuous
 62
     7
370
    25
100
AcDbLine
 10
872.1292233787
 20
629.7543978663
 30
0.0
 11
872.1292233787
 21
616.7543978663
 31
0.0
  0
LINE
  5
F1
330
1F
100
AcDbEntity
  8
0
  6
Continuous
 62
     7
370
    25
100
AcDbLine
 10
859.6292233787
 20
629.7543978663
 30
0.0
 11
872.1292233787
 21
629.7543978663
 31
0.0
  0
LINE
  5
F2
330
1F
100
AcDbEntity
  8
0
  6
Continuous
 62
     7
370
    25
100
AcDbLine
 10
859.6292233787
 20
650.2543978663
 30
0.0
 11
859.6292233787
 21
629.7543978663
 31
0.0
  0
LINE
  5
F3
330
1F
100
AcDbEntity
  8
0
  6
Continuous
 62
     7
370
    25
100
AcDbLine
 10
858.1292233787
 20
650.2543978663
 30
0.0
 11
859.6292233787
 21
650.2543978663
 31
0.0
  0
LINE
  5
F4
330
1F
100
AcDbEntity
  8
0
  6
Continuous
 62
     7
370
    25
100
AcDbLine
 10
876.1292233787
 20
2396.7543978663
 30
0.0
 11
858.1292233787
 21
2396.7543978663
 31
0.0
  0
LINE
  5
F5
330
1F
100
AcDbEntity
  8
0
  6
Continuous
 62
     7
370
    25
100
AcDbLine
 10
856.1292233787
 20
2378.2543978663
 30
0.0
 11
856.1292233787
 21
606.7543978663
 31
0.0
  0
LINE
  5
F6
330
1F
100
AcDbEntity
  8
0
  6
Continuous
 62
     7
370
    25
100
AcDbLine
 10
856.1292233787
 20
606.7543978663
 30
0.0
 11
477.6292233787
 21
606.7543978663
 31
0.0
  0
LINE
  5
F7
330
1F
100
AcDbEntity
  8
0
  6
Continuous
 62
     7
370
    25
100
AcDbLine
 10
477.6292233787
 20
2378.2543978663
 30
0.0
 11
477.6292233787
 21
606.7543978663
 31
0.0
  0
LINE
  5
F8
330
1F
100
AcDbEntity
  8
0
  6
Continuous
 62
     7
370
    25
100
AcDbLine
 10
856.6292233787
 20
2406.7543978663
 30
0.0
 11
856.6292233787
 21
2378.2543978663
 31
0.0
  0
LINE
  5
F9
330
1F
100
AcDbEntity
  8
0
  6
Continuous
 62
     7
370
    25
100
AcDbLine
 10
856.6292233787
 20
2378.2543978663
 30
0.0
 11
477.6292233787
 21
2378.2543978663
 31
0.0
  0
LINE
  5
FA
330
1F
100
AcDbEntity
  8
0
  6
Continuous
 62
     7
370
    25
100
AcDbLine
 10
477.6292233787
 20
2378.2543978663
 30
0.0
 11
477.6292233787
 21
2406.7543978663
 31
0.0
  0
LINE
  5
FB
330
1F
100
AcDbEntity
  8
0
  6
Continuous
 62
     7
370
    25
100
AcDbLine
 10
477.6292233787
 20
2406.7543978663
 30
0.0
 11
856.6292233787
 21
2406.7543978663
 31
0.0
  0
SPLINE
  5
FC
330
1F
100
AcDbEntity
  8
0
  6
Continuous
 62
     7
370
    25
100
AcDbSpline
210
0.0
220
0.0
230
1.0
 70
     8
 71
     3
 72
    11
 73
     7
 74
     0
 42
0.00000001
 43
0.00000001
 40
0.0
 40
0.0
 40
0.0
 40
0.0
 40
0.2382247349852598
 40
0.4921376904597299
 40
0.7460575595480442
 40
1.0
 40
1.0
 40
1.0
 40
1.0
 10
475.3597328978666
 20
2309.594962851253
 30
0.0
 10
475.360405282113
 20
2309.620640170768
 30
0.0
 10
475.3617943302744
 20
2309.673685782192
 30
0.0
 10
475.3753319284371
 20
2310.190665780913
 30
0.0
 10
475.3954325162028
 20
2310.958276326872
 30
0.0
 10
475.4118161664812
 20
2311.583942518896
 30
0.0
 10
475.4200083556968
 20
2311.89678951842
 30
0.0
  0
LINE
  5
FD
330
1F
100
AcDbEntity
  8
0
  6
Continuous
 62
     7
370
    25
100
AcDbLine
 10
475.4200083557
 20
2311.8967895184
 30
0.0
 11
475.4235926269
 21
2312.033667516
 31
0.0
  0
SPLINE
  5
FE
330
1F
100
AcDbEntity
  8
0
  6
Continuous
 62
     7
370
    25
100
AcDbSpline
210
0.0
220
0.0
230
1.0
 70
    24
 71
     3
 72
    12
 73
     8
 74
     0
 42
0.00000001
 43
0.00000001
 40
0.0
 40
0.0
 40
0.0
 40
0.0
 40
0.2460973337390808
 40
0.492195565419561
 40
0.7383025770440372
 40
0.984416004048171
 40
0.9999999999999999
 40
0.9999999999999999
 40
0.9999999999999999
 40
0.9999999999999999
 10
475.4235926269455
 20
2312.033667515995
 30
0.0
 10
475.4318221039464
 20
2312.347938563494
 30
0.0
 10
475.4482810879753
 20
2312.976481805179
 30
0.0
 10
475.4695970910851
 20
2313.79050712234
 30
0.0
 10
475.4831373538305
 20
2314.30758889509
 30
0.0
 10
475.4890568309136
 20
2314.533644604739
 30
0.0
 10
475.4875366005749
 20
2314.47558935033
 30
0.0
 10
475.4874460713554
 20
2314.472132178915
 30
0.0
  0
SPLINE
  5
FF
330
1F
100
AcDbEntity
  8
0
  6
Continuous
 62
     7
370
    25
100
AcDbSpline
210
0.0
220
0.0
230
1.0
 70
    24
 71
     3
 72
    13
 73
     9
 74
     0
 42
0.00000001
 43
0.00000001
 40
0.0
 40
0.0
 40
0.0
 40
0.0
 40
0.1538581583652809
 40
0.3079676862453989
 40
0.4535077802386526
 40
0.5878340078347489
 40
0.8177872163815911
 40
1.0
 40
1.0
 40
1.0
 40
1.0
 10
475.1252438281473
 20
2338.841736571924
 30
0.0
 10
475.1239243515039
 20
2338.791347791832
 30
0.0
 10
475.12128324249
 20
2338.69048790775
 30
0.0
 10
475.0990564570777
 20
2337.841681217694
 30
0.0
 10
475.0668884467813
 20
2336.613234465779
 30
0.0
 10
475.0176255151933
 20
2334.731959007906
 30
0.0
 10
474.9518061864538
 20
2332.218420251278
 30
0.0
 10
474.8970811233069
 20
2330.12855440469
 30
0.0
 10
474.8728879431823
 20
2329.204654130201
 30
0.0
  0
SPLINE
  5
100
330
1F
100
AcDbEntity
  8
0
  6
Continuous
 62
     7
370
    25
100
AcDbSpline
210
0.0
220
0.0
230
1.0
 70
    24
 71
     3
 72
    13
 73
     9
 74
     0
 42
0.00000001
 43
0.00000001
 40
0.0
 40
0.0
 40
0.0
 40
0.0
 40
0.1813201537909065
 40
0.4101468448381367
 40
0.5438150184965784
 40
0.6886421238876221
 40
0.8419966874127143
 40
0.9999999999999999
 40
0.9999999999999999
 40
0.9999999999999999
 40
0.9999999999999999
 10
474.8689434231865
 20
2329.054018988888
 30
0.0
 10
474.8447165495436
 20
2328.128832010846
 30
0.0
 10
474.7899152735841
 20
2326.036055714358
 30
0.0
 10
474.7235550425618
 20
2323.501860732921
 30
0.0
 10
474.6735840260087
 20
2321.593544601179
 30
0.0
 10
474.6406619372932
 20
2320.336300756247
 30
0.0
 10
474.6173797785668
 20
2319.447190985342
 30
0.0
 10
474.6140875851579
 20
2319.321467191343
 30
0.0
 10
474.6124169112993
 20
2319.257666730693
 30
0.0
  0
LINE
  5
101
330
1F
100
AcDbEntity
  8
0
  6
Continuous
 62
     7
370
    25
100
AcDbLine
 10
472.3469914608
 20
2324.4282791568
 30
0.0
 11
472.5925402257
 21
2333.8054081729
 31
0.0
  0
SPLINE
  5
102
330
1F
100
AcDbEntity
  8
0
  6
Continuous
 62
     7
370
    25
100
AcDbSpline
210
0.0
220
0.0
230
1.0
 70
     8
 71
     3
 72
    11
 73
     7
 74
     0
 42
0.00000001
 43
0.00000001
 40
0.0
 40
0.0
 40
0.0
 40
0.0
 40
0.2702619356875542
 40
0.5624305486173117
 40
0.7897374073711221
 40
1.0
 40
1.0
 40
1.0
 40
1.0
 10
475.364902467919
 20
2328.893155774583
 30
0.0
 10
475.2940652736313
 20
2328.894721041427
 30
0.0
 10
475.1466490200462
 20
2328.89797845127
 30
0.0
 10
474.9788778048899
 20
2328.897927095682
 30
0.0
 10
474.8811543747902
 20
2328.894958610161
 30
0.0
 10
474.8700025552291
 20
2328.891490841405
 30
0.0
 10
474.8646438390617
 20
2328.889824495533
 30
0.0
  0
LINE
  5
103
330
1F
100
AcDbEntity
  8
0
  6
Continuous
 62
     7
370
    25
100
AcDbLine
 10
871.9292233787
 20
616.5543978663
 30
0.0
 11
871.9292233787
 21
629.5543978663
 31
0.0
  0
LINE
  5
104
330
1F
100
AcDbEntity
  8
0
  6
Continuous
 62
     7
370
    25
100
AcDbLine
 10
872.3464350621
 20
616.5543978663
 30
0.0
 11
871.9292233787
 21
616.5543978663
 31
0.0
  0
ARC
  5
105
330
1F
100
AcDbEntity
  8
0
  6
Continuous
 62
     7
370
    25
100
AcDbCircle
 10
872.1292617046
 20
616.7613658174
 30
0.0
 40
0.2999999999999552
100
AcDbArc
 50
279.576588481
 51
316.3783470327
  0
ARC
  5
106
330
1F
100
AcDbEntity
  8
0
  6
Continuous
 62
     7
370
    25
100
AcDbCircle
 10
872.0460787812
 20
617.2543978663
 30
0.0
 40
0.7999999999999706
100
AcDbArc
 50
184.9699465947
 51
279.5765884811
  0
LINE
  5
107
330
1F
100
AcDbEntity
  8
0
  6
Continuous
 62
     7
370
    25
100
AcDbLine
 10
870.407897941
 20
626.8583577014
 30
0.0
 11
871.2490865597
 21
617.1850913096
 31
0.0
  0
ARC
  5
108
330
1F
100
AcDbEntity
  8
0
  6
Continuous
 62
     7
370
    25
100
AcDbCircle
 10
869.2124096087
 20
626.7543978663
 30
0.0
 40
1.199999999999932
100
AcDbArc
 50
4.9699465947
 51
90.0
  0
LINE
  5
109
330
1F
100
AcDbEntity
  8
0
  6
Continuous
 62
     7
370
    25
100
AcDbLine
 10
858.8292233787
 20
627.9543978663
 30
0.0
 11
869.2124096087
 21
627.9543978663
 31
0.0
  0
ARC
  5
10A
330
1F
100
AcDbEntity
  8
0
  6
Continuous
 62
     7
370
    25
100
AcDbCircle
 10
858.8292233787
 20
628.7543978663
 30
0.0
 40
0.8000000000000682
100
AcDbArc
 50
180.0
 51
270.0
  0
LINE
  5
10B
330
1F
100
AcDbEntity
  8
0
  6
Continuous
 62
     7
370
    25
100
AcDbLine
 10
858.0292233787
 20
649.5543978663
 30
0.0
 11
858.0292233787
 21
628.7543978663
 31
0.0
  0
LINE
  5
10C
330
1F
100
AcDbEntity
  8
0
  6
Continuous
 62
     7
370
    25
100
AcDbLine
 10
859.4292233787
 20
649.5543978663
 30
0.0
 11
858.0292233787
 21
649.5543978663
 31
0.0
  0
LINE
  5
10D
330
1F
100
AcDbEntity
  8
0
  6
Continuous
 62
     7
370
    25
100
AcDbLine
 10
859.4292233787
 20
629.5543978663
 30
0.0
 11
859.4292233787
 21
649.5543978663
 31
0.0
  0
LINE
  5
10E
330
1F
100
AcDbEntity
  8
0
  6
Continuous
 62
     7
370
    25
100
AcDbLine
 10
871.9292233787
 20
629.5543978663
 30
0.0
 11
859.4292233787
 21
629.5543978663
 31
0.0
  0
LINE
  5
10F
330
1F
100
AcDbEntity
  8
0
  6
Continuous
 62
     7
370
    25
100
AcDbLine
 10
871.0498385043
 20
617.1677646704
 30
0.0
 11
870.2086498856
 21
626.8410310622
 31
0.0
  0
LINE
  5
110
330
1F
100
AcDbEntity
  8
0
  6
Continuous
 62
     7
370
    25
100
AcDbLine
 10
870.2086498856
 20
626.8410310622
 30
0.0
 11
870.407897941
 21
626.8583577014
 31
0.0
  0
LINE
  5
111
330
1F
100
AcDbEntity
  8
0
  6
Continuous
 62
     7
370
    25
100
AcDbLine
 10
871.2490865597
 20
617.1850913096
 30
0.0
 11
871.0498385043
 21
617.1677646704
 31
0.0
  0
LINE
  5
112
330
1F
100
AcDbEntity
  8
0
  6
Continuous
 62
     7
370
    25
100
AcDbLine
 10
871.9292233787
 20
629.5543978663
 30
0.0
 11
872.1292233787
 21
629.7543978663
 31
0.0
  0
LINE
  5
113
330
1F
100
AcDbEntity
  8
0
  6
Continuous
 62
     7
370
    25
100
AcDbLine
 10
871.9292233787
 20
616.5543978663
 30
0.0
 11
872.1292233787
 21
616.7543978663
 31
0.0
  0
LINE
  5
114
330
1F
100
AcDbEntity
  8
0
  6
Continuous
 62
     7
370
    25
100
AcDbLine
 10
872.1791714587
 20
616.4655465881
 30
0.0
 11
872.212444628
 21
616.2683337685
 31
0.0
  0
ARC
  5
115
330
1F
100
AcDbEntity
  8
0
  6
Continuous
 62
     7
370
    25
100
AcDbCircle
 10
872.0460787812
 20
617.2543978663
 30
0.0
 40
0.9999999999999706
100
AcDbArc
 50
184.9699465947
 51
279.5765884811
  0
SPLINE
  5
116
330
1F
100
AcDbEntity
  8
0
  6
Continuous
 62
     7
370
    25
100
AcDbSpline
210
0.0
220
0.0
230
1.0
 70
     8
 71
     3
 72
    13
 73
     9
 74
     0
 42
0.00000001
 43
0.00000001
 40
0.0
 40
0.0
 40
0.0
 40
0.0
 40
0.0075029974113208
 40
0.3818974549663102
 40
0.6070018873270905
 40
0.7653769096342375
 40
0.882460504980979
 40
1.0
 40
1.0
 40
1.0
 40
1.0
 10
872.3464350621464
 20
616.5543978663139
 30
0.0
 10
872.3474528387624
 20
616.554835864209
 30
0.0
 10
872.3992569749041
 20
616.5771296585782
 30
0.0
 10
872.4778423402679
 20
616.6240140467941
 30
0.0
 10
872.5604818043012
 20
616.6902984838302
 30
0.0
 10
872.6025779223997
 20
616.728560043003
 30
0.0
 10
872.625101349235
 20
616.7503158187379
 30
0.0
 10
872.6278407753492
 20
616.7530354222877
 30
0.0
 10
872.6292131499166
 20
616.7543978663139
 30
0.0
  0
ARC
  5
117
330
1F
100
AcDbEntity
  8
0
  6
Continuous
 62
     7
370
    25
100
AcDbCircle
 10
872.1292617046
 20
616.7613658174
 30
0.0
 40
0.4999999999999634
100
AcDbArc
 50
279.5765884811
 51
359.2015057739
  0
LINE
  5
118
330
1F
100
AcDbEntity
  8
0
  6
Continuous
 62
     7
370
    25
100
AcDbLine
 10
859.6292233787
 20
649.7543978663
 30
0.0
 11
859.4292233787
 21
649.5543978663
 31
0.0
  0
LINE
  5
119
330
1F
100
AcDbEntity
  8
0
  6
Continuous
 62
     7
370
    25
100
AcDbLine
 10
859.4292233787
 20
629.5543978663
 30
0.0
 11
859.6292233787
 21
629.7543978663
 31
0.0
  0
ARC
  5
11A
330
1F
100
AcDbEntity
  8
0
  6
Continuous
 62
     7
370
    25
100
AcDbCircle
 10
858.8292233787
 20
628.7543978663
 30
0.0
 40
1.000000000000114
100
AcDbArc
 50
180.0
 51
270.0
  0
LINE
  5
11B
330
1F
100
AcDbEntity
  8
0
  6
Continuous
 62
     7
370
    25
100
AcDbLine
 10
857.8292233787
 20
628.7543978663
 30
0.0
 11
858.0292233787
 21
628.7543978663
 31
0.0
  0
LINE
  5
11C
330
1F
100
AcDbEntity
  8
0
  6
Continuous
 62
     7
370
    25
100
AcDbLine
 10
858.8292233787
 20
627.7543978663
 30
0.0
 11
858.8292233787
 21
627.9543978663
 31
0.0
  0
LINE
  5
11D
330
1F
100
AcDbEntity
  8
0
  6
Continuous
 62
     7
370
    25
100
AcDbLine
 10
869.2124096087
 20
627.7543978663
 30
0.0
 11
858.8292233787
 21
627.7543978663
 31
0.0
  0
LINE
  5
11E
330
1F
100
AcDbEntity
  8
0
  6
Continuous
 62
     7
370
    25
100
AcDbLine
 10
869.2124096087
 20
627.7543978663
 30
0.0
 11
869.2124096087
 21
627.9543978663
 31
0.0
  0
ARC
  5
11F
330
1F
100
AcDbEntity
  8
0
  6
Continuous
 62
     7
370
    25
100
AcDbCircle
 10
869.2124096087
 20
626.7543978663
 30
0.0
 40
1.000000000000114
100
AcDbArc
 50
4.9699465947
 51
90.0
  0
LINE
  5
120
330
1F
100
AcDbEntity
  8
0
  6
Continuous
 62
     7
370
    25
100
AcDbLine
 10
857.8292233787
 20
628.7543978663
 30
0.0
 11
857.8292233787
 21
649.5543978663
 31
0.0
  0
LINE
  5
121
330
1F
100
AcDbEntity
  8
0
  6
Continuous
 62
     7
370
    25
100
AcDbLine
 10
857.8292233787
 20
649.5543978663
 30
0.0
 11
858.0292233787
 21
649.5543978663
 31
0.0
  0
LINE
  5
122
330
1F
100
AcDbEntity
  8
0
  6
Continuous
 62
     7
370
    25
100
AcDbLine
 10
858.0292233787
 20
649.7543978663
 30
0.0
 11
858.0292233787
 21
649.5543978663
 31
0.0
  0
ARC
  5
123
330
1F
100
AcDbEntity
  8
0
  6
Continuous
 62
     7
370
    25
100
AcDbCircle
 10
858.0292233787
 20
649.5543978663
 30
0.0
 40
0.2000000000000455
100
AcDbArc
 50
90.0
 51
180.0
  0
LINE
  5
124
330
1F
100
AcDbEntity
  8
0
  6
Continuous
 62
     7
370
    25
100
AcDbLine
 10
858.0292233787
 20
649.7543978663
 30
0.0
 11
859.6292233787
 21
649.7543978663
 31
0.0
  0
LINE
  5
125
330
1F
100
AcDbEntity
  8
0
  6
Continuous
 62
     7
370
    25
100
AcDbLine
 10
856.9292233787
 20
2364.0543978663
 30
0.0
 11
856.9292233787
 21
2365.2543978663
 31
0.0
  0
LINE
  5
126
330
1F
100
AcDbEntity
  8
0
  6
Continuous
 62
     7
370
    25
100
AcDbLine
 10
856.1292233787
 20
2364.0543978663
 30
0.0
 11
856.9292233787
 21
2364.0543978663
 31
0.0
  0
LINE
  5
127
330
1F
100
AcDbEntity
  8
0
  6
Continuous
 62
     7
370
    25
100
AcDbLine
 10
856.1292233787
 20
2365.2543978663
 30
0.0
 11
856.9292233787
 21
2365.2543978663
 31
0.0
  0
LINE
  5
128
330
1F
100
AcDbEntity
  8
0
  6
Continuous
 62
     7
370
    25
100
AcDbLine
 10
856.9292233787
 20
2364.0543978663
 30
0.0
 11
858.1292233787
 21
2364.0543978663
 31
0.0
  0
LINE
  5
129
330
1F
100
AcDbEntity
  8
0
  6
Continuous
 62
     7
370
    25
100
AcDbLine
 10
856.9292233787
 20
2365.2543978663
 30
0.0
 11
858.1292233787
 21
2365.2543978663
 31
0.0
  0
LINE
  5
12A
330
1F
100
AcDbEntity
  8
0
  6
Continuous
 62
     7
370
    25
100
AcDbLine
 10
856.9292233787
 20
2346.2543978663
 30
0.0
 11
858.1292233787
 21
2346.2543978663
 31
0.0
  0
LINE
  5
12B
330
1F
100
AcDbEntity
  8
0
  6
Continuous
 62
     7
370
    25
100
AcDbLine
 10
856.9292233787
 20
2345.2510784443
 30
0.0
 11
856.9292233787
 21
2346.2543978663
 31
0.0
  0
LINE
  5
12C
330
1F
100
AcDbEntity
  8
0
  6
Continuous
 62
     7
370
    25
100
AcDbLine
 10
856.9292233787
 20
2346.2543978663
 30
0.0
 11
856.9292233787
 21
2364.0543978663
 31
0.0
  0
LINE
  5
12D
330
1F
100
AcDbEntity
  8
0
  6
Continuous
 62
     7
370
    25
100
AcDbLine
 10
857.6292233787
 20
1425.7103560054
 30
0.0
 11
858.1292233787
 21
1425.7103560054
 31
0.0
  0
LINE
  5
12E
330
1F
100
AcDbEntity
  8
0
  6
Continuous
 62
     7
370
    25
100
AcDbLine
 10
857.6292233787
 20
1424.1543978661
 30
0.0
 11
858.1292233787
 21
1424.1543978661
 31
0.0
  0
LINE
  5
12F
330
1F
100
AcDbEntity
  8
0
  6
Continuous
 62
     7
370
    25
100
AcDbLine
 10
857.6292233787
 20
1424.1543978661
 30
0.0
 11
857.6292233787
 21
1425.7103560054
 31
0.0
  0
LINE
  5
130
330
1F
100
AcDbEntity
  8
0
  6
Continuous
 62
     7
370
    25
100
AcDbLine
 10
858.1292233787
 20
1407.7984397272
 30
0.0
 11
857.6292233787
 21
1407.7984397272
 31
0.0
  0
LINE
  5
131
330
1F
100
AcDbEntity
  8
0
  6
Continuous
 62
     7
370
    25
100
AcDbLine
 10
857.6292233787
 20
1407.7984397272
 30
0.0
 11
857.6292233787
 21
1409.3543978665
 31
0.0
  0
LINE
  5
132
330
1F
100
AcDbEntity
  8
0
  6
Continuous
 62
     7
370
    25
100
AcDbLine
 10
858.1292233787
 20
1409.3543978665
 30
0.0
 11
857.6292233787
 21
1409.3543978665
 31
0.0
  0
LINE
  5
133
330
1F
100
AcDbEntity
  8
0
  6
Continuous
 62
     7
370
    25
100
AcDbLine
 10
857.9292233787
 20
1435.1459720241
 30
0.0
 11
857.6292233787
 21
1435.1459720241
 31
0.0
  0
LINE
  5
134
330
1F
100
AcDbEntity
  8
0
  6
Continuous
 62
     7
370
    25
100
AcDbLine
 10
858.1292233787
 20
1435.1459720241
 30
0.0
 11
857.9292233787
 21
1435.1459720241
 31
0.0
  0
LINE
  5
135
330
1F
100
AcDbEntity
  8
0
  6
Continuous
 62
     7
370
    25
100
AcDbLine
 10
857.6292233787
 20
1435.1459720241
 30
0.0
 11
857.6292233787
 21
1425.7103560054
 31
0.0
  0
LINE
  5
136
330
1F
100
AcDbEntity
  8
0
  6
Continuous
 62
     7
370
    25
100
AcDbLine
 10
857.9292233787
 20
1398.3628237086
 30
0.0
 11
858.1292233787
 21
1398.3628237086
 31
0.0
  0
LINE
  5
137
330
1F
100
AcDbEntity
  8
0
  6
Continuous
 62
     7
370
    25
100
AcDbLine
 10
857.6292233787
 20
1398.3628237086
 30
0.0
 11
857.9292233787
 21
1398.3628237086
 31
0.0
  0
LINE
  5
138
330
1F
100
AcDbEntity
  8
0
  6
Continuous
 62
     7
370
    25
100
AcDbLine
 10
857.6292233787
 20
1407.7984397272
 30
0.0
 11
857.6292233787
 21
1398.3628237086
 31
0.0
  0
SPLINE
  5
139
330
1F
100
AcDbEntity
  8
0
  6
Continuous
 62
     7
370
    25
100
AcDbSpline
210
0.0
220
0.0
230
1.0
 70
    24
 71
     3
 72
    12
 73
     8
 74
     0
 42
0.00000001
 43
0.00000001
 40
0.0
 40
0.0
 40
0.0
 40
0.0
 40
0.1234882189610423
 40
0.3047574776070375
 40
0.4857888495160458
 40
0.6670582153996489
 40
1.0
 40
1.0
 40
1.0
 40
1.0
 10
856.1292233786861
 20
1445.254397866312
 30
0.0
 10
856.1689699477225
 20
1445.254397866312
 30
0.0
 10
856.2670607957805
 20
1445.254397866312
 30
0.0
 10
856.5070340841405
 20
1445.254397866311
 30
0.0
 10
856.8226482726349
 20
1445.254397866312
 30
0.0
 10
857.2895583617345
 20
1445.254397866311
 30
0.0
 10
857.6778269619714
 20
1445.254397866313
 30
0.0
 10
857.9292233786878
 20
1445.254397866314
 30
0.0
  0
LINE
  5
13A
330
1F
100
AcDbEntity
  8
0
  6
Continuous
 62
     7
370
    25
100
AcDbLine
 10
857.9292233787
 20
1444.2543978663
 30
0.0
 11
857.9292233787
 21
1445.2543978663
 31
0.0
  0
SPLINE
  5
13B
330
1F
100
AcDbEntity
  8
0
  6
Continuous
 62
     7
370
    25
100
AcDbSpline
210
0.0
220
0.0
230
1.0
 70
    24
 71
     3
 72
    12
 73
     8
 74
     0
 42
0.00000001
 43
0.00000001
 40
0.0
 40
0.0
 40
0.0
 40
0.0
 40
0.3329369653742289
 40
0.5139656098128151
 40
0.6952322446444293
 40
0.8762609961849888
 40
1.0
 40
1.0
 40
1.0
 40
1.0
 10
857.9292233786939
 20
1388.254397866315
 30
0.0
 10
857.6778259655515
 20
1388.254397866314
 30
0.0
 10
857.2897356115535
 20
1388.254397866312
 30
0.0
 10
856.8228063418786
 20
1388.254397866312
 30
0.0
 10
856.5072874528574
 20
1388.254397866312
 30
0.0
 10
856.2671632343399
 20
1388.254397866312
 30
0.0
 10
856.1690559833293
 20
1388.254397866312
 30
0.0
 10
856.1292233786861
 20
1388.254397866312
 30
0.0
  0
LINE
  5
13C
330
1F
100
AcDbEntity
  8
0
  6
Continuous
 62
     7
370
    25
100
AcDbLine
 10
857.9292233787
 20
1389.2543978663
 30
0.0
 11
857.9292233787
 21
1388.2543978663
 31
0.0
  0
LINE
  5
13D
330
1F
100
AcDbEntity
  8
0
  6
Continuous
 62
     7
370
    25
100
AcDbLine
 10
858.1292233787
 20
1444.2543978663
 30
0.0
 11
857.9292233787
 21
1444.2543978663
 31
0.0
  0
LINE
  5
13E
330
1F
100
AcDbEntity
  8
0
  6
Continuous
 62
     7
370
    25
100
AcDbLine
 10
857.9292233787
 20
1444.2543978663
 30
0.0
 11
857.9292233787
 21
1435.1459720241
 31
0.0
  0
SPLINE
  5
13F
330
1F
100
AcDbEntity
  8
0
  6
Continuous
 62
     7
370
    25
100
AcDbSpline
210
0.0
220
0.0
230
1.0
 70
     8
 71
     3
 72
    10
 73
     6
 74
     0
 42
0.00000001
 43
0.00000001
 40
0.0
 40
0.0
 40
0.0
 40
0.0
 40
0.0371311943382235
 40
0.5486628195568978
 40
1.0
 40
1.0
 40
1.0
 40
1.0
 10
856.1292233786861
 20
1427.000162206484
 30
0.0
 10
856.1348462308991
 20
1426.993443859058
 30
0.0
 10
856.2179313566054
 20
1426.894171333437
 30
0.0
 10
856.4394873291894
 20
1426.793742420243
 30
0.0
 10
856.6707982184354
 20
1426.766954495413
 30
0.0
 10
856.7792233786902
 20
1426.754397866315
 30
0.0
  0
LINE
  5
140
330
1F
100
AcDbEntity
  8
0
  6
Continuous
 62
     7
370
    25
100
AcDbLine
 10
857.6292233787
 20
1426.7543978663
 30
0.0
 11
856.7792233787
 21
1426.7543978663
 31
0.0
  0
LINE
  5
141
330
1F
100
AcDbEntity
  8
0
  6
Continuous
 62
     7
370
    25
100
AcDbLine
 10
858.1292233787
 20
1389.2543978663
 30
0.0
 11
857.9292233787
 21
1389.2543978663
 31
0.0
  0
LINE
  5
142
330
1F
100
AcDbEntity
  8
0
  6
Continuous
 62
     7
370
    25
100
AcDbLine
 10
857.9292233787
 20
1398.3628237086
 30
0.0
 11
857.9292233787
 21
1389.2543978663
 31
0.0
  0
SPLINE
  5
143
330
1F
100
AcDbEntity
  8
0
  6
Continuous
 62
     7
370
    25
100
AcDbSpline
210
0.0
220
0.0
230
1.0
 70
     8
 71
     3
 72
     9
 73
     5
 74
     0
 42
0.00000001
 43
0.00000001
 40
0.0
 40
0.0
 40
0.0
 40
0.0
 40
0.505008126893873
 40
1.0
 40
1.0
 40
1.0
 40
1.0
 10
856.779223378692
 20
1406.754397866314
 30
0.0
 10
856.6559271068245
 20
1406.742178006931
 30
0.0
 10
856.4117800024485
 20
1406.717980654981
 30
0.0
 10
856.2227778888949
 20
1406.580904581719
 30
0.0
 10
856.129223378686
 20
1406.513053039456
 30
0.0
  0
LINE
  5
144
330
1F
100
AcDbEntity
  8
0
  6
Continuous
 62
     7
370
    25
100
AcDbLine
 10
856.7792233787
 20
1406.7543978663
 30
0.0
 11
857.6292233787
 21
1406.7543978663
 31
0.0
  0
LINE
  5
145
330
1F
100
AcDbEntity
  8
0
  6
Continuous
 62
     7
370
    25
100
AcDbLine
 10
858.1292233787
 20
1445.2543978663
 30
0.0
 11
857.9292233787
 21
1445.2543978663
 31
0.0
  0
LINE
  5
146
330
1F
100
AcDbEntity
  8
0
  6
Continuous
 62
     7
370
    25
100
AcDbLine
 10
858.1292233787
 20
1388.2543978663
 30
0.0
 11
857.9292233787
 21
1388.2543978663
 31
0.0
  0
LINE
  5
147
330
1F
100
AcDbEntity
  8
0
  6
Continuous
 62
     7
370
    25
100
AcDbLine
 10
857.6292233787
 20
2325.7103560054
 30
0.0
 11
858.1292233787
 21
2325.7103560054
 31
0.0
  0
LINE
  5
148
330
1F
100
AcDbEntity
  8
0
  6
Continuous
 62
     7
370
    25
100
AcDbLine
 10
857.6292233787
 20
2324.1543978661
 30
0.0
 11
858.1292233787
 21
2324.1543978661
 31
0.0
  0
LINE
  5
149
330
1F
100
AcDbEntity
  8
0
  6
Continuous
 62
     7
370
    25
100
AcDbLine
 10
857.6292233787
 20
2324.1543978661
 30
0.0
 11
857.6292233787
 21
2325.7103560054
 31
0.0
  0
LINE
  5
14A
330
1F
100
AcDbEntity
  8
0
  6
Continuous
 62
     7
370
    25
100
AcDbLine
 10
858.1292233787
 20
2307.7984397272
 30
0.0
 11
857.6292233787
 21
2307.7984397272
 31
0.0
  0
LINE
  5
14B
330
1F
100
AcDbEntity
  8
0
  6
Continuous
 62
     7
370
    25
100
AcDbLine
 10
857.6292233787
 20
2307.7984397272
 30
0.0
 11
857.6292233787
 21
2309.3543978665
 31
0.0
  0
LINE
  5
14C
330
1F
100
AcDbEntity
  8
0
  6
Continuous
 62
     7
370
    25
100
AcDbLine
 10
858.1292233787
 20
2309.3543978665
 30
0.0
 11
857.6292233787
 21
2309.3543978665
 31
0.0
  0
LINE
  5
14D
330
1F
100
AcDbEntity
  8
0
  6
Continuous
 62
     7
370
    25
100
AcDbLine
 10
857.9292233787
 20
2335.1459720241
 30
0.0
 11
857.6292233787
 21
2335.1459720241
 31
0.0
  0
LINE
  5
14E
330
1F
100
AcDbEntity
  8
0
  6
Continuous
 62
     7
370
    25
100
AcDbLine
 10
858.1292233787
 20
2335.1459720241
 30
0.0
 11
857.9292233787
 21
2335.1459720241
 31
0.0
  0
LINE
  5
14F
330
1F
100
AcDbEntity
  8
0
  6
Continuous
 62
     7
370
    25
100
AcDbLine
 10
857.6292233787
 20
2335.1459720241
 30
0.0
 11
857.6292233787
 21
2325.7103560054
 31
0.0
  0
LINE
  5
150
330
1F
100
AcDbEntity
  8
0
  6
Continuous
 62
     7
370
    25
100
AcDbLine
 10
857.9292233787
 20
2298.3628237086
 30
0.0
 11
858.1292233787
 21
2298.3628237086
 31
0.0
  0
LINE
  5
151
330
1F
100
AcDbEntity
  8
0
  6
Continuous
 62
     7
370
    25
100
AcDbLine
 10
857.6292233787
 20
2298.3628237086
 30
0.0
 11
857.9292233787
 21
2298.3628237086
 31
0.0
  0
LINE
  5
152
330
1F
100
AcDbEntity
  8
0
  6
Continuous
 62
     7
370
    25
100
AcDbLine
 10
857.6292233787
 20
2307.7984397272
 30
0.0
 11
857.6292233787
 21
2298.3628237086
 31
0.0
  0
SPLINE
  5
153
330
1F
100
AcDbEntity
  8
0
  6
Continuous
 62
     7
370
    25
100
AcDbSpline
210
0.0
220
0.0
230
1.0
 70
    24
 71
     3
 72
    12
 73
     8
 74
     0
 42
0.00000001
 43
0.00000001
 40
0.0
 40
0.0
 40
0.0
 40
0.0
 40
0.1234882189608299
 40
0.3047574776068523
 40
0.4857888495159228
 40
0.6670582153995686
 40
1.0
 40
1.0
 40
1.0
 40
1.0
 10
856.129223378686
 20
2345.254397866311
 30
0.0
 10
856.1689699477224
 20
2345.254397866311
 30
0.0
 10
856.2670607957803
 20
2345.254397866311
 30
0.0
 10
856.5070340841402
 20
2345.254397866311
 30
0.0
 10
856.8226482726346
 20
2345.254397866312
 30
0.0
 10
857.2895583617344
 20
2345.254397866311
 30
0.0
 10
857.6778269619714
 20
2345.254397866313
 30
0.0
 10
857.9292233786875
 20
2345.254397866315
 30
0.0
  0
LINE
  5
154
330
1F
100
AcDbEntity
  8
0
  6
Continuous
 62
     7
370
    25
100
AcDbLine
 10
857.9292233787
 20
2344.2543978663
 30
0.0
 11
857.9292233787
 21
2345.2543978663
 31
0.0
  0
SPLINE
  5
155
330
1F
100
AcDbEntity
  8
0
  6
Continuous
 62
     7
370
    25
100
AcDbSpline
210
0.0
220
0.0
230
1.0
 70
    24
 71
     3
 72
    12
 73
     8
 74
     0
 42
0.00000001
 43
0.00000001
 40
0.0
 40
0.0
 40
0.0
 40
0.0
 40
0.3329369653743111
 40
0.5139656098129417
 40
0.6952322446446
 40
0.8762609961852031
 40
1.0
 40
1.0
 40
1.0
 40
1.0
 10
857.9292233786937
 20
2288.254397866315
 30
0.0
 10
857.6778259655513
 20
2288.254397866314
 30
0.0
 10
857.2897356115534
 20
2288.254397866312
 30
0.0
 10
856.8228063418784
 20
2288.254397866312
 30
0.0
 10
856.507287452857
 20
2288.254397866312
 30
0.0
 10
856.2671632343402
 20
2288.254397866312
 30
0.0
 10
856.1690559833293
 20
2288.254397866313
 30
0.0
 10
856.129223378686
 20
2288.254397866312
 30
0.0
  0
LINE
  5
156
330
1F
100
AcDbEntity
  8
0
  6
Continuous
 62
     7
370
    25
100
AcDbLine
 10
857.9292233787
 20
2289.2543978663
 30
0.0
 11
857.9292233787
 21
2288.2543978663
 31
0.0
  0
SPLINE
  5
157
330
1F
100
AcDbEntity
  8
0
  6
Continuous
 62
     7
370
    25
100
AcDbSpline
210
0.0
220
0.0
230
1.0
 70
     8
 71
     3
 72
    10
 73
     6
 74
     0
 42
0.00000001
 43
0.00000001
 40
0.0
 40
0.0
 40
0.0
 40
0.0
 40
0.0371311943377873
 40
0.5486628195566953
 40
1.0
 40
1.0
 40
1.0
 40
1.0
 10
856.129223378686
 20
2327.000162206484
 30
0.0
 10
856.134846230899
 20
2326.993443859058
 30
0.0
 10
856.2179313566053
 20
2326.894171333437
 30
0.0
 10
856.4394873291892
 20
2326.793742420242
 30
0.0
 10
856.6707982184354
 20
2326.766954495413
 30
0.0
 10
856.77922337869
 20
2326.754397866315
 30
0.0
  0
LINE
  5
158
330
1F
100
AcDbEntity
  8
0
  6
Continuous
 62
     7
370
    25
100
AcDbLine
 10
857.9292233787
 20
2344.2543978663
 30
0.0
 11
857.9292233787
 21
2335.1459720241
 31
0.0
  0
LINE
  5
159
330
1F
100
AcDbEntity
  8
0
  6
Continuous
 62
     7
370
    25
100
AcDbLine
 10
857.6292233787
 20
2326.7543978663
 30
0.0
 11
856.7792233787
 21
2326.7543978663
 31
0.0
  0
LINE
  5
15A
330
1F
100
AcDbEntity
  8
0
  6
Continuous
 62
     7
370
    25
100
AcDbLine
 10
858.1292233787
 20
2344.2543978663
 30
0.0
 11
857.9292233787
 21
2344.2543978663
 31
0.0
  0
SPLINE
  5
15B
330
1F
100
AcDbEntity
  8
0
  6
Continuous
 62
     7
370
    25
100
AcDbSpline
210
0.0
220
0.0
230
1.0
 70
     8
 71
     3
 72
     9
 73
     5
 74
     0
 42
0.00000001
 43
0.00000001
 40
0.0
 40
0.0
 40
0.0
 40
0.0
 40
0.5050081268940563
 40
1.0
 40
1.0
 40
1.0
 40
1.0
 10
856.7792233786918
 20
2306.754397866315
 30
0.0
 10
856.6559271068244
 20
2306.742178006931
 30
0.0
 10
856.4117800024485
 20
2306.71798065498
 30
0.0
 10
856.2227778888949
 20
2306.580904581718
 30
0.0
 10
856.1292233786861
 20
2306.513053039457
 30
0.0
  0
LINE
  5
15C
330
1F
100
AcDbEntity
  8
0
  6
Continuous
 62
     7
370
    25
100
AcDbLine
 10
857.9292233787
 20
2298.3628237086
 30
0.0
 11
857.9292233787
 21
2289.2543978663
 31
0.0
  0
LINE
  5
15D
330
1F
100
AcDbEntity
  8
0
  6
Continuous
 62
     7
370
    25
100
AcDbLine
 10
856.7792233787
 20
2306.7543978663
 30
0.0
 11
857.6292233787
 21
2306.7543978663
 31
0.0
  0
LINE
  5
15E
330
1F
100
AcDbEntity
  8
0
  6
Continuous
 62
     7
370
    25
100
AcDbLine
 10
858.1292233787
 20
2289.2543978663
 30
0.0
 11
857.9292233787
 21
2289.2543978663
 31
0.0
  0
LINE
  5
15F
330
1F
100
AcDbEntity
  8
0
  6
Continuous
 62
     7
370
    25
100
AcDbLine
 10
858.1292233787
 20
2345.2543978663
 30
0.0
 11
857.9292233787
 21
2345.2543978663
 31
0.0
  0
LINE
  5
160
330
1F
100
AcDbEntity
  8
0
  6
Continuous
 62
     7
370
    25
100
AcDbLine
 10
858.1292233787
 20
2288.2543978663
 30
0.0
 11
857.9292233787
 21
2288.2543978663
 31
0.0
  0
LINE
  5
161
330
1F
100
AcDbEntity
  8
0
  6
Continuous
 62
     7
370
    25
100
AcDbLine
 10
857.6292233787
 20
705.7103560054
 30
0.0
 11
858.1292233787
 21
705.7103560054
 31
0.0
  0
LINE
  5
162
330
1F
100
AcDbEntity
  8
0
  6
Continuous
 62
     7
370
    25
100
AcDbLine
 10
857.6292233787
 20
704.1543978661
 30
0.0
 11
858.1292233787
 21
704.1543978661
 31
0.0
  0
LINE
  5
163
330
1F
100
AcDbEntity
  8
0
  6
Continuous
 62
     7
370
    25
100
AcDbLine
 10
857.6292233787
 20
704.1543978661
 30
0.0
 11
857.6292233787
 21
705.7103560054
 31
0.0
  0
LINE
  5
164
330
1F
100
AcDbEntity
  8
0
  6
Continuous
 62
     7
370
    25
100
AcDbLine
 10
858.1292233787
 20
687.7984397272
 30
0.0
 11
857.6292233787
 21
687.7984397272
 31
0.0
  0
LINE
  5
165
330
1F
100
AcDbEntity
  8
0
  6
Continuous
 62
     7
370
    25
100
AcDbLine
 10
857.6292233787
 20
687.7984397272
 30
0.0
 11
857.6292233787
 21
689.3543978665
 31
0.0
  0
LINE
  5
166
330
1F
100
AcDbEntity
  8
0
  6
Continuous
 62
     7
370
    25
100
AcDbLine
 10
858.1292233787
 20
689.3543978665
 30
0.0
 11
857.6292233787
 21
689.3543978665
 31
0.0
  0
LINE
  5
167
330
1F
100
AcDbEntity
  8
0
  6
Continuous
 62
     7
370
    25
100
AcDbLine
 10
857.9292233787
 20
715.1459720241
 30
0.0
 11
857.6292233787
 21
715.1459720241
 31
0.0
  0
LINE
  5
168
330
1F
100
AcDbEntity
  8
0
  6
Continuous
 62
     7
370
    25
100
AcDbLine
 10
858.1292233787
 20
715.1459720241
 30
0.0
 11
857.9292233787
 21
715.1459720241
 31
0.0
  0
LINE
  5
169
330
1F
100
AcDbEntity
  8
0
  6
Continuous
 62
     7
370
    25
100
AcDbLine
 10
857.6292233787
 20
715.1459720241
 30
0.0
 11
857.6292233787
 21
705.7103560054
 31
0.0
  0
LINE
  5
16A
330
1F
100
AcDbEntity
  8
0
  6
Continuous
 62
     7
370
    25
100
AcDbLine
 10
857.9292233787
 20
678.3628237086
 30
0.0
 11
858.1292233787
 21
678.3628237086
 31
0.0
  0
LINE
  5
16B
330
1F
100
AcDbEntity
  8
0
  6
Continuous
 62
     7
370
    25
100
AcDbLine
 10
857.6292233787
 20
678.3628237086
 30
0.0
 11
857.9292233787
 21
678.3628237086
 31
0.0
  0
LINE
  5
16C
330
1F
100
AcDbEntity
  8
0
  6
Continuous
 62
     7
370
    25
100
AcDbLine
 10
857.6292233787
 20
687.7984397272
 30
0.0
 11
857.6292233787
 21
678.3628237086
 31
0.0
  0
SPLINE
  5
16D
330
1F
100
AcDbEntity
  8
0
  6
Continuous
 62
     7
370
    25
100
AcDbSpline
210
0.0
220
0.0
230
1.0
 70
    24
 71
     3
 72
    12
 73
     8
 74
     0
 42
0.00000001
 43
0.00000001
 40
0.0
 40
0.0
 40
0.0
 40
0.0
 40
0.1234882189610426
 40
0.3047574776070383
 40
0.4857888495160469
 40
0.6670582153996724
 40
1.0
 40
1.0
 40
1.0
 40
1.0
 10
856.129223378686
 20
725.2543978663113
 30
0.0
 10
856.1689699477224
 20
725.2543978663113
 30
0.0
 10
856.2670607957805
 20
725.2543978663113
 30
0.0
 10
856.5070340841405
 20
725.2543978663113
 30
0.0
 10
856.8226482726349
 20
725.2543978663113
 30
0.0
 10
857.2895583617345
 20
725.2543978663108
 30
0.0
 10
857.6778269619716
 20
725.2543978663128
 30
0.0
 10
857.9292233786878
 20
725.2543978663142
 30
0.0
  0
LINE
  5
16E
330
1F
100
AcDbEntity
  8
0
  6
Continuous
 62
     7
370
    25
100
AcDbLine
 10
857.9292233787
 20
724.2543978663
 30
0.0
 11
857.9292233787
 21
725.2543978663
 31
0.0
  0
SPLINE
  5
16F
330
1F
100
AcDbEntity
  8
0
  6
Continuous
 62
     7
370
    25
100
AcDbSpline
210
0.0
220
0.0
230
1.0
 70
    24
 71
     3
 72
    12
 73
     8
 74
     0
 42
0.00000001
 43
0.00000001
 40
0.0
 40
0.0
 40
0.0
 40
0.0
 40
0.332936965374229
 40
0.513965609812816
 40
0.6952322446444302
 40
0.8762609961849886
 40
1.0
 40
1.0
 40
1.0
 40
1.0
 10
857.9292233786939
 20
668.2543978663151
 30
0.0
 10
857.6778259655515
 20
668.2543978663138
 30
0.0
 10
857.2897356115536
 20
668.2543978663116
 30
0.0
 10
856.8228063418786
 20
668.2543978663122
 30
0.0
 10
856.5072874528574
 20
668.254397866312
 30
0.0
 10
856.2671632343403
 20
668.254397866312
 30
0.0
 10
856.1690559833293
 20
668.254397866312
 30
0.0
 10
856.129223378686
 20
668.254397866312
 30
0.0
  0
LINE
  5
170
330
1F
100
AcDbEntity
  8
0
  6
Continuous
 62
     7
370
    25
100
AcDbLine
 10
857.9292233787
 20
669.2543978663
 30
0.0
 11
857.9292233787
 21
668.2543978663
 31
0.0
  0
LINE
  5
171
330
1F
100
AcDbEntity
  8
0
  6
Continuous
 62
     7
370
    25
100
AcDbLine
 10
858.1292233787
 20
724.2543978663
 30
0.0
 11
857.9292233787
 21
724.2543978663
 31
0.0
  0
LINE
  5
172
330
1F
100
AcDbEntity
  8
0
  6
Continuous
 62
     7
370
    25
100
AcDbLine
 10
857.9292233787
 20
724.2543978663
 30
0.0
 11
857.9292233787
 21
715.1459720241
 31
0.0
  0
SPLINE
  5
173
330
1F
100
AcDbEntity
  8
0
  6
Continuous
 62
     7
370
    25
100
AcDbSpline
210
0.0
220
0.0
230
1.0
 70
     8
 71
     3
 72
    10
 73
     6
 74
     0
 42
0.00000001
 43
0.00000001
 40
0.0
 40
0.0
 40
0.0
 40
0.0
 40
0.0371311943382571
 40
0.5486628195569155
 40
1.0
 40
1.0
 40
1.0
 40
1.0
 10
856.129223378686
 20
707.0001622064837
 30
0.0
 10
856.1348462308991
 20
706.9934438590581
 30
0.0
 10
856.2179313566055
 20
706.8941713334367
 30
0.0
 10
856.4394873291894
 20
706.7937424202428
 30
0.0
 10
856.6707982184356
 20
706.7669544954127
 30
0.0
 10
856.7792233786903
 20
706.7543978663147
 30
0.0
  0
LINE
  5
174
330
1F
100
AcDbEntity
  8
0
  6
Continuous
 62
     7
370
    25
100
AcDbLine
 10
857.6292233787
 20
706.7543978663
 30
0.0
 11
856.7792233787
 21
706.7543978663
 31
0.0
  0
SPLINE
  5
175
330
1F
100
AcDbEntity
  8
0
  6
Continuous
 62
     7
370
    25
100
AcDbSpline
210
0.0
220
0.0
230
1.0
 70
     8
 71
     3
 72
     9
 73
     5
 74
     0
 42
0.00000001
 43
0.00000001
 40
0.0
 40
0.0
 40
0.0
 40
0.0
 40
0.5050081268938602
 40
1.0
 40
1.0
 40
1.0
 40
1.0
 10
856.779223378692
 20
686.7543978663142
 30
0.0
 10
856.6559271068245
 20
686.7421780069303
 30
0.0
 10
856.4117800024486
 20
686.7179806549808
 30
0.0
 10
856.222777888895
 20
686.5809045817182
 30
0.0
 10
856.1292233786861
 20
686.5130530394559
 30
0.0
  0
LINE
  5
176
330
1F
100
AcDbEntity
  8
0
  6
Continuous
 62
     7
370
    25
100
AcDbLine
 10
857.9292233787
 20
678.3628237086
 30
0.0
 11
857.9292233787
 21
669.2543978663
 31
0.0
  0
LINE
  5
177
330
1F
100
AcDbEntity
  8
0
  6
Continuous
 62
     7
370
    25
100
AcDbLine
 10
856.7792233787
 20
686.7543978663
 30
0.0
 11
857.6292233787
 21
686.7543978663
 31
0.0
  0
LINE
  5
178
330
1F
100
AcDbEntity
  8
0
  6
Continuous
 62
     7
370
    25
100
AcDbLine
 10
858.1292233787
 20
669.2543978663
 30
0.0
 11
857.9292233787
 21
669.2543978663
 31
0.0
  0
LINE
  5
179
330
1F
100
AcDbEntity
  8
0
  6
Continuous
 62
     7
370
    25
100
AcDbLine
 10
858.1292233787
 20
725.2543978663
 30
0.0
 11
857.9292233787
 21
725.2543978663
 31
0.0
  0
LINE
  5
17A
330
1F
100
AcDbEntity
  8
0
  6
Continuous
 62
     7
370
    25
100
AcDbLine
 10
858.1292233787
 20
668.2543978663
 30
0.0
 11
857.9292233787
 21
668.2543978663
 31
0.0
  0
LINE
  5
17B
330
1F
100
AcDbEntity
  8
0
  6
Continuous
 62
     7
370
    25
100
AcDbLine
 10
857.6292233787
 20
1955.7103560054
 30
0.0
 11
858.1292233787
 21
1955.7103560054
 31
0.0
  0
LINE
  5
17C
330
1F
100
AcDbEntity
  8
0
  6
Continuous
 62
     7
370
    25
100
AcDbLine
 10
857.6292233787
 20
1954.1543978661
 30
0.0
 11
858.1292233787
 21
1954.1543978661
 31
0.0
  0
LINE
  5
17D
330
1F
100
AcDbEntity
  8
0
  6
Continuous
 62
     7
370
    25
100
AcDbLine
 10
857.6292233787
 20
1954.1543978661
 30
0.0
 11
857.6292233787
 21
1955.7103560054
 31
0.0
  0
LINE
  5
17E
330
1F
100
AcDbEntity
  8
0
  6
Continuous
 62
     7
370
    25
100
AcDbLine
 10
858.1292233787
 20
1937.7984397272
 30
0.0
 11
857.6292233787
 21
1937.7984397272
 31
0.0
  0
LINE
  5
17F
330
1F
100
AcDbEntity
  8
0
  6
Continuous
 62
     7
370
    25
100
AcDbLine
 10
857.6292233787
 20
1937.7984397272
 30
0.0
 11
857.6292233787
 21
1939.3543978665
 31
0.0
  0
LINE
  5
180
330
1F
100
AcDbEntity
  8
0
  6
Continuous
 62
     7
370
    25
100
AcDbLine
 10
858.1292233787
 20
1939.3543978665
 30
0.0
 11
857.6292233787
 21
1939.3543978665
 31
0.0
  0
LINE
  5
181
330
1F
100
AcDbEntity
  8
0
  6
Continuous
 62
     7
370
    25
100
AcDbLine
 10
857.9292233787
 20
1965.1459720241
 30
0.0
 11
857.6292233787
 21
1965.1459720241
 31
0.0
  0
LINE
  5
182
330
1F
100
AcDbEntity
  8
0
  6
Continuous
 62
     7
370
    25
100
AcDbLine
 10
858.1292233787
 20
1965.1459720241
 30
0.0
 11
857.9292233787
 21
1965.1459720241
 31
0.0
  0
LINE
  5
183
330
1F
100
AcDbEntity
  8
0
  6
Continuous
 62
     7
370
    25
100
AcDbLine
 10
857.6292233787
 20
1965.1459720241
 30
0.0
 11
857.6292233787
 21
1955.7103560054
 31
0.0
  0
LINE
  5
184
330
1F
100
AcDbEntity
  8
0
  6
Continuous
 62
     7
370
    25
100
AcDbLine
 10
857.9292233787
 20
1928.3628237086
 30
0.0
 11
858.1292233787
 21
1928.3628237086
 31
0.0
  0
LINE
  5
185
330
1F
100
AcDbEntity
  8
0
  6
Continuous
 62
     7
370
    25
100
AcDbLine
 10
857.6292233787
 20
1928.3628237086
 30
0.0
 11
857.9292233787
 21
1928.3628237086
 31
0.0
  0
LINE
  5
186
330
1F
100
AcDbEntity
  8
0
  6
Continuous
 62
     7
370
    25
100
AcDbLine
 10
857.6292233787
 20
1937.7984397272
 30
0.0
 11
857.6292233787
 21
1928.3628237086
 31
0.0
  0
SPLINE
  5
187
330
1F
100
AcDbEntity
  8
0
  6
Continuous
 62
     7
370
    25
100
AcDbSpline
210
0.0
220
0.0
230
1.0
 70
    24
 71
     3
 72
    12
 73
     8
 74
     0
 42
0.00000001
 43
0.00000001
 40
0.0
 40
0.0
 40
0.0
 40
0.0
 40
0.1234882189610423
 40
0.3047574776070375
 40
0.4857888495160458
 40
0.6670582153996489
 40
1.0
 40
1.0
 40
1.0
 40
1.0
 10
856.1292233786861
 20
1975.254397866312
 30
0.0
 10
856.1689699477225
 20
1975.254397866312
 30
0.0
 10
856.2670607957805
 20
1975.254397866312
 30
0.0
 10
856.5070340841405
 20
1975.254397866311
 30
0.0
 10
856.8226482726349
 20
1975.254397866312
 30
0.0
 10
857.2895583617345
 20
1975.254397866311
 30
0.0
 10
857.6778269619714
 20
1975.254397866313
 30
0.0
 10
857.9292233786878
 20
1975.254397866314
 30
0.0
  0
LINE
  5
188
330
1F
100
AcDbEntity
  8
0
  6
Continuous
 62
     7
370
    25
100
AcDbLine
 10
857.9292233787
 20
1974.2543978663
 30
0.0
 11
857.9292233787
 21
1975.2543978663
 31
0.0
  0
SPLINE
  5
189
330
1F
100
AcDbEntity
  8
0
  6
Continuous
 62
     7
370
    25
100
AcDbSpline
210
0.0
220
0.0
230
1.0
 70
    24
 71
     3
 72
    12
 73
     8
 74
     0
 42
0.00000001
 43
0.00000001
 40
0.0
 40
0.0
 40
0.0
 40
0.0
 40
0.3329369653742427
 40
0.5139656098128363
 40
0.695232244644458
 40
0.876260996185025
 40
1.0
 40
1.0
 40
1.0
 40
1.0
 10
857.9292233786939
 20
1918.254397866315
 30
0.0
 10
857.6778259655515
 20
1918.254397866314
 30
0.0
 10
857.2897356115536
 20
1918.254397866312
 30
0.0
 10
856.8228063418786
 20
1918.254397866312
 30
0.0
 10
856.5072874528574
 20
1918.254397866312
 30
0.0
 10
856.2671632343399
 20
1918.254397866312
 30
0.0
 10
856.1690559833293
 20
1918.254397866312
 30
0.0
 10
856.1292233786861
 20
1918.254397866312
 30
0.0
  0
LINE
  5
18A
330
1F
100
AcDbEntity
  8
0
  6
Continuous
 62
     7
370
    25
100
AcDbLine
 10
857.9292233787
 20
1919.2543978663
 30
0.0
 11
857.9292233787
 21
1918.2543978663
 31
0.0
  0
LINE
  5
18B
330
1F
100
AcDbEntity
  8
0
  6
Continuous
 62
     7
370
    25
100
AcDbLine
 10
858.1292233787
 20
1974.2543978663
 30
0.0
 11
857.9292233787
 21
1974.2543978663
 31
0.0
  0
LINE
  5
18C
330
1F
100
AcDbEntity
  8
0
  6
Continuous
 62
     7
370
    25
100
AcDbLine
 10
857.9292233787
 20
1974.2543978663
 30
0.0
 11
857.9292233787
 21
1965.1459720241
 31
0.0
  0
SPLINE
  5
18D
330
1F
100
AcDbEntity
  8
0
  6
Continuous
 62
     7
370
    25
100
AcDbSpline
210
0.0
220
0.0
230
1.0
 70
     8
 71
     3
 72
    10
 73
     6
 74
     0
 42
0.00000001
 43
0.00000001
 40
0.0
 40
0.0
 40
0.0
 40
0.0
 40
0.0371311943382235
 40
0.5486628195568998
 40
1.0
 40
1.0
 40
1.0
 40
1.0
 10
856.129223378686
 20
1957.000162206484
 30
0.0
 10
856.1348462308991
 20
1956.993443859058
 30
0.0
 10
856.2179313566053
 20
1956.894171333437
 30
0.0
 10
856.4394873291894
 20
1956.793742420242
 30
0.0
 10
856.6707982184356
 20
1956.766954495413
 30
0.0
 10
856.7792233786902
 20
1956.754397866315
 30
0.0
  0
LINE
  5
18E
330
1F
100
AcDbEntity
  8
0
  6
Continuous
 62
     7
370
    25
100
AcDbLine
 10
857.6292233787
 20
1956.7543978663
 30
0.0
 11
856.7792233787
 21
1956.7543978663
 31
0.0
  0
LINE
  5
18F
330
1F
100
AcDbEntity
  8
0
  6
Continuous
 62
     7
370
    25
100
AcDbLine
 10
858.1292233787
 20
1919.2543978663
 30
0.0
 11
857.9292233787
 21
1919.2543978663
 31
0.0
  0
LINE
  5
190
330
1F
100
AcDbEntity
  8
0
  6
Continuous
 62
     7
370
    25
100
AcDbLine
 10
857.9292233787
 20
1928.3628237086
 30
0.0
 11
857.9292233787
 21
1919.2543978663
 31
0.0
  0
SPLINE
  5
191
330
1F
100
AcDbEntity
  8
0
  6
Continuous
 62
     7
370
    25
100
AcDbSpline
210
0.0
220
0.0
230
1.0
 70
     8
 71
     3
 72
     9
 73
     5
 74
     0
 42
0.00000001
 43
0.00000001
 40
0.0
 40
0.0
 40
0.0
 40
0.0
 40
0.5050081268938427
 40
1.0
 40
1.0
 40
1.0
 40
1.0
 10
856.779223378692
 20
1936.754397866314
 30
0.0
 10
856.6559271068245
 20
1936.742178006931
 30
0.0
 10
856.4117800024486
 20
1936.717980654981
 30
0.0
 10
856.2227778888949
 20
1936.580904581718
 30
0.0
 10
856.129223378686
 20
1936.513053039456
 30
0.0
  0
LINE
  5
192
330
1F
100
AcDbEntity
  8
0
  6
Continuous
 62
     7
370
    25
100
AcDbLine
 10
856.7792233787
 20
1936.7543978663
 30
0.0
 11
857.6292233787
 21
1936.7543978663
 31
0.0
  0
LINE
  5
193
330
1F
100
AcDbEntity
  8
0
  6
Continuous
 62
     7
370
    25
100
AcDbLine
 10
858.1292233787
 20
1975.2543978663
 30
0.0
 11
857.9292233787
 21
1975.2543978663
 31
0.0
  0
LINE
  5
194
330
1F
100
AcDbEntity
  8
0
  6
Continuous
 62
     7
370
    25
100
AcDbLine
 10
858.1292233787
 20
1918.2543978663
 30
0.0
 11
857.9292233787
 21
1918.2543978663
 31
0.0
  0
LINE
  5
195
330
1F
100
AcDbEntity
  8
0
  6
Continuous
 62
     7
370
    25
100
AcDbLine
 10
856.2640384536
 20
1425.1293978663
 30
0.0
 11
856.2640384536
 21
1424.2043978663
 31
0.0
  0
LINE
  5
196
330
1F
100
AcDbEntity
  8
0
  6
Continuous
 62
     7
370
    25
100
AcDbLine
 10
856.2640384536
 20
1409.3043978663
 30
0.0
 11
856.2640384536
 21
1408.3793978663
 31
0.0
  0
LINE
  5
197
330
1F
100
AcDbEntity
  8
0
  6
Continuous
 62
     7
370
    25
100
AcDbLine
 10
856.2640384536
 20
1408.3793978663
 30
0.0
 11
856.1292233787
 21
1408.3793978663
 31
0.0
  0
LINE
  5
198
330
1F
100
AcDbEntity
  8
0
  6
Continuous
 62
     7
370
    25
100
AcDbLine
 10
856.1292233787
 20
1425.1293978663
 30
0.0
 11
856.2640384536
 21
1425.1293978663
 31
0.0
  0
LINE
  5
199
330
1F
100
AcDbEntity
  8
0
  6
Continuous
 62
     7
370
    25
100
AcDbLine
 10
857.6292233787
 20
1408.3793978663
 30
0.0
 11
856.2640384536
 21
1408.3793978663
 31
0.0
  0
LINE
  5
19A
330
1F
100
AcDbEntity
  8
0
  6
Continuous
 62
     7
370
    25
100
AcDbLine
 10
856.2640384536
 20
1425.1293978663
 30
0.0
 11
857.6292233787
 21
1425.1293978663
 31
0.0
  0
LINE
  5
19B
330
1F
100
AcDbEntity
  8
0
  6
Continuous
 62
     7
370
    25
100
AcDbLine
 10
856.2640384536
 20
1955.1293978663
 30
0.0
 11
856.2640384536
 21
1954.2043978663
 31
0.0
  0
LINE
  5
19C
330
1F
100
AcDbEntity
  8
0
  6
Continuous
 62
     7
370
    25
100
AcDbLine
 10
856.2640384536
 20
1939.3043978663
 30
0.0
 11
856.2640384536
 21
1938.3793978663
 31
0.0
  0
LINE
  5
19D
330
1F
100
AcDbEntity
  8
0
  6
Continuous
 62
     7
370
    25
100
AcDbLine
 10
856.2640384536
 20
1938.3793978663
 30
0.0
 11
856.1292233787
 21
1938.3793978663
 31
0.0
  0
LINE
  5
19E
330
1F
100
AcDbEntity
  8
0
  6
Continuous
 62
     7
370
    25
100
AcDbLine
 10
856.1292233787
 20
1955.1293978663
 30
0.0
 11
856.2640384536
 21
1955.1293978663
 31
0.0
  0
LINE
  5
19F
330
1F
100
AcDbEntity
  8
0
  6
Continuous
 62
     7
370
    25
100
AcDbLine
 10
857.6292233787
 20
1938.3793978663
 30
0.0
 11
856.2640384536
 21
1938.3793978663
 31
0.0
  0
LINE
  5
1A0
330
1F
100
AcDbEntity
  8
0
  6
Continuous
 62
     7
370
    25
100
AcDbLine
 10
856.2640384536
 20
1955.1293978663
 30
0.0
 11
857.6292233787
 21
1955.1293978663
 31
0.0
  0
LINE
  5
1A1
330
1F
100
AcDbEntity
  8
0
  6
Continuous
 62
     7
370
    25
100
AcDbLine
 10
856.2640384536
 20
705.1293978663
 30
0.0
 11
856.2640384536
 21
704.2043978663
 31
0.0
  0
LINE
  5
1A2
330
1F
100
AcDbEntity
  8
0
  6
Continuous
 62
     7
370
    25
100
AcDbLine
 10
856.2640384536
 20
689.3043978663
 30
0.0
 11
856.2640384536
 21
688.3793978663
 31
0.0
  0
LINE
  5
1A3
330
1F
100
AcDbEntity
  8
0
  6
Continuous
 62
     7
370
    25
100
AcDbLine
 10
856.2640384536
 20
688.3793978663
 30
0.0
 11
856.1292233787
 21
688.3793978663
 31
0.0
  0
LINE
  5
1A4
330
1F
100
AcDbEntity
  8
0
  6
Continuous
 62
     7
370
    25
100
AcDbLine
 10
856.1292233787
 20
705.1293978663
 30
0.0
 11
856.2640384536
 21
705.1293978663
 31
0.0
  0
LINE
  5
1A5
330
1F
100
AcDbEntity
  8
0
  6
Continuous
 62
     7
370
    25
100
AcDbLine
 10
857.6292233787
 20
688.3793978663
 30
0.0
 11
856.2640384536
 21
688.3793978663
 31
0.0
  0
LINE
  5
1A6
330
1F
100
AcDbEntity
  8
0
  6
Continuous
 62
     7
370
    25
100
AcDbLine
 10
856.2640384536
 20
705.1293978663
 30
0.0
 11
857.6292233787
 21
705.1293978663
 31
0.0
  0
LINE
  5
1A7
330
1F
100
AcDbEntity
  8
0
  6
Continuous
 62
     7
370
    25
100
AcDbLine
 10
856.2640384536
 20
2325.1293978663
 30
0.0
 11
856.2640384536
 21
2324.2043978663
 31
0.0
  0
LINE
  5
1A8
330
1F
100
AcDbEntity
  8
0
  6
Continuous
 62
     7
370
    25
100
AcDbLine
 10
856.2640384536
 20
2309.3043978663
 30
0.0
 11
856.2640384536
 21
2308.3793978663
 31
0.0
  0
LINE
  5
1A9
330
1F
100
AcDbEntity
  8
0
  6
Continuous
 62
     7
370
    25
100
AcDbLine
 10
856.2640384536
 20
2308.3793978663
 30
0.0
 11
856.1292233787
 21
2308.3793978663
 31
0.0
  0
LINE
  5
1AA
330
1F
100
AcDbEntity
  8
0
  6
Continuous
 62
     7
370
    25
100
AcDbLine
 10
856.1292233787
 20
2325.1293978663
 30
0.0
 11
856.2640384536
 21
2325.1293978663
 31
0.0
  0
LINE
  5
1AB
330
1F
100
AcDbEntity
  8
0
  6
Continuous
 62
     7
370
    25
100
AcDbLine
 10
857.6292233787
 20
2308.3793978663
 30
0.0
 11
856.2640384536
 21
2308.3793978663
 31
0.0
  0
LINE
  5
1AC
330
1F
100
AcDbEntity
  8
0
  6
Continuous
 62
     7
370
    25
100
AcDbLine
 10
856.2640384536
 20
2325.1293978663
 30
0.0
 11
857.6292233787
 21
2325.1293978663
 31
0.0
  0
LINE
  5
1AD
330
1F
100
AcDbEntity
  8
0
  6
Continuous
 62
     7
370
    25
100
AcDbLine
 10
856.1292233787
 20
1423.2543978663
 30
0.0
 11
858.1292233787
 21
1423.2543978663
 31
0.0
  0
LINE
  5
1AE
330
1F
100
AcDbEntity
  8
0
  6
Continuous
 62
     7
370
    25
100
AcDbLine
 10
858.1292233787
 20
1410.2543978663
 30
0.0
 11
856.1292233787
 21
1410.2543978663
 31
0.0
  0
LINE
  5
1AF
330
1F
100
AcDbEntity
  8
0
  6
Continuous
 62
     7
370
    25
100
AcDbLine
 10
856.8579408335
 20
1409.3043978663
 30
0.0
 11
856.8579408335
 21
1410.2543978663
 31
0.0
  0
LINE
  5
1B0
330
1F
100
AcDbEntity
  8
0
  6
Continuous
 62
     7
370
    25
100
AcDbLine
 10
856.8579408335
 20
1423.2543978663
 30
0.0
 11
856.8579408335
 21
1424.2043978663
 31
0.0
  0
LINE
  5
1B1
330
1F
100
AcDbEntity
  8
0
  6
Continuous
 62
     7
370
    25
100
AcDbLine
 10
856.8579408335
 20
1409.3043978663
 30
0.0
 11
856.1292233787
 21
1409.3043978663
 31
0.0
  0
LINE
  5
1B2
330
1F
100
AcDbEntity
  8
0
  6
Continuous
 62
     7
370
    25
100
AcDbLine
 10
856.8579408335
 20
1424.2043978663
 30
0.0
 11
856.1292233787
 21
1424.2043978663
 31
0.0
  0
LINE
  5
1B3
330
1F
100
AcDbEntity
  8
0
  6
Continuous
 62
     7
370
    25
100
AcDbLine
 10
856.9193103291
 20
1409.3043978663
 30
0.0
 11
856.9193103291
 21
1410.2543978663
 31
0.0
  0
LINE
  5
1B4
330
1F
100
AcDbEntity
  8
0
  6
Continuous
 62
     7
370
    25
100
AcDbLine
 10
856.9193103291
 20
1423.2543978663
 30
0.0
 11
856.9193103291
 21
1424.2043978663
 31
0.0
  0
LINE
  5
1B5
330
1F
100
AcDbEntity
  8
0
  6
Continuous
 62
     7
370
    25
100
AcDbLine
 10
856.9193103291
 20
1409.3043978663
 30
0.0
 11
856.8579408335
 21
1409.3043978663
 31
0.0
  0
LINE
  5
1B6
330
1F
100
AcDbEntity
  8
0
  6
Continuous
 62
     7
370
    25
100
AcDbLine
 10
856.9193103291
 20
1424.2043978663
 30
0.0
 11
856.8579408335
 21
1424.2043978663
 31
0.0
  0
LINE
  5
1B7
330
1F
100
AcDbEntity
  8
0
  6
Continuous
 62
     7
370
    25
100
AcDbLine
 10
856.1292233787
 20
1953.2543978663
 30
0.0
 11
858.1292233787
 21
1953.2543978663
 31
0.0
  0
LINE
  5
1B8
330
1F
100
AcDbEntity
  8
0
  6
Continuous
 62
     7
370
    25
100
AcDbLine
 10
858.1292233787
 20
1940.2543978663
 30
0.0
 11
856.1292233787
 21
1940.2543978663
 31
0.0
  0
LINE
  5
1B9
330
1F
100
AcDbEntity
  8
0
  6
Continuous
 62
     7
370
    25
100
AcDbLine
 10
856.8579408335
 20
1939.3043978663
 30
0.0
 11
856.8579408335
 21
1940.2543978663
 31
0.0
  0
LINE
  5
1BA
330
1F
100
AcDbEntity
  8
0
  6
Continuous
 62
     7
370
    25
100
AcDbLine
 10
856.8579408335
 20
1953.2543978663
 30
0.0
 11
856.8579408335
 21
1954.2043978663
 31
0.0
  0
LINE
  5
1BB
330
1F
100
AcDbEntity
  8
0
  6
Continuous
 62
     7
370
    25
100
AcDbLine
 10
856.8579408335
 20
1939.3043978663
 30
0.0
 11
856.1292233787
 21
1939.3043978663
 31
0.0
  0
LINE
  5
1BC
330
1F
100
AcDbEntity
  8
0
  6
Continuous
 62
     7
370
    25
100
AcDbLine
 10
856.8579408335
 20
1954.2043978663
 30
0.0
 11
856.1292233787
 21
1954.2043978663
 31
0.0
  0
LINE
  5
1BD
330
1F
100
AcDbEntity
  8
0
  6
Continuous
 62
     7
370
    25
100
AcDbLine
 10
856.9193103291
 20
1939.3043978663
 30
0.0
 11
856.9193103291
 21
1940.2543978663
 31
0.0
  0
LINE
  5
1BE
330
1F
100
AcDbEntity
  8
0
  6
Continuous
 62
     7
370
    25
100
AcDbLine
 10
856.9193103291
 20
1953.2543978663
 30
0.0
 11
856.9193103291
 21
1954.2043978663
 31
0.0
  0
LINE
  5
1BF
330
1F
100
AcDbEntity
  8
0
  6
Continuous
 62
     7
370
    25
100
AcDbLine
 10
856.9193103291
 20
1939.3043978663
 30
0.0
 11
856.8579408335
 21
1939.3043978663
 31
0.0
  0
LINE
  5
1C0
330
1F
100
AcDbEntity
  8
0
  6
Continuous
 62
     7
370
    25
100
AcDbLine
 10
856.9193103291
 20
1954.2043978663
 30
0.0
 11
856.8579408335
 21
1954.2043978663
 31
0.0
  0
LINE
  5
1C1
330
1F
100
AcDbEntity
  8
0
  6
Continuous
 62
     7
370
    25
100
AcDbLine
 10
856.1292233787
 20
2323.2543978663
 30
0.0
 11
858.1292233787
 21
2323.2543978663
 31
0.0
  0
LINE
  5
1C2
330
1F
100
AcDbEntity
  8
0
  6
Continuous
 62
     7
370
    25
100
AcDbLine
 10
858.1292233787
 20
2310.2543978663
 30
0.0
 11
856.1292233787
 21
2310.2543978663
 31
0.0
  0
LINE
  5
1C3
330
1F
100
AcDbEntity
  8
0
  6
Continuous
 62
     7
370
    25
100
AcDbLine
 10
856.8579408335
 20
2309.3043978663
 30
0.0
 11
856.8579408335
 21
2310.2543978663
 31
0.0
  0
LINE
  5
1C4
330
1F
100
AcDbEntity
  8
0
  6
Continuous
 62
     7
370
    25
100
AcDbLine
 10
856.8579408335
 20
2323.2543978663
 30
0.0
 11
856.8579408335
 21
2324.2043978663
 31
0.0
  0
LINE
  5
1C5
330
1F
100
AcDbEntity
  8
0
  6
Continuous
 62
     7
370
    25
100
AcDbLine
 10
856.8579408335
 20
2309.3043978663
 30
0.0
 11
856.1292233787
 21
2309.3043978663
 31
0.0
  0
LINE
  5
1C6
330
1F
100
AcDbEntity
  8
0
  6
Continuous
 62
     7
370
    25
100
AcDbLine
 10
856.8579408335
 20
2324.2043978663
 30
0.0
 11
856.1292233787
 21
2324.2043978663
 31
0.0
  0
LINE
  5
1C7
330
1F
100
AcDbEntity
  8
0
  6
Continuous
 62
     7
370
    25
100
AcDbLine
 10
856.9193103291
 20
2309.3043978663
 30
0.0
 11
856.9193103291
 21
2310.2543978663
 31
0.0
  0
LINE
  5
1C8
330
1F
100
AcDbEntity
  8
0
  6
Continuous
 62
     7
370
    25
100
AcDbLine
 10
856.9193103291
 20
2323.2543978663
 30
0.0
 11
856.9193103291
 21
2324.2043978663
 31
0.0
  0
LINE
  5
1C9
330
1F
100
AcDbEntity
  8
0
  6
Continuous
 62
     7
370
    25
100
AcDbLine
 10
856.9193103291
 20
2309.3043978663
 30
0.0
 11
856.8579408335
 21
2309.3043978663
 31
0.0
  0
LINE
  5
1CA
330
1F
100
AcDbEntity
  8
0
  6
Continuous
 62
     7
370
    25
100
AcDbLine
 10
856.9193103291
 20
2324.2043978663
 30
0.0
 11
856.8579408335
 21
2324.2043978663
 31
0.0
  0
LINE
  5
1CB
330
1F
100
AcDbEntity
  8
0
  6
Continuous
 62
     7
370
    25
100
AcDbLine
 10
856.1292233787
 20
703.2543978663
 30
0.0
 11
858.1292233787
 21
703.2543978663
 31
0.0
  0
LINE
  5
1CC
330
1F
100
AcDbEntity
  8
0
  6
Continuous
 62
     7
370
    25
100
AcDbLine
 10
858.1292233787
 20
690.2543978663
 30
0.0
 11
856.1292233787
 21
690.2543978663
 31
0.0
  0
LINE
  5
1CD
330
1F
100
AcDbEntity
  8
0
  6
Continuous
 62
     7
370
    25
100
AcDbLine
 10
856.8579408335
 20
689.3043978663
 30
0.0
 11
856.8579408335
 21
690.2543978663
 31
0.0
  0
LINE
  5
1CE
330
1F
100
AcDbEntity
  8
0
  6
Continuous
 62
     7
370
    25
100
AcDbLine
 10
856.8579408335
 20
703.2543978663
 30
0.0
 11
856.8579408335
 21
704.2043978663
 31
0.0
  0
LINE
  5
1CF
330
1F
100
AcDbEntity
  8
0
  6
Continuous
 62
     7
370
    25
100
AcDbLine
 10
856.8579408335
 20
689.3043978663
 30
0.0
 11
856.1292233787
 21
689.3043978663
 31
0.0
  0
LINE
  5
1D0
330
1F
100
AcDbEntity
  8
0
  6
Continuous
 62
     7
370
    25
100
AcDbLine
 10
856.8579408335
 20
704.2043978663
 30
0.0
 11
856.1292233787
 21
704.2043978663
 31
0.0
  0
LINE
  5
1D1
330
1F
100
AcDbEntity
  8
0
  6
Continuous
 62
     7
370
    25
100
AcDbLine
 10
856.9193103291
 20
689.3043978663
 30
0.0
 11
856.9193103291
 21
690.2543978663
 31
0.0
  0
LINE
  5
1D2
330
1F
100
AcDbEntity
  8
0
  6
Continuous
 62
     7
370
    25
100
AcDbLine
 10
856.9193103291
 20
703.2543978663
 30
0.0
 11
856.9193103291
 21
704.2043978663
 31
0.0
  0
LINE
  5
1D3
330
1F
100
AcDbEntity
  8
0
  6
Continuous
 62
     7
370
    25
100
AcDbLine
 10
856.9193103291
 20
689.3043978663
 30
0.0
 11
856.8579408335
 21
689.3043978663
 31
0.0
  0
LINE
  5
1D4
330
1F
100
AcDbEntity
  8
0
  6
Continuous
 62
     7
370
    25
100
AcDbLine
 10
856.9193103291
 20
704.2043978663
 30
0.0
 11
856.8579408335
 21
704.2043978663
 31
0.0
  0
LINE
  5
1D5
330
1F
100
AcDbEntity
  8
0
  6
Continuous
 62
     7
370
    25
100
AcDbLine
 10
857.6292233787
 20
689.2793978663
 30
0.0
 11
857.3176575759
 21
689.2793978663
 31
0.0
  0
LINE
  5
1D6
330
1F
100
AcDbEntity
  8
0
  6
Continuous
 62
     7
370
    25
100
AcDbLine
 10
857.3176575759
 20
704.2293978663
 30
0.0
 11
857.3176575759
 21
703.2543978663
 31
0.0
  0
LINE
  5
1D7
330
1F
100
AcDbEntity
  8
0
  6
Continuous
 62
     7
370
    25
100
AcDbLine
 10
857.3176575759
 20
690.2543978663
 30
0.0
 11
857.3176575759
 21
689.2793978663
 31
0.0
  0
LINE
  5
1D8
330
1F
100
AcDbEntity
  8
0
  6
Continuous
 62
     7
370
    25
100
AcDbLine
 10
857.6292233787
 20
704.2293978663
 30
0.0
 11
857.3176575759
 21
704.2293978663
 31
0.0
  0
LINE
  5
1D9
330
1F
100
AcDbEntity
  8
0
  6
Continuous
 62
     7
370
    25
100
AcDbLine
 10
857.3176575759
 20
689.2793978663
 30
0.0
 11
857.2785149814
 21
689.2793978663
 31
0.0
  0
LINE
  5
1DA
330
1F
100
AcDbEntity
  8
0
  6
Continuous
 62
     7
370
    25
100
AcDbLine
 10
857.3176575759
 20
704.2293978663
 30
0.0
 11
857.2785149814
 21
704.2293978663
 31
0.0
  0
LINE
  5
1DB
330
1F
100
AcDbEntity
  8
0
  6
Continuous
 62
     7
370
    25
100
AcDbLine
 10
857.6292233787
 20
1409.2793978663
 30
0.0
 11
857.3176575759
 21
1409.2793978663
 31
0.0
  0
LINE
  5
1DC
330
1F
100
AcDbEntity
  8
0
  6
Continuous
 62
     7
370
    25
100
AcDbLine
 10
857.3176575759
 20
1424.2293978663
 30
0.0
 11
857.3176575759
 21
1423.2543978663
 31
0.0
  0
LINE
  5
1DD
330
1F
100
AcDbEntity
  8
0
  6
Continuous
 62
     7
370
    25
100
AcDbLine
 10
857.3176575759
 20
1410.2543978663
 30
0.0
 11
857.3176575759
 21
1409.2793978663
 31
0.0
  0
LINE
  5
1DE
330
1F
100
AcDbEntity
  8
0
  6
Continuous
 62
     7
370
    25
100
AcDbLine
 10
857.6292233787
 20
1424.2293978663
 30
0.0
 11
857.3176575759
 21
1424.2293978663
 31
0.0
  0
LINE
  5
1DF
330
1F
100
AcDbEntity
  8
0
  6
Continuous
 62
     7
370
    25
100
AcDbLine
 10
857.3176575759
 20
1409.2793978663
 30
0.0
 11
857.2785149814
 21
1409.2793978663
 31
0.0
  0
LINE
  5
1E0
330
1F
100
AcDbEntity
  8
0
  6
Continuous
 62
     7
370
    25
100
AcDbLine
 10
857.3176575759
 20
1424.2293978663
 30
0.0
 11
857.2785149814
 21
1424.2293978663
 31
0.0
  0
LINE
  5
1E1
330
1F
100
AcDbEntity
  8
0
  6
Continuous
 62
     7
370
    25
100
AcDbLine
 10
857.6292233787
 20
2309.2793978663
 30
0.0
 11
857.3176575759
 21
2309.2793978663
 31
0.0
  0
LINE
  5
1E2
330
1F
100
AcDbEntity
  8
0
  6
Continuous
 62
     7
370
    25
100
AcDbLine
 10
857.3176575759
 20
2324.2293978663
 30
0.0
 11
857.3176575759
 21
2323.2543978663
 31
0.0
  0
LINE
  5
1E3
330
1F
100
AcDbEntity
  8
0
  6
Continuous
 62
     7
370
    25
100
AcDbLine
 10
857.3176575759
 20
2310.2543978663
 30
0.0
 11
857.3176575759
 21
2309.2793978663
 31
0.0
  0
LINE
  5
1E4
330
1F
100
AcDbEntity
  8
0
  6
Continuous
 62
     7
370
    25
100
AcDbLine
 10
857.6292233787
 20
2324.2293978663
 30
0.0
 11
857.3176575759
 21
2324.2293978663
 31
0.0
  0
LINE
  5
1E5
330
1F
100
AcDbEntity
  8
0
  6
Continuous
 62
     7
370
    25
100
AcDbLine
 10
857.3176575759
 20
2309.2793978663
 30
0.0
 11
857.2785149814
 21
2309.2793978663
 31
0.0
  0
LINE
  5
1E6
330
1F
100
AcDbEntity
  8
0
  6
Continuous
 62
     7
370
    25
100
AcDbLine
 10
857.3176575759
 20
2324.2293978663
 30
0.0
 11
857.2785149814
 21
2324.2293978663
 31
0.0
  0
LINE
  5
1E7
330
1F
100
AcDbEntity
  8
0
  6
Continuous
 62
     7
370
    25
100
AcDbLine
 10
857.6292233787
 20
1939.2793978663
 30
0.0
 11
857.3176575759
 21
1939.2793978663
 31
0.0
  0
LINE
  5
1E8
330
1F
100
AcDbEntity
  8
0
  6
Continuous
 62
     7
370
    25
100
AcDbLine
 10
857.3176575759
 20
1954.2293978663
 30
0.0
 11
857.3176575759
 21
1953.2543978663
 31
0.0
  0
LINE
  5
1E9
330
1F
100
AcDbEntity
  8
0
  6
Continuous
 62
     7
370
    25
100
AcDbLine
 10
857.3176575759
 20
1940.2543978663
 30
0.0
 11
857.3176575759
 21
1939.2793978663
 31
0.0
  0
LINE
  5
1EA
330
1F
100
AcDbEntity
  8
0
  6
Continuous
 62
     7
370
    25
100
AcDbLine
 10
857.6292233787
 20
1954.2293978663
 30
0.0
 11
857.3176575759
 21
1954.2293978663
 31
0.0
  0
LINE
  5
1EB
330
1F
100
AcDbEntity
  8
0
  6
Continuous
 62
     7
370
    25
100
AcDbLine
 10
857.3176575759
 20
1939.2793978663
 30
0.0
 11
857.2785149814
 21
1939.2793978663
 31
0.0
  0
LINE
  5
1EC
330
1F
100
AcDbEntity
  8
0
  6
Continuous
 62
     7
370
    25
100
AcDbLine
 10
857.3176575759
 20
1954.2293978663
 30
0.0
 11
857.2785149814
 21
1954.2293978663
 31
0.0
  0
LINE
  5
1ED
330
1F
100
AcDbEntity
  8
0
  6
Continuous
 62
     7
370
    25
100
AcDbLine
 10
475.7954764323
 20
2314.7748720752
 30
0.0
 11
475.6515032166
 21
2309.2767567878
 31
0.0
  0
LINE
  5
1EE
330
1F
100
AcDbEntity
  8
0
  6
Continuous
 62
     7
370
    25
100
AcDbLine
 10
474.1805906639
 20
2339.0754720652
 30
0.0
 11
473.6570516978
 21
2319.0823255656
 31
0.0
  0
LINE
  5
1EF
330
1F
100
AcDbEntity
  8
0
  6
Continuous
 62
     7
370
    25
100
AcDbLine
 10
472.4907022777
 20
2320.2086561082
 30
0.0
 11
472.9568920992
 21
2338.0117271316
 31
0.0
  0
LINE
  5
1F0
330
1F
100
AcDbEntity
  8
0
  6
Continuous
 62
     7
370
    25
100
AcDbLine
 10
474.6764915164
 20
2329.3448871838
 30
0.0
 11
474.9307814413
 21
2339.0558276283
 31
0.0
  0
LINE
  5
1F1
330
1F
100
AcDbEntity
  8
0
  6
Continuous
 62
     7
370
    25
100
AcDbLine
 10
472.7751043047
 20
2336.4161961367
 30
0.0
 11
472.3926672574
 21
2321.8115145215
 31
0.0
  0
LINE
  5
1F2
330
1F
100
AcDbEntity
  8
0
  6
Continuous
 62
     7
370
    25
100
AcDbLine
 10
475.4865683072
 20
2333.5393867276
 30
0.0
 11
475.3649024678
 21
2328.8931557708
 31
0.0
  0
LINE
  5
1F3
330
1F
100
AcDbEntity
  8
0
  6
Continuous
 62
     7
370
    25
100
AcDbLine
 10
475.3649024678
 20
2328.8931557708
 30
0.0
 11
475.250975856
 21
2324.5424739934
 31
0.0
  0
LINE
  5
1F4
330
1F
100
AcDbEntity
  8
0
  6
Continuous
 62
     7
370
    25
100
AcDbLine
 10
857.9292233787
 20
1444.2543978663
 30
0.0
 11
856.1292233787
 21
1444.2543978663
 31
0.0
  0
LINE
  5
1F5
330
1F
100
AcDbEntity
  8
0
  6
Continuous
 62
     7
370
    25
100
AcDbLine
 10
857.9292233787
 20
1389.2543978663
 30
0.0
 11
856.1292233787
 21
1389.2543978663
 31
0.0
  0
LINE
  5
1F6
330
1F
100
AcDbEntity
  8
0
  6
Continuous
 62
     7
370
    25
100
AcDbLine
 10
856.7792233787
 20
1425.1293978663
 30
0.0
 11
856.7792233787
 21
1426.7543978663
 31
0.0
  0
LINE
  5
1F7
330
1F
100
AcDbEntity
  8
0
  6
Continuous
 62
     7
370
    25
100
AcDbLine
 10
856.7792233787
 20
1406.7543978663
 30
0.0
 11
856.7792233787
 21
1408.3793978663
 31
0.0
  0
LINE
  5
1F8
330
1F
100
AcDbEntity
  8
0
  6
Continuous
 62
     7
370
    25
100
AcDbLine
 10
857.9292233787
 20
2344.2543978663
 30
0.0
 11
856.1292233787
 21
2344.2543978663
 31
0.0
  0
LINE
  5
1F9
330
1F
100
AcDbEntity
  8
0
  6
Continuous
 62
     7
370
    25
100
AcDbLine
 10
857.9292233787
 20
2289.2543978663
 30
0.0
 11
856.1292233787
 21
2289.2543978663
 31
0.0
  0
LINE
  5
1FA
330
1F
100
AcDbEntity
  8
0
  6
Continuous
 62
     7
370
    25
100
AcDbLine
 10
856.7792233787
 20
2325.1293978663
 30
0.0
 11
856.7792233787
 21
2326.7543978663
 31
0.0
  0
LINE
  5
1FB
330
1F
100
AcDbEntity
  8
0
  6
Continuous
 62
     7
370
    25
100
AcDbLine
 10
856.7792233787
 20
2306.7543978663
 30
0.0
 11
856.7792233787
 21
2308.3793978663
 31
0.0
  0
LINE
  5
1FC
330
1F
100
AcDbEntity
  8
0
  6
Continuous
 62
     7
370
    25
100
AcDbLine
 10
857.9292233787
 20
724.2543978663
 30
0.0
 11
856.1292233787
 21
724.2543978663
 31
0.0
  0
LINE
  5
1FD
330
1F
100
AcDbEntity
  8
0
  6
Continuous
 62
     7
370
    25
100
AcDbLine
 10
857.9292233787
 20
669.2543978663
 30
0.0
 11
856.1292233787
 21
669.2543978663
 31
0.0
  0
LINE
  5
1FE
330
1F
100
AcDbEntity
  8
0
  6
Continuous
 62
     7
370
    25
100
AcDbLine
 10
856.7792233787
 20
705.1293978663
 30
0.0
 11
856.7792233787
 21
706.7543978663
 31
0.0
  0
LINE
  5
1FF
330
1F
100
AcDbEntity
  8
0
  6
Continuous
 62
     7
370
    25
100
AcDbLine
 10
856.7792233787
 20
686.7543978663
 30
0.0
 11
856.7792233787
 21
688.3793978663
 31
0.0
  0
LINE
  5
200
330
1F
100
AcDbEntity
  8
0
  6
Continuous
 62
     7
370
    25
100
AcDbLine
 10
857.9292233787
 20
1974.2543978663
 30
0.0
 11
856.1292233787
 21
1974.2543978663
 31
0.0
  0
LINE
  5
201
330
1F
100
AcDbEntity
  8
0
  6
Continuous
 62
     7
370
    25
100
AcDbLine
 10
857.9292233787
 20
1919.2543978663
 30
0.0
 11
856.1292233787
 21
1919.2543978663
 31
0.0
  0
LINE
  5
202
330
1F
100
AcDbEntity
  8
0
  6
Continuous
 62
     7
370
    25
100
AcDbLine
 10
856.7792233787
 20
1955.1293978663
 30
0.0
 11
856.7792233787
 21
1956.7543978663
 31
0.0
  0
LINE
  5
203
330
1F
100
AcDbEntity
  8
0
  6
Continuous
 62
     7
370
    25
100
AcDbLine
 10
856.7792233787
 20
1936.7543978663
 30
0.0
 11
856.7792233787
 21
1938.3793978663
 31
0.0
  0
LINE
  5
204
330
1F
100
AcDbEntity
  8
0
  6
Continuous
 62
     7
370
    25
100
AcDbLine
 10
4135.4163010121
 20
1761.2543978663
 30
0.0
 11
4137.4163010121
 21
1761.2543978663
 31
0.0
  0
LINE
  5
205
330
1F
100
AcDbEntity
  8
0
  6
Continuous
 62
     7
370
    25
100
AcDbLine
 10
4137.4163010121
 20
1796.2543978663
 30
0.0
 11
4135.4163010121
 21
1796.2543978663
 31
0.0
  0
LINE
  5
206
330
1F
100
AcDbEntity
  8
0
  6
Continuous
 62
     7
370
    25
100
AcDbLine
 10
4135.4163010121
 20
2250.7543978663
 30
0.0
 11
4137.4163010121
 21
2250.7543978663
 31
0.0
  0
LINE
  5
207
330
1F
100
AcDbEntity
  8
0
  6
Continuous
 62
     7
370
    25
100
AcDbLine
 10
4137.4163010121
 20
822.7543978663
 30
0.0
 11
4135.4163010121
 21
822.7543978663
 31
0.0
  0
LINE
  5
208
330
1F
100
AcDbEntity
  8
0
  6
Continuous
 62
     7
370
    25
100
AcDbLine
 10
4135.4163010121
 20
1278.2543978663
 30
0.0
 11
4137.4163010121
 21
1278.2543978663
 31
0.0
  0
LINE
  5
209
330
1F
100
AcDbEntity
  8
0
  6
Continuous
 62
     7
370
    25
100
AcDbLine
 10
4137.4163010121
 20
1313.2543978663
 30
0.0
 11
4135.4163010121
 21
1313.2543978663
 31
0.0
  0
LINE
  5
20A
330
1F
100
AcDbEntity
  8
0
  6
Continuous
 62
     7
370
    25
100
AcDbLine
 10
4517.7500479585
 20
2314.7748720752
 30
0.0
 11
4515.9163010121
 21
2314.7268537215
 31
0.0
  0
LINE
  5
20B
330
1F
100
AcDbEntity
  8
0
  6
Continuous
 62
     7
370
    25
100
AcDbLine
 10
4515.9163010121
 20
2309.2249683628
 30
0.0
 11
4517.8940211741
 21
2309.2767567878
 31
0.0
  0
ARC
  5
20C
330
1F
100
AcDbEntity
  8
0
  6
Continuous
 62
     7
370
    25
100
AcDbCircle
 10
4517.757901043
 20
2314.4749748777
 30
0.0
 40
0.2999999999998819
100
AcDbArc
 50
1.5
 51
91.5
  0
ARC
  5
20D
330
1F
100
AcDbEntity
  8
0
  6
Continuous
 62
     7
370
    25
100
AcDbCircle
 10
4517.8861680897
 20
2309.5766539853
 30
0.0
 40
0.2999999999998582
100
AcDbArc
 50
271.4999999998
 51
1.5
  0
LINE
  5
20E
330
1F
100
AcDbEntity
  8
0
  6
Continuous
 62
     7
370
    25
100
AcDbLine
 10
4519.1382819156
 20
2319.0626811288
 30
0.0
 11
4519.8884726929
 21
2319.0823255656
 31
0.0
  0
LINE
  5
20F
330
1F
100
AcDbEntity
  8
0
  6
Continuous
 62
     7
370
    25
100
AcDbLine
 10
4519.3649337268
 20
2339.0754720652
 30
0.0
 11
4518.6147429495
 21
2339.0558276283
 31
0.0
  0
ARC
  5
210
330
1F
100
AcDbEntity
  8
0
  6
Continuous
 62
     7
370
    25
100
AcDbCircle
 10
4519.133046526
 20
2319.2626125938
 30
0.0
 40
0.2000000000000808
100
AcDbArc
 50
181.4999999999
 51
271.5
  0
ARC
  5
211
330
1F
100
AcDbEntity
  8
0
  6
Continuous
 62
     7
370
    25
100
AcDbCircle
 10
4518.6199783391
 20
2338.8558961633
 30
0.0
 40
0.200000000000057
100
AcDbArc
 50
91.4999999998
 51
181.4999999999
  0
ARC
  5
212
330
1F
100
AcDbEntity
  8
0
  6
Continuous
 62
     7
370
    25
100
AcDbCircle
 10
4519.857060355
 20
2320.2819143556
 30
0.0
 40
1.200000000000284
100
AcDbArc
 50
271.5
 51
356.5000000032
  0
ARC
  5
213
330
1F
100
AcDbEntity
  8
0
  6
Continuous
 62
     7
370
    25
100
AcDbCircle
 10
4519.3963460648
 20
2337.8758832752
 30
0.0
 40
1.200000000000503
100
AcDbArc
 50
6.4999999967
 51
91.4999999999
  0
LINE
  5
214
330
1F
100
AcDbEntity
  8
0
  6
Continuous
 62
     7
370
    25
100
AcDbLine
 10
4521.0548221131
 20
2320.2086561082
 30
0.0
 11
4521.1528571334
 21
2321.8115145215
 31
0.0
  0
LINE
  5
215
330
1F
100
AcDbEntity
  8
0
  6
Continuous
 62
     7
370
    25
100
AcDbLine
 10
4520.7704200861
 20
2336.4161961367
 30
0.0
 11
4520.5886322916
 21
2338.0117271316
 31
0.0
  0
ARC
  5
216
330
1F
100
AcDbEntity
  8
0
  6
Continuous
 62
     7
370
    25
100
AcDbCircle
 10
4491.2088131807
 20
2323.6429707076
 30
0.0
 40
30.00000000000255
100
AcDbArc
 50
356.4999999999
 51
1.4999999999
  0
ARC
  5
217
330
1F
100
AcDbEntity
  8
0
  6
Continuous
 62
     7
370
    25
100
AcDbCircle
 10
4490.9632644158
 20
2333.0200997237
 30
0.0
 40
30.00000000000259
100
AcDbArc
 50
1.4999999999
 51
6.4999999999
  0
LINE
  5
218
330
1F
100
AcDbEntity
  8
0
  6
Continuous
 62
     7
370
    25
100
AcDbLine
 10
4521.0782320384
 20
2329.0223848583
 30
0.0
 11
4521.0757585475
 21
2329.1168436648
 31
0.0
  0
SPLINE
  5
219
330
1F
100
AcDbEntity
  8
0
  6
Continuous
 62
     7
370
    25
100
AcDbSpline
210
0.0
220
0.0
230
1.0
 70
     8
 71
     3
 72
    11
 73
     7
 74
     0
 42
0.00000001
 43
0.00000001
 40
0.0
 40
0.0
 40
0.0
 40
0.0
 40
0.270671270904472
 40
0.5632120728001463
 40
0.7903891635246172
 40
1.0
 40
1.0
 40
1.0
 40
1.0
 10
4518.294548572449
 20
2324.54247255235
 30
0.0
 10
4518.366361280961
 20
2324.535344805509
 30
0.0
 10
4518.515788977065
 20
2324.520513408518
 30
0.0
 10
4518.687900202779
 20
2324.387093926346
 30
0.0
 10
4518.788951168403
 20
2324.218965531407
 30
0.0
 10
4518.801586985963
 20
2324.103888307104
 30
0.0
 10
4518.807650808068
 20
2324.048663719282
 30
0.0
  0
SPLINE
  5
21A
330
1F
100
AcDbEntity
  8
0
  6
Continuous
 62
     7
370
    25
100
AcDbSpline
210
0.0
220
0.0
230
1.0
 70
     8
 71
     3
 72
    11
 73
     7
 74
     0
 42
0.00000001
 43
0.00000001
 40
0.0
 40
0.0
 40
0.0
 40
0.0
 40
0.2695105035985408
 40
0.56173644057767
 40
0.7894224931279971
 40
1.0
 40
1.0
 40
1.0
 40
1.0
 10
4518.545511127046
 20
2334.059374258498
 30
0.0
 10
4518.539444966039
 20
2333.987784817774
 30
0.0
 10
4518.526801363484
 20
2333.838572089224
 30
0.0
 10
4518.396408797248
 20
2333.664552517789
 30
0.0
 10
4518.229638749766
 20
2333.560590211831
 30
0.0
 10
4518.114350096176
 20
2333.546269373953
 30
0.0
 10
4518.058956037688
 20
2333.539388477124
 30
0.0
  0
LINE
  5
21B
330
1F
100
AcDbEntity
  8
0
  6
Continuous
 62
     7
370
    25
100
AcDbLine
 10
4515.9163010121
 20
2324.4801959483
 30
0.0
 11
4518.2945485724
 21
2324.5424725523
 31
0.0
  0
LINE
  5
21C
330
1F
100
AcDbEntity
  8
0
  6
Continuous
 62
     7
370
    25
100
AcDbLine
 10
4518.0589560377
 20
2333.5393884771
 30
0.0
 11
4515.9163010121
 21
2333.4832810807
 31
0.0
  0
LINE
  5
21D
330
1F
100
AcDbEntity
  8
0
  6
Continuous
 62
     7
370
    25
100
AcDbLine
 10
4133.9163010121
 20
629.7543978663
 30
0.0
 11
4121.4163010121
 21
629.7543978663
 31
0.0
  0
LINE
  5
21E
330
1F
100
AcDbEntity
  8
0
  6
Continuous
 62
     7
370
    25
100
AcDbLine
 10
4121.4163010121
 20
629.7543978663
 30
0.0
 11
4121.4163010121
 21
616.7543978663
 31
0.0
  0
LINE
  5
21F
330
1F
100
AcDbEntity
  8
0
  6
Continuous
 62
     7
370
    25
100
AcDbLine
 10
4117.4163010121
 20
616.7543978663
 30
0.0
 11
4121.4163010121
 21
616.7543978663
 31
0.0
  0
LINE
  5
220
330
1F
100
AcDbEntity
  8
0
  6
Continuous
 62
     7
370
    25
100
AcDbLine
 10
4117.4163010121
 20
616.7543978663
 30
0.0
 11
4117.4163010121
 21
2396.7543978663
 31
0.0
  0
LINE
  5
221
330
1F
100
AcDbEntity
  8
0
  6
Continuous
 62
     7
370
    25
100
AcDbLine
 10
4135.4163010121
 20
650.2543978663
 30
0.0
 11
4135.4163010121
 21
2396.7543978663
 31
0.0
  0
LINE
  5
222
330
1F
100
AcDbEntity
  8
0
  6
Continuous
 62
     7
370
    25
100
AcDbLine
 10
4135.4163010121
 20
650.2543978663
 30
0.0
 11
4133.9163010121
 21
650.2543978663
 31
0.0
  0
LINE
  5
223
330
1F
100
AcDbEntity
  8
0
  6
Continuous
 62
     7
370
    25
100
AcDbLine
 10
4117.4163010121
 20
2396.7543978663
 30
0.0
 11
4135.4163010121
 21
2396.7543978663
 31
0.0
  0
LINE
  5
224
330
1F
100
AcDbEntity
  8
0
  6
Continuous
 62
     7
370
    25
100
AcDbLine
 10
4133.9163010121
 20
650.2543978663
 30
0.0
 11
4133.9163010121
 21
629.7543978663
 31
0.0
  0
LINE
  5
225
330
1F
100
AcDbEntity
  8
0
  6
Continuous
 62
     7
370
    25
100
AcDbLine
 10
4137.4163010121
 20
2270.7543978663
 30
0.0
 11
4135.4163010121
 21
2270.7543978663
 31
0.0
  0
LINE
  5
226
330
1F
100
AcDbEntity
  8
0
  6
Continuous
 62
     7
370
    25
100
AcDbLine
 10
4137.4163010121
 20
742.7543978663
 30
0.0
 11
4135.4163010121
 21
742.7543978663
 31
0.0
  0
LINE
  5
227
330
1F
100
AcDbEntity
  8
0
  6
Continuous
 62
     7
370
    25
100
AcDbLine
 10
4137.4163010121
 20
802.7543978663
 30
0.0
 11
4135.4163010121
 21
802.7543978663
 31
0.0
  0
LINE
  5
228
330
1F
100
AcDbEntity
  8
0
  6
Continuous
 62
     7
370
    25
100
AcDbLine
 10
4137.4163010121
 20
606.7543978663
 30
0.0
 11
4137.4163010121
 21
2378.2543978663
 31
0.0
  0
LINE
  5
229
330
1F
100
AcDbEntity
  8
0
  6
Continuous
 62
     7
370
    25
100
AcDbLine
 10
4137.4163010121
 20
606.7543978663
 30
0.0
 11
4515.9163010121
 21
606.7543978663
 31
0.0
  0
LINE
  5
22A
330
1F
100
AcDbEntity
  8
0
  6
Continuous
 62
     7
370
    25
100
AcDbLine
 10
4515.9163010121
 20
606.7543978663
 30
0.0
 11
4515.9163010121
 21
2378.2543978663
 31
0.0
  0
LINE
  5
22B
330
1F
100
AcDbEntity
  8
0
  6
Continuous
 62
     7
370
    25
100
AcDbLine
 10
4136.9163010121
 20
2406.7543978663
 30
0.0
 11
4136.9163010121
 21
2378.2543978663
 31
0.0
  0
LINE
  5
22C
330
1F
100
AcDbEntity
  8
0
  6
Continuous
 62
     7
370
    25
100
AcDbLine
 10
4515.9163010121
 20
2378.2543978663
 30
0.0
 11
4515.9163010121
 21
2406.7543978663
 31
0.0
  0
LINE
  5
22D
330
1F
100
AcDbEntity
  8
0
  6
Continuous
 62
     7
370
    25
100
AcDbLine
 10
4136.9163010121
 20
2378.2543978663
 30
0.0
 11
4515.9163010121
 21
2378.2543978663
 31
0.0
  0
LINE
  5
22E
330
1F
100
AcDbEntity
  8
0
  6
Continuous
 62
     7
370
    25
100
AcDbLine
 10
4515.9163010121
 20
2406.7543978663
 30
0.0
 11
4136.9163010121
 21
2406.7543978663
 31
0.0
  0
SPLINE
  5
22F
330
1F
100
AcDbEntity
  8
0
  6
Continuous
 62
     7
370
    25
100
AcDbSpline
210
0.0
220
0.0
230
1.0
 70
    24
 71
     3
 72
    12
 73
     8
 74
     0
 42
0.00000001
 43
0.00000001
 40
0.0
 40
0.0
 40
0.0
 40
0.0
 40
0.2460973337389797
 40
0.4921955654195604
 40
0.7383025770440969
 40
0.9844160040482893
 40
0.9999999999999999
 40
0.9999999999999999
 40
0.9999999999999999
 40
0.9999999999999999
 10
4518.121931763799
 20
2312.033667515993
 30
0.0
 10
4518.130161240799
 20
2311.719396468495
 30
0.0
 10
4518.146620224828
 20
2311.090853226811
 30
0.0
 10
4518.167936227938
 20
2310.27682790965
 30
0.0
 10
4518.181476490684
 20
2309.759746136902
 30
0.0
 10
4518.187395967766
 20
2309.533690427247
 30
0.0
 10
4518.185875737428
 20
2309.591745681659
 30
0.0
 10
4518.185785208208
 20
2309.595202853074
 30
0.0
  0
SPLINE
  5
230
330
1F
100
AcDbEntity
  8
0
  6
Continuous
 62
     7
370
    25
100
AcDbSpline
210
0.0
220
0.0
230
1.0
 70
     8
 71
     3
 72
    11
 73
     7
 74
     0
 42
0.00000001
 43
0.00000001
 40
0.0
 40
0.0
 40
0.0
 40
0.0
 40
0.2382247349852315
 40
0.4921376904596723
 40
0.7460575595478376
 40
1.0
 40
1.0
 40
1.0
 40
1.0
 10
4518.05807203472
 20
2314.472372180736
 30
0.0
 10
4518.058744419022
 20
2314.446694861222
 30
0.0
 10
4518.060133467301
 20
2314.393649249802
 30
0.0
 10
4518.073671064538
 20
2313.876669251055
 30
0.0
 10
4518.093771655872
 20
2313.109058705191
 30
0.0
 10
4518.110155297264
 20
2312.483392512934
 30
0.0
 10
4518.118347482036
 20
2312.170545513294
 30
0.0
  0
LINE
  5
231
330
1F
100
AcDbEntity
  8
0
  6
Continuous
 62
     7
370
    25
100
AcDbLine
 10
4518.118347482
 20
2312.1705455133
 30
0.0
 11
4518.1219317638
 21
2312.033667516
 31
0.0
  0
SPLINE
  5
232
330
1F
100
AcDbEntity
  8
0
  6
Continuous
 62
     7
370
    25
100
AcDbSpline
210
0.0
220
0.0
230
1.0
 70
    24
 71
     3
 72
    13
 73
     9
 74
     0
 42
0.00000001
 43
0.00000001
 40
0.0
 40
0.0
 40
0.0
 40
0.0
 40
0.1813201537907871
 40
0.4101468448380498
 40
0.5438150184965106
 40
0.6886421238875788
 40
0.8419966874126904
 40
1.0
 40
1.0
 40
1.0
 40
1.0
 10
4518.676580967557
 20
2329.054018988883
 30
0.0
 10
4518.652354093914
 20
2329.979205966925
 30
0.0
 10
4518.597552817955
 20
2332.071982263412
 30
0.0
 10
4518.531192586933
 20
2334.606177244847
 30
0.0
 10
4518.48122157038
 20
2336.51449337659
 30
0.0
 10
4518.448299481664
 20
2337.771737221522
 30
0.0
 10
4518.425017322937
 20
2338.660846992428
 30
0.0
 10
4518.421725129529
 20
2338.786570786426
 30
0.0
 10
4518.42005445567
 20
2338.850371247076
 30
0.0
  0
SPLINE
  5
233
330
1F
100
AcDbEntity
  8
0
  6
Continuous
 62
     7
370
    25
100
AcDbSpline
210
0.0
220
0.0
230
1.0
 70
    24
 71
     3
 72
    13
 73
     9
 74
     0
 42
0.00000001
 43
0.00000001
 40
0.0
 40
0.0
 40
0.0
 40
0.0
 40
0.153858158365196
 40
0.3079676862452817
 40
0.453507780238503
 40
0.5878340078345575
 40
0.8177872163813448
 40
1.0
 40
1.0
 40
1.0
 40
1.0
 10
4518.932881372518
 20
2319.266301405845
 30
0.0
 10
4518.931561895874
 20
2319.316690185938
 30
0.0
 10
4518.928920786861
 20
2319.417550070019
 30
0.0
 10
4518.906694001449
 20
2320.266356760074
 30
0.0
 10
4518.874525991152
 20
2321.49480351199
 30
0.0
 10
4518.825263059564
 20
2323.376078969862
 30
0.0
 10
4518.759443730823
 20
2325.889617726493
 30
0.0
 10
4518.704718667678
 20
2327.979483573083
 30
0.0
 10
4518.680525487553
 20
2328.903383847572
 30
0.0
  0
LINE
  5
234
330
1F
100
AcDbEntity
  8
0
  6
Continuous
 62
     7
370
    25
100
AcDbLine
 10
4521.0782320384
 20
2329.0223848582
 30
0.0
 11
4521.19853293
 21
2324.4282791568
 31
0.0
  0
LINE
  5
235
330
1F
100
AcDbEntity
  8
0
  6
Continuous
 62
     7
370
    25
100
AcDbLine
 10
4520.952984165
 20
2333.8054081729
 30
0.0
 11
4521.0757585475
 21
2329.1168436648
 31
0.0
  0
SPLINE
  5
236
330
1F
100
AcDbEntity
  8
0
  6
Continuous
 62
     7
370
    25
100
AcDbSpline
210
0.0
220
0.0
230
1.0
 70
     8
 71
     3
 72
    11
 73
     7
 74
     0
 42
0.00000001
 43
0.00000001
 40
0.0
 40
0.0
 40
0.0
 40
0.0
 40
0.2702602051691409
 40
0.5624283659902161
 40
0.7897359586728354
 40
1.0
 40
1.0
 40
1.0
 40
1.0
 10
4518.672281383432
 20
2329.218213482239
 30
0.0
 10
4518.66353197572
 20
2329.215656025554
 30
0.0
 10
4518.645323911828
 20
2329.210333798468
 30
0.0
 10
4518.510265639424
 20
2329.201285824086
 30
0.0
 10
4518.342203449891
 20
2329.193677152422
 30
0.0
 10
4518.227838085998
 20
2329.190318953092
 30
0.0
 10
4518.172882687314
 20
2329.188705254883
 30
0.0
  0
SPLINE
  5
237
330
1F
100
AcDbEntity
  8
0
  6
Continuous
 62
     7
370
    25
100
AcDbSpline
210
0.0
220
0.0
230
1.0
 70
     8
 71
     3
 72
    10
 73
     6
 74
     0
 42
0.00000001
 43
0.00000001
 40
0.0
 40
0.0
 40
0.0
 40
0.0
 40
0.369868246393449
 40
0.739418366524783
 40
1.0
 40
1.0
 40
1.0
 40
1.0
 10
4518.400161334804
 20
2328.531609380487
 30
0.0
 10
4518.396941611835
 20
2328.655185441899
 30
0.0
 10
4518.390504935204
 20
2328.902231276088
 30
0.0
 10
4518.381012383303
 20
2329.268343236761
 30
0.0
 10
4518.375485084352
 20
2329.475556144409
 30
0.0
 10
4518.373199351915
 20
2329.561245966647
 30
0.0
  0
LINE
  5
238
330
1F
100
AcDbEntity
  8
0
  6
Continuous
 62
     7
370
    25
100
AcDbLine
 10
4121.4163010121
 20
629.7543978663
 30
0.0
 11
4121.6163010121
 21
629.5543978663
 31
0.0
  0
LINE
  5
239
330
1F
100
AcDbEntity
  8
0
  6
Continuous
 62
     7
370
    25
100
AcDbLine
 10
4121.6163010121
 20
629.5543978663
 30
0.0
 11
4121.6163010121
 21
616.5543978663
 31
0.0
  0
LINE
  5
23A
330
1F
100
AcDbEntity
  8
0
  6
Continuous
 62
     7
370
    25
100
AcDbLine
 10
4121.4163010121
 20
616.7543978663
 30
0.0
 11
4121.6163010121
 21
616.5543978663
 31
0.0
  0
ARC
  5
23B
330
1F
100
AcDbEntity
  8
0
  6
Continuous
 62
     7
370
    25
100
AcDbCircle
 10
4124.333114782
 20
626.7543978663
 30
0.0
 40
1.199999999999961
100
AcDbArc
 50
90.0
 51
175.0300534053
  0
LINE
  5
23C
330
1F
100
AcDbEntity
  8
0
  6
Continuous
 62
     7
370
    25
100
AcDbLine
 10
4122.2964378311
 20
617.1850913096
 30
0.0
 11
4123.1376264497
 21
626.8583577014
 31
0.0
  0
ARC
  5
23D
330
1F
100
AcDbEntity
  8
0
  6
Continuous
 62
     7
370
    25
100
AcDbCircle
 10
4121.4994456096
 20
617.2543978663
 30
0.0
 40
0.7999999999999814
100
AcDbArc
 50
260.4234115189
 51
355.0300534053
  0
ARC
  5
23E
330
1F
100
AcDbEntity
  8
0
  6
Continuous
 62
     7
370
    25
100
AcDbCircle
 10
4121.4162626861
 20
616.7613658174
 30
0.0
 40
0.3000000000004442
100
AcDbArc
 50
223.6216529672
 51
260.4234115189
  0
LINE
  5
23F
330
1F
100
AcDbEntity
  8
0
  6
Continuous
 62
     7
370
    25
100
AcDbLine
 10
4121.6163010121
 20
616.5543978663
 30
0.0
 11
4121.1990893286
 21
616.5543978663
 31
0.0
  0
LINE
  5
240
330
1F
100
AcDbEntity
  8
0
  6
Continuous
 62
     7
370
    25
100
AcDbLine
 10
4134.1163010121
 20
629.5543978663
 30
0.0
 11
4121.6163010121
 21
629.5543978663
 31
0.0
  0
LINE
  5
241
330
1F
100
AcDbEntity
  8
0
  6
Continuous
 62
     7
370
    25
100
AcDbLine
 10
4134.1163010121
 20
649.5543978663
 30
0.0
 11
4134.1163010121
 21
629.5543978663
 31
0.0
  0
LINE
  5
242
330
1F
100
AcDbEntity
  8
0
  6
Continuous
 62
     7
370
    25
100
AcDbLine
 10
4135.5163010121
 20
649.5543978663
 30
0.0
 11
4134.1163010121
 21
649.5543978663
 31
0.0
  0
LINE
  5
243
330
1F
100
AcDbEntity
  8
0
  6
Continuous
 62
     7
370
    25
100
AcDbLine
 10
4135.5163010121
 20
628.7543978663
 30
0.0
 11
4135.5163010121
 21
649.5543978663
 31
0.0
  0
ARC
  5
244
330
1F
100
AcDbEntity
  8
0
  6
Continuous
 62
     7
370
    25
100
AcDbCircle
 10
4134.7163010121
 20
628.7543978663
 30
0.0
 40
0.8000000000000682
100
AcDbArc
 50
270.0
 51
0.0
  0
LINE
  5
245
330
1F
100
AcDbEntity
  8
0
  6
Continuous
 62
     7
370
    25
100
AcDbLine
 10
4124.333114782
 20
627.9543978663
 30
0.0
 11
4134.7163010121
 21
627.9543978663
 31
0.0
  0
LINE
  5
246
330
1F
100
AcDbEntity
  8
0
  6
Continuous
 62
     7
370
    25
100
AcDbLine
 10
4123.1376264497
 20
626.8583577014
 30
0.0
 11
4123.3368745051
 21
626.8410310622
 31
0.0
  0
LINE
  5
247
330
1F
100
AcDbEntity
  8
0
  6
Continuous
 62
     7
370
    25
100
AcDbLine
 10
4123.3368745051
 20
626.8410310622
 30
0.0
 11
4122.4956858865
 21
617.1677646704
 31
0.0
  0
LINE
  5
248
330
1F
100
AcDbEntity
  8
0
  6
Continuous
 62
     7
370
    25
100
AcDbLine
 10
4122.2964378311
 20
617.1850913096
 30
0.0
 11
4122.4956858865
 21
617.1677646704
 31
0.0
  0
ARC
  5
249
330
1F
100
AcDbEntity
  8
0
  6
Continuous
 62
     7
370
    25
100
AcDbCircle
 10
4121.4994456096
 20
617.2543978663
 30
0.0
 40
0.9999999999999388
100
AcDbArc
 50
260.4234115189
 51
355.0300534053
  0
LINE
  5
24A
330
1F
100
AcDbEntity
  8
0
  6
Continuous
 62
     7
370
    25
100
AcDbLine
 10
4121.3663529321
 20
616.4655465881
 30
0.0
 11
4121.3330797627
 21
616.2683337685
 31
0.0
  0
SPLINE
  5
24B
330
1F
100
AcDbEntity
  8
0
  6
Continuous
 62
     7
370
    25
100
AcDbSpline
210
0.0
220
0.0
230
1.0
 70
     8
 71
     3
 72
    13
 73
     9
 74
     0
 42
0.00000001
 43
0.00000001
 40
0.0
 40
0.0
 40
0.0
 40
0.0
 40
0.0075029974113214
 40
0.3818974549657648
 40
0.6070018873267128
 40
0.7653769096342216
 40
0.8824605049805154
 40
1.0
 40
1.0
 40
1.0
 40
1.0
 10
4121.199089328598
 20
616.5543978663123
 30
0.0
 10
4121.198071551982
 20
616.5548358642076
 30
0.0
 10
4121.146267415845
 20
616.5771296585767
 30
0.0
 10
4121.067682050476
 20
616.6240140467925
 30
0.0
 10
4120.985042586445
 20
616.6902984838288
 30
0.0
 10
4120.942946468346
 20
616.7285600430014
 30
0.0
 10
4120.920423041509
 20
616.7503158187366
 30
0.0
 10
4120.917683615396
 20
616.7530354222861
 30
0.0
 10
4120.916311240828
 20
616.7543978663124
 30
0.0
  0
ARC
  5
24C
330
1F
100
AcDbEntity
  8
0
  6
Continuous
 62
     7
370
    25
100
AcDbCircle
 10
4121.4162626861
 20
616.7613658174
 30
0.0
 40
0.5000000000001892
100
AcDbArc
 50
180.7984942261
 51
260.4234115189
  0
LINE
  5
24D
330
1F
100
AcDbEntity
  8
0
  6
Continuous
 62
     7
370
    25
100
AcDbLine
 10
4135.7163010121
 20
649.5543978663
 30
0.0
 11
4135.7163010121
 21
628.7543978663
 31
0.0
  0
LINE
  5
24E
330
1F
100
AcDbEntity
  8
0
  6
Continuous
 62
     7
370
    25
100
AcDbLine
 10
4135.7163010121
 20
628.7543978663
 30
0.0
 11
4135.5163010121
 21
628.7543978663
 31
0.0
  0
LINE
  5
24F
330
1F
100
AcDbEntity
  8
0
  6
Continuous
 62
     7
370
    25
100
AcDbLine
 10
4135.7163010121
 20
649.5543978663
 30
0.0
 11
4135.5163010121
 21
649.5543978663
 31
0.0
  0
ARC
  5
250
330
1F
100
AcDbEntity
  8
0
  6
Continuous
 62
     7
370
    25
100
AcDbCircle
 10
4134.7163010121
 20
628.7543978663
 30
0.0
 40
1.000000000000114
100
AcDbArc
 50
270.0000000001
 51
360.0
  0
LINE
  5
251
330
1F
100
AcDbEntity
  8
0
  6
Continuous
 62
     7
370
    25
100
AcDbLine
 10
4134.7163010121
 20
627.9543978663
 30
0.0
 11
4134.7163010121
 21
627.7543978663
 31
0.0
  0
LINE
  5
252
330
1F
100
AcDbEntity
  8
0
  6
Continuous
 62
     7
370
    25
100
AcDbLine
 10
4134.7163010121
 20
627.7543978663
 30
0.0
 11
4124.333114782
 21
627.7543978663
 31
0.0
  0
LINE
  5
253
330
1F
100
AcDbEntity
  8
0
  6
Continuous
 62
     7
370
    25
100
AcDbLine
 10
4124.333114782
 20
627.9543978663
 30
0.0
 11
4124.333114782
 21
627.7543978663
 31
0.0
  0
LINE
  5
254
330
1F
100
AcDbEntity
  8
0
  6
Continuous
 62
     7
370
    25
100
AcDbLine
 10
4133.9163010121
 20
629.7543978663
 30
0.0
 11
4134.1163010121
 21
629.5543978663
 31
0.0
  0
ARC
  5
255
330
1F
100
AcDbEntity
  8
0
  6
Continuous
 62
     7
370
    25
100
AcDbCircle
 10
4124.333114782
 20
626.7543978663
 30
0.0
 40
1.000000000000114
100
AcDbArc
 50
90.0
 51
175.0300534053
  0
LINE
  5
256
330
1F
100
AcDbEntity
  8
0
  6
Continuous
 62
     7
370
    25
100
AcDbLine
 10
4133.9163010121
 20
649.7543978663
 30
0.0
 11
4134.1163010121
 21
649.5543978663
 31
0.0
  0
LINE
  5
257
330
1F
100
AcDbEntity
  8
0
  6
Continuous
 62
     7
370
    25
100
AcDbLine
 10
4135.5163010121
 20
649.7543978663
 30
0.0
 11
4135.5163010121
 21
649.5543978663
 31
0.0
  0
ARC
  5
258
330
1F
100
AcDbEntity
  8
0
  6
Continuous
 62
     7
370
    25
100
AcDbCircle
 10
4135.5163010121
 20
649.5543978663
 30
0.0
 40
0.1999999999999318
100
AcDbArc
 50
0.0
 51
90.0
  0
LINE
  5
259
330
1F
100
AcDbEntity
  8
0
  6
Continuous
 62
     7
370
    25
100
AcDbLine
 10
4133.9163010121
 20
649.7543978663
 30
0.0
 11
4135.5163010121
 21
649.7543978663
 31
0.0
  0
LINE
  5
25A
330
1F
100
AcDbEntity
  8
0
  6
Continuous
 62
     7
370
    25
100
AcDbLine
 10
4136.6163010121
 20
2364.0543978663
 30
0.0
 11
4136.6163010121
 21
2365.2543978663
 31
0.0
  0
LINE
  5
25B
330
1F
100
AcDbEntity
  8
0
  6
Continuous
 62
     7
370
    25
100
AcDbLine
 10
4136.6163010121
 20
2365.2543978663
 30
0.0
 11
4137.4163010121
 21
2365.2543978663
 31
0.0
  0
LINE
  5
25C
330
1F
100
AcDbEntity
  8
0
  6
Continuous
 62
     7
370
    25
100
AcDbLine
 10
4136.6163010121
 20
2364.0543978663
 30
0.0
 11
4137.4163010121
 21
2364.0543978663
 31
0.0
  0
LINE
  5
25D
330
1F
100
AcDbEntity
  8
0
  6
Continuous
 62
     7
370
    25
100
AcDbLine
 10
4135.4163010121
 20
2365.2543978663
 30
0.0
 11
4136.6163010121
 21
2365.2543978663
 31
0.0
  0
LINE
  5
25E
330
1F
100
AcDbEntity
  8
0
  6
Continuous
 62
     7
370
    25
100
AcDbLine
 10
4135.4163010121
 20
2364.0543978663
 30
0.0
 11
4136.6163010121
 21
2364.0543978663
 31
0.0
  0
LINE
  5
25F
330
1F
100
AcDbEntity
  8
0
  6
Continuous
 62
     7
370
    25
100
AcDbLine
 10
4135.4163010121
 20
2346.2543978663
 30
0.0
 11
4136.6163010121
 21
2346.2543978663
 31
0.0
  0
LINE
  5
260
330
1F
100
AcDbEntity
  8
0
  6
Continuous
 62
     7
370
    25
100
AcDbLine
 10
4136.6163010121
 20
2346.2543978663
 30
0.0
 11
4136.6163010121
 21
2364.0543978663
 31
0.0
  0
LINE
  5
261
330
1F
100
AcDbEntity
  8
0
  6
Continuous
 62
     7
370
    25
100
AcDbLine
 10
4136.6163010121
 20
2346.2543978663
 30
0.0
 11
4136.6163010121
 21
2345.2470896858
 31
0.0
  0
LINE
  5
262
330
1F
100
AcDbEntity
  8
0
  6
Continuous
 62
     7
370
    25
100
AcDbLine
 10
4135.9163010121
 20
1407.7984397273
 30
0.0
 11
4135.4163010121
 21
1407.7984397273
 31
0.0
  0
LINE
  5
263
330
1F
100
AcDbEntity
  8
0
  6
Continuous
 62
     7
370
    25
100
AcDbLine
 10
4135.9163010121
 20
1409.3543978665
 30
0.0
 11
4135.4163010121
 21
1409.3543978665
 31
0.0
  0
LINE
  5
264
330
1F
100
AcDbEntity
  8
0
  6
Continuous
 62
     7
370
    25
100
AcDbLine
 10
4135.9163010121
 20
1409.3543978665
 30
0.0
 11
4135.9163010121
 21
1407.7984397273
 31
0.0
  0
LINE
  5
265
330
1F
100
AcDbEntity
  8
0
  6
Continuous
 62
     7
370
    25
100
AcDbLine
 10
4135.4163010121
 20
1425.7103560054
 30
0.0
 11
4135.9163010121
 21
1425.7103560054
 31
0.0
  0
LINE
  5
266
330
1F
100
AcDbEntity
  8
0
  6
Continuous
 62
     7
370
    25
100
AcDbLine
 10
4135.9163010121
 20
1425.7103560054
 30
0.0
 11
4135.9163010121
 21
1424.1543978661
 31
0.0
  0
LINE
  5
267
330
1F
100
AcDbEntity
  8
0
  6
Continuous
 62
     7
370
    25
100
AcDbLine
 10
4135.4163010121
 20
1424.1543978661
 30
0.0
 11
4135.9163010121
 21
1424.1543978661
 31
0.0
  0
LINE
  5
268
330
1F
100
AcDbEntity
  8
0
  6
Continuous
 62
     7
370
    25
100
AcDbLine
 10
4135.6163010121
 20
1398.3628237086
 30
0.0
 11
4135.9163010121
 21
1398.3628237086
 31
0.0
  0
LINE
  5
269
330
1F
100
AcDbEntity
  8
0
  6
Continuous
 62
     7
370
    25
100
AcDbLine
 10
4135.4163010121
 20
1398.3628237086
 30
0.0
 11
4135.6163010121
 21
1398.3628237086
 31
0.0
  0
LINE
  5
26A
330
1F
100
AcDbEntity
  8
0
  6
Continuous
 62
     7
370
    25
100
AcDbLine
 10
4135.9163010121
 20
1398.3628237086
 30
0.0
 11
4135.9163010121
 21
1407.7984397273
 31
0.0
  0
LINE
  5
26B
330
1F
100
AcDbEntity
  8
0
  6
Continuous
 62
     7
370
    25
100
AcDbLine
 10
4135.6163010121
 20
1435.1459720241
 30
0.0
 11
4135.4163010121
 21
1435.1459720241
 31
0.0
  0
LINE
  5
26C
330
1F
100
AcDbEntity
  8
0
  6
Continuous
 62
     7
370
    25
100
AcDbLine
 10
4135.9163010121
 20
1435.1459720241
 30
0.0
 11
4135.6163010121
 21
1435.1459720241
 31
0.0
  0
LINE
  5
26D
330
1F
100
AcDbEntity
  8
0
  6
Continuous
 62
     7
370
    25
100
AcDbLine
 10
4135.9163010121
 20
1425.7103560054
 30
0.0
 11
4135.9163010121
 21
1435.1459720241
 31
0.0
  0
SPLINE
  5
26E
330
1F
100
AcDbEntity
  8
0
  6
Continuous
 62
     7
370
    25
100
AcDbSpline
210
0.0
220
0.0
230
1.0
 70
    24
 71
     3
 72
    12
 73
     8
 74
     0
 42
0.00000001
 43
0.00000001
 40
0.0
 40
0.0
 40
0.0
 40
0.0
 40
0.1234882189607216
 40
0.3047574776067612
 40
0.4857888495158459
 40
0.6670582153995281
 40
1.0
 40
1.0
 40
1.0
 40
1.0
 10
4137.416301012061
 20
1388.254397866317
 30
0.0
 10
4137.376554443024
 20
1388.254397866317
 30
0.0
 10
4137.278463594967
 20
1388.254397866317
 30
0.0
 10
4137.038490306606
 20
1388.254397866317
 30
0.0
 10
4136.722876118113
 20
1388.254397866317
 30
0.0
 10
4136.255966029012
 20
1388.254397866318
 30
0.0
 10
4135.867697428776
 20
1388.254397866316
 30
0.0
 10
4135.616301012059
 20
1388.254397866315
 30
0.0
  0
LINE
  5
26F
330
1F
100
AcDbEntity
  8
0
  6
Continuous
 62
     7
370
    25
100
AcDbLine
 10
4135.6163010121
 20
1389.2543978663
 30
0.0
 11
4135.6163010121
 21
1388.2543978663
 31
0.0
  0
SPLINE
  5
270
330
1F
100
AcDbEntity
  8
0
  6
Continuous
 62
     7
370
    25
100
AcDbSpline
210
0.0
220
0.0
230
1.0
 70
    24
 71
     3
 72
    12
 73
     8
 74
     0
 42
0.00000001
 43
0.00000001
 40
0.0
 40
0.0
 40
0.0
 40
0.0
 40
0.3329369653743492
 40
0.5139656098129782
 40
0.6952322446446519
 40
0.8762609961853012
 40
1.0
 40
1.0
 40
1.0
 40
1.0
 10
4135.616301012053
 20
1445.254397866314
 30
0.0
 10
4135.867698425195
 20
1445.254397866315
 30
0.0
 10
4136.255788779194
 20
1445.254397866317
 30
0.0
 10
4136.722718048868
 20
1445.254397866316
 30
0.0
 10
4137.03823693789
 20
1445.254397866317
 30
0.0
 10
4137.278361156407
 20
1445.254397866316
 30
0.0
 10
4137.376468407418
 20
1445.254397866317
 30
0.0
 10
4137.41630101206
 20
1445.254397866317
 30
0.0
  0
LINE
  5
271
330
1F
100
AcDbEntity
  8
0
  6
Continuous
 62
     7
370
    25
100
AcDbLine
 10
4135.6163010121
 20
1444.2543978663
 30
0.0
 11
4135.6163010121
 21
1445.2543978663
 31
0.0
  0
SPLINE
  5
272
330
1F
100
AcDbEntity
  8
0
  6
Continuous
 62
     7
370
    25
100
AcDbSpline
210
0.0
220
0.0
230
1.0
 70
     8
 71
     3
 72
    10
 73
     6
 74
     0
 42
0.00000001
 43
0.00000001
 40
0.0
 40
0.0
 40
0.0
 40
0.0
 40
0.0371311943375682
 40
0.5486628195565926
 40
1.0
 40
1.0
 40
1.0
 40
1.0
 10
4137.416301012061
 20
1406.508633526145
 30
0.0
 10
4137.410678159848
 20
1406.51535187357
 30
0.0
 10
4137.327593034141
 20
1406.614624399192
 30
0.0
 10
4137.106037061558
 20
1406.715053312386
 30
0.0
 10
4136.874726172311
 20
1406.741841237216
 30
0.0
 10
4136.766301012056
 20
1406.754397866314
 30
0.0
  0
LINE
  5
273
330
1F
100
AcDbEntity
  8
0
  6
Continuous
 62
     7
370
    25
100
AcDbLine
 10
4135.6163010121
 20
1389.2543978663
 30
0.0
 11
4135.6163010121
 21
1398.3628237086
 31
0.0
  0
LINE
  5
274
330
1F
100
AcDbEntity
  8
0
  6
Continuous
 62
     7
370
    25
100
AcDbLine
 10
4135.9163010121
 20
1406.7543978663
 30
0.0
 11
4136.7663010121
 21
1406.7543978663
 31
0.0
  0
LINE
  5
275
330
1F
100
AcDbEntity
  8
0
  6
Continuous
 62
     7
370
    25
100
AcDbLine
 10
4135.4163010121
 20
1389.2543978663
 30
0.0
 11
4135.6163010121
 21
1389.2543978663
 31
0.0
  0
SPLINE
  5
276
330
1F
100
AcDbEntity
  8
0
  6
Continuous
 62
     7
370
    25
100
AcDbSpline
210
0.0
220
0.0
230
1.0
 70
     8
 71
     3
 72
     9
 73
     5
 74
     0
 42
0.00000001
 43
0.00000001
 40
0.0
 40
0.0
 40
0.0
 40
0.0
 40
0.5050081268941229
 40
1.0
 40
1.0
 40
1.0
 40
1.0
 10
4136.766301012055
 20
1426.754397866314
 30
0.0
 10
4136.889597283922
 20
1426.766617725698
 30
0.0
 10
4137.133744388299
 20
1426.790815077648
 30
0.0
 10
4137.322746501852
 20
1426.92789115091
 30
0.0
 10
4137.416301012061
 20
1426.995742693173
 30
0.0
  0
LINE
  5
277
330
1F
100
AcDbEntity
  8
0
  6
Continuous
 62
     7
370
    25
100
AcDbLine
 10
4135.6163010121
 20
1435.1459720241
 30
0.0
 11
4135.6163010121
 21
1444.2543978663
 31
0.0
  0
LINE
  5
278
330
1F
100
AcDbEntity
  8
0
  6
Continuous
 62
     7
370
    25
100
AcDbLine
 10
4136.7663010121
 20
1426.7543978663
 30
0.0
 11
4135.9163010121
 21
1426.7543978663
 31
0.0
  0
LINE
  5
279
330
1F
100
AcDbEntity
  8
0
  6
Continuous
 62
     7
370
    25
100
AcDbLine
 10
4135.4163010121
 20
1444.2543978663
 30
0.0
 11
4135.6163010121
 21
1444.2543978663
 31
0.0
  0
LINE
  5
27A
330
1F
100
AcDbEntity
  8
0
  6
Continuous
 62
     7
370
    25
100
AcDbLine
 10
4135.4163010121
 20
1388.2543978663
 30
0.0
 11
4135.6163010121
 21
1388.2543978663
 31
0.0
  0
LINE
  5
27B
330
1F
100
AcDbEntity
  8
0
  6
Continuous
 62
     7
370
    25
100
AcDbLine
 10
4135.4163010121
 20
1445.2543978663
 30
0.0
 11
4135.6163010121
 21
1445.2543978663
 31
0.0
  0
LINE
  5
27C
330
1F
100
AcDbEntity
  8
0
  6
Continuous
 62
     7
370
    25
100
AcDbLine
 10
4135.9163010121
 20
687.7984397273
 30
0.0
 11
4135.4163010121
 21
687.7984397273
 31
0.0
  0
LINE
  5
27D
330
1F
100
AcDbEntity
  8
0
  6
Continuous
 62
     7
370
    25
100
AcDbLine
 10
4135.9163010121
 20
689.3543978665
 30
0.0
 11
4135.4163010121
 21
689.3543978665
 31
0.0
  0
LINE
  5
27E
330
1F
100
AcDbEntity
  8
0
  6
Continuous
 62
     7
370
    25
100
AcDbLine
 10
4135.9163010121
 20
689.3543978665
 30
0.0
 11
4135.9163010121
 21
687.7984397273
 31
0.0
  0
LINE
  5
27F
330
1F
100
AcDbEntity
  8
0
  6
Continuous
 62
     7
370
    25
100
AcDbLine
 10
4135.4163010121
 20
705.7103560054
 30
0.0
 11
4135.9163010121
 21
705.7103560054
 31
0.0
  0
LINE
  5
280
330
1F
100
AcDbEntity
  8
0
  6
Continuous
 62
     7
370
    25
100
AcDbLine
 10
4135.9163010121
 20
705.7103560054
 30
0.0
 11
4135.9163010121
 21
704.1543978661
 31
0.0
  0
LINE
  5
281
330
1F
100
AcDbEntity
  8
0
  6
Continuous
 62
     7
370
    25
100
AcDbLine
 10
4135.4163010121
 20
704.1543978661
 30
0.0
 11
4135.9163010121
 21
704.1543978661
 31
0.0
  0
LINE
  5
282
330
1F
100
AcDbEntity
  8
0
  6
Continuous
 62
     7
370
    25
100
AcDbLine
 10
4135.6163010121
 20
678.3628237086
 30
0.0
 11
4135.9163010121
 21
678.3628237086
 31
0.0
  0
LINE
  5
283
330
1F
100
AcDbEntity
  8
0
  6
Continuous
 62
     7
370
    25
100
AcDbLine
 10
4135.4163010121
 20
678.3628237086
 30
0.0
 11
4135.6163010121
 21
678.3628237086
 31
0.0
  0
LINE
  5
284
330
1F
100
AcDbEntity
  8
0
  6
Continuous
 62
     7
370
    25
100
AcDbLine
 10
4135.9163010121
 20
678.3628237086
 30
0.0
 11
4135.9163010121
 21
687.7984397273
 31
0.0
  0
LINE
  5
285
330
1F
100
AcDbEntity
  8
0
  6
Continuous
 62
     7
370
    25
100
AcDbLine
 10
4135.6163010121
 20
715.1459720241
 30
0.0
 11
4135.4163010121
 21
715.1459720241
 31
0.0
  0
LINE
  5
286
330
1F
100
AcDbEntity
  8
0
  6
Continuous
 62
     7
370
    25
100
AcDbLine
 10
4135.9163010121
 20
715.1459720241
 30
0.0
 11
4135.6163010121
 21
715.1459720241
 31
0.0
  0
LINE
  5
287
330
1F
100
AcDbEntity
  8
0
  6
Continuous
 62
     7
370
    25
100
AcDbLine
 10
4135.9163010121
 20
705.7103560054
 30
0.0
 11
4135.9163010121
 21
715.1459720241
 31
0.0
  0
SPLINE
  5
288
330
1F
100
AcDbEntity
  8
0
  6
Continuous
 62
     7
370
    25
100
AcDbSpline
210
0.0
220
0.0
230
1.0
 70
    24
 71
     3
 72
    12
 73
     8
 74
     0
 42
0.00000001
 43
0.00000001
 40
0.0
 40
0.0
 40
0.0
 40
0.0
 40
0.1234882189611566
 40
0.3047574776071062
 40
0.4857888495161011
 40
0.6670582153996933
 40
1.0
 40
1.0
 40
1.0
 40
1.0
 10
4137.416301012061
 20
668.2543978663172
 30
0.0
 10
4137.376554443024
 20
668.2543978663172
 30
0.0
 10
4137.278463594966
 20
668.2543978663172
 30
0.0
 10
4137.038490306605
 20
668.2543978663172
 30
0.0
 10
4136.722876118112
 20
668.2543978663172
 30
0.0
 10
4136.255966029012
 20
668.2543978663176
 30
0.0
 10
4135.867697428775
 20
668.2543978663156
 30
0.0
 10
4135.616301012059
 20
668.2543978663142
 30
0.0
  0
LINE
  5
289
330
1F
100
AcDbEntity
  8
0
  6
Continuous
 62
     7
370
    25
100
AcDbLine
 10
4135.6163010121
 20
669.2543978663
 30
0.0
 11
4135.6163010121
 21
668.2543978663
 31
0.0
  0
SPLINE
  5
28A
330
1F
100
AcDbEntity
  8
0
  6
Continuous
 62
     7
370
    25
100
AcDbSpline
210
0.0
220
0.0
230
1.0
 70
    24
 71
     3
 72
    12
 73
     8
 74
     0
 42
0.00000001
 43
0.00000001
 40
0.0
 40
0.0
 40
0.0
 40
0.0
 40
0.332936965374201
 40
0.5139656098127494
 40
0.6952322446443736
 40
0.8762609961849039
 40
1.0
 40
1.0
 40
1.0
 40
1.0
 10
4135.616301012053
 20
725.2543978663133
 30
0.0
 10
4135.867698425194
 20
725.2543978663147
 30
0.0
 10
4136.255788779193
 20
725.2543978663168
 30
0.0
 10
4136.722718048867
 20
725.2543978663163
 30
0.0
 10
4137.038236937889
 20
725.2543978663164
 30
0.0
 10
4137.278361156407
 20
725.2543978663164
 30
0.0
 10
4137.376468407417
 20
725.2543978663164
 30
0.0
 10
4137.41630101206
 20
725.2543978663164
 30
0.0
  0
LINE
  5
28B
330
1F
100
AcDbEntity
  8
0
  6
Continuous
 62
     7
370
    25
100
AcDbLine
 10
4135.6163010121
 20
724.2543978663
 30
0.0
 11
4135.6163010121
 21
725.2543978663
 31
0.0
  0
LINE
  5
28C
330
1F
100
AcDbEntity
  8
0
  6
Continuous
 62
     7
370
    25
100
AcDbLine
 10
4135.4163010121
 20
669.2543978663
 30
0.0
 11
4135.6163010121
 21
669.2543978663
 31
0.0
  0
LINE
  5
28D
330
1F
100
AcDbEntity
  8
0
  6
Continuous
 62
     7
370
    25
100
AcDbLine
 10
4135.6163010121
 20
669.2543978663
 30
0.0
 11
4135.6163010121
 21
678.3628237086
 31
0.0
  0
SPLINE
  5
28E
330
1F
100
AcDbEntity
  8
0
  6
Continuous
 62
     7
370
    25
100
AcDbSpline
210
0.0
220
0.0
230
1.0
 70
     8
 71
     3
 72
    10
 73
     6
 74
     0
 42
0.00000001
 43
0.00000001
 40
0.0
 40
0.0
 40
0.0
 40
0.0
 40
0.0371311943386231
 40
0.5486628195570871
 40
1.0
 40
1.0
 40
1.0
 40
1.0
 10
4137.416301012061
 20
686.5086335261445
 30
0.0
 10
4137.410678159848
 20
686.5153518735702
 30
0.0
 10
4137.32759303414
 20
686.6146243991917
 30
0.0
 10
4137.106037061557
 20
686.7150533123856
 30
0.0
 10
4136.87472617231
 20
686.7418412372157
 30
0.0
 10
4136.766301012056
 20
686.7543978663138
 30
0.0
  0
LINE
  5
28F
330
1F
100
AcDbEntity
  8
0
  6
Continuous
 62
     7
370
    25
100
AcDbLine
 10
4135.9163010121
 20
686.7543978663
 30
0.0
 11
4136.7663010121
 21
686.7543978663
 31
0.0
  0
SPLINE
  5
290
330
1F
100
AcDbEntity
  8
0
  6
Continuous
 62
     7
370
    25
100
AcDbSpline
210
0.0
220
0.0
230
1.0
 70
     8
 71
     3
 72
     9
 73
     5
 74
     0
 42
0.00000001
 43
0.00000001
 40
0.0
 40
0.0
 40
0.0
 40
0.0
 40
0.5050081268937117
 40
1.0
 40
1.0
 40
1.0
 40
1.0
 10
4136.766301012054
 20
706.7543978663142
 30
0.0
 10
4136.889597283922
 20
706.7666177256981
 30
0.0
 10
4137.133744388298
 20
706.7908150776476
 30
0.0
 10
4137.322746501852
 20
706.9278911509102
 30
0.0
 10
4137.416301012061
 20
706.9957426931726
 30
0.0
  0
LINE
  5
291
330
1F
100
AcDbEntity
  8
0
  6
Continuous
 62
     7
370
    25
100
AcDbLine
 10
4135.6163010121
 20
715.1459720241
 30
0.0
 11
4135.6163010121
 21
724.2543978663
 31
0.0
  0
LINE
  5
292
330
1F
100
AcDbEntity
  8
0
  6
Continuous
 62
     7
370
    25
100
AcDbLine
 10
4136.7663010121
 20
706.7543978663
 30
0.0
 11
4135.9163010121
 21
706.7543978663
 31
0.0
  0
LINE
  5
293
330
1F
100
AcDbEntity
  8
0
  6
Continuous
 62
     7
370
    25
100
AcDbLine
 10
4135.4163010121
 20
724.2543978663
 30
0.0
 11
4135.6163010121
 21
724.2543978663
 31
0.0
  0
LINE
  5
294
330
1F
100
AcDbEntity
  8
0
  6
Continuous
 62
     7
370
    25
100
AcDbLine
 10
4135.4163010121
 20
668.2543978663
 30
0.0
 11
4135.6163010121
 21
668.2543978663
 31
0.0
  0
LINE
  5
295
330
1F
100
AcDbEntity
  8
0
  6
Continuous
 62
     7
370
    25
100
AcDbLine
 10
4135.4163010121
 20
725.2543978663
 30
0.0
 11
4135.6163010121
 21
725.2543978663
 31
0.0
  0
LINE
  5
296
330
1F
100
AcDbEntity
  8
0
  6
Continuous
 62
     7
370
    25
100
AcDbLine
 10
4135.9163010121
 20
2307.7984397273
 30
0.0
 11
4135.4163010121
 21
2307.7984397273
 31
0.0
  0
LINE
  5
297
330
1F
100
AcDbEntity
  8
0
  6
Continuous
 62
     7
370
    25
100
AcDbLine
 10
4135.9163010121
 20
2309.3543978665
 30
0.0
 11
4135.4163010121
 21
2309.3543978665
 31
0.0
  0
LINE
  5
298
330
1F
100
AcDbEntity
  8
0
  6
Continuous
 62
     7
370
    25
100
AcDbLine
 10
4135.9163010121
 20
2309.3543978665
 30
0.0
 11
4135.9163010121
 21
2307.7984397273
 31
0.0
  0
LINE
  5
299
330
1F
100
AcDbEntity
  8
0
  6
Continuous
 62
     7
370
    25
100
AcDbLine
 10
4135.4163010121
 20
2325.7103560054
 30
0.0
 11
4135.9163010121
 21
2325.7103560054
 31
0.0
  0
LINE
  5
29A
330
1F
100
AcDbEntity
  8
0
  6
Continuous
 62
     7
370
    25
100
AcDbLine
 10
4135.9163010121
 20
2325.7103560054
 30
0.0
 11
4135.9163010121
 21
2324.1543978661
 31
0.0
  0
LINE
  5
29B
330
1F
100
AcDbEntity
  8
0
  6
Continuous
 62
     7
370
    25
100
AcDbLine
 10
4135.4163010121
 20
2324.1543978661
 30
0.0
 11
4135.9163010121
 21
2324.1543978661
 31
0.0
  0
LINE
  5
29C
330
1F
100
AcDbEntity
  8
0
  6
Continuous
 62
     7
370
    25
100
AcDbLine
 10
4135.6163010121
 20
2298.3628237086
 30
0.0
 11
4135.9163010121
 21
2298.3628237086
 31
0.0
  0
LINE
  5
29D
330
1F
100
AcDbEntity
  8
0
  6
Continuous
 62
     7
370
    25
100
AcDbLine
 10
4135.4163010121
 20
2298.3628237086
 30
0.0
 11
4135.6163010121
 21
2298.3628237086
 31
0.0
  0
LINE
  5
29E
330
1F
100
AcDbEntity
  8
0
  6
Continuous
 62
     7
370
    25
100
AcDbLine
 10
4135.9163010121
 20
2298.3628237086
 30
0.0
 11
4135.9163010121
 21
2307.7984397273
 31
0.0
  0
LINE
  5
29F
330
1F
100
AcDbEntity
  8
0
  6
Continuous
 62
     7
370
    25
100
AcDbLine
 10
4135.6163010121
 20
2335.1459720241
 30
0.0
 11
4135.4163010121
 21
2335.1459720241
 31
0.0
  0
LINE
  5
2A0
330
1F
100
AcDbEntity
  8
0
  6
Continuous
 62
     7
370
    25
100
AcDbLine
 10
4135.9163010121
 20
2335.1459720241
 30
0.0
 11
4135.6163010121
 21
2335.1459720241
 31
0.0
  0
LINE
  5
2A1
330
1F
100
AcDbEntity
  8
0
  6
Continuous
 62
     7
370
    25
100
AcDbLine
 10
4135.9163010121
 20
2325.7103560054
 30
0.0
 11
4135.9163010121
 21
2335.1459720241
 31
0.0
  0
SPLINE
  5
2A2
330
1F
100
AcDbEntity
  8
0
  6
Continuous
 62
     7
370
    25
100
AcDbSpline
210
0.0
220
0.0
230
1.0
 70
    24
 71
     3
 72
    12
 73
     8
 74
     0
 42
0.00000001
 43
0.00000001
 40
0.0
 40
0.0
 40
0.0
 40
0.0
 40
0.1234882189602284
 40
0.30475747760637
 40
0.4857888495155564
 40
0.6670582153993406
 40
1.0
 40
1.0
 40
1.0
 40
1.0
 10
4137.41630101206
 20
2288.254397866318
 30
0.0
 10
4137.376554443024
 20
2288.254397866318
 30
0.0
 10
4137.278463594967
 20
2288.254397866318
 30
0.0
 10
4137.038490306606
 20
2288.254397866317
 30
0.0
 10
4136.722876118113
 20
2288.254397866318
 30
0.0
 10
4136.255966029013
 20
2288.254397866317
 30
0.0
 10
4135.867697428776
 20
2288.254397866315
 30
0.0
 10
4135.616301012059
 20
2288.254397866315
 30
0.0
  0
LINE
  5
2A3
330
1F
100
AcDbEntity
  8
0
  6
Continuous
 62
     7
370
    25
100
AcDbLine
 10
4135.6163010121
 20
2289.2543978663
 30
0.0
 11
4135.6163010121
 21
2288.2543978663
 31
0.0
  0
SPLINE
  5
2A4
330
1F
100
AcDbEntity
  8
0
  6
Continuous
 62
     7
370
    25
100
AcDbSpline
210
0.0
220
0.0
230
1.0
 70
    24
 71
     3
 72
    12
 73
     8
 74
     0
 42
0.00000001
 43
0.00000001
 40
0.0
 40
0.0
 40
0.0
 40
0.0
 40
0.3329369653745511
 40
0.51396560981329
 40
0.6952322446450737
 40
0.8762609961858326
 40
1.0
 40
1.0
 40
1.0
 40
1.0
 10
4135.616301012054
 20
2345.254397866314
 30
0.0
 10
4135.867698425195
 20
2345.254397866315
 30
0.0
 10
4136.255788779194
 20
2345.254397866317
 30
0.0
 10
4136.722718048868
 20
2345.254397866317
 30
0.0
 10
4137.038236937891
 20
2345.254397866316
 30
0.0
 10
4137.278361156407
 20
2345.254397866317
 30
0.0
 10
4137.376468407418
 20
2345.254397866317
 30
0.0
 10
4137.41630101206
 20
2345.254397866317
 30
0.0
  0
LINE
  5
2A5
330
1F
100
AcDbEntity
  8
0
  6
Continuous
 62
     7
370
    25
100
AcDbLine
 10
4135.6163010121
 20
2344.2543978663
 30
0.0
 11
4135.6163010121
 21
2345.2543978663
 31
0.0
  0
LINE
  5
2A6
330
1F
100
AcDbEntity
  8
0
  6
Continuous
 62
     7
370
    25
100
AcDbLine
 10
4135.4163010121
 20
2289.2543978663
 30
0.0
 11
4135.6163010121
 21
2289.2543978663
 31
0.0
  0
LINE
  5
2A7
330
1F
100
AcDbEntity
  8
0
  6
Continuous
 62
     7
370
    25
100
AcDbLine
 10
4135.6163010121
 20
2289.2543978663
 30
0.0
 11
4135.6163010121
 21
2298.3628237086
 31
0.0
  0
SPLINE
  5
2A8
330
1F
100
AcDbEntity
  8
0
  6
Continuous
 62
     7
370
    25
100
AcDbSpline
210
0.0
220
0.0
230
1.0
 70
     8
 71
     3
 72
    10
 73
     6
 74
     0
 42
0.00000001
 43
0.00000001
 40
0.0
 40
0.0
 40
0.0
 40
0.0
 40
0.0371311943362686
 40
0.5486628195559834
 40
0.9999999999999999
 40
0.9999999999999999
 40
0.9999999999999999
 40
0.9999999999999999
 10
4137.416301012061
 20
2306.508633526146
 30
0.0
 10
4137.410678159848
 20
2306.515351873572
 30
0.0
 10
4137.327593034142
 20
2306.614624399191
 30
0.0
 10
4137.106037061558
 20
2306.715053312387
 30
0.0
 10
4136.874726172311
 20
2306.741841237216
 30
0.0
 10
4136.766301012057
 20
2306.754397866314
 30
0.0
  0
LINE
  5
2A9
330
1F
100
AcDbEntity
  8
0
  6
Continuous
 62
     7
370
    25
100
AcDbLine
 10
4135.9163010121
 20
2306.7543978663
 30
0.0
 11
4136.7663010121
 21
2306.7543978663
 31
0.0
  0
SPLINE
  5
2AA
330
1F
100
AcDbEntity
  8
0
  6
Continuous
 62
     7
370
    25
100
AcDbSpline
210
0.0
220
0.0
230
1.0
 70
     8
 71
     3
 72
     9
 73
     5
 74
     0
 42
0.00000001
 43
0.00000001
 40
0.0
 40
0.0
 40
0.0
 40
0.0
 40
0.5050081268946763
 40
1.0
 40
1.0
 40
1.0
 40
1.0
 10
4136.766301012055
 20
2326.754397866315
 30
0.0
 10
4136.889597283923
 20
2326.766617725699
 30
0.0
 10
4137.133744388299
 20
2326.790815077648
 30
0.0
 10
4137.322746501852
 20
2326.92789115091
 30
0.0
 10
4137.416301012061
 20
2326.995742693172
 30
0.0
  0
LINE
  5
2AB
330
1F
100
AcDbEntity
  8
0
  6
Continuous
 62
     7
370
    25
100
AcDbLine
 10
4135.6163010121
 20
2335.1459720241
 30
0.0
 11
4135.6163010121
 21
2344.2543978663
 31
0.0
  0
LINE
  5
2AC
330
1F
100
AcDbEntity
  8
0
  6
Continuous
 62
     7
370
    25
100
AcDbLine
 10
4136.7663010121
 20
2326.7543978663
 30
0.0
 11
4135.9163010121
 21
2326.7543978663
 31
0.0
  0
LINE
  5
2AD
330
1F
100
AcDbEntity
  8
0
  6
Continuous
 62
     7
370
    25
100
AcDbLine
 10
4135.4163010121
 20
2344.2543978663
 30
0.0
 11
4135.6163010121
 21
2344.2543978663
 31
0.0
  0
LINE
  5
2AE
330
1F
100
AcDbEntity
  8
0
  6
Continuous
 62
     7
370
    25
100
AcDbLine
 10
4135.4163010121
 20
2288.2543978663
 30
0.0
 11
4135.6163010121
 21
2288.2543978663
 31
0.0
  0
LINE
  5
2AF
330
1F
100
AcDbEntity
  8
0
  6
Continuous
 62
     7
370
    25
100
AcDbLine
 10
4135.4163010121
 20
2345.2543978663
 30
0.0
 11
4135.6163010121
 21
2345.2543978663
 31
0.0
  0
LINE
  5
2B0
330
1F
100
AcDbEntity
  8
0
  6
Continuous
 62
     7
370
    25
100
AcDbLine
 10
4135.9163010121
 20
1937.7984397273
 30
0.0
 11
4135.4163010121
 21
1937.7984397273
 31
0.0
  0
LINE
  5
2B1
330
1F
100
AcDbEntity
  8
0
  6
Continuous
 62
     7
370
    25
100
AcDbLine
 10
4135.9163010121
 20
1939.3543978665
 30
0.0
 11
4135.4163010121
 21
1939.3543978665
 31
0.0
  0
LINE
  5
2B2
330
1F
100
AcDbEntity
  8
0
  6
Continuous
 62
     7
370
    25
100
AcDbLine
 10
4135.9163010121
 20
1939.3543978665
 30
0.0
 11
4135.9163010121
 21
1937.7984397273
 31
0.0
  0
LINE
  5
2B3
330
1F
100
AcDbEntity
  8
0
  6
Continuous
 62
     7
370
    25
100
AcDbLine
 10
4135.4163010121
 20
1955.7103560054
 30
0.0
 11
4135.9163010121
 21
1955.7103560054
 31
0.0
  0
LINE
  5
2B4
330
1F
100
AcDbEntity
  8
0
  6
Continuous
 62
     7
370
    25
100
AcDbLine
 10
4135.9163010121
 20
1955.7103560054
 30
0.0
 11
4135.9163010121
 21
1954.1543978661
 31
0.0
  0
LINE
  5
2B5
330
1F
100
AcDbEntity
  8
0
  6
Continuous
 62
     7
370
    25
100
AcDbLine
 10
4135.4163010121
 20
1954.1543978661
 30
0.0
 11
4135.9163010121
 21
1954.1543978661
 31
0.0
  0
LINE
  5
2B6
330
1F
100
AcDbEntity
  8
0
  6
Continuous
 62
     7
370
    25
100
AcDbLine
 10
4135.6163010121
 20
1928.3628237086
 30
0.0
 11
4135.9163010121
 21
1928.3628237086
 31
0.0
  0
LINE
  5
2B7
330
1F
100
AcDbEntity
  8
0
  6
Continuous
 62
     7
370
    25
100
AcDbLine
 10
4135.4163010121
 20
1928.3628237086
 30
0.0
 11
4135.6163010121
 21
1928.3628237086
 31
0.0
  0
LINE
  5
2B8
330
1F
100
AcDbEntity
  8
0
  6
Continuous
 62
     7
370
    25
100
AcDbLine
 10
4135.9163010121
 20
1928.3628237086
 30
0.0
 11
4135.9163010121
 21
1937.7984397273
 31
0.0
  0
LINE
  5
2B9
330
1F
100
AcDbEntity
  8
0
  6
Continuous
 62
     7
370
    25
100
AcDbLine
 10
4135.6163010121
 20
1965.1459720241
 30
0.0
 11
4135.4163010121
 21
1965.1459720241
 31
0.0
  0
LINE
  5
2BA
330
1F
100
AcDbEntity
  8
0
  6
Continuous
 62
     7
370
    25
100
AcDbLine
 10
4135.9163010121
 20
1965.1459720241
 30
0.0
 11
4135.6163010121
 21
1965.1459720241
 31
0.0
  0
LINE
  5
2BB
330
1F
100
AcDbEntity
  8
0
  6
Continuous
 62
     7
370
    25
100
AcDbLine
 10
4135.9163010121
 20
1955.7103560054
 30
0.0
 11
4135.9163010121
 21
1965.1459720241
 31
0.0
  0
SPLINE
  5
2BC
330
1F
100
AcDbEntity
  8
0
  6
Continuous
 62
     7
370
    25
100
AcDbSpline
210
0.0
220
0.0
230
1.0
 70
    24
 71
     3
 72
    12
 73
     8
 74
     0
 42
0.00000001
 43
0.00000001
 40
0.0
 40
0.0
 40
0.0
 40
0.0
 40
0.1234882189616398
 40
0.3047574776074895
 40
0.4857888495163845
 40
0.6670582153998769
 40
1.0
 40
1.0
 40
1.0
 40
1.0
 10
4137.416301012061
 20
1918.254397866319
 30
0.0
 10
4137.376554443024
 20
1918.254397866319
 30
0.0
 10
4137.278463594966
 20
1918.254397866319
 30
0.0
 10
4137.038490306604
 20
1918.254397866319
 30
0.0
 10
4136.722876118112
 20
1918.254397866318
 30
0.0
 10
4136.255966029011
 20
1918.25439786632
 30
0.0
 10
4135.867697428774
 20
1918.254397866318
 30
0.0
 10
4135.616301012058
 20
1918.254397866316
 30
0.0
  0
LINE
  5
2BD
330
1F
100
AcDbEntity
  8
0
  6
Continuous
 62
     7
370
    25
100
AcDbLine
 10
4135.6163010121
 20
1919.2543978663
 30
0.0
 11
4135.6163010121
 21
1918.2543978663
 31
0.0
  0
SPLINE
  5
2BE
330
1F
100
AcDbEntity
  8
0
  6
Continuous
 62
     7
370
    25
100
AcDbSpline
210
0.0
220
0.0
230
1.0
 70
    24
 71
     3
 72
    12
 73
     8
 74
     0
 42
0.00000001
 43
0.00000001
 40
0.0
 40
0.0
 40
0.0
 40
0.0
 40
0.3329369653740151
 40
0.5139656098124624
 40
0.6952322446439542
 40
0.8762609961844217
 40
1.0
 40
1.0
 40
1.0
 40
1.0
 10
4135.616301012052
 20
1975.254397866315
 30
0.0
 10
4135.867698425194
 20
1975.254397866316
 30
0.0
 10
4136.255788779192
 20
1975.254397866319
 30
0.0
 10
4136.722718048866
 20
1975.254397866318
 30
0.0
 10
4137.038236937889
 20
1975.254397866318
 30
0.0
 10
4137.278361156406
 20
1975.254397866318
 30
0.0
 10
4137.376468407417
 20
1975.254397866318
 30
0.0
 10
4137.41630101206
 20
1975.254397866318
 30
0.0
  0
LINE
  5
2BF
330
1F
100
AcDbEntity
  8
0
  6
Continuous
 62
     7
370
    25
100
AcDbLine
 10
4135.6163010121
 20
1974.2543978663
 30
0.0
 11
4135.6163010121
 21
1975.2543978663
 31
0.0
  0
SPLINE
  5
2C0
330
1F
100
AcDbEntity
  8
0
  6
Continuous
 62
     7
370
    25
100
AcDbSpline
210
0.0
220
0.0
230
1.0
 70
     8
 71
     3
 72
    10
 73
     6
 74
     0
 42
0.00000001
 43
0.00000001
 40
0.0
 40
0.0
 40
0.0
 40
0.0
 40
0.0371311943397835
 40
0.548662819557631
 40
1.0
 40
1.0
 40
1.0
 40
1.0
 10
4137.416301012061
 20
1936.508633526146
 30
0.0
 10
4137.410678159847
 20
1936.515351873572
 30
0.0
 10
4137.327593034141
 20
1936.614624399192
 30
0.0
 10
4137.106037061556
 20
1936.715053312388
 30
0.0
 10
4136.874726172309
 20
1936.741841237218
 30
0.0
 10
4136.766301012055
 20
1936.754397866316
 30
0.0
  0
LINE
  5
2C1
330
1F
100
AcDbEntity
  8
0
  6
Continuous
 62
     7
370
    25
100
AcDbLine
 10
4135.6163010121
 20
1919.2543978663
 30
0.0
 11
4135.6163010121
 21
1928.3628237086
 31
0.0
  0
LINE
  5
2C2
330
1F
100
AcDbEntity
  8
0
  6
Continuous
 62
     7
370
    25
100
AcDbLine
 10
4135.9163010121
 20
1936.7543978663
 30
0.0
 11
4136.7663010121
 21
1936.7543978663
 31
0.0
  0
LINE
  5
2C3
330
1F
100
AcDbEntity
  8
0
  6
Continuous
 62
     7
370
    25
100
AcDbLine
 10
4135.4163010121
 20
1919.2543978663
 30
0.0
 11
4135.6163010121
 21
1919.2543978663
 31
0.0
  0
SPLINE
  5
2C4
330
1F
100
AcDbEntity
  8
0
  6
Continuous
 62
     7
370
    25
100
AcDbSpline
210
0.0
220
0.0
230
1.0
 70
     8
 71
     3
 72
     9
 73
     5
 74
     0
 42
0.00000001
 43
0.00000001
 40
0.0
 40
0.0
 40
0.0
 40
0.0
 40
0.5050081268932272
 40
1.0
 40
1.0
 40
1.0
 40
1.0
 10
4136.766301012053
 20
1956.754397866316
 30
0.0
 10
4136.889597283921
 20
1956.7666177257
 30
0.0
 10
4137.133744388298
 20
1956.79081507765
 30
0.0
 10
4137.322746501851
 20
1956.927891150912
 30
0.0
 10
4137.41630101206
 20
1956.995742693175
 30
0.0
  0
LINE
  5
2C5
330
1F
100
AcDbEntity
  8
0
  6
Continuous
 62
     7
370
    25
100
AcDbLine
 10
4135.6163010121
 20
1965.1459720241
 30
0.0
 11
4135.6163010121
 21
1974.2543978663
 31
0.0
  0
LINE
  5
2C6
330
1F
100
AcDbEntity
  8
0
  6
Continuous
 62
     7
370
    25
100
AcDbLine
 10
4136.7663010121
 20
1956.7543978663
 30
0.0
 11
4135.9163010121
 21
1956.7543978663
 31
0.0
  0
LINE
  5
2C7
330
1F
100
AcDbEntity
  8
0
  6
Continuous
 62
     7
370
    25
100
AcDbLine
 10
4135.4163010121
 20
1974.2543978663
 30
0.0
 11
4135.6163010121
 21
1974.2543978663
 31
0.0
  0
LINE
  5
2C8
330
1F
100
AcDbEntity
  8
0
  6
Continuous
 62
     7
370
    25
100
AcDbLine
 10
4135.4163010121
 20
1918.2543978663
 30
0.0
 11
4135.6163010121
 21
1918.2543978663
 31
0.0
  0
LINE
  5
2C9
330
1F
100
AcDbEntity
  8
0
  6
Continuous
 62
     7
370
    25
100
AcDbLine
 10
4135.4163010121
 20
1975.2543978663
 30
0.0
 11
4135.6163010121
 21
1975.2543978663
 31
0.0
  0
LINE
  5
2CA
330
1F
100
AcDbEntity
  8
0
  6
Continuous
 62
     7
370
    25
100
AcDbLine
 10
4137.2814859371
 20
2308.3793978663
 30
0.0
 11
4137.2814859371
 21
2309.3043978663
 31
0.0
  0
LINE
  5
2CB
330
1F
100
AcDbEntity
  8
0
  6
Continuous
 62
     7
370
    25
100
AcDbLine
 10
4137.2814859371
 20
2324.2043978663
 30
0.0
 11
4137.2814859371
 21
2325.1293978663
 31
0.0
  0
LINE
  5
2CC
330
1F
100
AcDbEntity
  8
0
  6
Continuous
 62
     7
370
    25
100
AcDbLine
 10
4137.2814859371
 20
2325.1293978663
 30
0.0
 11
4137.4163010121
 21
2325.1293978663
 31
0.0
  0
LINE
  5
2CD
330
1F
100
AcDbEntity
  8
0
  6
Continuous
 62
     7
370
    25
100
AcDbLine
 10
4137.4163010121
 20
2308.3793978663
 30
0.0
 11
4137.2814859371
 21
2308.3793978663
 31
0.0
  0
LINE
  5
2CE
330
1F
100
AcDbEntity
  8
0
  6
Continuous
 62
     7
370
    25
100
AcDbLine
 10
4135.9163010121
 20
2325.1293978663
 30
0.0
 11
4137.2814859371
 21
2325.1293978663
 31
0.0
  0
LINE
  5
2CF
330
1F
100
AcDbEntity
  8
0
  6
Continuous
 62
     7
370
    25
100
AcDbLine
 10
4137.2814859371
 20
2308.3793978663
 30
0.0
 11
4135.9163010121
 21
2308.3793978663
 31
0.0
  0
LINE
  5
2D0
330
1F
100
AcDbEntity
  8
0
  6
Continuous
 62
     7
370
    25
100
AcDbLine
 10
4137.2814859371
 20
1408.3793978663
 30
0.0
 11
4137.2814859371
 21
1409.3043978663
 31
0.0
  0
LINE
  5
2D1
330
1F
100
AcDbEntity
  8
0
  6
Continuous
 62
     7
370
    25
100
AcDbLine
 10
4137.2814859371
 20
1424.2043978663
 30
0.0
 11
4137.2814859371
 21
1425.1293978663
 31
0.0
  0
LINE
  5
2D2
330
1F
100
AcDbEntity
  8
0
  6
Continuous
 62
     7
370
    25
100
AcDbLine
 10
4137.2814859371
 20
1425.1293978663
 30
0.0
 11
4137.4163010121
 21
1425.1293978663
 31
0.0
  0
LINE
  5
2D3
330
1F
100
AcDbEntity
  8
0
  6
Continuous
 62
     7
370
    25
100
AcDbLine
 10
4137.4163010121
 20
1408.3793978663
 30
0.0
 11
4137.2814859371
 21
1408.3793978663
 31
0.0
  0
LINE
  5
2D4
330
1F
100
AcDbEntity
  8
0
  6
Continuous
 62
     7
370
    25
100
AcDbLine
 10
4135.9163010121
 20
1425.1293978663
 30
0.0
 11
4137.2814859371
 21
1425.1293978663
 31
0.0
  0
LINE
  5
2D5
330
1F
100
AcDbEntity
  8
0
  6
Continuous
 62
     7
370
    25
100
AcDbLine
 10
4137.2814859371
 20
1408.3793978663
 30
0.0
 11
4135.9163010121
 21
1408.3793978663
 31
0.0
  0
LINE
  5
2D6
330
1F
100
AcDbEntity
  8
0
  6
Continuous
 62
     7
370
    25
100
AcDbLine
 10
4137.2814859371
 20
1938.3793978663
 30
0.0
 11
4137.2814859371
 21
1939.3043978663
 31
0.0
  0
LINE
  5
2D7
330
1F
100
AcDbEntity
  8
0
  6
Continuous
 62
     7
370
    25
100
AcDbLine
 10
4137.2814859371
 20
1954.2043978663
 30
0.0
 11
4137.2814859371
 21
1955.1293978663
 31
0.0
  0
LINE
  5
2D8
330
1F
100
AcDbEntity
  8
0
  6
Continuous
 62
     7
370
    25
100
AcDbLine
 10
4137.2814859371
 20
1955.1293978663
 30
0.0
 11
4137.4163010121
 21
1955.1293978663
 31
0.0
  0
LINE
  5
2D9
330
1F
100
AcDbEntity
  8
0
  6
Continuous
 62
     7
370
    25
100
AcDbLine
 10
4137.4163010121
 20
1938.3793978663
 30
0.0
 11
4137.2814859371
 21
1938.3793978663
 31
0.0
  0
LINE
  5
2DA
330
1F
100
AcDbEntity
  8
0
  6
Continuous
 62
     7
370
    25
100
AcDbLine
 10
4135.9163010121
 20
1955.1293978663
 30
0.0
 11
4137.2814859371
 21
1955.1293978663
 31
0.0
  0
LINE
  5
2DB
330
1F
100
AcDbEntity
  8
0
  6
Continuous
 62
     7
370
    25
100
AcDbLine
 10
4137.2814859371
 20
1938.3793978663
 30
0.0
 11
4135.9163010121
 21
1938.3793978663
 31
0.0
  0
LINE
  5
2DC
330
1F
100
AcDbEntity
  8
0
  6
Continuous
 62
     7
370
    25
100
AcDbLine
 10
4137.2814859371
 20
688.3793978663
 30
0.0
 11
4137.2814859371
 21
689.3043978663
 31
0.0
  0
LINE
  5
2DD
330
1F
100
AcDbEntity
  8
0
  6
Continuous
 62
     7
370
    25
100
AcDbLine
 10
4137.2814859371
 20
704.2043978663
 30
0.0
 11
4137.2814859371
 21
705.1293978663
 31
0.0
  0
LINE
  5
2DE
330
1F
100
AcDbEntity
  8
0
  6
Continuous
 62
     7
370
    25
100
AcDbLine
 10
4137.2814859371
 20
705.1293978663
 30
0.0
 11
4137.4163010121
 21
705.1293978663
 31
0.0
  0
LINE
  5
2DF
330
1F
100
AcDbEntity
  8
0
  6
Continuous
 62
     7
370
    25
100
AcDbLine
 10
4137.4163010121
 20
688.3793978663
 30
0.0
 11
4137.2814859371
 21
688.3793978663
 31
0.0
  0
LINE
  5
2E0
330
1F
100
AcDbEntity
  8
0
  6
Continuous
 62
     7
370
    25
100
AcDbLine
 10
4135.9163010121
 20
705.1293978663
 30
0.0
 11
4137.2814859371
 21
705.1293978663
 31
0.0
  0
LINE
  5
2E1
330
1F
100
AcDbEntity
  8
0
  6
Continuous
 62
     7
370
    25
100
AcDbLine
 10
4137.2814859371
 20
688.3793978663
 30
0.0
 11
4135.9163010121
 21
688.3793978663
 31
0.0
  0
LINE
  5
2E2
330
1F
100
AcDbEntity
  8
0
  6
Continuous
 62
     7
370
    25
100
AcDbLine
 10
4137.4163010121
 20
1410.2543978663
 30
0.0
 11
4135.4163010121
 21
1410.2543978663
 31
0.0
  0
LINE
  5
2E3
330
1F
100
AcDbEntity
  8
0
  6
Continuous
 62
     7
370
    25
100
AcDbLine
 10
4135.4163010121
 20
1423.2543978663
 30
0.0
 11
4137.4163010121
 21
1423.2543978663
 31
0.0
  0
LINE
  5
2E4
330
1F
100
AcDbEntity
  8
0
  6
Continuous
 62
     7
370
    25
100
AcDbLine
 10
4136.6875835572
 20
1424.2043978663
 30
0.0
 11
4136.6875835572
 21
1423.2543978663
 31
0.0
  0
LINE
  5
2E5
330
1F
100
AcDbEntity
  8
0
  6
Continuous
 62
     7
370
    25
100
AcDbLine
 10
4136.6875835572
 20
1410.2543978663
 30
0.0
 11
4136.6875835572
 21
1409.3043978663
 31
0.0
  0
LINE
  5
2E6
330
1F
100
AcDbEntity
  8
0
  6
Continuous
 62
     7
370
    25
100
AcDbLine
 10
4136.6875835572
 20
1424.2043978663
 30
0.0
 11
4137.4163010121
 21
1424.2043978663
 31
0.0
  0
LINE
  5
2E7
330
1F
100
AcDbEntity
  8
0
  6
Continuous
 62
     7
370
    25
100
AcDbLine
 10
4136.6875835572
 20
1409.3043978663
 30
0.0
 11
4137.4163010121
 21
1409.3043978663
 31
0.0
  0
LINE
  5
2E8
330
1F
100
AcDbEntity
  8
0
  6
Continuous
 62
     7
370
    25
100
AcDbLine
 10
4136.6262140617
 20
1424.2043978663
 30
0.0
 11
4136.6262140617
 21
1423.2543978663
 31
0.0
  0
LINE
  5
2E9
330
1F
100
AcDbEntity
  8
0
  6
Continuous
 62
     7
370
    25
100
AcDbLine
 10
4136.6262140617
 20
1410.2543978663
 30
0.0
 11
4136.6262140617
 21
1409.3043978663
 31
0.0
  0
LINE
  5
2EA
330
1F
100
AcDbEntity
  8
0
  6
Continuous
 62
     7
370
    25
100
AcDbLine
 10
4136.6262140617
 20
1424.2043978663
 30
0.0
 11
4136.6875835572
 21
1424.2043978663
 31
0.0
  0
LINE
  5
2EB
330
1F
100
AcDbEntity
  8
0
  6
Continuous
 62
     7
370
    25
100
AcDbLine
 10
4136.6262140617
 20
1409.3043978663
 30
0.0
 11
4136.6875835572
 21
1409.3043978663
 31
0.0
  0
LINE
  5
2EC
330
1F
100
AcDbEntity
  8
0
  6
Continuous
 62
     7
370
    25
100
AcDbLine
 10
4137.4163010121
 20
2310.2543978663
 30
0.0
 11
4135.4163010121
 21
2310.2543978663
 31
0.0
  0
LINE
  5
2ED
330
1F
100
AcDbEntity
  8
0
  6
Continuous
 62
     7
370
    25
100
AcDbLine
 10
4135.4163010121
 20
2323.2543978663
 30
0.0
 11
4137.4163010121
 21
2323.2543978663
 31
0.0
  0
LINE
  5
2EE
330
1F
100
AcDbEntity
  8
0
  6
Continuous
 62
     7
370
    25
100
AcDbLine
 10
4136.6875835572
 20
2324.2043978663
 30
0.0
 11
4136.6875835572
 21
2323.2543978663
 31
0.0
  0
LINE
  5
2EF
330
1F
100
AcDbEntity
  8
0
  6
Continuous
 62
     7
370
    25
100
AcDbLine
 10
4136.6875835573
 20
2310.2543978663
 30
0.0
 11
4136.6875835573
 21
2309.3043978663
 31
0.0
  0
LINE
  5
2F0
330
1F
100
AcDbEntity
  8
0
  6
Continuous
 62
     7
370
    25
100
AcDbLine
 10
4136.6875835572
 20
2324.2043978663
 30
0.0
 11
4137.4163010121
 21
2324.2043978663
 31
0.0
  0
LINE
  5
2F1
330
1F
100
AcDbEntity
  8
0
  6
Continuous
 62
     7
370
    25
100
AcDbLine
 10
4136.6875835573
 20
2309.3043978663
 30
0.0
 11
4137.4163010121
 21
2309.3043978663
 31
0.0
  0
LINE
  5
2F2
330
1F
100
AcDbEntity
  8
0
  6
Continuous
 62
     7
370
    25
100
AcDbLine
 10
4136.6262140617
 20
2324.2043978663
 30
0.0
 11
4136.6262140617
 21
2323.2543978663
 31
0.0
  0
LINE
  5
2F3
330
1F
100
AcDbEntity
  8
0
  6
Continuous
 62
     7
370
    25
100
AcDbLine
 10
4136.6262140617
 20
2310.2543978663
 30
0.0
 11
4136.6262140617
 21
2309.3043978663
 31
0.0
  0
LINE
  5
2F4
330
1F
100
AcDbEntity
  8
0
  6
Continuous
 62
     7
370
    25
100
AcDbLine
 10
4136.6262140617
 20
2324.2043978663
 30
0.0
 11
4136.6875835572
 21
2324.2043978663
 31
0.0
  0
LINE
  5
2F5
330
1F
100
AcDbEntity
  8
0
  6
Continuous
 62
     7
370
    25
100
AcDbLine
 10
4136.6262140617
 20
2309.3043978663
 30
0.0
 11
4136.6875835573
 21
2309.3043978663
 31
0.0
  0
LINE
  5
2F6
330
1F
100
AcDbEntity
  8
0
  6
Continuous
 62
     7
370
    25
100
AcDbLine
 10
4137.4163010121
 20
690.2543978663
 30
0.0
 11
4135.4163010121
 21
690.2543978663
 31
0.0
  0
LINE
  5
2F7
330
1F
100
AcDbEntity
  8
0
  6
Continuous
 62
     7
370
    25
100
AcDbLine
 10
4135.4163010121
 20
703.2543978663
 30
0.0
 11
4137.4163010121
 21
703.2543978663
 31
0.0
  0
LINE
  5
2F8
330
1F
100
AcDbEntity
  8
0
  6
Continuous
 62
     7
370
    25
100
AcDbLine
 10
4136.6875835572
 20
704.2043978663
 30
0.0
 11
4136.6875835572
 21
703.2543978663
 31
0.0
  0
LINE
  5
2F9
330
1F
100
AcDbEntity
  8
0
  6
Continuous
 62
     7
370
    25
100
AcDbLine
 10
4136.6875835572
 20
690.2543978663
 30
0.0
 11
4136.6875835572
 21
689.3043978663
 31
0.0
  0
LINE
  5
2FA
330
1F
100
AcDbEntity
  8
0
  6
Continuous
 62
     7
370
    25
100
AcDbLine
 10
4136.6875835572
 20
704.2043978663
 30
0.0
 11
4137.4163010121
 21
704.2043978663
 31
0.0
  0
LINE
  5
2FB
330
1F
100
AcDbEntity
  8
0
  6
Continuous
 62
     7
370
    25
100
AcDbLine
 10
4136.6875835572
 20
689.3043978663
 30
0.0
 11
4137.4163010121
 21
689.3043978663
 31
0.0
  0
LINE
  5
2FC
330
1F
100
AcDbEntity
  8
0
  6
Continuous
 62
     7
370
    25
100
AcDbLine
 10
4136.6262140617
 20
704.2043978663
 30
0.0
 11
4136.6262140617
 21
703.2543978663
 31
0.0
  0
LINE
  5
2FD
330
1F
100
AcDbEntity
  8
0
  6
Continuous
 62
     7
370
    25
100
AcDbLine
 10
4136.6262140617
 20
690.2543978663
 30
0.0
 11
4136.6262140617
 21
689.3043978663
 31
0.0
  0
LINE
  5
2FE
330
1F
100
AcDbEntity
  8
0
  6
Continuous
 62
     7
370
    25
100
AcDbLine
 10
4136.6262140617
 20
704.2043978663
 30
0.0
 11
4136.6875835572
 21
704.2043978663
 31
0.0
  0
LINE
  5
2FF
330
1F
100
AcDbEntity
  8
0
  6
Continuous
 62
     7
370
    25
100
AcDbLine
 10
4136.6262140617
 20
689.3043978663
 30
0.0
 11
4136.6875835572
 21
689.3043978663
 31
0.0
  0
LINE
  5
300
330
1F
100
AcDbEntity
  8
0
  6
Continuous
 62
     7
370
    25
100
AcDbLine
 10
4137.4163010121
 20
1940.2543978663
 30
0.0
 11
4135.4163010121
 21
1940.2543978663
 31
0.0
  0
LINE
  5
301
330
1F
100
AcDbEntity
  8
0
  6
Continuous
 62
     7
370
    25
100
AcDbLine
 10
4135.4163010121
 20
1953.2543978663
 30
0.0
 11
4137.4163010121
 21
1953.2543978663
 31
0.0
  0
LINE
  5
302
330
1F
100
AcDbEntity
  8
0
  6
Continuous
 62
     7
370
    25
100
AcDbLine
 10
4136.6875835572
 20
1954.2043978663
 30
0.0
 11
4136.6875835572
 21
1953.2543978663
 31
0.0
  0
LINE
  5
303
330
1F
100
AcDbEntity
  8
0
  6
Continuous
 62
     7
370
    25
100
AcDbLine
 10
4136.6875835572
 20
1940.2543978663
 30
0.0
 11
4136.6875835572
 21
1939.3043978663
 31
0.0
  0
LINE
  5
304
330
1F
100
AcDbEntity
  8
0
  6
Continuous
 62
     7
370
    25
100
AcDbLine
 10
4136.6875835572
 20
1954.2043978663
 30
0.0
 11
4137.4163010121
 21
1954.2043978663
 31
0.0
  0
LINE
  5
305
330
1F
100
AcDbEntity
  8
0
  6
Continuous
 62
     7
370
    25
100
AcDbLine
 10
4136.6875835572
 20
1939.3043978663
 30
0.0
 11
4137.4163010121
 21
1939.3043978663
 31
0.0
  0
LINE
  5
306
330
1F
100
AcDbEntity
  8
0
  6
Continuous
 62
     7
370
    25
100
AcDbLine
 10
4136.6262140617
 20
1954.2043978663
 30
0.0
 11
4136.6262140617
 21
1953.2543978663
 31
0.0
  0
LINE
  5
307
330
1F
100
AcDbEntity
  8
0
  6
Continuous
 62
     7
370
    25
100
AcDbLine
 10
4136.6262140617
 20
1940.2543978663
 30
0.0
 11
4136.6262140617
 21
1939.3043978663
 31
0.0
  0
LINE
  5
308
330
1F
100
AcDbEntity
  8
0
  6
Continuous
 62
     7
370
    25
100
AcDbLine
 10
4136.6262140617
 20
1954.2043978663
 30
0.0
 11
4136.6875835572
 21
1954.2043978663
 31
0.0
  0
LINE
  5
309
330
1F
100
AcDbEntity
  8
0
  6
Continuous
 62
     7
370
    25
100
AcDbLine
 10
4136.6262140617
 20
1939.3043978663
 30
0.0
 11
4136.6875835572
 21
1939.3043978663
 31
0.0
  0
LINE
  5
30A
330
1F
100
AcDbEntity
  8
0
  6
Continuous
 62
     7
370
    25
100
AcDbLine
 10
4135.9163010121
 20
1954.2293978663
 30
0.0
 11
4136.2278668149
 21
1954.2293978663
 31
0.0
  0
LINE
  5
30B
330
1F
100
AcDbEntity
  8
0
  6
Continuous
 62
     7
370
    25
100
AcDbLine
 10
4136.2278668149
 20
1939.2793978663
 30
0.0
 11
4136.2278668149
 21
1940.2543978663
 31
0.0
  0
LINE
  5
30C
330
1F
100
AcDbEntity
  8
0
  6
Continuous
 62
     7
370
    25
100
AcDbLine
 10
4136.2278668149
 20
1953.2543978663
 30
0.0
 11
4136.2278668149
 21
1954.2293978663
 31
0.0
  0
LINE
  5
30D
330
1F
100
AcDbEntity
  8
0
  6
Continuous
 62
     7
370
    25
100
AcDbLine
 10
4135.9163010121
 20
1939.2793978663
 30
0.0
 11
4136.2278668149
 21
1939.2793978663
 31
0.0
  0
LINE
  5
30E
330
1F
100
AcDbEntity
  8
0
  6
Continuous
 62
     7
370
    25
100
AcDbLine
 10
4136.2278668149
 20
1954.2293978663
 30
0.0
 11
4136.2670094093
 21
1954.2293978663
 31
0.0
  0
LINE
  5
30F
330
1F
100
AcDbEntity
  8
0
  6
Continuous
 62
     7
370
    25
100
AcDbLine
 10
4136.2278668149
 20
1939.2793978663
 30
0.0
 11
4136.2670094093
 21
1939.2793978663
 31
0.0
  0
LINE
  5
310
330
1F
100
AcDbEntity
  8
0
  6
Continuous
 62
     7
370
    25
100
AcDbLine
 10
4135.9163010121
 20
704.2293978663
 30
0.0
 11
4136.2278668149
 21
704.2293978663
 31
0.0
  0
LINE
  5
311
330
1F
100
AcDbEntity
  8
0
  6
Continuous
 62
     7
370
    25
100
AcDbLine
 10
4136.2278668149
 20
689.2793978663
 30
0.0
 11
4136.2278668149
 21
690.2543978663
 31
0.0
  0
LINE
  5
312
330
1F
100
AcDbEntity
  8
0
  6
Continuous
 62
     7
370
    25
100
AcDbLine
 10
4136.2278668149
 20
703.2543978663
 30
0.0
 11
4136.2278668149
 21
704.2293978663
 31
0.0
  0
LINE
  5
313
330
1F
100
AcDbEntity
  8
0
  6
Continuous
 62
     7
370
    25
100
AcDbLine
 10
4135.9163010121
 20
689.2793978663
 30
0.0
 11
4136.2278668149
 21
689.2793978663
 31
0.0
  0
LINE
  5
314
330
1F
100
AcDbEntity
  8
0
  6
Continuous
 62
     7
370
    25
100
AcDbLine
 10
4136.2278668149
 20
704.2293978663
 30
0.0
 11
4136.2670094093
 21
704.2293978663
 31
0.0
  0
LINE
  5
315
330
1F
100
AcDbEntity
  8
0
  6
Continuous
 62
     7
370
    25
100
AcDbLine
 10
4136.2278668149
 20
689.2793978663
 30
0.0
 11
4136.2670094093
 21
689.2793978663
 31
0.0
  0
LINE
  5
316
330
1F
100
AcDbEntity
  8
0
  6
Continuous
 62
     7
370
    25
100
AcDbLine
 10
4135.9163010121
 20
1424.2293978663
 30
0.0
 11
4136.2278668149
 21
1424.2293978663
 31
0.0
  0
LINE
  5
317
330
1F
100
AcDbEntity
  8
0
  6
Continuous
 62
     7
370
    25
100
AcDbLine
 10
4136.2278668149
 20
1409.2793978663
 30
0.0
 11
4136.2278668149
 21
1410.2543978663
 31
0.0
  0
LINE
  5
318
330
1F
100
AcDbEntity
  8
0
  6
Continuous
 62
     7
370
    25
100
AcDbLine
 10
4136.2278668149
 20
1423.2543978663
 30
0.0
 11
4136.2278668149
 21
1424.2293978663
 31
0.0
  0
LINE
  5
319
330
1F
100
AcDbEntity
  8
0
  6
Continuous
 62
     7
370
    25
100
AcDbLine
 10
4135.9163010121
 20
1409.2793978663
 30
0.0
 11
4136.2278668149
 21
1409.2793978663
 31
0.0
  0
LINE
  5
31A
330
1F
100
AcDbEntity
  8
0
  6
Continuous
 62
     7
370
    25
100
AcDbLine
 10
4136.2278668149
 20
1424.2293978663
 30
0.0
 11
4136.2670094093
 21
1424.2293978663
 31
0.0
  0
LINE
  5
31B
330
1F
100
AcDbEntity
  8
0
  6
Continuous
 62
     7
370
    25
100
AcDbLine
 10
4136.2278668149
 20
1409.2793978663
 30
0.0
 11
4136.2670094093
 21
1409.2793978663
 31
0.0
  0
LINE
  5
31C
330
1F
100
AcDbEntity
  8
0
  6
Continuous
 62
     7
370
    25
100
AcDbLine
 10
4135.9163010121
 20
2324.2293978663
 30
0.0
 11
4136.2278668149
 21
2324.2293978663
 31
0.0
  0
LINE
  5
31D
330
1F
100
AcDbEntity
  8
0
  6
Continuous
 62
     7
370
    25
100
AcDbLine
 10
4136.2278668149
 20
2309.2793978663
 30
0.0
 11
4136.2278668149
 21
2310.2543978663
 31
0.0
  0
LINE
  5
31E
330
1F
100
AcDbEntity
  8
0
  6
Continuous
 62
     7
370
    25
100
AcDbLine
 10
4136.2278668149
 20
2323.2543978663
 30
0.0
 11
4136.2278668149
 21
2324.2293978663
 31
0.0
  0
LINE
  5
31F
330
1F
100
AcDbEntity
  8
0
  6
Continuous
 62
     7
370
    25
100
AcDbLine
 10
4135.9163010121
 20
2309.2793978663
 30
0.0
 11
4136.2278668149
 21
2309.2793978663
 31
0.0
  0
LINE
  5
320
330
1F
100
AcDbEntity
  8
0
  6
Continuous
 62
     7
370
    25
100
AcDbLine
 10
4136.2278668149
 20
2324.2293978663
 30
0.0
 11
4136.2670094093
 21
2324.2293978663
 31
0.0
  0
LINE
  5
321
330
1F
100
AcDbEntity
  8
0
  6
Continuous
 62
     7
370
    25
100
AcDbLine
 10
4136.2278668149
 20
2309.2793978663
 30
0.0
 11
4136.2670094093
 21
2309.2793978663
 31
0.0
  0
LINE
  5
322
330
1F
100
AcDbEntity
  8
0
  6
Continuous
 62
     7
370
    25
100
AcDbLine
 10
4517.8940211741
 20
2309.2767567878
 30
0.0
 11
4517.7500479585
 21
2314.7748720752
 31
0.0
  0
LINE
  5
323
330
1F
100
AcDbEntity
  8
0
  6
Continuous
 62
     7
370
    25
100
AcDbLine
 10
4518.8843458927
 20
2328.7601066029
 30
0.0
 11
4519.1382819156
 21
2319.0626811288
 31
0.0
  0
LINE
  5
324
330
1F
100
AcDbEntity
  8
0
  6
Continuous
 62
     7
370
    25
100
AcDbLine
 10
4519.8884726929
 20
2319.0823255656
 30
0.0
 11
4519.3649337268
 21
2339.0754720652
 31
0.0
  0
LINE
  5
325
330
1F
100
AcDbEntity
  8
0
  6
Continuous
 62
     7
370
    25
100
AcDbLine
 10
4520.5886322916
 20
2338.0117271316
 30
0.0
 11
4521.0548221131
 21
2320.2086561082
 31
0.0
  0
LINE
  5
326
330
1F
100
AcDbEntity
  8
0
  6
Continuous
 62
     7
370
    25
100
AcDbLine
 10
4521.1528571334
 20
2321.8115145215
 30
0.0
 11
4520.7704200861
 21
2336.4161961367
 31
0.0
  0
LINE
  5
327
330
1F
100
AcDbEntity
  8
0
  6
Continuous
 62
     7
370
    25
100
AcDbLine
 10
4518.2945485266
 20
2324.5424743019
 30
0.0
 11
4518.1728826872
 21
2329.1887052586
 31
0.0
  0
LINE
  5
328
330
1F
100
AcDbEntity
  8
0
  6
Continuous
 62
     7
370
    25
100
AcDbLine
 10
4518.1728826872
 20
2329.1887052586
 30
0.0
 11
4518.0589560754
 21
2333.539387036
 31
0.0
  0
LINE
  5
329
330
1F
100
AcDbEntity
  8
0
  6
Continuous
 62
     7
370
    25
100
AcDbLine
 10
4135.6163010121
 20
1389.2543978663
 30
0.0
 11
4137.4163010121
 21
1389.2543978663
 31
0.0
  0
LINE
  5
32A
330
1F
100
AcDbEntity
  8
0
  6
Continuous
 62
     7
370
    25
100
AcDbLine
 10
4135.6163010121
 20
1444.2543978663
 30
0.0
 11
4137.4163010121
 21
1444.2543978663
 31
0.0
  0
LINE
  5
32B
330
1F
100
AcDbEntity
  8
0
  6
Continuous
 62
     7
370
    25
100
AcDbLine
 10
4136.7663010121
 20
1408.3793978663
 30
0.0
 11
4136.7663010121
 21
1406.7543978663
 31
0.0
  0
LINE
  5
32C
330
1F
100
AcDbEntity
  8
0
  6
Continuous
 62
     7
370
    25
100
AcDbLine
 10
4136.7663010121
 20
1426.7543978663
 30
0.0
 11
4136.7663010121
 21
1425.1293978663
 31
0.0
  0
LINE
  5
32D
330
1F
100
AcDbEntity
  8
0
  6
Continuous
 62
     7
370
    25
100
AcDbLine
 10
4135.6163010121
 20
669.2543978663
 30
0.0
 11
4137.4163010121
 21
669.2543978663
 31
0.0
  0
LINE
  5
32E
330
1F
100
AcDbEntity
  8
0
  6
Continuous
 62
     7
370
    25
100
AcDbLine
 10
4135.6163010121
 20
724.2543978663
 30
0.0
 11
4137.4163010121
 21
724.2543978663
 31
0.0
  0
LINE
  5
32F
330
1F
100
AcDbEntity
  8
0
  6
Continuous
 62
     7
370
    25
100
AcDbLine
 10
4136.7663010121
 20
688.3793978663
 30
0.0
 11
4136.7663010121
 21
686.7543978663
 31
0.0
  0
LINE
  5
330
330
1F
100
AcDbEntity
  8
0
  6
Continuous
 62
     7
370
    25
100
AcDbLine
 10
4136.7663010121
 20
706.7543978663
 30
0.0
 11
4136.7663010121
 21
705.1293978663
 31
0.0
  0
LINE
  5
331
330
1F
100
AcDbEntity
  8
0
  6
Continuous
 62
     7
370
    25
100
AcDbLine
 10
4135.6163010121
 20
2289.2543978663
 30
0.0
 11
4137.4163010121
 21
2289.2543978663
 31
0.0
  0
LINE
  5
332
330
1F
100
AcDbEntity
  8
0
  6
Continuous
 62
     7
370
    25
100
AcDbLine
 10
4135.6163010121
 20
2344.2543978663
 30
0.0
 11
4137.4163010121
 21
2344.2543978663
 31
0.0
  0
LINE
  5
333
330
1F
100
AcDbEntity
  8
0
  6
Continuous
 62
     7
370
    25
100
AcDbLine
 10
4136.7663010121
 20
2308.3793978663
 30
0.0
 11
4136.7663010121
 21
2306.7543978663
 31
0.0
  0
LINE
  5
334
330
1F
100
AcDbEntity
  8
0
  6
Continuous
 62
     7
370
    25
100
AcDbLine
 10
4136.7663010121
 20
2326.7543978663
 30
0.0
 11
4136.7663010121
 21
2325.1293978663
 31
0.0
  0
LINE
  5
335
330
1F
100
AcDbEntity
  8
0
  6
Continuous
 62
     7
370
    25
100
AcDbLine
 10
4135.6163010121
 20
1919.2543978663
 30
0.0
 11
4137.4163010121
 21
1919.2543978663
 31
0.0
  0
LINE
  5
336
330
1F
100
AcDbEntity
  8
0
  6
Continuous
 62
     7
370
    25
100
AcDbLine
 10
4135.6163010121
 20
1974.2543978663
 30
0.0
 11
4137.4163010121
 21
1974.2543978663
 31
0.0
  0
LINE
  5
337
330
1F
100
AcDbEntity
  8
0
  6
Continuous
 62
     7
370
    25
100
AcDbLine
 10
4136.7663010121
 20
1938.3793978663
 30
0.0
 11
4136.7663010121
 21
1936.7543978663
 31
0.0
  0
LINE
  5
338
330
1F
100
AcDbEntity
  8
0
  6
Continuous
 62
     7
370
    25
100
AcDbLine
 10
4136.7663010121
 20
1956.7543978663
 30
0.0
 11
4136.7663010121
 21
1955.1293978663
 31
0.0
  0
SPLINE
  5
339
330
1F
100
AcDbEntity
  8
0
  6
Continuous
 62
     7
370
    25
100
AcDbSpline
210
0.0
220
0.0
230
1.0
 70
     8
 71
     3
 72
    16
 73
    12
 74
     0
 42
0.00000001
 43
0.00000001
 40
0.0
 40
0.0
 40
0.0
 40
0.0
 40
0.0490847390187719
 40
0.1518473045647194
 40
0.2358684990992547
 40
0.3090519161655103
 40
0.373478614211084
 40
0.4370328180328231
 40
0.5258016248251016
 40
0.7068629655468183
 40
1.0
 40
1.0
 40
1.0
 40
1.0
 10
2231.425074168679
 20
3123.664749109267
 30
0.0
 10
2231.429765765414
 20
3123.730939501487
 30
0.0
 10
2231.444279570163
 20
3123.935704421252
 30
0.0
 10
2231.317101818792
 20
3124.239921080898
 30
0.0
 10
2231.112885409266
 20
3124.51598471992
 30
0.0
 10
2230.8918738034
 20
3124.689323194559
 30
0.0
 10
2230.700107235658
 20
3124.786327207062
 30
0.0
 10
2230.542893347474
 20
3124.840400572419
 30
0.0
 10
2230.37754217242
 20
3124.87903339379
 30
0.0
 10
2230.181828237495
 20
3124.90877027931
 30
0.0
 10
2229.954213845388
 20
3124.925985948582
 30
0.0
 10
2229.813508580684
 20
3124.936628225107
 30
0.0
  0
SPLINE
  5
33A
330
1F
100
AcDbEntity
  8
0
  6
Continuous
 62
     7
370
    25
100
AcDbSpline
210
0.0
220
0.0
230
1.0
 70
     8
 71
     3
 72
    15
 73
    11
 74
     0
 42
0.00000001
 43
0.00000001
 40
0.0
 40
0.0
 40
0.0
 40
0.0
 40
0.0366146332908409
 40
0.4586206584971197
 40
0.6039592141586554
 40
0.6771237587643621
 40
0.7596633924486776
 40
0.8571328939029752
 40
0.9634171087774944
 40
1.0
 40
1.0
 40
1.0
 40
1.0
 10
2213.095706343184
 20
3124.939322194255
 30
0.0
 10
2213.073357319806
 20
3124.938049745585
 30
0.0
 10
2212.793422143695
 20
3124.92211154835
 30
0.0
 10
2212.637947923135
 20
3124.901059449089
 30
0.0
 10
2212.326115586831
 20
3124.840915485383
 30
0.0
 10
2212.053551866994
 20
3124.72439749817
 30
0.0
 10
2211.789122930555
 20
3124.534471237142
 30
0.0
 10
2211.560974971928
 20
3124.2219750804
 30
0.0
 10
2211.436909000224
 20
3123.900010101129
 30
0.0
 10
2211.458389606712
 20
3123.704696279429
 30
0.0
 10
2211.463889981935
 20
3123.654683757381
 30
0.0
  0
LINE
  5
33B
330
1F
100
AcDbEntity
  8
0
  6
Continuous
 62
     7
370
    25
100
AcDbLine
 10
2231.4454585654
 20
3122.914092518
 30
0.0
 11
2231.4454585654
 21
3123.6642832953
 31
0.0
  0
LINE
  5
33C
330
1F
100
AcDbEntity
  8
0
  6
Continuous
 62
     7
370
    25
100
AcDbLine
 10
2211.4454585654
 20
3123.6642832953
 30
0.0
 11
2211.4454585654
 21
3122.914092518
 31
0.0
  0
LINE
  5
33D
330
1F
100
AcDbEntity
  8
0
  6
Continuous
 62
     7
370
    25
100
AcDbLine
 10
2229.9418327899
 20
3124.9290740988
 30
0.0
 11
2228.4154268517
 21
3125.0564516333
 31
0.0
  0
LINE
  5
33E
330
1F
100
AcDbEntity
  8
0
  6
Continuous
 62
     7
370
    25
100
AcDbLine
 10
2214.475490279
 20
3125.0564516333
 30
0.0
 11
2212.9490843408
 21
3124.9290740988
 31
0.0
  0
SPLINE
  5
33F
330
1F
100
AcDbEntity
  8
0
  6
Continuous
 62
     7
370
    25
100
AcDbSpline
210
0.0
220
0.0
230
1.0
 70
     8
 71
     3
 72
    14
 73
    10
 74
     0
 42
0.00000001
 43
0.00000001
 40
0.0
 40
0.0
 40
0.0
 40
0.0
 40
0.0907475556428161
 40
0.2288563839002405
 40
0.4128530542465182
 40
0.6071420004331978
 40
0.7878282318391774
 40
0.9626611221742144
 40
0.9999999999999999
 40
0.9999999999999999
 40
0.9999999999999999
 40
0.9999999999999999
 10
2228.325460923736
 20
3125.061553406056
 30
0.0
 10
2228.113909756888
 20
3125.078385939604
 30
0.0
 10
2227.580398581718
 20
3125.120835928835
 30
0.0
 10
2226.719912941168
 20
3125.162796219047
 30
0.0
 10
2225.670112580986
 20
3125.199728364265
 30
0.0
 10
2224.435496063464
 20
3125.225453930886
 30
0.0
 10
2223.098989846261
 20
3125.241299849521
 30
0.0
 10
2222.088959722673
 20
3125.246111519759
 30
0.0
 10
2221.541757506837
 20
3125.246351103256
 30
0.0
 10
2221.44545856537
 20
3125.246393266165
 30
0.0
  0
SPLINE
  5
340
330
1F
100
AcDbEntity
  8
0
  6
Continuous
 62
     7
370
    25
100
AcDbSpline
210
0.0
220
0.0
230
1.0
 70
     8
 71
     3
 72
    13
 73
     9
 74
     0
 42
0.00000001
 43
0.00000001
 40
0.0
 40
0.0
 40
0.0
 40
0.0
 40
0.0971790056423956
 40
0.2845710337029692
 40
0.4775192778487967
 40
0.6890792027697046
 40
0.877162524323854
 40
0.9999999999999999
 40
0.9999999999999999
 40
0.9999999999999999
 40
0.9999999999999999
 10
2221.44545856537
 20
3125.246393266165
 30
0.0
 10
2221.198437493661
 20
3125.246131497288
 30
0.0
 10
2220.475081237255
 20
3125.245364954769
 30
0.0
 10
2219.282482825127
 20
3125.236490482705
 30
0.0
 10
2217.912409207472
 20
3125.216251138436
 30
0.0
 10
2216.678104082213
 20
3125.182234192513
 30
0.0
 10
2215.64833539852
 20
3125.142730979267
 30
0.0
 10
2214.941932094424
 20
3125.089110818863
 30
0.0
 10
2214.662848805506
 20
3125.067926757815
 30
0.0
  0
LINE
  5
341
330
1F
100
AcDbEntity
  8
0
  6
Continuous
 62
     7
370
    25
100
AcDbLine
 10
2225.9454585654
 20
3119.9538810975
 30
0.0
 11
2225.9454585654
 21
3122.2143323905
 31
0.0
  0
LINE
  5
342
330
1F
100
AcDbEntity
  8
0
  6
Continuous
 62
     7
370
    25
100
AcDbLine
 10
2216.9454585654
 20
3122.2143323905
 30
0.0
 11
2216.9454585654
 21
3119.9538810975
 31
0.0
  0
SPLINE
  5
343
330
1F
100
AcDbEntity
  8
0
  6
Continuous
 62
     7
370
    25
100
AcDbSpline
210
0.0
220
0.0
230
1.0
 70
     8
 71
     3
 72
    16
 73
    12
 74
     0
 42
0.00000001
 43
0.00000001
 40
0.0
 40
0.0
 40
0.0
 40
0.0
 40
0.0490847390186972
 40
0.1518473045646904
 40
0.2358684990992706
 40
0.3090519161655211
 40
0.373478614211115
 40
0.4370328180328759
 40
0.5258016248251706
 40
0.7068629655468714
 40
1.0
 40
1.0
 40
1.0
 40
1.0
 10
2957.925074168678
 20
3123.664749109264
 30
0.0
 10
2957.929765765413
 20
3123.730939501485
 30
0.0
 10
2957.944279570161
 20
3123.935704421249
 30
0.0
 10
2957.817101818791
 20
3124.239921080895
 30
0.0
 10
2957.612885409266
 20
3124.515984719917
 30
0.0
 10
2957.391873803399
 20
3124.689323194556
 30
0.0
 10
2957.200107235656
 20
3124.786327207058
 30
0.0
 10
2957.042893347473
 20
3124.840400572416
 30
0.0
 10
2956.87754217242
 20
3124.879033393788
 30
0.0
 10
2956.681828237494
 20
3124.908770279307
 30
0.0
 10
2956.454213845387
 20
3124.925985948579
 30
0.0
 10
2956.313508580684
 20
3124.936628225105
 30
0.0
  0
SPLINE
  5
344
330
1F
100
AcDbEntity
  8
0
  6
Continuous
 62
     7
370
    25
100
AcDbSpline
210
0.0
220
0.0
230
1.0
 70
     8
 71
     3
 72
    15
 73
    11
 74
     0
 42
0.00000001
 43
0.00000001
 40
0.0
 40
0.0
 40
0.0
 40
0.0
 40
0.0366146332909582
 40
0.4586206584971833
 40
0.6039592141587059
 40
0.6771237587644023
 40
0.7596633924487
 40
0.8571328939029959
 40
0.9634171087774976
 40
1.0
 40
1.0
 40
1.0
 40
1.0
 10
2939.595706343183
 20
3124.939322194252
 30
0.0
 10
2939.573357319805
 20
3124.938049745582
 30
0.0
 10
2939.293422143693
 20
3124.922111548348
 30
0.0
 10
2939.137947923134
 20
3124.901059449086
 30
0.0
 10
2938.826115586829
 20
3124.840915485381
 30
0.0
 10
2938.553551866992
 20
3124.724397498167
 30
0.0
 10
2938.289122930554
 20
3124.53447123714
 30
0.0
 10
2938.060974971927
 20
3124.221975080398
 30
0.0
 10
2937.936909000224
 20
3123.900010101126
 30
0.0
 10
2937.958389606711
 20
3123.704696279426
 30
0.0
 10
2937.963889981934
 20
3123.654683757378
 30
0.0
  0
LINE
  5
345
330
1F
100
AcDbEntity
  8
0
  6
Continuous
 62
     7
370
    25
100
AcDbLine
 10
2957.9454585654
 20
3122.914092518
 30
0.0
 11
2957.9454585654
 21
3123.6642832953
 31
0.0
  0
LINE
  5
346
330
1F
100
AcDbEntity
  8
0
  6
Continuous
 62
     7
370
    25
100
AcDbLine
 10
2937.9454585654
 20
3123.6642832953
 30
0.0
 11
2937.9454585654
 21
3122.914092518
 31
0.0
  0
LINE
  5
347
330
1F
100
AcDbEntity
  8
0
  6
Continuous
 62
     7
370
    25
100
AcDbLine
 10
2956.4418327899
 20
3124.9290740988
 30
0.0
 11
2954.9154268517
 21
3125.0564516333
 31
0.0
  0
LINE
  5
348
330
1F
100
AcDbEntity
  8
0
  6
Continuous
 62
     7
370
    25
100
AcDbLine
 10
2940.975490279
 20
3125.0564516333
 30
0.0
 11
2939.4490843408
 21
3124.9290740988
 31
0.0
  0
SPLINE
  5
349
330
1F
100
AcDbEntity
  8
0
  6
Continuous
 62
     7
370
    25
100
AcDbSpline
210
0.0
220
0.0
230
1.0
 70
     8
 71
     3
 72
    14
 73
    10
 74
     0
 42
0.00000001
 43
0.00000001
 40
0.0
 40
0.0
 40
0.0
 40
0.0
 40
0.0907475556429109
 40
0.2288563839003375
 40
0.4128530542466762
 40
0.6071420004333635
 40
0.7878282318393257
 40
0.9626611221743543
 40
0.9999999999999999
 40
0.9999999999999999
 40
0.9999999999999999
 40
0.9999999999999999
 10
2954.825460923734
 20
3125.061553406053
 30
0.0
 10
2954.613909756886
 20
3125.078385939601
 30
0.0
 10
2954.080398581717
 20
3125.120835928832
 30
0.0
 10
2953.219912941167
 20
3125.162796219044
 30
0.0
 10
2952.170112580984
 20
3125.199728364262
 30
0.0
 10
2950.935496063462
 20
3125.225453930884
 30
0.0
 10
2949.598989846259
 20
3125.241299849518
 30
0.0
 10
2948.588959722672
 20
3125.246111519756
 30
0.0
 10
2948.041757506836
 20
3125.246351103253
 30
0.0
 10
2947.94545856537
 20
3125.246393266162
 30
0.0
  0
SPLINE
  5
34A
330
1F
100
AcDbEntity
  8
0
  6
Continuous
 62
     7
370
    25
100
AcDbSpline
210
0.0
220
0.0
230
1.0
 70
     8
 71
     3
 72
    13
 73
     9
 74
     0
 42
0.00000001
 43
0.00000001
 40
0.0
 40
0.0
 40
0.0
 40
0.0
 40
0.0971790056423986
 40
0.2845710337029633
 40
0.4775192778488007
 40
0.6890792027697076
 40
0.8771625243238783
 40
1.0
 40
1.0
 40
1.0
 40
1.0
 10
2947.94545856537
 20
3125.246393266162
 30
0.0
 10
2947.69843749366
 20
3125.246131497285
 30
0.0
 10
2946.975081237254
 20
3125.245364954766
 30
0.0
 10
2945.782482825127
 20
3125.236490482703
 30
0.0
 10
2944.412409207471
 20
3125.216251138433
 30
0.0
 10
2943.178104082212
 20
3125.18223419251
 30
0.0
 10
2942.148335398519
 20
3125.142730979265
 30
0.0
 10
2941.441932094423
 20
3125.08911081886
 30
0.0
 10
2941.162848805505
 20
3125.067926757812
 30
0.0
  0
LINE
  5
34B
330
1F
100
AcDbEntity
  8
0
  6
Continuous
 62
     7
370
    25
100
AcDbLine
 10
2952.4454585654
 20
3119.9538810975
 30
0.0
 11
2952.4454585654
 21
3122.2143323905
 31
0.0
  0
LINE
  5
34C
330
1F
100
AcDbEntity
  8
0
  6
Continuous
 62
     7
370
    25
100
AcDbLine
 10
2943.4454585654
 20
3122.2143323905
 30
0.0
 11
2943.4454585654
 21
3119.9538810975
 31
0.0
  0
LINE
  5
34D
330
1F
100
AcDbEntity
  8
0
  6
Continuous
 62
     7
370
    25
100
AcDbLine
 10
2982.4454585654
 20
2721.4538810975
 30
0.0
 11
2982.4454585654
 21
2739.4538810975
 31
0.0
  0
LINE
  5
34E
330
1F
100
AcDbEntity
  8
0
  6
Continuous
 62
     7
370
    25
100
AcDbLine
 10
2982.4454585654
 20
2739.4538810975
 30
0.0
 11
2586.4454585654
 21
2739.4538810975
 31
0.0
  0
LINE
  5
34F
330
1F
100
AcDbEntity
  8
0
  6
Continuous
 62
     7
370
    25
100
AcDbLine
 10
2586.4454585654
 20
2721.4538810975
 30
0.0
 11
2586.4454585654
 21
2739.4538810975
 31
0.0
  0
LINE
  5
350
330
1F
100
AcDbEntity
  8
0
  6
Continuous
 62
     7
370
    25
100
AcDbLine
 10
2982.4454585654
 20
2721.4538810975
 30
0.0
 11
2586.4454585654
 21
2721.4538810975
 31
0.0
  0
LINE
  5
351
330
1F
100
AcDbEntity
  8
0
  6
Continuous
 62
     7
370
    25
100
AcDbLine
 10
2518.9454585654
 20
2740.9538810975
 30
0.0
 11
2518.9454585654
 21
2739.4538810975
 31
0.0
  0
LINE
  5
352
330
1F
100
AcDbEntity
  8
0
  6
Continuous
 62
     7
370
    25
100
AcDbLine
 10
2558.9454585654
 20
2740.9538810975
 30
0.0
 11
2558.9454585654
 21
2739.4538810975
 31
0.0
  0
LINE
  5
353
330
1F
100
AcDbEntity
  8
0
  6
Continuous
 62
     7
370
    25
100
AcDbLine
 10
2610.4454585654
 20
2740.9538810975
 30
0.0
 11
2610.4454585654
 21
2739.4538810975
 31
0.0
  0
LINE
  5
354
330
1F
100
AcDbEntity
  8
0
  6
Continuous
 62
     7
370
    25
100
AcDbLine
 10
2650.4454585654
 20
2740.9538810975
 30
0.0
 11
2650.4454585654
 21
2739.4538810975
 31
0.0
  0
LINE
  5
355
330
1F
100
AcDbEntity
  8
0
  6
Continuous
 62
     7
370
    25
100
AcDbLine
 10
2582.9454585654
 20
2721.4538810975
 30
0.0
 11
2582.9454585654
 21
2739.4538810975
 31
0.0
  0
LINE
  5
356
330
1F
100
AcDbEntity
  8
0
  6
Continuous
 62
     7
370
    25
100
AcDbLine
 10
2186.9454585654
 20
2721.4538810975
 30
0.0
 11
2186.9454585654
 21
2739.4538810975
 31
0.0
  0
LINE
  5
357
330
1F
100
AcDbEntity
  8
0
  6
Continuous
 62
     7
370
    25
100
AcDbLine
 10
2582.9454585654
 20
2739.4538810975
 30
0.0
 11
2186.9454585654
 21
2739.4538810975
 31
0.0
  0
LINE
  5
358
330
1F
100
AcDbEntity
  8
0
  6
Continuous
 62
     7
370
    25
100
AcDbLine
 10
2582.9454585654
 20
2721.4538810975
 30
0.0
 11
2186.9454585654
 21
2721.4538810975
 31
0.0
  0
LINE
  5
359
330
1F
100
AcDbEntity
  8
0
  6
Continuous
 62
     7
370
    25
100
AcDbLine
 10
2984.9454585654
 20
3119.9538810975
 30
0.0
 11
2184.4454585654
 21
3119.9538810975
 31
0.0
  0
LINE
  5
35A
330
1F
100
AcDbEntity
  8
0
  6
Continuous
 62
     7
370
    25
100
AcDbLine
 10
2984.9454585654
 20
2740.9538810975
 30
0.0
 11
2184.4454585654
 21
2740.9538810975
 31
0.0
  0
LINE
  5
35B
330
1F
100
AcDbEntity
  8
0
  6
Continuous
 62
     7
370
    25
100
AcDbLine
 10
2984.9454585654
 20
3119.9538810975
 30
0.0
 11
2984.9454585654
 21
2740.9538810975
 31
0.0
  0
LINE
  5
35C
330
1F
100
AcDbEntity
  8
0
  6
Continuous
 62
     7
370
    25
100
AcDbLine
 10
2184.4454585654
 20
3119.9538810975
 30
0.0
 11
2184.4454585654
 21
2740.9538810975
 31
0.0
  0
ARC
  5
35D
330
1F
100
AcDbEntity
  8
0
  6
Continuous
 62
     7
370
    25
100
AcDbCircle
 10
2222.4487994324
 20
3314.9300038109
 30
0.0
 40
190.3064363782716
100
AcDbArc
 50
269.697921602
 51
271.989829998
  0
ARC
  5
35E
330
1F
100
AcDbEntity
  8
0
  6
Continuous
 62
     7
370
    25
100
AcDbCircle
 10
2220.8807674914
 20
3359.206363271
 30
0.0
 40
234.580830566887
100
AcDbArc
 50
268.5008299501
 51
270.1379245117
  0
ARC
  5
35F
330
1F
100
AcDbEntity
  8
0
  6
Continuous
 62
     7
370
    25
100
AcDbCircle
 10
2224.2883976532
 20
3205.1862780977
 30
0.0
 40
82.58290404776083
100
AcDbArc
 50
268.0271873052
 51
274.971785139
  0
ARC
  5
360
330
1F
100
AcDbEntity
  8
0
  6
Continuous
 62
     7
370
    25
100
AcDbCircle
 10
2218.8258447337
 20
3213.7176490435
 30
0.0
 40
91.10299653505886
100
AcDbArc
 50
265.3532935281
 51
271.6477340277
  0
SPLINE
  5
361
330
1F
100
AcDbEntity
  8
0
  6
Continuous
 62
     7
370
    25
100
AcDbSpline
210
0.0
220
0.0
230
1.0
 70
     8
 71
     3
 72
    19
 73
    15
 74
     0
 42
0.00000001
 43
0.00000001
 40
0.0
 40
0.0
 40
0.0
 40
0.0
 40
0.0906600731280741
 40
0.2050734138973338
 40
0.2719074979493173
 40
0.3443210476357559
 40
0.4209983262120385
 40
0.4999999792228294
 40
0.5790016347260527
 40
0.6556789199260419
 40
0.7280924783131328
 40
0.7949265709542884
 40
0.9093399235674696
 40
1.0
 40
1.0
 40
1.0
 40
1.0
 10
2231.245458565371
 20
3122.714161053017
 30
0.0
 10
2231.168604520703
 20
3122.689935507781
 30
0.0
 10
2230.994760393205
 20
3122.635137236681
 30
0.0
 10
2229.674903170731
 20
3122.568753953301
 30
0.0
 10
2227.918984010534
 20
3122.518841342653
 30
0.0
 10
2226.095890405652
 20
3122.485710477375
 30
0.0
 10
2223.914524317429
 20
3122.463277619611
 30
0.0
 10
2221.521572113841
 20
3122.455015509579
 30
0.0
 10
2219.124049624959
 20
3122.462313475463
 30
0.0
 10
2216.929764294544
 20
3122.483865677204
 30
0.0
 10
2215.087425031519
 20
3122.516258826636
 30
0.0
 10
2213.302394606044
 20
3122.565458774836
 30
0.0
 10
2211.943699588443
 20
3122.63130296263
 30
0.0
 10
2211.737687244352
 20
3122.686024785414
 30
0.0
 10
2211.646612086793
 20
3122.710216533021
 30
0.0
  0
LINE
  5
362
330
1F
100
AcDbEntity
  8
0
  6
Continuous
 62
     7
370
    25
100
AcDbLine
 10
2214.475490279
 20
3125.0564516333
 30
0.0
 11
2214.5274519143
 21
3125.0606198496
 31
0.0
  0
LINE
  5
363
330
1F
100
AcDbEntity
  8
0
  6
Continuous
 62
     7
370
    25
100
AcDbLine
 10
2226.1356302781
 20
3125.113338633
 30
0.0
 11
2226.1346783417
 21
3125.1158121239
 31
0.0
  0
LWPOLYLINE
  5
364
330
1F
100
AcDbEntity
  8
0
  6
Continuous
 62
     7
370
    25
100
AcDbPolyline
 90
       23
 70
   128
 43
0.0
 10
2226.1346783417
 20
3125.1158121239
 10
2225.9194017973
 20
3125.1501872105
 10
2225.3439780752
 20
3125.18159603
 10
2224.4547281094
 20
3125.2075102091
 10
2223.3232354781
 20
3125.2258436869
 10
2222.04058401
 20
3125.2351206399
 10
2220.7100256422
 20
3125.2345942843
 10
2219.4386687613
 20
3125.2243069912
 10
2218.3288561037
 20
3125.2050868755
 10
2217.4699262854
 20
3125.178481134
 10
2216.9310221483
 20
3125.1466314976
 10
2216.7555248428
 20
3125.1121018247
 10
2216.9575616959
 20
3125.0776717135
 10
2217.5208689783
 20
3125.0461127473
 10
2218.4001011149
 20
3125.0199653861
 10
2219.5244809511
 20
3125.0013344616
 10
2220.8034972299
 20
3124.9917197414
 10
2222.1341906426
 20
3124.9918951992
 10
2223.4094419316
 20
3125.0018467108
 10
2224.5265948654
 20
3125.0207731913
 10
2225.3957199443
 20
3125.0471510811
 10
2225.9468536198
 20
3125.0788569912
 10
2226.1356302781
 20
3125.113338633
  0
LINE
  5
365
330
1F
100
AcDbEntity
  8
0
  6
Continuous
 62
     7
370
    25
100
AcDbLine
 10
2218.9996091614
 20
3125.0998575046
 30
0.0
 11
2220.9304585654
 21
3125.0998575046
 31
0.0
  0
LINE
  5
366
330
1F
100
AcDbEntity
  8
0
  6
Continuous
 62
     7
370
    25
100
AcDbLine
 10
2220.9304585654
 20
3125.0998575046
 30
0.0
 11
2220.9304585654
 21
3125.0493137595
 31
0.0
  0
ARC
  5
367
330
1F
100
AcDbEntity
  8
0
  6
Continuous
 62
     7
370
    25
100
AcDbCircle
 10
2221.4454585654
 20
3219.3371748526
 30
0.0
 40
94.28926754676264
100
AcDbArc
 50
269.687053745
 51
270.312946255
  0
LINE
  5
368
330
1F
100
AcDbEntity
  8
0
  6
Continuous
 62
     7
370
    25
100
AcDbLine
 10
2221.9604585654
 20
3125.0493137595
 30
0.0
 11
2221.9604585654
 21
3125.0998575046
 31
0.0
  0
LINE
  5
369
330
1F
100
AcDbEntity
  8
0
  6
Continuous
 62
     7
370
    25
100
AcDbLine
 10
2221.9604585654
 20
3125.0998575046
 30
0.0
 11
2223.8913079693
 21
3125.0998575046
 31
0.0
  0
LWPOLYLINE
  5
36A
330
1F
100
AcDbEntity
  8
0
  6
Continuous
 62
     7
370
    25
100
AcDbPolyline
 90
        9
 70
   128
 43
0.0
 10
2223.8913079693
 20
3125.1268197613
 10
2223.9147242752
 20
3125.123481353
 10
2223.9314953662
 20
3125.1201156488
 10
2223.9415761084
 20
3125.1167317065
 10
2223.9449393728
 20
3125.1133386329
 10
2223.9415761084
 20
3125.1099455593
 10
2223.9314953662
 20
3125.1065616171
 10
2223.9147242752
 20
3125.1031959129
 10
2223.8913079693
 20
3125.0998575046
  0
LINE
  5
36B
330
1F
100
AcDbEntity
  8
0
  6
Continuous
 62
     7
370
    25
100
AcDbLine
 10
2223.8913079693
 20
3125.1268197613
 30
0.0
 11
2221.9604585654
 21
3125.1268197613
 31
0.0
  0
LINE
  5
36C
330
1F
100
AcDbEntity
  8
0
  6
Continuous
 62
     7
370
    25
100
AcDbLine
 10
2221.9604585654
 20
3125.1268197613
 30
0.0
 11
2221.9604585654
 21
3125.1773635064
 31
0.0
  0
ARC
  5
36D
330
1F
100
AcDbEntity
  8
0
  6
Continuous
 62
     7
370
    25
100
AcDbCircle
 10
2221.4454585654
 20
3030.8895023522
 30
0.0
 40
94.28926760788205
100
AcDbArc
 50
89.6870537452
 51
90.3129462548
  0
LINE
  5
36E
330
1F
100
AcDbEntity
  8
0
  6
Continuous
 62
     7
370
    25
100
AcDbLine
 10
2220.9304585654
 20
3125.1773635064
 30
0.0
 11
2220.9304585654
 21
3125.1268197613
 31
0.0
  0
LINE
  5
36F
330
1F
100
AcDbEntity
  8
0
  6
Continuous
 62
     7
370
    25
100
AcDbLine
 10
2220.9304585654
 20
3125.1268197613
 30
0.0
 11
2218.9996091614
 21
3125.1268197613
 31
0.0
  0
LWPOLYLINE
  5
370
330
1F
100
AcDbEntity
  8
0
  6
Continuous
 62
     7
370
    25
100
AcDbPolyline
 90
        9
 70
   128
 43
0.0
 10
2218.9996091614
 20
3125.0998575046
 10
2218.9761928556
 20
3125.1031959129
 10
2218.9594217646
 20
3125.1065616171
 10
2218.9493410224
 20
3125.1099455593
 10
2218.9459777579
 20
3125.1133386329
 10
2218.9493410224
 20
3125.1167317065
 10
2218.9594217646
 20
3125.1201156488
 10
2218.9761928556
 20
3125.123481353
 10
2218.9996091614
 20
3125.1268197613
  0
LINE
  5
371
330
1F
100
AcDbEntity
  8
0
  6
Continuous
 62
     7
370
    25
100
AcDbLine
 10
2219.0133329309
 20
3125.0998575046
 30
0.0
 11
2218.9996091614
 21
3125.1268197613
 31
0.0
  0
LINE
  5
372
330
1F
100
AcDbEntity
  8
0
  6
Continuous
 62
     7
370
    25
100
AcDbLine
 10
2221.9604585654
 20
3125.1268197613
 30
0.0
 11
2221.9604585654
 21
3125.0998575046
 31
0.0
  0
LINE
  5
373
330
1F
100
AcDbEntity
  8
0
  6
Continuous
 62
     7
370
    25
100
AcDbLine
 10
2220.9304585654
 20
3125.1268197613
 30
0.0
 11
2220.9304585654
 21
3125.0998575046
 31
0.0
  0
ARC
  5
374
330
1F
100
AcDbEntity
  8
0
  6
Continuous
 62
     7
370
    25
100
AcDbCircle
 10
2948.9487994324
 20
3314.9300038109
 30
0.0
 40
190.3064363783153
100
AcDbArc
 50
269.697921602
 51
271.989829998
  0
ARC
  5
375
330
1F
100
AcDbEntity
  8
0
  6
Continuous
 62
     7
370
    25
100
AcDbCircle
 10
2947.3807674914
 20
3359.2063632729
 30
0.0
 40
234.5808305687269
100
AcDbArc
 50
268.5008299501
 51
270.1379245117
  0
ARC
  5
376
330
1F
100
AcDbEntity
  8
0
  6
Continuous
 62
     7
370
    25
100
AcDbCircle
 10
2950.7883976533
 20
3205.1862780975
 30
0.0
 40
82.58290404758661
100
AcDbArc
 50
268.0271873052
 51
274.9717851391
  0
ARC
  5
377
330
1F
100
AcDbEntity
  8
0
  6
Continuous
 62
     7
370
    25
100
AcDbCircle
 10
2945.3258447337
 20
3213.7176490432
 30
0.0
 40
91.10299653480683
100
AcDbArc
 50
265.3532935281
 51
271.6477340277
  0
SPLINE
  5
378
330
1F
100
AcDbEntity
  8
0
  6
Continuous
 62
     7
370
    25
100
AcDbSpline
210
0.0
220
0.0
230
1.0
 70
     8
 71
     3
 72
    19
 73
    15
 74
     0
 42
0.00000001
 43
0.00000001
 40
0.0
 40
0.0
 40
0.0
 40
0.0
 40
0.090660073128074
 40
0.2050734138973344
 40
0.2719074979493185
 40
0.3443210476357553
 40
0.4209983262120374
 40
0.4999999792228306
 40
0.5790016347260512
 40
0.655678919926043
 40
0.7280924783131344
 40
0.7949265709542881
 40
0.9093399235674697
 40
1.0
 40
1.0
 40
1.0
 40
1.0
 10
2957.74545856537
 20
3122.714161053014
 30
0.0
 10
2957.668604520702
 20
3122.689935507778
 30
0.0
 10
2957.494760393204
 20
3122.635137236679
 30
0.0
 10
2956.17490317073
 20
3122.568753953298
 30
0.0
 10
2954.418984010533
 20
3122.518841342651
 30
0.0
 10
2952.59589040565
 20
3122.485710477373
 30
0.0
 10
2950.414524317427
 20
3122.463277619608
 30
0.0
 10
2948.02157211384
 20
3122.455015509576
 30
0.0
 10
2945.624049624957
 20
3122.46231347546
 30
0.0
 10
2943.429764294543
 20
3122.483865677202
 30
0.0
 10
2941.587425031519
 20
3122.516258826634
 30
0.0
 10
2939.802394606043
 20
3122.565458774833
 30
0.0
 10
2938.443699588442
 20
3122.631302962627
 30
0.0
 10
2938.23768724435
 20
3122.686024785412
 30
0.0
 10
2938.146612086792
 20
3122.710216533019
 30
0.0
  0
LINE
  5
379
330
1F
100
AcDbEntity
  8
0
  6
Continuous
 62
     7
370
    25
100
AcDbLine
 10
2940.975490279
 20
3125.0564516333
 30
0.0
 11
2941.0274519143
 21
3125.0606198496
 31
0.0
  0
LINE
  5
37A
330
1F
100
AcDbEntity
  8
0
  6
Continuous
 62
     7
370
    25
100
AcDbLine
 10
2952.6356302781
 20
3125.113338633
 30
0.0
 11
2952.6346783417
 21
3125.1158121239
 31
0.0
  0
LWPOLYLINE
  5
37B
330
1F
100
AcDbEntity
  8
0
  6
Continuous
 62
     7
370
    25
100
AcDbPolyline
 90
       23
 70
   128
 43
0.0
 10
2952.6346783417
 20
3125.1158121239
 10
2952.4194017973
 20
3125.1501872105
 10
2951.8439780752
 20
3125.18159603
 10
2950.9547281094
 20
3125.2075102091
 10
2949.8232354781
 20
3125.2258436868
 10
2948.54058401
 20
3125.2351206399
 10
2947.2100256422
 20
3125.2345942843
 10
2945.9386687613
 20
3125.2243069912
 10
2944.8288561037
 20
3125.2050868755
 10
2943.9699262854
 20
3125.178481134
 10
2943.4310221483
 20
3125.1466314976
 10
2943.2555248428
 20
3125.1121018247
 10
2943.4575616959
 20
3125.0776717135
 10
2944.0208689783
 20
3125.0461127473
 10
2944.9001011149
 20
3125.0199653861
 10
2946.0244809511
 20
3125.0013344616
 10
2947.3034972299
 20
3124.9917197414
 10
2948.6341906426
 20
3124.9918951992
 10
2949.9094419316
 20
3125.0018467108
 10
2951.0265948654
 20
3125.0207731913
 10
2951.8957199443
 20
3125.0471510811
 10
2952.4468536198
 20
3125.0788569912
 10
2952.6356302781
 20
3125.113338633
  0
LINE
  5
37C
330
1F
100
AcDbEntity
  8
0
  6
Continuous
 62
     7
370
    25
100
AcDbLine
 10
2945.4996091614
 20
3125.0998575046
 30
0.0
 11
2947.4304585654
 21
3125.0998575046
 31
0.0
  0
LINE
  5
37D
330
1F
100
AcDbEntity
  8
0
  6
Continuous
 62
     7
370
    25
100
AcDbLine
 10
2947.4304585654
 20
3125.0998575046
 30
0.0
 11
2947.4304585654
 21
3125.0493137595
 31
0.0
  0
ARC
  5
37E
330
1F
100
AcDbEntity
  8
0
  6
Continuous
 62
     7
370
    25
100
AcDbCircle
 10
2947.9454585654
 20
3219.3371748358
 30
0.0
 40
94.28926752996726
100
AcDbArc
 50
269.687053745
 51
270.312946255
  0
LINE
  5
37F
330
1F
100
AcDbEntity
  8
0
  6
Continuous
 62
     7
370
    25
100
AcDbLine
 10
2948.4604585654
 20
3125.0493137595
 30
0.0
 11
2948.4604585654
 21
3125.0998575046
 31
0.0
  0
LINE
  5
380
330
1F
100
AcDbEntity
  8
0
  6
Continuous
 62
     7
370
    25
100
AcDbLine
 10
2948.4604585654
 20
3125.0998575046
 30
0.0
 11
2950.3913079693
 21
3125.0998575046
 31
0.0
  0
LWPOLYLINE
  5
381
330
1F
100
AcDbEntity
  8
0
  6
Continuous
 62
     7
370
    25
100
AcDbPolyline
 90
        9
 70
   128
 43
0.0
 10
2950.3913079693
 20
3125.1268197613
 10
2950.4147242752
 20
3125.123481353
 10
2950.4314953662
 20
3125.1201156488
 10
2950.4415761084
 20
3125.1167317065
 10
2950.4449393728
 20
3125.1133386329
 10
2950.4415761084
 20
3125.1099455593
 10
2950.4314953662
 20
3125.1065616171
 10
2950.4147242752
 20
3125.1031959129
 10
2950.3913079693
 20
3125.0998575046
  0
LINE
  5
382
330
1F
100
AcDbEntity
  8
0
  6
Continuous
 62
     7
370
    25
100
AcDbLine
 10
2950.3913079693
 20
3125.1268197613
 30
0.0
 11
2948.4604585654
 21
3125.1268197613
 31
0.0
  0
LINE
  5
383
330
1F
100
AcDbEntity
  8
0
  6
Continuous
 62
     7
370
    25
100
AcDbLine
 10
2948.4604585654
 20
3125.1268197613
 30
0.0
 11
2948.4604585654
 21
3125.1773635064
 31
0.0
  0
ARC
  5
384
330
1F
100
AcDbEntity
  8
0
  6
Continuous
 62
     7
370
    25
100
AcDbCircle
 10
2947.9454585654
 20
3030.8895023792
 30
0.0
 40
94.28926758088775
100
AcDbArc
 50
89.6870537451
 51
90.3129462549
  0
LINE
  5
385
330
1F
100
AcDbEntity
  8
0
  6
Continuous
 62
     7
370
    25
100
AcDbLine
 10
2947.4304585654
 20
3125.1773635064
 30
0.0
 11
2947.4304585654
 21
3125.1268197613
 31
0.0
  0
LINE
  5
386
330
1F
100
AcDbEntity
  8
0
  6
Continuous
 62
     7
370
    25
100
AcDbLine
 10
2947.4304585654
 20
3125.1268197613
 30
0.0
 11
2945.4996091614
 21
3125.1268197613
 31
0.0
  0
LWPOLYLINE
  5
387
330
1F
100
AcDbEntity
  8
0
  6
Continuous
 62
     7
370
    25
100
AcDbPolyline
 90
        9
 70
   128
 43
0.0
 10
2945.4996091614
 20
3125.0998575046
 10
2945.4761928556
 20
3125.1031959129
 10
2945.4594217646
 20
3125.1065616171
 10
2945.4493410224
 20
3125.1099455593
 10
2945.4459777579
 20
3125.1133386329
 10
2945.4493410224
 20
3125.1167317065
 10
2945.4594217646
 20
3125.1201156488
 10
2945.4761928556
 20
3125.123481353
 10
2945.4996091614
 20
3125.1268197613
  0
LINE
  5
388
330
1F
100
AcDbEntity
  8
0
  6
Continuous
 62
     7
370
    25
100
AcDbLine
 10
2945.5133329309
 20
3125.0998575046
 30
0.0
 11
2945.4996091614
 21
3125.1268197613
 31
0.0
  0
LINE
  5
389
330
1F
100
AcDbEntity
  8
0
  6
Continuous
 62
     7
370
    25
100
AcDbLine
 10
2948.4604585654
 20
3125.1268197613
 30
0.0
 11
2948.4604585654
 21
3125.0998575046
 31
0.0
  0
LINE
  5
38A
330
1F
100
AcDbEntity
  8
0
  6
Continuous
 62
     7
370
    25
100
AcDbLine
 10
2947.4304585654
 20
3125.1268197613
 30
0.0
 11
2947.4304585654
 21
3125.0998575046
 31
0.0
  0
LINE
  5
38B
330
1F
100
AcDbEntity
  8
0
  6
Continuous
 62
     7
370
    25
100
AcDbLine
 10
2186.9454585654
 20
2739.4538810975
 30
0.0
 11
2186.9454585654
 21
2739.5538810975
 31
0.0
  0
LINE
  5
38C
330
1F
100
AcDbEntity
  8
0
  6
Continuous
 62
     7
370
    25
100
AcDbLine
 10
2187.1454585654
 20
2739.5538810975
 30
0.0
 11
2186.9454585654
 21
2739.5538810975
 31
0.0
  0
LINE
  5
38D
330
1F
100
AcDbEntity
  8
0
  6
Continuous
 62
     7
370
    25
100
AcDbLine
 10
2188.9454585654
 20
2739.4538810975
 30
0.0
 11
2188.9454585654
 21
2739.5538810975
 31
0.0
  0
LINE
  5
38E
330
1F
100
AcDbEntity
  8
0
  6
Continuous
 62
     7
370
    25
100
AcDbLine
 10
2188.9454585654
 20
2739.5538810975
 30
0.0
 11
2187.1454585654
 21
2739.5538810975
 31
0.0
  0
LINE
  5
38F
330
1F
100
AcDbEntity
  8
0
  6
Continuous
 62
     7
370
    25
100
AcDbLine
 10
2187.1454585654
 20
2739.7538810975
 30
0.0
 11
2187.1454585654
 21
2739.5538810975
 31
0.0
  0
LINE
  5
390
330
1F
100
AcDbEntity
  8
0
  6
Continuous
 62
     7
370
    25
100
AcDbLine
 10
2187.1454585654
 20
2739.7538810975
 30
0.0
 11
2188.9454585654
 21
2739.7538810975
 31
0.0
  0
LINE
  5
391
330
1F
100
AcDbEntity
  8
0
  6
Continuous
 62
     7
370
    25
100
AcDbLine
 10
2188.9454585654
 20
2739.7538810975
 30
0.0
 11
2188.9454585654
 21
2739.5538810975
 31
0.0
  0
ARC
  5
392
330
1F
100
AcDbEntity
  8
0
  6
Continuous
 62
     7
370
    25
100
AcDbCircle
 10
2187.1454585654
 20
2739.5538810975
 30
0.0
 40
0.1999999999998181
100
AcDbArc
 50
90.0
 51
180.0
  0
LINE
  5
393
330
1F
100
AcDbEntity
  8
0
  6
Continuous
 62
     7
370
    25
100
AcDbLine
 10
2586.4454585654
 20
2739.4538810975
 30
0.0
 11
2586.4454585654
 21
2739.5538810975
 31
0.0
  0
LINE
  5
394
330
1F
100
AcDbEntity
  8
0
  6
Continuous
 62
     7
370
    25
100
AcDbLine
 10
2586.6454585654
 20
2739.5538810975
 30
0.0
 11
2586.4454585654
 21
2739.5538810975
 31
0.0
  0
LINE
  5
395
330
1F
100
AcDbEntity
  8
0
  6
Continuous
 62
     7
370
    25
100
AcDbLine
 10
2588.4454585654
 20
2739.4538810975
 30
0.0
 11
2588.4454585654
 21
2739.5538810975
 31
0.0
  0
LINE
  5
396
330
1F
100
AcDbEntity
  8
0
  6
Continuous
 62
     7
370
    25
100
AcDbLine
 10
2588.4454585654
 20
2739.5538810975
 30
0.0
 11
2586.6454585654
 21
2739.5538810975
 31
0.0
  0
LINE
  5
397
330
1F
100
AcDbEntity
  8
0
  6
Continuous
 62
     7
370
    25
100
AcDbLine
 10
2586.6454585654
 20
2739.7538810975
 30
0.0
 11
2586.6454585654
 21
2739.5538810975
 31
0.0
  0
LINE
  5
398
330
1F
100
AcDbEntity
  8
0
  6
Continuous
 62
     7
370
    25
100
AcDbLine
 10
2586.6454585654
 20
2739.7538810975
 30
0.0
 11
2588.4454585654
 21
2739.7538810975
 31
0.0
  0
LINE
  5
399
330
1F
100
AcDbEntity
  8
0
  6
Continuous
 62
     7
370
    25
100
AcDbLine
 10
2588.4454585654
 20
2739.7538810975
 30
0.0
 11
2588.4454585654
 21
2739.5538810975
 31
0.0
  0
ARC
  5
39A
330
1F
100
AcDbEntity
  8
0
  6
Continuous
 62
     7
370
    25
100
AcDbCircle
 10
2586.6454585654
 20
2739.5538810975
 30
0.0
 40
0.2000000000002728
100
AcDbArc
 50
90.0
 51
180.0
  0
LINE
  5
39B
330
1F
100
AcDbEntity
  8
0
  6
Continuous
 62
     7
370
    25
100
AcDbLine
 10
2980.4454585654
 20
2739.5538810975
 30
0.0
 11
2980.4454585654
 21
2739.4538810975
 31
0.0
  0
LINE
  5
39C
330
1F
100
AcDbEntity
  8
0
  6
Continuous
 62
     7
370
    25
100
AcDbLine
 10
2588.4454585654
 20
2739.7538810975
 30
0.0
 11
2610.4454585654
 21
2739.7538810975
 31
0.0
  0
LINE
  5
39D
330
1F
100
AcDbEntity
  8
0
  6
Continuous
 62
     7
370
    25
100
AcDbLine
 10
2650.4454585654
 20
2739.7538810975
 30
0.0
 11
2769.4454585654
 21
2739.7538810975
 31
0.0
  0
LINE
  5
39E
330
1F
100
AcDbEntity
  8
0
  6
Continuous
 62
     7
370
    25
100
AcDbLine
 10
2799.4454585654
 20
2739.7538810975
 30
0.0
 11
2941.9471256909
 21
2739.7538810975
 31
0.0
  0
LINE
  5
39F
330
1F
100
AcDbEntity
  8
0
  6
Continuous
 62
     7
370
    25
100
AcDbLine
 10
2978.1331333148
 20
2739.7538810975
 30
0.0
 11
2980.4454585654
 21
2739.7538810975
 31
0.0
  0
LINE
  5
3A0
330
1F
100
AcDbEntity
  8
0
  6
Continuous
 62
     7
370
    25
100
AcDbLine
 10
2980.4454585654
 20
2739.5538810975
 30
0.0
 11
2980.4454585654
 21
2739.7538810975
 31
0.0
  0
LINE
  5
3A1
330
1F
100
AcDbEntity
  8
0
  6
Continuous
 62
     7
370
    25
100
AcDbLine
 10
2580.9454585654
 20
2739.5538810975
 30
0.0
 11
2580.9454585654
 21
2739.4538810975
 31
0.0
  0
LINE
  5
3A2
330
1F
100
AcDbEntity
  8
0
  6
Continuous
 62
     7
370
    25
100
AcDbLine
 10
2188.9454585654
 20
2739.7538810975
 30
0.0
 11
2191.2577838159
 21
2739.7538810975
 31
0.0
  0
LINE
  5
3A3
330
1F
100
AcDbEntity
  8
0
  6
Continuous
 62
     7
370
    25
100
AcDbLine
 10
2227.4437914398
 20
2739.7538810975
 30
0.0
 11
2369.9454585654
 21
2739.7538810975
 31
0.0
  0
LINE
  5
3A4
330
1F
100
AcDbEntity
  8
0
  6
Continuous
 62
     7
370
    25
100
AcDbLine
 10
2399.9454585654
 20
2739.7538810975
 30
0.0
 11
2518.9454585654
 21
2739.7538810975
 31
0.0
  0
LINE
  5
3A5
330
1F
100
AcDbEntity
  8
0
  6
Continuous
 62
     7
370
    25
100
AcDbLine
 10
2558.9454585654
 20
2739.7538810975
 30
0.0
 11
2580.9454585654
 21
2739.7538810975
 31
0.0
  0
LINE
  5
3A6
330
1F
100
AcDbEntity
  8
0
  6
Continuous
 62
     7
370
    25
100
AcDbLine
 10
2580.9454585654
 20
2739.5538810975
 30
0.0
 11
2580.9454585654
 21
2739.7538810975
 31
0.0
  0
LINE
  5
3A7
330
1F
100
AcDbEntity
  8
0
  6
Continuous
 62
     7
370
    25
100
AcDbLine
 10
2580.9454585654
 20
2739.7538810975
 30
0.0
 11
2582.7454585654
 21
2739.7538810975
 31
0.0
  0
LINE
  5
3A8
330
1F
100
AcDbEntity
  8
0
  6
Continuous
 62
     7
370
    25
100
AcDbLine
 10
2582.7454585654
 20
2739.5538810975
 30
0.0
 11
2582.7454585654
 21
2739.7538810975
 31
0.0
  0
LINE
  5
3A9
330
1F
100
AcDbEntity
  8
0
  6
Continuous
 62
     7
370
    25
100
AcDbLine
 10
2582.7454585654
 20
2739.5538810975
 30
0.0
 11
2580.9454585654
 21
2739.5538810975
 31
0.0
  0
LINE
  5
3AA
330
1F
100
AcDbEntity
  8
0
  6
Continuous
 62
     7
370
    25
100
AcDbLine
 10
2582.7454585654
 20
2739.5538810975
 30
0.0
 11
2582.9454585654
 21
2739.5538810975
 31
0.0
  0
LINE
  5
3AB
330
1F
100
AcDbEntity
  8
0
  6
Continuous
 62
     7
370
    25
100
AcDbLine
 10
2582.9454585654
 20
2739.5538810975
 30
0.0
 11
2582.9454585654
 21
2739.4538810975
 31
0.0
  0
ARC
  5
3AC
330
1F
100
AcDbEntity
  8
0
  6
Continuous
 62
     7
370
    25
100
AcDbCircle
 10
2582.7454585654
 20
2739.5538810975
 30
0.0
 40
0.1999999999998181
100
AcDbArc
 50
0.0000000001
 51
90.0
  0
LINE
  5
3AD
330
1F
100
AcDbEntity
  8
0
  6
Continuous
 62
     7
370
    25
100
AcDbLine
 10
2982.2454585654
 20
2739.5538810975
 30
0.0
 11
2980.4454585654
 21
2739.5538810975
 31
0.0
  0
LINE
  5
3AE
330
1F
100
AcDbEntity
  8
0
  6
Continuous
 62
     7
370
    25
100
AcDbLine
 10
2980.4454585654
 20
2739.7538810975
 30
0.0
 11
2982.2454585654
 21
2739.7538810975
 31
0.0
  0
LINE
  5
3AF
330
1F
100
AcDbEntity
  8
0
  6
Continuous
 62
     7
370
    25
100
AcDbLine
 10
2982.2454585654
 20
2739.5538810975
 30
0.0
 11
2982.2454585654
 21
2739.7538810975
 31
0.0
  0
LINE
  5
3B0
330
1F
100
AcDbEntity
  8
0
  6
Continuous
 62
     7
370
    25
100
AcDbLine
 10
2982.2454585654
 20
2739.5538810975
 30
0.0
 11
2982.4454585654
 21
2739.5538810975
 31
0.0
  0
LINE
  5
3B1
330
1F
100
AcDbEntity
  8
0
  6
Continuous
 62
     7
370
    25
100
AcDbLine
 10
2982.4454585654
 20
2739.5538810975
 30
0.0
 11
2982.4454585654
 21
2739.4538810975
 31
0.0
  0
ARC
  5
3B2
330
1F
100
AcDbEntity
  8
0
  6
Continuous
 62
     7
370
    25
100
AcDbCircle
 10
2982.2454585654
 20
2739.5538810975
 30
0.0
 40
0.2000000000002728
100
AcDbArc
 50
0.0000000001
 51
90.0
  0
LINE
  5
3B3
330
1F
100
AcDbEntity
  8
0
  6
Continuous
 62
     7
370
    25
100
AcDbLine
 10
2399.9454585654
 20
2740.6538810975
 30
0.0
 11
2399.9245088447
 21
2740.9538810975
 31
0.0
  0
LINE
  5
3B4
330
1F
100
AcDbEntity
  8
0
  6
Continuous
 62
     7
370
    25
100
AcDbLine
 10
2399.9454585654
 20
2739.4538810975
 30
0.0
 11
2399.9454585654
 21
2740.6538810975
 31
0.0
  0
LINE
  5
3B5
330
1F
100
AcDbEntity
  8
0
  6
Continuous
 62
     7
370
    25
100
AcDbLine
 10
2369.9454585654
 20
2740.6538810975
 30
0.0
 11
2369.9454585654
 21
2739.4538810975
 31
0.0
  0
LINE
  5
3B6
330
1F
100
AcDbEntity
  8
0
  6
Continuous
 62
     7
370
    25
100
AcDbLine
 10
2369.966408286
 20
2740.9538810975
 30
0.0
 11
2369.9454585654
 21
2740.6538810975
 31
0.0
  0
LINE
  5
3B7
330
1F
100
AcDbEntity
  8
0
  6
Continuous
 62
     7
370
    25
100
AcDbLine
 10
2374.5670931167
 20
2740.9538810975
 30
0.0
 11
2374.5468228464
 21
2740.6538810975
 31
0.0
  0
LINE
  5
3B8
330
1F
100
AcDbEntity
  8
0
  6
Continuous
 62
     7
370
    25
100
AcDbLine
 10
2374.5468228464
 20
2740.6538810975
 30
0.0
 11
2395.3440942843
 21
2740.6538810975
 31
0.0
  0
LINE
  5
3B9
330
1F
100
AcDbEntity
  8
0
  6
Continuous
 62
     7
370
    25
100
AcDbLine
 10
2395.3440942843
 20
2740.6538810975
 30
0.0
 11
2395.323824014
 21
2740.9538810975
 31
0.0
  0
LINE
  5
3BA
330
1F
100
AcDbEntity
  8
0
  6
Continuous
 62
     7
370
    25
100
AcDbLine
 10
2799.4454585654
 20
2740.6538810975
 30
0.0
 11
2799.4245088447
 21
2740.9538810975
 31
0.0
  0
LINE
  5
3BB
330
1F
100
AcDbEntity
  8
0
  6
Continuous
 62
     7
370
    25
100
AcDbLine
 10
2799.4454585654
 20
2739.4538810975
 30
0.0
 11
2799.4454585654
 21
2740.6538810975
 31
0.0
  0
LINE
  5
3BC
330
1F
100
AcDbEntity
  8
0
  6
Continuous
 62
     7
370
    25
100
AcDbLine
 10
2769.4454585654
 20
2740.6538810975
 30
0.0
 11
2769.4454585654
 21
2739.4538810975
 31
0.0
  0
LINE
  5
3BD
330
1F
100
AcDbEntity
  8
0
  6
Continuous
 62
     7
370
    25
100
AcDbLine
 10
2769.466408286
 20
2740.9538810975
 30
0.0
 11
2769.4454585654
 21
2740.6538810975
 31
0.0
  0
LINE
  5
3BE
330
1F
100
AcDbEntity
  8
0
  6
Continuous
 62
     7
370
    25
100
AcDbLine
 10
2774.0670931167
 20
2740.9538810975
 30
0.0
 11
2774.0468228464
 21
2740.6538810975
 31
0.0
  0
LINE
  5
3BF
330
1F
100
AcDbEntity
  8
0
  6
Continuous
 62
     7
370
    25
100
AcDbLine
 10
2774.0468228464
 20
2740.6538810975
 30
0.0
 11
2794.8440942843
 21
2740.6538810975
 31
0.0
  0
LINE
  5
3C0
330
1F
100
AcDbEntity
  8
0
  6
Continuous
 62
     7
370
    25
100
AcDbLine
 10
2794.8440942843
 20
2740.6538810975
 30
0.0
 11
2794.823824014
 21
2740.9538810975
 31
0.0
  0
LINE
  5
3C1
330
1F
100
AcDbEntity
  8
0
  6
Continuous
 62
     7
370
    25
100
AcDbLine
 10
2226.4454585697
 20
2739.6538810975
 30
0.0
 11
2226.4454585697
 21
2739.4538810975
 31
0.0
  0
LINE
  5
3C2
330
1F
100
AcDbEntity
  8
0
  6
Continuous
 62
     7
370
    25
100
AcDbLine
 10
2206.4454585697
 20
2739.4538810975
 30
0.0
 11
2206.4454585697
 21
2739.6538810975
 31
0.0
  0
LINE
  5
3C3
330
1F
100
AcDbEntity
  8
0
  6
Continuous
 62
     7
370
    25
100
AcDbLine
 10
2205.4454585697
 20
2739.4538810975
 30
0.0
 11
2205.4454585697
 21
2739.6538810975
 31
0.0
  0
LINE
  5
3C4
330
1F
100
AcDbEntity
  8
0
  6
Continuous
 62
     7
370
    25
100
AcDbLine
 10
2205.4454585697
 20
2739.6538810975
 30
0.0
 11
2206.4454585697
 21
2739.6538810975
 31
0.0
  0
LINE
  5
3C5
330
1F
100
AcDbEntity
  8
0
  6
Continuous
 62
     7
370
    25
100
AcDbLine
 10
2227.4454585697
 20
2739.4538810975
 30
0.0
 11
2227.4454585697
 21
2739.6538810975
 31
0.0
  0
LINE
  5
3C6
330
1F
100
AcDbEntity
  8
0
  6
Continuous
 62
     7
370
    25
100
AcDbLine
 10
2226.4454585697
 20
2739.6538810975
 30
0.0
 11
2227.4454585697
 21
2739.6538810975
 31
0.0
  0
ARC
  5
3C7
330
1F
100
AcDbEntity
  8
0
  6
Continuous
 62
     7
370
    25
100
AcDbCircle
 10
2208.4454585697
 20
2739.6538810975
 30
0.0
 40
3.0
100
AcDbArc
 50
154.3207113805
 51
180.0
  0
ARC
  5
3C8
330
1F
100
AcDbEntity
  8
0
  6
Continuous
 62
     7
370
    25
100
AcDbCircle
 10
2224.4454585697
 20
2739.6538810975
 30
0.0
 40
3.0
100
AcDbArc
 50
0.0
 51
25.6792886195
  0
LINE
  5
3C9
330
1F
100
AcDbEntity
  8
0
  6
Continuous
 62
     7
370
    25
100
AcDbLine
 10
2205.4454585697
 20
2739.9538810975
 30
0.0
 11
2191.2577838159
 21
2739.9538810975
 31
0.0
  0
LINE
  5
3CA
330
1F
100
AcDbEntity
  8
0
  6
Continuous
 62
     7
370
    25
100
AcDbLine
 10
2205.4454585697
 20
2739.6538810975
 30
0.0
 11
2205.4454585697
 21
2739.9538810975
 31
0.0
  0
LINE
  5
3CB
330
1F
100
AcDbEntity
  8
0
  6
Continuous
 62
     7
370
    25
100
AcDbLine
 10
2191.2577838159
 20
2739.9538810975
 30
0.0
 11
2191.2577838159
 21
2739.4538810975
 31
0.0
  0
LINE
  5
3CC
330
1F
100
AcDbEntity
  8
0
  6
Continuous
 62
     7
370
    25
100
AcDbLine
 10
2962.945458561
 20
2739.4538810975
 30
0.0
 11
2962.945458561
 21
2739.6538810975
 31
0.0
  0
LINE
  5
3CD
330
1F
100
AcDbEntity
  8
0
  6
Continuous
 62
     7
370
    25
100
AcDbLine
 10
2942.945458561
 20
2739.4538810975
 30
0.0
 11
2942.945458561
 21
2739.6538810975
 31
0.0
  0
LINE
  5
3CE
330
1F
100
AcDbEntity
  8
0
  6
Continuous
 62
     7
370
    25
100
AcDbLine
 10
2941.945458561
 20
2739.4538810975
 30
0.0
 11
2941.945458561
 21
2739.6538810975
 31
0.0
  0
LINE
  5
3CF
330
1F
100
AcDbEntity
  8
0
  6
Continuous
 62
     7
370
    25
100
AcDbLine
 10
2941.945458561
 20
2739.6538810975
 30
0.0
 11
2942.945458561
 21
2739.6538810975
 31
0.0
  0
LINE
  5
3D0
330
1F
100
AcDbEntity
  8
0
  6
Continuous
 62
     7
370
    25
100
AcDbLine
 10
2963.945458561
 20
2739.6538810975
 30
0.0
 11
2962.945458561
 21
2739.6538810975
 31
0.0
  0
LINE
  5
3D1
330
1F
100
AcDbEntity
  8
0
  6
Continuous
 62
     7
370
    25
100
AcDbLine
 10
2963.945458561
 20
2739.4538810975
 30
0.0
 11
2963.945458561
 21
2739.6538810975
 31
0.0
  0
ARC
  5
3D2
330
1F
100
AcDbEntity
  8
0
  6
Continuous
 62
     7
370
    25
100
AcDbCircle
 10
2944.945458561
 20
2739.6538810975
 30
0.0
 40
2.999999999999861
100
AcDbArc
 50
154.3207113804
 51
180.0
  0
ARC
  5
3D3
330
1F
100
AcDbEntity
  8
0
  6
Continuous
 62
     7
370
    25
100
AcDbCircle
 10
2960.945458561
 20
2739.6538810975
 30
0.0
 40
3.000000000000455
100
AcDbArc
 50
0.0
 51
25.6792886196
  0
LINE
  5
3D4
330
1F
100
AcDbEntity
  8
0
  6
Continuous
 62
     7
370
    25
100
AcDbLine
 10
2978.1331333148
 20
2739.9538810975
 30
0.0
 11
2963.945458561
 21
2739.9538810975
 31
0.0
  0
LINE
  5
3D5
330
1F
100
AcDbEntity
  8
0
  6
Continuous
 62
     7
370
    25
100
AcDbLine
 10
2978.1331333148
 20
2739.4538810975
 30
0.0
 11
2978.1331333148
 21
2739.9538810975
 31
0.0
  0
LINE
  5
3D6
330
1F
100
AcDbEntity
  8
0
  6
Continuous
 62
     7
370
    25
100
AcDbLine
 10
2963.945458561
 20
2739.9538810975
 30
0.0
 11
2963.945458561
 21
2739.6538810975
 31
0.0
  0
LINE
  5
3D7
330
1F
100
AcDbEntity
  8
0
  6
Continuous
 62
     7
370
    25
100
AcDbLine
 10
2203.3859106131
 20
2740.9538810975
 30
0.0
 11
2203.3628582571
 21
2739.9538810975
 31
0.0
  0
LINE
  5
3D8
330
1F
100
AcDbEntity
  8
0
  6
Continuous
 62
     7
370
    25
100
AcDbLine
 10
2204.6632036285
 20
2739.9538810975
 30
0.0
 11
2204.6862559845
 21
2740.9538810975
 31
0.0
  0
LINE
  5
3D9
330
1F
100
AcDbEntity
  8
0
  6
Continuous
 62
     7
370
    25
100
AcDbLine
 10
2964.7046611463
 20
2740.9538810975
 30
0.0
 11
2964.7277135023
 21
2739.9538810975
 31
0.0
  0
LINE
  5
3DA
330
1F
100
AcDbEntity
  8
0
  6
Continuous
 62
     7
370
    25
100
AcDbLine
 10
2966.0280588736
 20
2739.9538810975
 30
0.0
 11
2966.0050065176
 21
2740.9538810975
 31
0.0
  0
ARC
  5
3DB
330
1F
100
AcDbEntity
  8
0
  6
Continuous
 62
     7
370
    25
100
AcDbCircle
 10
2221.4448257767
 20
3270.3320258099
 30
0.0
 40
147.0082502474077
100
AcDbArc
 50
266.0997819289
 51
273.9007124515
  0
LWPOLYLINE
  5
3DC
330
1F
100
AcDbEntity
  8
0
  6
Continuous
 62
     7
370
    25
100
AcDbPolyline
 90
        6
 70
   128
 43
0.0
 10
2229.056639358
 20
3124.7383210839
 10
2229.7957539085
 20
3124.7783522009
 10
2230.2473606486
 20
3124.8240102435
 10
2230.3386164832
 20
3124.8711133513
 10
2230.0657853877
 20
3124.9177331174
 10
2229.9418327899
 20
3124.9290740988
  0
LWPOLYLINE
  5
3DD
330
1F
100
AcDbEntity
  8
0
  6
Continuous
 62
     7
370
    25
100
AcDbPolyline
 90
        7
 70
   128
 43
0.0
 10
2212.9490843408
 20
3124.9290740988
 10
2212.825131743
 20
3124.9177331174
 10
2212.5523006476
 20
3124.8711133513
 10
2212.6435564822
 20
3124.8240102435
 10
2213.0951632222
 20
3124.7783522009
 10
2213.8886320348
 20
3124.736008469
 10
2214.7435540402
 20
3124.7058287716
  0
LWPOLYLINE
  5
3DE
330
1F
100
AcDbEntity
  8
0
  6
Continuous
 62
     7
370
    25
100
AcDbPolyline
 90
       19
 70
   128
 43
0.0
 10
2228.4154268517
 20
3125.0564516333
 10
2228.5671548704
 20
3125.0417688196
 10
2228.7503025605
 20
3124.9992186952
 10
2228.5671548704
 20
3124.9566685707
 10
2228.0268955899
 20
3124.9162520871
 10
2227.1566155753
 20
3124.8799958957
 10
2225.9999543005
 20
3124.8497180333
 10
2224.6149115917
 20
3124.8269367584
 10
2223.0709392736
 20
3124.8127944191
 10
2221.4454585654
 20
3124.8080001715
 10
2219.8199778572
 20
3124.8127944191
 10
2218.2760055391
 20
3124.8269367584
 10
2216.8909628302
 20
3124.8497180333
 10
2215.7343015554
 20
3124.8799958957
 10
2214.8640215408
 20
3124.9162520871
 10
2214.3237622603
 20
3124.9566685707
 10
2214.1406145702
 20
3124.9992186952
 10
2214.3237622603
 20
3125.0417688196
 10
2214.475490279
 20
3125.0564516333
  0
SPLINE
  5
3DF
330
1F
100
AcDbEntity
  8
0
  6
Continuous
 62
     7
370
    25
100
AcDbSpline
210
0.0
220
0.0
230
1.0
 70
     8
 71
     3
 72
    10
 73
     6
 74
     0
 42
0.00000001
 43
0.00000001
 40
0.0
 40
0.0
 40
0.0
 40
0.0
 40
0.0219459922066092
 40
0.5300207501332342
 40
0.9999999999999999
 40
0.9999999999999999
 40
0.9999999999999999
 40
0.9999999999999999
 10
2226.062172969182
 20
3122.531668758928
 30
0.0
 10
2226.060135481757
 20
3122.530130453343
 30
0.0
 10
2226.010927835863
 20
3122.492978618402
 30
0.0
 10
2225.962555166672
 20
3122.375907282432
 30
0.0
 10
2225.949367076373
 20
3122.264160079885
 30
0.0
 10
2225.943029871335
 20
3122.210462772774
 30
0.0
  0
ARC
  5
3E0
330
1F
100
AcDbEntity
  8
0
  6
Continuous
 62
     7
370
    25
100
AcDbCircle
 10
2221.4727661044
 20
3188.5310144339
 30
0.0
 40
66.47103753356649
100
AcDbArc
 50
266.0945910318
 51
273.8561261672
  0
LINE
  5
3E1
330
1F
100
AcDbEntity
  8
0
  6
Continuous
 62
     7
370
    25
100
AcDbLine
 10
2225.9454585654
 20
3122.2143323905
 30
0.0
 11
2225.9430298712
 21
3122.2104627727
 31
0.0
  0
ARC
  5
3E2
330
1F
100
AcDbEntity
  8
0
  6
Continuous
 62
     7
370
    25
100
AcDbCircle
 10
2947.9448257767
 20
3270.3320258099
 30
0.0
 40
147.0082502473891
100
AcDbArc
 50
266.0997819288
 51
273.9007124515
  0
LWPOLYLINE
  5
3E3
330
1F
100
AcDbEntity
  8
0
  6
Continuous
 62
     7
370
    25
100
AcDbPolyline
 90
        6
 70
   128
 43
0.0
 10
2955.556639358
 20
3124.7383210839
 10
2956.2957539085
 20
3124.7783522009
 10
2956.7473606486
 20
3124.8240102435
 10
2956.8386164832
 20
3124.8711133513
 10
2956.5657853877
 20
3124.9177331174
 10
2956.4418327899
 20
3124.9290740988
  0
LWPOLYLINE
  5
3E4
330
1F
100
AcDbEntity
  8
0
  6
Continuous
 62
     7
370
    25
100
AcDbPolyline
 90
        7
 70
   128
 43
0.0
 10
2939.4490843408
 20
3124.9290740988
 10
2939.325131743
 20
3124.9177331174
 10
2939.0523006476
 20
3124.8711133513
 10
2939.1435564822
 20
3124.8240102435
 10
2939.5951632222
 20
3124.7783522009
 10
2940.3886320348
 20
3124.736008469
 10
2941.2435540402
 20
3124.7058287716
  0
LWPOLYLINE
  5
3E5
330
1F
100
AcDbEntity
  8
0
  6
Continuous
 62
     7
370
    25
100
AcDbPolyline
 90
       19
 70
   128
 43
0.0
 10
2954.9154268517
 20
3125.0564516333
 10
2955.0671548704
 20
3125.0417688196
 10
2955.2503025605
 20
3124.9992186952
 10
2955.0671548704
 20
3124.9566685707
 10
2954.5268955899
 20
3124.9162520871
 10
2953.6566155753
 20
3124.8799958957
 10
2952.4999543005
 20
3124.8497180333
 10
2951.1149115917
 20
3124.8269367584
 10
2949.5709392736
 20
3124.8127944191
 10
2947.9454585654
 20
3124.8080001715
 10
2946.3199778572
 20
3124.8127944191
 10
2944.7760055391
 20
3124.8269367584
 10
2943.3909628302
 20
3124.8497180333
 10
2942.2343015554
 20
3124.8799958957
 10
2941.3640215408
 20
3124.9162520871
 10
2940.8237622603
 20
3124.9566685707
 10
2940.6406145702
 20
3124.9992186952
 10
2940.8237622603
 20
3125.0417688196
 10
2940.975490279
 20
3125.0564516333
  0
SPLINE
  5
3E6
330
1F
100
AcDbEntity
  8
0
  6
Continuous
 62
     7
370
    25
100
AcDbSpline
210
0.0
220
0.0
230
1.0
 70
     8
 71
     3
 72
    10
 73
     6
 74
     0
 42
0.00000001
 43
0.00000001
 40
0.0
 40
0.0
 40
0.0
 40
0.0
 40
0.0219459922062958
 40
0.5300207501331403
 40
1.0
 40
1.0
 40
1.0
 40
1.0
 10
2952.562172969181
 20
3122.531668758925
 30
0.0
 10
2952.560135481756
 20
3122.53013045334
 30
0.0
 10
2952.510927835864
 20
3122.492978618399
 30
0.0
 10
2952.46255516667
 20
3122.375907282429
 30
0.0
 10
2952.449367076372
 20
3122.264160079882
 30
0.0
 10
2952.443029871334
 20
3122.210462772772
 30
0.0
  0
ARC
  5
3E7
330
1F
100
AcDbEntity
  8
0
  6
Continuous
 62
     7
370
    25
100
AcDbCircle
 10
2947.9727661044
 20
3188.5310144339
 30
0.0
 40
66.47103753357104
100
AcDbArc
 50
266.0945910318
 51
273.8561261672
  0
LINE
  5
3E8
330
1F
100
AcDbEntity
  8
0
  6
Continuous
 62
     7
370
    25
100
AcDbLine
 10
2952.4454585654
 20
3122.2143323905
 30
0.0
 11
2952.4430298712
 21
3122.2104627727
 31
0.0
  0
LINE
  5
3E9
330
1F
100
AcDbEntity
  8
0
  6
Continuous
 62
     7
370
    25
100
AcDbLine
 10
2187.1454585654
 20
2739.5538810975
 30
0.0
 11
2187.1454585654
 21
2739.4538810975
 31
0.0
  0
LINE
  5
3EA
330
1F
100
AcDbEntity
  8
0
  6
Continuous
 62
     7
370
    25
100
AcDbLine
 10
2586.6454585654
 20
2739.5538810975
 30
0.0
 11
2586.6454585654
 21
2739.4538810975
 31
0.0
  0
LINE
  5
3EB
330
1F
100
AcDbEntity
  8
0
  6
Continuous
 62
     7
370
    25
100
AcDbLine
 10
2980.4454585654
 20
2739.5538810975
 30
0.0
 11
2978.1331333148
 21
2739.5538810975
 31
0.0
  0
LINE
  5
3EC
330
1F
100
AcDbEntity
  8
0
  6
Continuous
 62
     7
370
    25
100
AcDbLine
 10
2941.945458561
 20
2739.5538810975
 30
0.0
 11
2799.4454585654
 21
2739.5538810975
 31
0.0
  0
LINE
  5
3ED
330
1F
100
AcDbEntity
  8
0
  6
Continuous
 62
     7
370
    25
100
AcDbLine
 10
2769.4454585654
 20
2739.5538810975
 30
0.0
 11
2650.4454585654
 21
2739.5538810975
 31
0.0
  0
LINE
  5
3EE
330
1F
100
AcDbEntity
  8
0
  6
Continuous
 62
     7
370
    25
100
AcDbLine
 10
2610.4454585654
 20
2739.5538810975
 30
0.0
 11
2588.4454585654
 21
2739.5538810975
 31
0.0
  0
LINE
  5
3EF
330
1F
100
AcDbEntity
  8
0
  6
Continuous
 62
     7
370
    25
100
AcDbLine
 10
2580.9454585654
 20
2739.5538810975
 30
0.0
 11
2558.9454585654
 21
2739.5538810975
 31
0.0
  0
LINE
  5
3F0
330
1F
100
AcDbEntity
  8
0
  6
Continuous
 62
     7
370
    25
100
AcDbLine
 10
2518.9454585654
 20
2739.5538810975
 30
0.0
 11
2399.9454585654
 21
2739.5538810975
 31
0.0
  0
LINE
  5
3F1
330
1F
100
AcDbEntity
  8
0
  6
Continuous
 62
     7
370
    25
100
AcDbLine
 10
2369.9454585654
 20
2739.5538810975
 30
0.0
 11
2227.4454585697
 21
2739.5538810975
 31
0.0
  0
LINE
  5
3F2
330
1F
100
AcDbEntity
  8
0
  6
Continuous
 62
     7
370
    25
100
AcDbLine
 10
2191.2577838159
 20
2739.5538810975
 30
0.0
 11
2188.9454585654
 21
2739.5538810975
 31
0.0
  0
LINE
  5
3F3
330
1F
100
AcDbEntity
  8
0
  6
Continuous
 62
     7
370
    25
100
AcDbLine
 10
2582.7454585654
 20
2739.4538810975
 30
0.0
 11
2582.7454585654
 21
2739.5538810975
 31
0.0
  0
LINE
  5
3F4
330
1F
100
AcDbEntity
  8
0
  6
Continuous
 62
     7
370
    25
100
AcDbLine
 10
2982.2454585654
 20
2739.4538810975
 30
0.0
 11
2982.2454585654
 21
2739.5538810975
 31
0.0
  0
SPLINE
  5
3F5
330
1F
100
AcDbEntity
  8
0
  6
Continuous
 62
     7
370
    25
100
AcDbSpline
210
0.0
220
0.0
230
1.0
 70
     8
 71
     3
 72
    10
 73
     6
 74
     0
 42
0.00000001
 43
0.00000001
 40
0.0
 40
0.0
 40
0.0
 40
0.0
 40
0.1834740337128856
 40
0.4713152133470865
 40
1.0
 40
1.0
 40
1.0
 40
1.0
 10
2206.938044120526
 20
2740.953881097514
 30
0.0
 10
2206.881017377275
 20
2740.888430563504
 30
0.0
 10
2206.734524867582
 20
2740.720298693414
 30
0.0
 10
2206.516685233467
 20
2740.291298749874
 30
0.0
 10
2206.473451546599
 20
2739.904394271611
 30
0.0
 10
2206.445458569693
 20
2739.653881097516
 30
0.0
  0
SPLINE
  5
3F6
330
1F
100
AcDbEntity
  8
0
  6
Continuous
 62
     7
370
    25
100
AcDbSpline
210
0.0
220
0.0
230
1.0
 70
     8
 71
     3
 72
    10
 73
     6
 74
     0
 42
0.00000001
 43
0.00000001
 40
0.0
 40
0.0
 40
0.0
 40
0.0
 40
0.5286786081634278
 40
0.8161383429882858
 40
1.0
 40
1.0
 40
1.0
 40
1.0
 10
2226.445458569695
 20
2739.653881097511
 30
0.0
 10
2226.41746793385
 20
2739.904395604488
 30
0.0
 10
2226.374257879945
 20
2740.291122987555
 30
0.0
 10
2226.156475972962
 20
2740.720139553944
 30
0.0
 10
2226.009989980857
 20
2740.888287050799
 30
0.0
 10
2225.952846049551
 20
2740.953881097514
 30
0.0
  0
SPLINE
  5
3F7
330
1F
100
AcDbEntity
  8
0
  6
Continuous
 62
     7
370
    25
100
AcDbSpline
210
0.0
220
0.0
230
1.0
 70
     8
 71
     3
 72
    10
 73
     6
 74
     0
 42
0.00000001
 43
0.00000001
 40
0.0
 40
0.0
 40
0.0
 40
0.0
 40
0.5286786081612216
 40
0.816138342983748
 40
1.0
 40
1.0
 40
1.0
 40
1.0
 10
2962.945458561026
 20
2739.653881097511
 30
0.0
 10
2962.917467925181
 20
2739.904395604486
 30
0.0
 10
2962.874257871275
 20
2740.291122987552
 30
0.0
 10
2962.656475964294
 20
2740.720139553942
 30
0.0
 10
2962.509989972186
 20
2740.888287050798
 30
0.0
 10
2962.45284604088
 20
2740.953881097514
 30
0.0
  0
SPLINE
  5
3F8
330
1F
100
AcDbEntity
  8
0
  6
Continuous
 62
     7
370
    25
100
AcDbSpline
210
0.0
220
0.0
230
1.0
 70
     8
 71
     3
 72
    10
 73
     6
 74
     0
 42
0.00000001
 43
0.00000001
 40
0.0
 40
0.0
 40
0.0
 40
0.0
 40
0.1834740337154741
 40
0.4713152133466421
 40
1.0
 40
1.0
 40
1.0
 40
1.0
 10
2943.438044111863
 20
2740.953881097514
 30
0.0
 10
2943.38101736861
 20
2740.888430563502
 30
0.0
 10
2943.234524858916
 20
2740.720298693412
 30
0.0
 10
2943.0166852248
 20
2740.291298749869
 30
0.0
 10
2942.973451537933
 20
2739.904394271604
 30
0.0
 10
2942.945458561026
 20
2739.653881097507
 30
0.0
  0
ENDSEC
  0
SECTION
  2
OBJECTS
  0
DICTIONARY
  5
C
330
0
100
AcDbDictionary
281
     1
  3
ACAD_GROUP
350
D
  3
ACAD_LAYOUT
350
1A
  3
ACAD_MLINESTYLE
350
17
  3
ACAD_PLOTSETTINGS
350
19
  3
ACAD_PLOTSTYLENAME
350
E
  3
ACAD_SCALELIST
350
47
  3
DWGPROPS
350
3F9
  0
DICTIONARY
  5
D
102
{ACAD_REACTORS
330
C
102
}
330
C
100
AcDbDictionary
281
     1
  0
DICTIONARY
  5
1A
102
{ACAD_REACTORS
330
C
102
}
330
C
100
AcDbDictionary
281
     1
  3
Layout1
350
1E
  3
Layout2
350
26
  3
Model
350
22
  0
DICTIONARY
  5
17
102
{ACAD_REACTORS
330
C
102
}
330
C
100
AcDbDictionary
281
     1
  3
Standard
350
18
  0
DICTIONARY
  5
19
102
{ACAD_REACTORS
330
C
102
}
330
C
100
AcDbDictionary
281
     1
  0
ACDBDICTIONARYWDFLT
  5
E
102
{ACAD_REACTORS
330
C
102
}
330
C
100
AcDbDictionary
281
     1
  3
Normal
350
F
100
AcDbDictionaryWithDefault
340
F
  0
DICTIONARY
  5
47
102
{ACAD_REACTORS
330
C
102
}
330
C
100
AcDbDictionary
281
     1
  3
A0
350
48
  3
A1
350
49
  3
A2
350
4A
  3
A3
350
4B
  3
A4
350
4C
  3
A5
350
4D
  3
A6
350
4E
  3
A7
350
4F
  3
A8
350
50
  3
A9
350
51
  3
B0
350
52
  3
B1
350
53
  3
B2
350
54
  3
B3
350
55
  3
B4
350
56
  3
B5
350
57
  3
B6
350
58
  0
XRECORD
  5
3F9
102
{ACAD_REACTORS
330
C
102
}
330
C
100
AcDbXrecord
280
     1
  1
DWGPROPS COOKIE
  2

  3

  4

  6

  7

  8
b
  9

300
=
301
=
302
=
303
=
304
=
305
=
306
=
307
=
308
=
309
=
 40
0.0
 41
2460383.326264676
 42
2460383.326264919
  1

 90
        0
  0
LAYOUT
  5
1E
102
{ACAD_REACTORS
330
1A
102
}
330
1A
100
AcDbPlotSettings
  1

  2
none_device
  4

  6

 40
0.0
 41
0.0
 42
0.0
 43
0.0
 44
0.0
 45
0.0
 46
0.0
 47
0.0
 48
0.0
 49
0.0
140
0.0
141
0.0
142
1.0
143
1.0
 70
   688
 72
     1
 73
     0
 74
     5
  7

 75
    16
147
1.0
148
0.0
149
0.0
100
AcDbLayout
  1
Layout1
 70
     1
 71
     1
 10
0.0
 20
0.0
 11
420.0
 21
297.0
 12
0.0
 22
0.0
 32
0.0
 14
1.0000000000E+20
 24
1.0000000000E+20
 34
1.0000000000E+20
 15
-1.0000000000E+20
 25
-1.0000000000E+20
 35
-1.0000000000E+20
146
0.0
 13
0.0
 23
0.0
 33
0.0
 16
1.0
 26
0.0
 36
0.0
 17
0.0
 27
1.0
 37
0.0
 76
     0
330
1B
  0
LAYOUT
  5
26
102
{ACAD_REACTORS
330
1A
102
}
330
1A
100
AcDbPlotSettings
  1

  2
none_device
  4

  6

 40
0.0
 41
0.0
 42
0.0
 43
0.0
 44
0.0
 45
0.0
 46
0.0
 47
0.0
 48
0.0
 49
0.0
140
0.0
141
0.0
142
1.0
143
1.0
 70
   688
 72
     1
 73
     0
 74
     5
  7

 75
    16
147
1.0
148
0.0
149
0.0
100
AcDbLayout
  1
Layout2
 70
     1
 71
     2
 10
0.0
 20
0.0
 11
0.0
 21
0.0
 12
0.0
 22
0.0
 32
0.0
 14
0.0
 24
0.0
 34
0.0
 15
0.0
 25
0.0
 35
0.0
146
0.0
 13
0.0
 23
0.0
 33
0.0
 16
1.0
 26
0.0
 36
0.0
 17
0.0
 27
1.0
 37
0.0
 76
     0
330
23
  0
LAYOUT
  5
22
102
{ACAD_REACTORS
330
1A
102
}
330
1A
100
AcDbPlotSettings
  1

  2
none_device
  4
Letter_(8.50_x_11.00_Inches)
  6

 40
6.35
 41
6.35
 42
6.35000508
 43
6.35000508
 44
215.9
 45
279.4
 46
0.0
 47
0.0
 48
0.0
 49
0.0
140
0.0
141
0.0
142
1.0
143
1.0
 70
  1712
 72
     1
 73
     0
 74
     0
  7

 75
     0
147
1.0
148
0.0
149
0.0
100
AcDbLayout
  1
Model
 70
     1
 71
     0
 10
0.0
 20
0.0
 11
5000.0
 21
3500.0
 12
0.0
 22
0.0
 32
0.0
 14
0.0
 24
0.0
 34
0.0
 15
5000.0
 25
3500.0
 35
0.0
146
0.0
 13
0.0
 23
0.0
 33
0.0
 16
1.0
 26
0.0
 36
0.0
 17
0.0
 27
1.0
 37
0.0
 76
     0
330
1F
331
29
  0
MLINESTYLE
  5
18
102
{ACAD_REACTORS
330
17
102
}
330
17
100
AcDbMlineStyle
  2
Standard
 70
     0
  3

 62
   256
 51
90.0
 52
90.0
 71
     2
 49
0.5
 62
   256
  6
BYLAYER
 49
-0.5
 62
   256
  6
BYLAYER
  0
ACDBPLACEHOLDER
  5
F
102
{ACAD_REACTORS
330
E
102
}
330
E
  0
SCALE
  5
48
102
{ACAD_REACTORS
330
47
102
}
330
47
100
AcDbScale
 70
     0
300
1:1
140
1.0
141
1.0
290
     1
  0
SCALE
  5
49
102
{ACAD_REACTORS
330
47
102
}
330
47
100
AcDbScale
 70
     0
300
1:2
140
1.0
141
2.0
290
     0
  0
SCALE
  5
4A
102
{ACAD_REACTORS
330
47
102
}
330
47
100
AcDbScale
 70
     0
300
1:4
140
1.0
141
4.0
290
     0
  0
SCALE
  5
4B
102
{ACAD_REACTORS
330
47
102
}
330
47
100
AcDbScale
 70
     0
300
1:5
140
1.0
141
5.0
290
     0
  0
SCALE
  5
4C
102
{ACAD_REACTORS
330
47
102
}
330
47
100
AcDbScale
 70
     0
300
1:8
140
1.0
141
8.0
290
     0
  0
SCALE
  5
4D
102
{ACAD_REACTORS
330
47
102
}
330
47
100
AcDbScale
 70
     0
300
1:10
140
1.0
141
10.0
290
     0
  0
SCALE
  5
4E
102
{ACAD_REACTORS
330
47
102
}
330
47
100
AcDbScale
 70
     0
300
1:16
140
1.0
141
16.0
290
     0
  0
SCALE
  5
4F
102
{ACAD_REACTORS
330
47
102
}
330
47
100
AcDbScale
 70
     0
300
1:20
140
1.0
141
20.0
290
     0
  0
SCALE
  5
50
102
{ACAD_REACTORS
330
47
102
}
330
47
100
AcDbScale
 70
     0
300
1:30
140
1.0
141
30.0
290
     0
  0
SCALE
  5
51
102
{ACAD_REACTORS
330
47
102
}
330
47
100
AcDbScale
 70
     0
300
1:40
140
1.0
141
40.0
290
     0
  0
SCALE
  5
52
102
{ACAD_REACTORS
330
47
102
}
330
47
100
AcDbScale
 70
     0
300
1:50
140
1.0
141
50.0
290
     0
  0
SCALE
  5
53
102
{ACAD_REACTORS
330
47
102
}
330
47
100
AcDbScale
 70
     0
300
1:100
140
1.0
141
100.0
290
     0
  0
SCALE
  5
54
102
{ACAD_REACTORS
330
47
102
}
330
47
100
AcDbScale
 70
     0
300
2:1
140
2.0
141
1.0
290
     0
  0
SCALE
  5
55
102
{ACAD_REACTORS
330
47
102
}
330
47
100
AcDbScale
 70
     0
300
4:1
140
4.0
141
1.0
290
     0
  0
SCALE
  5
56
102
{ACAD_REACTORS
330
47
102
}
330
47
100
AcDbScale
 70
     0
300
8:1
140
8.0
141
1.0
290
     0
  0
SCALE
  5
57
102
{ACAD_REACTORS
330
47
102
}
330
47
100
AcDbScale
 70
     0
300
10:1
140
10.0
141
1.0
290
     0
  0
SCALE
  5
58
102
{ACAD_REACTORS
330
47
102
}
330
47
100
AcDbScale
 70
     0
300
100:1
140
100.0
141
1.0
290
     0
  0
ENDSEC
  0
EOF
