  0
SECTION
  2
HEADER
  9
$ACADVER
  1
AC1015
  9
$ACADMAINTVER
 70
     6
  9
$DWGCODEPAGE
  3
DOS932
  9
$INSBASE
 10
0.0
 20
0.0
 30
0.0
  9
$EXTMIN
 10
0.0
 20
0.0
 30
0.0
  9
$EXTMAX
 10
5000.0
 20
3500.0
 30
0.0
  9
$LIMMIN
 10
0.0
 20
0.0
  9
$LIMMAX
 10
5000.0
 20
3500.0
  9
$ORTHOMODE
 70
     0
  9
$REGENMODE
 70
     1
  9
$FILLMODE
 70
     1
  9
$QTEXTMODE
 70
     0
  9
$MIRRTEXT
 70
     1
  9
$LTSCALE
 40
1.0
  9
$ATTMODE
 70
     1
  9
$TEXTSIZE
 40
3.5
  9
$TRACEWID
 40
1.0
  9
$TEXTSTYLE
  7
Standard
  9
$CLAYER
  8
0
  9
$CELTYPE
  6
ByLayer
  9
$CECOLOR
 62
   256
  9
$CELTSCALE
 40
1.0
  9
$DISPSILH
 70
     0
  9
$DIMSCALE
 40
1.0
  9
$DIMASZ
 40
3.302
  9
$DIMEXO
 40
1.0
  9
$DIMDLI
 40
3.75
  9
$DIMRND
 40
0.0
  9
$DIMDLE
 40
0.0
  9
$DIMEXE
 40
1.0
  9
$DIMTP
 40
0.0
  9
$DIMTM
 40
0.0
  9
$DIMTXT
 40
3.5
  9
$DIMCEN
 40
2.5
  9
$DIMTSZ
 40
0.0
  9
$DIMTOL
 70
     0
  9
$DIMLIM
 70
     0
  9
$DIMTIH
 70
     1
  9
$DIMTOH
 70
     1
  9
$DIMSE1
 70
     0
  9
$DIMSE2
 70
     0
  9
$DIMTAD
 70
     1
  9
$DIMZIN
 70
     0
  9
$DIMBLK
  1

  9
$DIMASO
 70
     1
  9
$DIMSHO
 70
     1
  9
$DIMPOST
  1

  9
$DIMAPOST
  1

  9
$DIMALT
 70
     0
  9
$DIMALTD
 70
     3
  9
$DIMALTF
 40
0.0393700787
  9
$DIMLFAC
 40
1.0
  9
$DIMTOFL
 70
     1
  9
$DIMTVP
 40
0.0
  9
$DIMTIX
 70
     0
  9
$DIMSOXD
 70
     0
  9
$DIMSAH
 70
     0
  9
$DIMBLK1
  1

  9
$DIMBLK2
  1

  9
$DIMSTYLE
  2
ISO-25
  9
$DIMCLRD
 70
     0
  9
$DIMCLRE
 70
     0
  9
$DIMCLRT
 70
     0
  9
$DIMTFAC
 40
1.0
  9
$DIMGAP
 40
1.524
  9
$DIMJUST
 70
     0
  9
$DIMSD1
 70
     0
  9
$DIMSD2
 70
     0
  9
$DIMTOLJ
 70
     0
  9
$DIMTZIN
 70
     0
  9
$DIMALTZ
 70
     0
  9
$DIMALTTZ
 70
     0
  9
$DIMUPT
 70
     0
  9
$DIMDEC
 70
     2
  9
$DIMTDEC
 70
     2
  9
$DIMALTU
 70
     2
  9
$DIMALTTD
 70
     3
  9
$DIMTXSTY
  7
Standard
  9
$DIMAUNIT
 70
     0
  9
$DIMADEC
 70
     2
  9
$DIMALTRND
 40
0.0
  9
$DIMAZIN
 70
     0
  9
$DIMDSEP
 70
    44
  9
$DIMATFIT
 70
     3
  9
$DIMFRAC
 70
     0
  9
$DIMLDRBLK
  1

  9
$DIMLUNIT
 70
     2
  9
$DIMLWD
 70
    -2
  9
$DIMLWE
 70
    -2
  9
$DIMTMOVE
 70
     0
  9
$LUNITS
 70
     2
  9
$LUPREC
 70
     3
  9
$SKETCHINC
 40
1.0
  9
$FILLETRAD
 40
0.0
  9
$AUNITS
 70
     0
  9
$AUPREC
 70
     2
  9
$MENU
  1
.
  9
$ELEVATION
 40
0.0
  9
$PELEVATION
 40
0.0
  9
$THICKNESS
 40
0.0
  9
$LIMCHECK
 70
     0
  9
$CHAMFERA
 40
0.0
  9
$CHAMFERB
 40
0.0
  9
$CHAMFERC
 40
0.0
  9
$CHAMFERD
 40
0.0
  9
$SKPOLY
 70
     0
  9
$TDCREATE
 40
2460383.683855532
  9
$TDUCREATE
 40
2460383.308855532
  9
$TDUPDATE
 40
2460383.683855787
  9
$TDUUPDATE
 40
2460383.308855787
  9
$TDINDWG
 40
0.0000000116
  9
$TDUSRTIMER
 40
0.0000000116
  9
$USRTIMER
 70
     1
  9
$ANGBASE
 50
0.0
  9
$ANGDIR
 70
     0
  9
$PDMODE
 70
     0
  9
$PDSIZE
 40
-1.0
  9
$PLINEWID
 40
0.0
  9
$SPLFRAME
 70
     0
  9
$SPLINETYPE
 70
     6
  9
$SPLINESEGS
 70
     8
  9
$HANDSEED
  5
252
  9
$SURFTAB1
 70
     6
  9
$SURFTAB2
 70
     6
  9
$SURFTYPE
 70
     6
  9
$SURFU
 70
     6
  9
$SURFV
 70
     6
  9
$UCSBASE
  2

  9
$UCSNAME
  2

  9
$UCSORG
 10
0.0
 20
0.0
 30
0.0
  9
$UCSXDIR
 10
1.0
 20
0.0
 30
0.0
  9
$UCSYDIR
 10
0.0
 20
1.0
 30
0.0
  9
$UCSORTHOREF
  2

  9
$UCSORTHOVIEW
 70
     0
  9
$UCSORGTOP
 10
0.0
 20
0.0
 30
0.0
  9
$UCSORGBOTTOM
 10
0.0
 20
0.0
 30
0.0
  9
$UCSORGLEFT
 10
0.0
 20
0.0
 30
0.0
  9
$UCSORGRIGHT
 10
0.0
 20
0.0
 30
0.0
  9
$UCSORGFRONT
 10
0.0
 20
0.0
 30
0.0
  9
$UCSORGBACK
 10
0.0
 20
0.0
 30
0.0
  9
$PUCSBASE
  2

  9
$PUCSNAME
  2

  9
$PUCSORG
 10
0.0
 20
0.0
 30
0.0
  9
$PUCSXDIR
 10
1.0
 20
0.0
 30
0.0
  9
$PUCSYDIR
 10
0.0
 20
1.0
 30
0.0
  9
$PUCSORTHOREF
  2

  9
$PUCSORTHOVIEW
 70
     0
  9
$PUCSORGTOP
 10
0.0
 20
0.0
 30
0.0
  9
$PUCSORGBOTTOM
 10
0.0
 20
0.0
 30
0.0
  9
$PUCSORGLEFT
 10
0.0
 20
0.0
 30
0.0
  9
$PUCSORGRIGHT
 10
0.0
 20
0.0
 30
0.0
  9
$PUCSORGFRONT
 10
0.0
 20
0.0
 30
0.0
  9
$PUCSORGBACK
 10
0.0
 20
0.0
 30
0.0
  9
$USERI1
 70
     0
  9
$USERI2
 70
     0
  9
$USERI3
 70
     0
  9
$USERI4
 70
     0
  9
$USERI5
 70
     0
  9
$USERR1
 40
0.0
  9
$USERR2
 40
0.0
  9
$USERR3
 40
0.0
  9
$USERR4
 40
0.0
  9
$USERR5
 40
0.0
  9
$WORLDVIEW
 70
     1
  9
$SHADEDGE
 70
     3
  9
$SHADEDIF
 70
    70
  9
$TILEMODE
 70
     1
  9
$MAXACTVP
 70
    64
  9
$PINSBASE
 10
0.0
 20
0.0
 30
0.0
  9
$PLIMCHECK
 70
     0
  9
$PEXTMIN
 10
1.0000000000E+20
 20
1.0000000000E+20
 30
1.0000000000E+20
  9
$PEXTMAX
 10
-1.0000000000E+20
 20
-1.0000000000E+20
 30
-1.0000000000E+20
  9
$PLIMMIN
 10
0.0
 20
0.0
  9
$PLIMMAX
 10
420.0
 20
297.0
  9
$UNITMODE
 70
     0
  9
$VISRETAIN
 70
     1
  9
$PLINEGEN
 70
     0
  9
$PSLTSCALE
 70
     1
  9
$TREEDEPTH
 70
  3020
  9
$CMLSTYLE
  2
Standard
  9
$CMLJUST
 70
     0
  9
$CMLSCALE
 40
20.0
  9
$PROXYGRAPHICS
 70
     1
  9
$MEASUREMENT
 70
     1
  9
$CELWEIGHT
370
    -1
  9
$ENDCAPS
280
     0
  9
$JOINSTYLE
280
     0
  9
$LWDISPLAY
290
     1
  9
$INSUNITS
 70
     4
  9
$HYPERLINKBASE
  1

  9
$STYLESHEET
  1

  9
$XEDIT
290
     1
  9
$CEPSNTYPE
380
     0
  9
$PSTYLEMODE
290
     1
  9
$FINGERPRINTGUID
  2
{dd51dc5d-4237-41ee-96d0-5e08e205dc02}
  9
$VERSIONGUID
  2
{FAEB1C32-E019-11D5-929B-00C0DF256EC4}
  9
$EXTNAMES
290
     1
  9
$PSVPSCALE
 40
0.0
  9
$OLESTARTUP
290
     0
  0
ENDSEC
  0
SECTION
  2
CLASSES
  0
CLASS
  1
ACDBDICTIONARYWDFLT
  2
AcDbDictionaryWithDefault
  3
ObjectDBX Classes
 90
        0
280
     0
281
     0
  0
CLASS
  1
VISUALSTYLE
  2
AcDbVisualStyle
  3
ObjectDBX Classes
 90
     4095
280
     0
281
     0
  0
CLASS
  1
MATERIAL
  2
AcDbMaterial
  3
ObjectDBX Classes
 90
     1153
280
     0
281
     0
  0
CLASS
  1
SCALE
  2
AcDbScale
  3
ObjectDBX Classes
 90
     1153
280
     0
281
     0
  0
CLASS
  1
TABLESTYLE
  2
AcDbTableStyle
  3
ObjectDBX Classes
 90
     4095
280
     0
281
     0
  0
CLASS
  1
MLEADERSTYLE
  2
AcDbMLeaderStyle
  3
ACDB_MLEADERSTYLE_CLASS
 90
     4095
280
     0
281
     0
  0
CLASS
  1
SUN
  2
AcDbSun
  3
SCENEOE
 90
     1153
280
     0
281
     0
  0
CLASS
  1
ACDBPLACEHOLDER
  2
AcDbPlaceHolder
  3
ObjectDBX Classes
 90
        0
280
     0
281
     0
  0
CLASS
  1
LAYOUT
  2
AcDbLayout
  3
ObjectDBX Classes
 90
        0
280
     0
281
     0
  0
ENDSEC
  0
SECTION
  2
TABLES
  0
TABLE
  2
VPORT
  5
8
330
0
100
AcDbSymbolTable
 70
     1
  0
VPORT
  5
29
330
8
100
AcDbSymbolTableRecord
100
AcDbViewportTableRecord
  2
*Active
 70
     0
 10
0.0
 20
0.0
 11
1.0
 21
1.0
 12
2500.0
 22
1750.0
 13
0.0
 23
0.0
 14
10.0
 24
10.0
 15
10.0
 25
10.0
 16
0.0
 26
0.0
 36
1.0
 17
0.0
 27
0.0
 37
0.0
 40
3500.0
 41
1.4285714286
 42
50.0
 43
0.0
 44
0.0
 50
0.0
 51
0.0
 71
     0
 72
  2000
 73
     1
 74
     3
 75
     0
 76
     0
 77
     0
 78
     0
281
     0
 65
     1
110
0.0
120
0.0
130
0.0
111
1.0
121
0.0
131
0.0
112
0.0
122
1.0
132
0.0
 79
     0
146
0.0
  0
ENDTAB
  0
TABLE
  2
LTYPE
  5
5
330
0
100
AcDbSymbolTable
 70
     6
  0
LTYPE
  5
14
330
5
100
AcDbSymbolTableRecord
100
AcDbLinetypeTableRecord
  2
ByBlock
 70
     0
  3

 72
    65
 73
     0
 40
0.0
  0
LTYPE
  5
15
330
5
100
AcDbSymbolTableRecord
100
AcDbLinetypeTableRecord
  2
ByLayer
 70
     0
  3

 72
    65
 73
     0
 40
0.0
  0
LTYPE
  5
16
330
5
100
AcDbSymbolTableRecord
100
AcDbLinetypeTableRecord
  2
Continuous
 70
     0
  3
Solid line
 72
    65
 73
     0
 40
0.0
  0
LTYPE
  5
5E
330
5
100
AcDbSymbolTableRecord
100
AcDbLinetypeTableRecord
  2
HIDDEN
 70
     0
  3
Hidden __ __ __ __ __ __ __ __ __ __ __ __ __ __
 72
    65
 73
     2
 40
1.905
 49
1.27
 74
     0
 49
-0.635
 74
     0
  0
LTYPE
  5
5F
330
5
100
AcDbSymbolTableRecord
100
AcDbLinetypeTableRecord
  2
PHANTOM
 70
     0
  3
Phantom ______  __  __  ______  __  __  ______
 72
    65
 73
     6
 40
12.7
 49
6.35
 74
     0
 49
-1.27
 74
     0
 49
1.27
 74
     0
 49
-1.27
 74
     0
 49
1.27
 74
     0
 49
-1.27
 74
     0
  0
LTYPE
  5
60
330
5
100
AcDbSymbolTableRecord
100
AcDbLinetypeTableRecord
  2
CENTER
 70
     0
  3
Center ____ _ ____ _ ____ _ ____ _ ____ _ ____
 72
    65
 73
     4
 40
10.16
 49
6.35
 74
     0
 49
-1.27
 74
     0
 49
1.27
 74
     0
 49
-1.27
 74
     0
  0
LTYPE
  5
61
330
5
100
AcDbSymbolTableRecord
100
AcDbLinetypeTableRecord
  2
CENTERX2
 70
     0
  3
Center (2x) ________  __  ________  __  _____
 72
    65
 73
     4
 40
20.32
 49
12.7
 74
     0
 49
-2.54
 74
     0
 49
2.54
 74
     0
 49
-2.54
 74
     0
  0
LTYPE
  5
62
330
5
100
AcDbSymbolTableRecord
100
AcDbLinetypeTableRecord
  2
DOT2
 70
     0
  3
Dot (.5x) ........................................
 72
    65
 73
     2
 40
0.635
 49
0.0
 74
     0
 49
-0.635
 74
     0
  0
ENDTAB
  0
TABLE
  2
LAYER
  5
2
330
0
100
AcDbSymbolTable
 70
     3
  0
LAYER
  5
10
330
2
100
AcDbSymbolTableRecord
100
AcDbLayerTableRecord
  2
0
 70
     0
 62
     7
  6
Continuous
370
    -3
390
F
  0
LAYER
  5
63
330
2
100
AcDbSymbolTableRecord
100
AcDbLayerTableRecord
  2
SLD-0
 70
     0
 62
   179
  6
Continuous
370
    -3
390
F
  0
LAYER
  5
64
330
2
100
AcDbSymbolTableRecord
100
AcDbLayerTableRecord
  2
寸法
 70
     0
 62
   179
  6
Continuous
370
    -3
390
F
  0
ENDTAB
  0
TABLE
  2
STYLE
  5
3
330
0
100
AcDbSymbolTable
 70
     2
  0
STYLE
  5
11
330
3
100
AcDbSymbolTableRecord
100
AcDbTextStyleTableRecord
  2
Standard
 70
     0
 40
0.0
 41
1.0
 50
0.0
 71
     0
 42
3.5
  3
txt
  4
bigfont
  0
STYLE
  5
66
330
3
100
AcDbSymbolTableRecord
100
AcDbTextStyleTableRecord
  2
SLDTEXTSTYLE0
 70
     0
 40
0.0
 41
0.75
 50
0.0
 71
     0
 42
3.5
  3
TXT
  4
bigfont
  0
ENDTAB
  0
TABLE
  2
VIEW
  5
6
330
0
100
AcDbSymbolTable
 70
     0
  0
ENDTAB
  0
TABLE
  2
UCS
  5
7
330
0
100
AcDbSymbolTable
 70
     0
  0
ENDTAB
  0
TABLE
  2
APPID
  5
9
330
0
100
AcDbSymbolTable
 70
     1
  0
APPID
  5
12
330
9
100
AcDbSymbolTableRecord
100
AcDbRegAppTableRecord
  2
ACAD
 70
     0
  0
ENDTAB
  0
TABLE
  2
DIMSTYLE
  5
A
330
0
100
AcDbSymbolTable
 70
     1
100
AcDbDimStyleTable
  0
DIMSTYLE
105
27
330
A
100
AcDbSymbolTableRecord
100
AcDbDimStyleTableRecord
  2
ISO-25
 70
     0
 41
2.5
 42
0.625
 43
3.75
 44
1.25
 73
     0
 74
     0
 77
     1
 78
     8
140
2.5
141
2.5
143
0.0393700787
147
0.625
171
     3
172
     1
178
     0
271
     2
272
     2
274
     3
278
    44
283
     0
284
     8
340
11
  0
ENDTAB
  0
TABLE
  2
BLOCK_RECORD
  5
1
330
0
100
AcDbSymbolTable
 70
     1
  0
BLOCK_RECORD
  5
1F
330
1
100
AcDbSymbolTableRecord
100
AcDbBlockTableRecord
  2
*Model_Space
340
22
  0
BLOCK_RECORD
  5
1B
330
1
100
AcDbSymbolTableRecord
100
AcDbBlockTableRecord
  2
*Paper_Space
340
1E
  0
BLOCK_RECORD
  5
23
330
1
100
AcDbSymbolTableRecord
100
AcDbBlockTableRecord
  2
*Paper_Space0
340
26
  0
ENDTAB
  0
ENDSEC
  0
SECTION
  2
BLOCKS
  0
BLOCK
  5
20
330
1F
100
AcDbEntity
  8
0
100
AcDbBlockBegin
  2
*Model_Space
 70
     0
 10
0.0
 20
0.0
 30
0.0
  3
*Model_Space
  1

  0
ENDBLK
  5
21
330
1F
100
AcDbEntity
  8
0
100
AcDbBlockEnd
  0
BLOCK
  5
1C
330
1B
100
AcDbEntity
 67
     1
  8
0
100
AcDbBlockBegin
  2
*Paper_Space
 70
     0
 10
0.0
 20
0.0
 30
0.0
  3
*Paper_Space
  1

  0
ENDBLK
  5
1D
330
1B
100
AcDbEntity
 67
     1
  8
0
100
AcDbBlockEnd
  0
BLOCK
  5
24
330
23
100
AcDbEntity
  8
0
100
AcDbBlockBegin
  2
*Paper_Space0
 70
     0
 10
0.0
 20
0.0
 30
0.0
  3
*Paper_Space0
  1

  0
ENDBLK
  5
25
330
23
100
AcDbEntity
  8
0
100
AcDbBlockEnd
  0
ENDSEC
  0
SECTION
  2
ENTITIES
  0
LINE
  5
65
330
1F
100
AcDbEntity
  8
0
  6
Continuous
 62
     7
370
    18
100
AcDbLine
 10
4801.663086451
 20
279.1403827252
 30
0.0
 11
3345.9062220501
 21
279.1403827252
 31
0.0
  0
MTEXT
  5
67
330
1F
100
AcDbEntity
  8
0
  6
Continuous
 62
     7
370
     0
100
AcDbMText
 10
1762.8324799637
 20
1989.2846179971
 30
0.0
 40
52.9166666667
 41
0.0
 71
     1
 72
     1
  1
＜正面＞
  7
SLDTEXTSTYLE0
 73
     1
 44
1.0
  0
MTEXT
  5
68
330
1F
100
AcDbEntity
  8
0
  6
Continuous
 62
     7
370
     0
100
AcDbMText
 10
3377.8142431891
 20
379.4057208634
 30
0.0
 40
52.9166666667
 41
0.0
 71
     1
 72
     1
  1
品名：
  7
SLDTEXTSTYLE0
 73
     1
 44
1.0
  0
MTEXT
  5
69
330
1F
100
AcDbEntity
  8
0
  6
Continuous
 62
     7
370
     0
100
AcDbMText
 10
4446.6634374817
 20
385.2343854145
 30
0.0
 40
52.9166666667
 41
0.0
 71
     1
 72
     1
  1
Pamouna
  7
SLDTEXTSTYLE0
 73
     1
 44
1.0
  0
MTEXT
  5
6A
330
1F
100
AcDbEntity
  8
寸法
 62
     7
100
AcDbMText
 10
4688.0073048854
 20
218.6255182943
 30
0.0
 40
52.9166666667
 41
0.0
 71
     1
 72
     1
  1
1/1
  7
SLDTEXTSTYLE0
 73
     1
 44
1.0
  0
MTEXT
  5
6B
330
1F
100
AcDbEntity
  8
寸法
 62
     7
100
AcDbMText
 10
3611.2831293492
 20
398.3924235142
 30
0.0
 40
66.1458333333
 41
0.0
 71
     1
 72
     1
  1
MAG47UL
  7
SLDTEXTSTYLE0
 73
     1
 44
1.0
  0
MTEXT
  5
6C
330
1F
100
AcDbEntity
  8
寸法
 62
     7
100
AcDbMText
 10
4198.7969392118
 20
218.6255210883
 30
0.0
 40
52.9166666667
 41
0.0
 71
     1
 72
     1
  1
2024/03/13
  7
SLDTEXTSTYLE0
 73
     1
 44
1.0
  0
MTEXT
  5
6D
330
1F
100
AcDbEntity
  8
寸法
 62
     7
100
AcDbMText
 10
3972.4665930518
 20
2002.9002064516
 30
0.0
 40
52.9166666667
 41
0.0
 71
     1
 72
     1
  1
＜右側面＞
  7
SLDTEXTSTYLE0
 73
     1
 44
1.0
  0
MTEXT
  5
6E
330
1F
100
AcDbEntity
  8
0
  6
Continuous
 62
     7
370
     0
100
AcDbMText
 10
669.5723251208
 20
1997.9509737295
 30
0.0
 40
52.9166666667
 41
0.0
 71
     1
 72
     1
  1
＜左側面＞
  7
SLDTEXTSTYLE0
 73
     1
 44
1.0
  0
MTEXT
  5
6F
330
1F
100
AcDbEntity
  8
0
  6
Continuous
 62
     7
370
     0
100
AcDbMText
 10
1765.2858929776
 20
2965.5678091759
 30
0.0
 40
52.9166666667
 41
0.0
 71
     1
 72
     1
  1
＜上面＞
  7
SLDTEXTSTYLE0
 73
     1
 44
1.0
  0
ARC
  5
70
330
1F
100
AcDbEntity
  8
0
  6
Continuous
 62
     7
370
    25
100
AcDbCircle
 10
2632.7454585654
 20
986.4543978663
 30
0.0
 40
0.2000000000002728
100
AcDbArc
 50
270.0
 51
0.0
  0
LINE
  5
71
330
1F
100
AcDbEntity
  8
0
  6
Continuous
 62
     7
370
    25
100
AcDbLine
 10
2630.9454585654
 20
986.2543978663
 30
0.0
 11
2632.7454585654
 21
986.2543978663
 31
0.0
  0
LINE
  5
72
330
1F
100
AcDbEntity
  8
0
  6
Continuous
 62
     7
370
    25
100
AcDbLine
 10
2188.9454585654
 20
986.2543978663
 30
0.0
 11
2630.9454585654
 21
986.2543978663
 31
0.0
  0
ARC
  5
73
330
1F
100
AcDbEntity
  8
0
  6
Continuous
 62
     7
370
    25
100
AcDbCircle
 10
2187.1454585654
 20
986.4543978663
 30
0.0
 40
0.2000000000002728
100
AcDbArc
 50
180.0
 51
270.0
  0
LINE
  5
74
330
1F
100
AcDbEntity
  8
0
  6
Continuous
 62
     7
370
    25
100
AcDbLine
 10
2187.1454585654
 20
986.2543978663
 30
0.0
 11
2188.9454585654
 21
986.2543978663
 31
0.0
  0
LINE
  5
75
330
1F
100
AcDbEntity
  8
0
  6
Continuous
 62
     7
370
    25
100
AcDbLine
 10
2616.4454585654
 20
977.7543978663
 30
0.0
 11
2202.9454585654
 21
977.7543978663
 31
0.0
  0
LINE
  5
76
330
1F
100
AcDbEntity
  8
0
  6
Continuous
 62
     7
370
    25
100
AcDbLine
 10
2634.9454585654
 20
1526.7543978663
 30
0.0
 11
2184.4454585654
 21
1526.7543978663
 31
0.0
  0
LINE
  5
77
330
1F
100
AcDbEntity
  8
0
  6
Continuous
 62
     7
370
    25
100
AcDbLine
 10
2634.9454585654
 20
1526.7543978663
 30
0.0
 11
2634.9454585654
 21
1498.2543978663
 31
0.0
  0
LINE
  5
78
330
1F
100
AcDbEntity
  8
0
  6
Continuous
 62
     7
370
    25
100
AcDbLine
 10
2634.9454585654
 20
1498.2543978663
 30
0.0
 11
2632.9454585654
 21
1498.2543978663
 31
0.0
  0
LINE
  5
79
330
1F
100
AcDbEntity
  8
0
  6
Continuous
 62
     7
370
    25
100
AcDbLine
 10
2186.9454585654
 20
1498.2543978663
 30
0.0
 11
2184.4454585654
 21
1498.2543978663
 31
0.0
  0
LINE
  5
7A
330
1F
100
AcDbEntity
  8
0
  6
Continuous
 62
     7
370
    25
100
AcDbLine
 10
2184.4454585654
 20
1526.7543978663
 30
0.0
 11
2184.4454585654
 21
1498.2543978663
 31
0.0
  0
LINE
  5
7B
330
1F
100
AcDbEntity
  8
0
  6
Continuous
 62
     7
370
    25
100
AcDbLine
 10
2616.4454585654
 20
976.7543978663
 30
0.0
 11
2633.9454585654
 21
976.7543978663
 31
0.0
  0
LINE
  5
7C
330
1F
100
AcDbEntity
  8
0
  6
Continuous
 62
     7
370
    25
100
AcDbLine
 10
2616.4454585654
 20
986.2543978663
 30
0.0
 11
2616.4454585654
 21
976.7543978663
 31
0.0
  0
LINE
  5
7D
330
1F
100
AcDbEntity
  8
0
  6
Continuous
 62
     7
370
    25
100
AcDbLine
 10
2633.9454585654
 20
976.7543978663
 30
0.0
 11
2633.9454585654
 21
1498.2543978663
 31
0.0
  0
LINE
  5
7E
330
1F
100
AcDbEntity
  8
0
  6
Continuous
 62
     7
370
    25
100
AcDbLine
 10
2186.9454585654
 20
986.7543978663
 30
0.0
 11
2632.9454585654
 21
986.7543978663
 31
0.0
  0
LINE
  5
7F
330
1F
100
AcDbEntity
  8
0
  6
Continuous
 62
     7
370
    25
100
AcDbLine
 10
2186.9454585654
 20
1516.7543978663
 30
0.0
 11
2186.9454585654
 21
986.7543978663
 31
0.0
  0
LINE
  5
80
330
1F
100
AcDbEntity
  8
0
  6
Continuous
 62
     7
370
    25
100
AcDbLine
 10
2632.9454585654
 20
1516.7543978663
 30
0.0
 11
2186.9454585654
 21
1516.7543978663
 31
0.0
  0
LINE
  5
81
330
1F
100
AcDbEntity
  8
0
  6
Continuous
 62
     7
370
    25
100
AcDbLine
 10
2632.9454585654
 20
986.7543978663
 30
0.0
 11
2632.9454585654
 21
1516.7543978663
 31
0.0
  0
LINE
  5
82
330
1F
100
AcDbEntity
  8
0
  6
Continuous
 62
     7
370
    25
100
AcDbLine
 10
2185.4454585654
 20
976.7543978663
 30
0.0
 11
2202.9454585654
 21
976.7543978663
 31
0.0
  0
LINE
  5
83
330
1F
100
AcDbEntity
  8
0
  6
Continuous
 62
     7
370
    25
100
AcDbLine
 10
2202.9454585654
 20
976.7543978663
 30
0.0
 11
2202.9454585654
 21
986.2543978663
 31
0.0
  0
LINE
  5
84
330
1F
100
AcDbEntity
  8
0
  6
Continuous
 62
     7
370
    25
100
AcDbLine
 10
2185.4454585654
 20
1498.2543978663
 30
0.0
 11
2185.4454585654
 21
976.7543978663
 31
0.0
  0
LINE
  5
85
330
1F
100
AcDbEntity
  8
0
  6
Continuous
 62
     7
370
    25
100
AcDbLine
 10
2632.9454585654
 20
986.5543978663
 30
0.0
 11
2632.9454585654
 21
986.4655465881
 31
0.0
  0
ARC
  5
86
330
1F
100
AcDbEntity
  8
0
  6
Continuous
 62
     7
370
    25
100
AcDbCircle
 10
2632.7468424451
 20
986.466950026
 30
0.0
 40
0.1986210785930907
100
AcDbArc
 50
269.6007920655
 51
359.5951500236
  0
LINE
  5
87
330
1F
100
AcDbEntity
  8
0
  6
Continuous
 62
     7
370
    25
100
AcDbLine
 10
2632.7454585654
 20
986.2683337685
 30
0.0
 11
2632.7454585654
 21
986.7543978663
 31
0.0
  0
SPLINE
  5
88
330
1F
100
AcDbEntity
  8
0
  6
Continuous
 62
     7
370
    25
100
AcDbSpline
210
0.0
220
0.0
230
1.0
 70
     8
 71
     3
 72
    13
 73
     9
 74
     0
 42
0.00000001
 43
0.00000001
 40
0.0
 40
0.0
 40
0.0
 40
0.0
 40
0.0075029974113236
 40
0.3818974549655527
 40
0.6070018873266352
 40
0.7653769096340154
 40
0.8824605049805269
 40
0.9999999999999999
 40
0.9999999999999999
 40
0.9999999999999999
 40
0.9999999999999999
 10
2632.945458565364
 20
986.5543978663159
 30
0.0
 10
2632.945457609759
 20
986.554835864211
 30
0.0
 10
2632.945408970146
 20
986.5771296585804
 30
0.0
 10
2632.939286865405
 20
986.6240140467957
 30
0.0
 10
2632.897270759931
 20
986.6902984838322
 30
0.0
 10
2632.848459957965
 20
986.7285600430048
 30
0.0
 10
2632.79772931065
 20
986.7503158187399
 30
0.0
 10
2632.7629047032
 20
986.7530354222895
 30
0.0
 10
2632.745458565363
 20
986.7543978663158
 30
0.0
  0
LINE
  5
89
330
1F
100
AcDbEntity
  8
0
  6
Continuous
 62
     7
370
    25
100
AcDbLine
 10
2630.9454585654
 20
986.2683337685
 30
0.0
 11
2632.7454585654
 21
986.2683337685
 31
0.0
  0
LINE
  5
8A
330
1F
100
AcDbEntity
  8
0
  6
Continuous
 62
     7
370
    25
100
AcDbLine
 10
2630.9454585654
 20
986.7543978663
 30
0.0
 11
2630.9454585654
 21
986.2683337685
 31
0.0
  0
LINE
  5
8B
330
1F
100
AcDbEntity
  8
0
  6
Continuous
 62
     7
370
    25
100
AcDbLine
 10
2632.9454585654
 20
986.4655465881
 30
0.0
 11
2632.9454585654
 21
986.4543978663
 31
0.0
  0
LINE
  5
8C
330
1F
100
AcDbEntity
  8
0
  6
Continuous
 62
     7
370
    25
100
AcDbLine
 10
2630.9454585654
 20
986.2683337685
 30
0.0
 11
2630.9454585654
 21
986.2543978663
 31
0.0
  0
LINE
  5
8D
330
1F
100
AcDbEntity
  8
0
  6
Continuous
 62
     7
370
    25
100
AcDbLine
 10
2632.9454585654
 20
986.7543978663
 30
0.0
 11
2632.9454585654
 21
986.5543978663
 31
0.0
  0
LINE
  5
8E
330
1F
100
AcDbEntity
  8
0
  6
Continuous
 62
     7
370
    25
100
AcDbLine
 10
2188.9454585654
 20
986.2683337685
 30
0.0
 11
2630.9454585654
 21
986.2683337685
 31
0.0
  0
LINE
  5
8F
330
1F
100
AcDbEntity
  8
0
  6
Continuous
 62
     7
370
    25
100
AcDbLine
 10
2188.9454585654
 20
986.2683337685
 30
0.0
 11
2188.9454585654
 21
986.7543978663
 31
0.0
  0
LINE
  5
90
330
1F
100
AcDbEntity
  8
0
  6
Continuous
 62
     7
370
    25
100
AcDbLine
 10
2188.9454585654
 20
986.2543978663
 30
0.0
 11
2188.9454585654
 21
986.2683337685
 31
0.0
  0
LINE
  5
91
330
1F
100
AcDbEntity
  8
0
  6
Continuous
 62
     7
370
    25
100
AcDbLine
 10
2186.9454585654
 20
986.4655465881
 30
0.0
 11
2186.9454585654
 21
986.5543978663
 31
0.0
  0
LINE
  5
92
330
1F
100
AcDbEntity
  8
0
  6
Continuous
 62
     7
370
    25
100
AcDbLine
 10
2187.1454585654
 20
986.7543978663
 30
0.0
 11
2187.1454585654
 21
986.2683337685
 31
0.0
  0
ARC
  5
93
330
1F
100
AcDbEntity
  8
0
  6
Continuous
 62
     7
370
    25
100
AcDbCircle
 10
2187.1440746856
 20
986.466950026
 30
0.0
 40
0.1986210785930438
100
AcDbArc
 50
180.4048499764
 51
270.3992079347
  0
SPLINE
  5
94
330
1F
100
AcDbEntity
  8
0
  6
Continuous
 62
     7
370
    25
100
AcDbSpline
210
0.0
220
0.0
230
1.0
 70
     8
 71
     3
 72
    13
 73
     9
 74
     0
 42
0.00000001
 43
0.00000001
 40
0.0
 40
0.0
 40
0.0
 40
0.0
 40
0.0075029974114387
 40
0.3818974549662857
 40
0.6070018873272987
 40
0.7653769096343254
 40
0.8824605049810139
 40
1.0
 40
1.0
 40
1.0
 40
1.0
 10
2186.945458565364
 20
986.5543978663144
 30
0.0
 10
2186.945459520968
 20
986.5548358642095
 30
0.0
 10
2186.94550816058
 20
986.5771296585784
 30
0.0
 10
2186.951630265323
 20
986.6240140467945
 30
0.0
 10
2186.993646370796
 20
986.6902984838308
 30
0.0
 10
2187.042457172762
 20
986.7285600430034
 30
0.0
 10
2187.093187820077
 20
986.7503158187385
 30
0.0
 10
2187.128012427528
 20
986.7530354222882
 30
0.0
 10
2187.145458565364
 20
986.7543978663144
 30
0.0
  0
LINE
  5
95
330
1F
100
AcDbEntity
  8
0
  6
Continuous
 62
     7
370
    25
100
AcDbLine
 10
2187.1454585654
 20
986.2683337685
 30
0.0
 11
2188.9454585654
 21
986.2683337685
 31
0.0
  0
LINE
  5
96
330
1F
100
AcDbEntity
  8
0
  6
Continuous
 62
     7
370
    25
100
AcDbLine
 10
2186.9454585654
 20
986.4543978663
 30
0.0
 11
2186.9454585654
 21
986.4655465881
 31
0.0
  0
LINE
  5
97
330
1F
100
AcDbEntity
  8
0
  6
Continuous
 62
     7
370
    25
100
AcDbLine
 10
2186.9454585654
 20
986.5543978663
 30
0.0
 11
2186.9454585654
 21
986.7543978663
 31
0.0
  0
LINE
  5
98
330
1F
100
AcDbEntity
  8
0
  6
Continuous
 62
     7
370
    25
100
AcDbLine
 10
2632.7454585654
 20
986.2543978663
 30
0.0
 11
2632.7454585654
 21
986.2683337685
 31
0.0
  0
LINE
  5
99
330
1F
100
AcDbEntity
  8
0
  6
Continuous
 62
     7
370
    25
100
AcDbLine
 10
2187.1454585654
 20
986.2683337685
 30
0.0
 11
2187.1454585654
 21
986.2543978663
 31
0.0
  0
LINE
  5
9A
330
1F
100
AcDbEntity
  8
0
  6
Continuous
 62
     7
370
    25
100
AcDbLine
 10
475.6515032166
 20
1429.2767567878
 30
0.0
 11
477.6292233787
 21
1429.2249683628
 31
0.0
  0
LINE
  5
9B
330
1F
100
AcDbEntity
  8
0
  6
Continuous
 62
     7
370
    25
100
AcDbLine
 10
477.6292233787
 20
1434.7268537215
 30
0.0
 11
475.7954764323
 21
1434.7748720752
 31
0.0
  0
ARC
  5
9C
330
1F
100
AcDbEntity
  8
0
  6
Continuous
 62
     7
370
    25
100
AcDbCircle
 10
475.6593563011
 20
1429.5766539853
 30
0.0
 40
0.2999999999999897
100
AcDbArc
 50
178.5000000001
 51
268.5000000001
  0
ARC
  5
9D
330
1F
100
AcDbEntity
  8
0
  6
Continuous
 62
     7
370
    25
100
AcDbCircle
 10
475.7876233478
 20
1434.4749748777
 30
0.0
 40
0.3000000000001078
100
AcDbArc
 50
88.5000000001
 51
178.5000000001
  0
ARC
  5
9E
330
1F
100
AcDbEntity
  8
0
  6
Continuous
 62
     7
370
    25
100
AcDbCircle
 10
474.149178326
 20
1457.8758832752
 30
0.0
 40
1.20000000000002
100
AcDbArc
 50
88.5000000001
 51
173.5000000033
  0
ARC
  5
9F
330
1F
100
AcDbEntity
  8
0
  6
Continuous
 62
     7
370
    25
100
AcDbCircle
 10
473.6884640358
 20
1440.2819143556
 30
0.0
 40
1.199999999999975
100
AcDbArc
 50
183.4999999968
 51
268.5000000001
  0
LINE
  5
A0
330
1F
100
AcDbEntity
  8
0
  6
Continuous
 62
     7
370
    25
100
AcDbLine
 10
474.9307814413
 20
1459.0558276283
 30
0.0
 11
474.1805906639
 21
1459.0754720652
 31
0.0
  0
LINE
  5
A1
330
1F
100
AcDbEntity
  8
0
  6
Continuous
 62
     7
370
    25
100
AcDbLine
 10
473.6570516978
 20
1439.0823255657
 30
0.0
 11
474.4072424751
 21
1439.0626811288
 31
0.0
  0
ARC
  5
A2
330
1F
100
AcDbEntity
  8
0
  6
Continuous
 62
     7
370
    25
100
AcDbCircle
 10
474.9255460516
 20
1458.8558961633
 30
0.0
 40
0.2000000000000704
100
AcDbArc
 50
358.5
 51
88.5000000001
  0
ARC
  5
A3
330
1F
100
AcDbEntity
  8
0
  6
Continuous
 62
     7
370
    25
100
AcDbCircle
 10
474.4124778648
 20
1439.2626125938
 30
0.0
 40
0.200000000000018
100
AcDbArc
 50
268.5000000001
 51
358.5
  0
LINE
  5
A4
330
1F
100
AcDbEntity
  8
0
  6
Continuous
 62
     7
370
    25
100
AcDbLine
 10
472.9568920992
 20
1458.0117271317
 30
0.0
 11
472.7751043047
 21
1456.4161961367
 31
0.0
  0
LINE
  5
A5
330
1F
100
AcDbEntity
  8
0
  6
Continuous
 62
     7
370
    25
100
AcDbLine
 10
472.3926672574
 20
1441.8115145215
 30
0.0
 11
472.4907022777
 21
1440.2086561082
 31
0.0
  0
ARC
  5
A6
330
1F
100
AcDbEntity
  8
0
  6
Continuous
 62
     7
370
    25
100
AcDbCircle
 10
502.582259975
 20
1453.0200997237
 30
0.0
 40
30.0000000000021
100
AcDbArc
 50
173.5000000001
 51
178.5000000001
  0
ARC
  5
A7
330
1F
100
AcDbEntity
  8
0
  6
Continuous
 62
     7
370
    25
100
AcDbCircle
 10
502.33671121
 20
1443.6429707076
 30
0.0
 40
30.00000000000209
100
AcDbArc
 50
178.5000000001
 51
183.5000000001
  0
SPLINE
  5
A8
330
1F
100
AcDbEntity
  8
0
  6
Continuous
 62
     7
370
    25
100
AcDbSpline
210
0.0
220
0.0
230
1.0
 70
     8
 71
     3
 72
    11
 73
     7
 74
     0
 42
0.00000001
 43
0.00000001
 40
0.0
 40
0.0
 40
0.0
 40
0.0
 40
0.2706712709043615
 40
0.563212072800009
 40
0.7903891635244304
 40
1.0
 40
1.0
 40
1.0
 40
1.0
 10
475.4865683530602
 20
1453.53938847713
 30
0.0
 10
475.4152270988182
 20
1453.550264842412
 30
0.0
 10
475.2667804035205
 20
1453.572896354853
 30
0.0
 10
475.1018876864412
 20
1453.715140595839
 30
0.0
 10
475.0097743679735
 20
1453.888327175571
 30
0.0
 10
475.0031785439384
 20
1454.003907998132
 30
0.0
 10
475.0000132637026
 20
1454.059374258505
 30
0.0
  0
SPLINE
  5
A9
330
1F
100
AcDbEntity
  8
0
  6
Continuous
 62
     7
370
    25
100
AcDbSpline
210
0.0
220
0.0
230
1.0
 70
     8
 71
     3
 72
    11
 73
     7
 74
     0
 42
0.00000001
 43
0.00000001
 40
0.0
 40
0.0
 40
0.0
 40
0.0
 40
0.2695105035984033
 40
0.5617364405775076
 40
0.7894224931279109
 40
1.0
 40
1.0
 40
1.0
 40
1.0
 10
474.7378735826806
 20
1444.048663719288
 30
0.0
 10
474.7476781320615
 20
1444.119837570834
 30
0.0
 10
474.7681135978307
 20
1444.268184093497
 30
0.0
 10
474.9074349462628
 20
1444.435140957516
 30
0.0
 10
475.0794174078846
 20
1444.530232716839
 30
0.0
 10
475.195297557127
 20
1444.538500186577
 30
0.0
 10
475.2509758182984
 20
1444.542472552356
 30
0.0
  0
LINE
  5
AA
330
1F
100
AcDbEntity
  8
0
  6
Continuous
 62
     7
370
    25
100
AcDbLine
 10
477.6292233787
 20
1453.4832810807
 30
0.0
 11
475.4865683531
 21
1453.5393884771
 31
0.0
  0
LINE
  5
AB
330
1F
100
AcDbEntity
  8
0
  6
Continuous
 62
     7
370
    25
100
AcDbLine
 10
475.2509758183
 20
1444.5424725523
 30
0.0
 11
477.6292233787
 21
1444.4801959483
 31
0.0
  0
LINE
  5
AC
330
1F
100
AcDbEntity
  8
0
  6
Continuous
 62
     7
370
    25
100
AcDbLine
 10
856.6292233787
 20
1526.7543978663
 30
0.0
 11
856.6292233787
 21
1498.2543978663
 31
0.0
  0
LINE
  5
AD
330
1F
100
AcDbEntity
  8
0
  6
Continuous
 62
     7
370
    25
100
AcDbLine
 10
856.6292233787
 20
1498.2543978663
 30
0.0
 11
477.6292233787
 21
1498.2543978663
 31
0.0
  0
LINE
  5
AE
330
1F
100
AcDbEntity
  8
0
  6
Continuous
 62
     7
370
    25
100
AcDbLine
 10
477.6292233787
 20
1498.2543978663
 30
0.0
 11
477.6292233787
 21
1526.7543978663
 31
0.0
  0
LINE
  5
AF
330
1F
100
AcDbEntity
  8
0
  6
Continuous
 62
     7
370
    25
100
AcDbLine
 10
477.6292233787
 20
1526.7543978663
 30
0.0
 11
856.6292233787
 21
1526.7543978663
 31
0.0
  0
LINE
  5
B0
330
1F
100
AcDbEntity
  8
0
  6
Continuous
 62
     7
370
    25
100
AcDbLine
 10
858.1292233787
 20
1516.7543978663
 30
0.0
 11
858.1292233787
 21
1020.2543978663
 31
0.0
  0
LINE
  5
B1
330
1F
100
AcDbEntity
  8
0
  6
Continuous
 62
     7
370
    25
100
AcDbLine
 10
876.1292233787
 20
1516.7543978663
 30
0.0
 11
858.1292233787
 21
1516.7543978663
 31
0.0
  0
LINE
  5
B2
330
1F
100
AcDbEntity
  8
0
  6
Continuous
 62
     7
370
    25
100
AcDbLine
 10
876.1292233787
 20
1516.7543978663
 30
0.0
 11
876.1292233787
 21
986.7543978663
 31
0.0
  0
LINE
  5
B3
330
1F
100
AcDbEntity
  8
0
  6
Continuous
 62
     7
370
    25
100
AcDbLine
 10
876.1292233787
 20
986.7543978663
 30
0.0
 11
872.1292233787
 21
986.7543978663
 31
0.0
  0
LINE
  5
B4
330
1F
100
AcDbEntity
  8
0
  6
Continuous
 62
     7
370
    25
100
AcDbLine
 10
872.1292233787
 20
999.7543978663
 30
0.0
 11
872.1292233787
 21
986.7543978663
 31
0.0
  0
LINE
  5
B5
330
1F
100
AcDbEntity
  8
0
  6
Continuous
 62
     7
370
    25
100
AcDbLine
 10
859.6292233787
 20
999.7543978663
 30
0.0
 11
872.1292233787
 21
999.7543978663
 31
0.0
  0
LINE
  5
B6
330
1F
100
AcDbEntity
  8
0
  6
Continuous
 62
     7
370
    25
100
AcDbLine
 10
859.6292233787
 20
1020.2543978663
 30
0.0
 11
859.6292233787
 21
999.7543978663
 31
0.0
  0
LINE
  5
B7
330
1F
100
AcDbEntity
  8
0
  6
Continuous
 62
     7
370
    25
100
AcDbLine
 10
858.1292233787
 20
1020.2543978663
 30
0.0
 11
859.6292233787
 21
1020.2543978663
 31
0.0
  0
LINE
  5
B8
330
1F
100
AcDbEntity
  8
0
  6
Continuous
 62
     7
370
    25
100
AcDbLine
 10
856.1292233787
 20
1498.2543978663
 30
0.0
 11
856.1292233787
 21
976.7543978663
 31
0.0
  0
LINE
  5
B9
330
1F
100
AcDbEntity
  8
0
  6
Continuous
 62
     7
370
    25
100
AcDbLine
 10
856.1292233787
 20
976.7543978663
 30
0.0
 11
477.6292233787
 21
976.7543978663
 31
0.0
  0
LINE
  5
BA
330
1F
100
AcDbEntity
  8
0
  6
Continuous
 62
     7
370
    25
100
AcDbLine
 10
477.6292233787
 20
1498.2543978663
 30
0.0
 11
477.6292233787
 21
976.7543978663
 31
0.0
  0
SPLINE
  5
BB
330
1F
100
AcDbEntity
  8
0
  6
Continuous
 62
     7
370
    25
100
AcDbSpline
210
0.0
220
0.0
230
1.0
 70
     8
 71
     3
 72
    11
 73
     7
 74
     0
 42
0.00000001
 43
0.00000001
 40
0.0
 40
0.0
 40
0.0
 40
0.0
 40
0.2382247349852549
 40
0.4921376904596989
 40
0.7460575595480469
 40
1.0
 40
1.0
 40
1.0
 40
1.0
 10
475.3597328978714
 20
1429.594962851257
 30
0.0
 10
475.3604052821179
 20
1429.620640170772
 30
0.0
 10
475.3617943302793
 20
1429.673685782196
 30
0.0
 10
475.375331928442
 20
1430.190665780917
 30
0.0
 10
475.3954325162077
 20
1430.958276326875
 30
0.0
 10
475.4118161664861
 20
1431.583942518899
 30
0.0
 10
475.4200083557016
 20
1431.896789518423
 30
0.0
  0
LINE
  5
BC
330
1F
100
AcDbEntity
  8
0
  6
Continuous
 62
     7
370
    25
100
AcDbLine
 10
475.4200083557
 20
1431.8967895184
 30
0.0
 11
475.423592627
 21
1432.033667516
 31
0.0
  0
SPLINE
  5
BD
330
1F
100
AcDbEntity
  8
0
  6
Continuous
 62
     7
370
    25
100
AcDbSpline
210
0.0
220
0.0
230
1.0
 70
    24
 71
     3
 72
    12
 73
     8
 74
     0
 42
0.00000001
 43
0.00000001
 40
0.0
 40
0.0
 40
0.0
 40
0.0
 40
0.2460973337390388
 40
0.4921955654195442
 40
0.7383025770440296
 40
0.984416004048164
 40
1.0
 40
1.0
 40
1.0
 40
1.0
 10
475.4235926269504
 20
1432.033667515999
 30
0.0
 10
475.4318221039513
 20
1432.347938563497
 30
0.0
 10
475.4482810879802
 20
1432.976481805182
 30
0.0
 10
475.46959709109
 20
1433.790507122343
 30
0.0
 10
475.4831373538354
 20
1434.307588895092
 30
0.0
 10
475.4890568309185
 20
1434.533644604745
 30
0.0
 10
475.4875366005798
 20
1434.475589350333
 30
0.0
 10
475.4874460713603
 20
1434.472132178919
 30
0.0
  0
SPLINE
  5
BE
330
1F
100
AcDbEntity
  8
0
  6
Continuous
 62
     7
370
    25
100
AcDbSpline
210
0.0
220
0.0
230
1.0
 70
    24
 71
     3
 72
    13
 73
     9
 74
     0
 42
0.00000001
 43
0.00000001
 40
0.0
 40
0.0
 40
0.0
 40
0.0
 40
0.1538581583652803
 40
0.3079676862453937
 40
0.4535077802386523
 40
0.5878340078347418
 40
0.8177872163815786
 40
1.0
 40
1.0
 40
1.0
 40
1.0
 10
475.1252438281522
 20
1458.841736571927
 30
0.0
 10
475.1239243515088
 20
1458.791347791835
 30
0.0
 10
475.1212832424948
 20
1458.690487907754
 30
0.0
 10
475.0990564570826
 20
1457.841681217699
 30
0.0
 10
475.0668884467862
 20
1456.613234465783
 30
0.0
 10
475.0176255151982
 20
1454.73195900791
 30
0.0
 10
474.9518061864587
 20
1452.218420251281
 30
0.0
 10
474.8970811233118
 20
1450.128554404692
 30
0.0
 10
474.8728879431872
 20
1449.204654130205
 30
0.0
  0
SPLINE
  5
BF
330
1F
100
AcDbEntity
  8
0
  6
Continuous
 62
     7
370
    25
100
AcDbSpline
210
0.0
220
0.0
230
1.0
 70
    24
 71
     3
 72
    13
 73
     9
 74
     0
 42
0.00000001
 43
0.00000001
 40
0.0
 40
0.0
 40
0.0
 40
0.0
 40
0.181320153790891
 40
0.4101468448381275
 40
0.5438150184965682
 40
0.6886421238876177
 40
0.8419966874127124
 40
1.0
 40
1.0
 40
1.0
 40
1.0
 10
474.8689434231914
 20
1449.054018988891
 30
0.0
 10
474.8447165495485
 20
1448.12883201085
 30
0.0
 10
474.789915273589
 20
1446.036055714362
 30
0.0
 10
474.7235550425667
 20
1443.501860732924
 30
0.0
 10
474.6735840260135
 20
1441.593544601182
 30
0.0
 10
474.6406619372981
 20
1440.336300756251
 30
0.0
 10
474.6173797785717
 20
1439.447190985345
 30
0.0
 10
474.6140875851628
 20
1439.321467191346
 30
0.0
 10
474.6124169113042
 20
1439.257666730697
 30
0.0
  0
LINE
  5
C0
330
1F
100
AcDbEntity
  8
0
  6
Continuous
 62
     7
370
    25
100
AcDbLine
 10
472.3469914608
 20
1444.4282791568
 30
0.0
 11
472.5925402257
 21
1453.8054081729
 31
0.0
  0
SPLINE
  5
C1
330
1F
100
AcDbEntity
  8
0
  6
Continuous
 62
     7
370
    25
100
AcDbSpline
210
0.0
220
0.0
230
1.0
 70
     8
 71
     3
 72
    11
 73
     7
 74
     0
 42
0.00000001
 43
0.00000001
 40
0.0
 40
0.0
 40
0.0
 40
0.0
 40
0.2702619356875521
 40
0.5624305486173098
 40
0.7897374073711154
 40
1.0
 40
1.0
 40
1.0
 40
1.0
 10
475.3649024679239
 20
1448.893155774587
 30
0.0
 10
475.2940652736362
 20
1448.894721041431
 30
0.0
 10
475.1466490200511
 20
1448.897978451274
 30
0.0
 10
474.9788778048948
 20
1448.897927095685
 30
0.0
 10
474.8811543747951
 20
1448.894958610165
 30
0.0
 10
474.870002555234
 20
1448.891490841409
 30
0.0
 10
474.8646438390666
 20
1448.889824495536
 30
0.0
  0
LINE
  5
C2
330
1F
100
AcDbEntity
  8
0
  6
Continuous
 62
     7
370
    25
100
AcDbLine
 10
871.9292233787
 20
986.5543978663
 30
0.0
 11
871.9292233787
 21
999.5543978663
 31
0.0
  0
LINE
  5
C3
330
1F
100
AcDbEntity
  8
0
  6
Continuous
 62
     7
370
    25
100
AcDbLine
 10
872.3464350621
 20
986.5543978663
 30
0.0
 11
871.9292233787
 21
986.5543978663
 31
0.0
  0
ARC
  5
C4
330
1F
100
AcDbEntity
  8
0
  6
Continuous
 62
     7
370
    25
100
AcDbCircle
 10
872.1292617046
 20
986.7613658174
 30
0.0
 40
0.3000000000000288
100
AcDbArc
 50
279.5765884811
 51
316.3783470327
  0
ARC
  5
C5
330
1F
100
AcDbEntity
  8
0
  6
Continuous
 62
     7
370
    25
100
AcDbCircle
 10
872.0460787812
 20
987.2543978663
 30
0.0
 40
0.8000000000000839
100
AcDbArc
 50
184.9699465947
 51
279.5765884811
  0
LINE
  5
C6
330
1F
100
AcDbEntity
  8
0
  6
Continuous
 62
     7
370
    25
100
AcDbLine
 10
870.407897941
 20
996.8583577014
 30
0.0
 11
871.2490865597
 21
987.1850913096
 31
0.0
  0
ARC
  5
C7
330
1F
100
AcDbEntity
  8
0
  6
Continuous
 62
     7
370
    25
100
AcDbCircle
 10
869.2124096087
 20
996.7543978663
 30
0.0
 40
1.200000000000159
100
AcDbArc
 50
4.9699465947
 51
90.0
  0
LINE
  5
C8
330
1F
100
AcDbEntity
  8
0
  6
Continuous
 62
     7
370
    25
100
AcDbLine
 10
858.8292233787
 20
997.9543978663
 30
0.0
 11
869.2124096087
 21
997.9543978663
 31
0.0
  0
ARC
  5
C9
330
1F
100
AcDbEntity
  8
0
  6
Continuous
 62
     7
370
    25
100
AcDbCircle
 10
858.8292233787
 20
998.7543978663
 30
0.0
 40
0.8000000000001819
100
AcDbArc
 50
180.0
 51
270.0
  0
LINE
  5
CA
330
1F
100
AcDbEntity
  8
0
  6
Continuous
 62
     7
370
    25
100
AcDbLine
 10
858.0292233787
 20
1019.5543978663
 30
0.0
 11
858.0292233787
 21
998.7543978663
 31
0.0
  0
LINE
  5
CB
330
1F
100
AcDbEntity
  8
0
  6
Continuous
 62
     7
370
    25
100
AcDbLine
 10
859.4292233787
 20
1019.5543978663
 30
0.0
 11
858.0292233787
 21
1019.5543978663
 31
0.0
  0
LINE
  5
CC
330
1F
100
AcDbEntity
  8
0
  6
Continuous
 62
     7
370
    25
100
AcDbLine
 10
859.4292233787
 20
999.5543978663
 30
0.0
 11
859.4292233787
 21
1019.5543978663
 31
0.0
  0
LINE
  5
CD
330
1F
100
AcDbEntity
  8
0
  6
Continuous
 62
     7
370
    25
100
AcDbLine
 10
871.9292233787
 20
999.5543978663
 30
0.0
 11
859.4292233787
 21
999.5543978663
 31
0.0
  0
LINE
  5
CE
330
1F
100
AcDbEntity
  8
0
  6
Continuous
 62
     7
370
    25
100
AcDbLine
 10
859.4292233787
 20
999.5543978663
 30
0.0
 11
859.6292233787
 21
999.7543978663
 31
0.0
  0
LINE
  5
CF
330
1F
100
AcDbEntity
  8
0
  6
Continuous
 62
     7
370
    25
100
AcDbLine
 10
871.9292233787
 20
999.5543978663
 30
0.0
 11
872.1292233787
 21
999.7543978663
 31
0.0
  0
LINE
  5
D0
330
1F
100
AcDbEntity
  8
0
  6
Continuous
 62
     7
370
    25
100
AcDbLine
 10
869.2124096087
 20
997.7543978663
 30
0.0
 11
858.8292233787
 21
997.7543978663
 31
0.0
  0
LINE
  5
D1
330
1F
100
AcDbEntity
  8
0
  6
Continuous
 62
     7
370
    25
100
AcDbLine
 10
858.8292233787
 20
997.7543978663
 30
0.0
 11
858.8292233787
 21
997.9543978663
 31
0.0
  0
LINE
  5
D2
330
1F
100
AcDbEntity
  8
0
  6
Continuous
 62
     7
370
    25
100
AcDbLine
 10
869.2124096087
 20
997.7543978663
 30
0.0
 11
869.2124096087
 21
997.9543978663
 31
0.0
  0
ARC
  5
D3
330
1F
100
AcDbEntity
  8
0
  6
Continuous
 62
     7
370
    25
100
AcDbCircle
 10
869.2124096087
 20
996.7543978663
 30
0.0
 40
1.0
100
AcDbArc
 50
4.9699465947
 51
90.0
  0
LINE
  5
D4
330
1F
100
AcDbEntity
  8
0
  6
Continuous
 62
     7
370
    25
100
AcDbLine
 10
870.2086498856
 20
996.8410310622
 30
0.0
 11
870.407897941
 21
996.8583577014
 31
0.0
  0
LINE
  5
D5
330
1F
100
AcDbEntity
  8
0
  6
Continuous
 62
     7
370
    25
100
AcDbLine
 10
871.0498385043
 20
987.1677646704
 30
0.0
 11
870.2086498856
 21
996.8410310622
 31
0.0
  0
LINE
  5
D6
330
1F
100
AcDbEntity
  8
0
  6
Continuous
 62
     7
370
    25
100
AcDbLine
 10
871.2490865597
 20
987.1850913096
 30
0.0
 11
871.0498385043
 21
987.1677646704
 31
0.0
  0
LINE
  5
D7
330
1F
100
AcDbEntity
  8
0
  6
Continuous
 62
     7
370
    25
100
AcDbLine
 10
871.9292233787
 20
986.5543978663
 30
0.0
 11
872.1292233787
 21
986.7543978663
 31
0.0
  0
LINE
  5
D8
330
1F
100
AcDbEntity
  8
0
  6
Continuous
 62
     7
370
    25
100
AcDbLine
 10
857.8292233787
 20
998.7543978663
 30
0.0
 11
857.8292233787
 21
1019.5543978663
 31
0.0
  0
LINE
  5
D9
330
1F
100
AcDbEntity
  8
0
  6
Continuous
 62
     7
370
    25
100
AcDbLine
 10
857.8292233787
 20
1019.5543978663
 30
0.0
 11
858.0292233787
 21
1019.5543978663
 31
0.0
  0
LINE
  5
DA
330
1F
100
AcDbEntity
  8
0
  6
Continuous
 62
     7
370
    25
100
AcDbLine
 10
857.8292233787
 20
998.7543978663
 30
0.0
 11
858.0292233787
 21
998.7543978663
 31
0.0
  0
LINE
  5
DB
330
1F
100
AcDbEntity
  8
0
  6
Continuous
 62
     7
370
    25
100
AcDbLine
 10
858.0292233787
 20
1019.7543978663
 30
0.0
 11
858.0292233787
 21
1019.5543978663
 31
0.0
  0
ARC
  5
DC
330
1F
100
AcDbEntity
  8
0
  6
Continuous
 62
     7
370
    25
100
AcDbCircle
 10
858.0292233787
 20
1019.5543978663
 30
0.0
 40
0.2000000000000455
100
AcDbArc
 50
90.0
 51
180.0
  0
LINE
  5
DD
330
1F
100
AcDbEntity
  8
0
  6
Continuous
 62
     7
370
    25
100
AcDbLine
 10
858.0292233787
 20
1019.7543978663
 30
0.0
 11
859.6292233787
 21
1019.7543978663
 31
0.0
  0
LINE
  5
DE
330
1F
100
AcDbEntity
  8
0
  6
Continuous
 62
     7
370
    25
100
AcDbLine
 10
859.6292233787
 20
1019.7543978663
 30
0.0
 11
859.4292233787
 21
1019.5543978663
 31
0.0
  0
LINE
  5
DF
330
1F
100
AcDbEntity
  8
0
  6
Continuous
 62
     7
370
    25
100
AcDbLine
 10
872.1791714587
 20
986.4655465881
 30
0.0
 11
872.212444628
 21
986.2683337685
 31
0.0
  0
ARC
  5
E0
330
1F
100
AcDbEntity
  8
0
  6
Continuous
 62
     7
370
    25
100
AcDbCircle
 10
872.0460787812
 20
987.2543978663
 30
0.0
 40
1.000000000000084
100
AcDbArc
 50
184.9699465947
 51
279.5765884811
  0
SPLINE
  5
E1
330
1F
100
AcDbEntity
  8
0
  6
Continuous
 62
     7
370
    25
100
AcDbSpline
210
0.0
220
0.0
230
1.0
 70
     8
 71
     3
 72
    13
 73
     9
 74
     0
 42
0.00000001
 43
0.00000001
 40
0.0
 40
0.0
 40
0.0
 40
0.0
 40
0.0075029974114387
 40
0.3818974549662857
 40
0.6070018873272987
 40
0.7653769096343254
 40
0.8824605049810139
 40
1.0
 40
1.0
 40
1.0
 40
1.0
 10
872.3464350621467
 20
986.5543978663144
 30
0.0
 10
872.3474528387627
 20
986.5548358642095
 30
0.0
 10
872.3992569749017
 20
986.5771296585784
 30
0.0
 10
872.4778423402694
 20
986.6240140467945
 30
0.0
 10
872.5604818043014
 20
986.6902984838308
 30
0.0
 10
872.6025779224001
 20
986.7285600430034
 30
0.0
 10
872.6251013492355
 20
986.7503158187385
 30
0.0
 10
872.6278407753496
 20
986.7530354222882
 30
0.0
 10
872.6292131499168
 20
986.7543978663144
 30
0.0
  0
ARC
  5
E2
330
1F
100
AcDbEntity
  8
0
  6
Continuous
 62
     7
370
    25
100
AcDbCircle
 10
872.1292617046
 20
986.7613658174
 30
0.0
 40
0.5000000000000626
100
AcDbArc
 50
279.5765884811
 51
359.2015057739
  0
ARC
  5
E3
330
1F
100
AcDbEntity
  8
0
  6
Continuous
 62
     7
370
    25
100
AcDbCircle
 10
858.8292233787
 20
998.7543978663
 30
0.0
 40
1.000000000000114
100
AcDbArc
 50
180.0
 51
270.0
  0
LINE
  5
E4
330
1F
100
AcDbEntity
  8
0
  6
Continuous
 62
     7
370
    25
100
AcDbLine
 10
856.9292233787
 20
1484.0543978663
 30
0.0
 11
856.9292233787
 21
1485.2543978663
 31
0.0
  0
LINE
  5
E5
330
1F
100
AcDbEntity
  8
0
  6
Continuous
 62
     7
370
    25
100
AcDbLine
 10
856.1292233787
 20
1485.2543978663
 30
0.0
 11
856.9292233787
 21
1485.2543978663
 31
0.0
  0
LINE
  5
E6
330
1F
100
AcDbEntity
  8
0
  6
Continuous
 62
     7
370
    25
100
AcDbLine
 10
856.1292233787
 20
1484.0543978663
 30
0.0
 11
856.9292233787
 21
1484.0543978663
 31
0.0
  0
LINE
  5
E7
330
1F
100
AcDbEntity
  8
0
  6
Continuous
 62
     7
370
    25
100
AcDbLine
 10
856.9292233787
 20
1485.2543978663
 30
0.0
 11
858.1292233787
 21
1485.2543978663
 31
0.0
  0
LINE
  5
E8
330
1F
100
AcDbEntity
  8
0
  6
Continuous
 62
     7
370
    25
100
AcDbLine
 10
856.9292233787
 20
1484.0543978663
 30
0.0
 11
858.1292233787
 21
1484.0543978663
 31
0.0
  0
LINE
  5
E9
330
1F
100
AcDbEntity
  8
0
  6
Continuous
 62
     7
370
    25
100
AcDbLine
 10
856.9292233787
 20
1466.2543978663
 30
0.0
 11
858.1292233787
 21
1466.2543978663
 31
0.0
  0
LINE
  5
EA
330
1F
100
AcDbEntity
  8
0
  6
Continuous
 62
     7
370
    25
100
AcDbLine
 10
856.9292233787
 20
1465.2510784443
 30
0.0
 11
856.9292233787
 21
1466.2543978663
 31
0.0
  0
LINE
  5
EB
330
1F
100
AcDbEntity
  8
0
  6
Continuous
 62
     7
370
    25
100
AcDbLine
 10
856.9292233787
 20
1466.2543978663
 30
0.0
 11
856.9292233787
 21
1484.0543978663
 31
0.0
  0
LINE
  5
EC
330
1F
100
AcDbEntity
  8
0
  6
Continuous
 62
     7
370
    25
100
AcDbLine
 10
857.6292233787
 20
1075.7103560054
 30
0.0
 11
858.1292233787
 21
1075.7103560054
 31
0.0
  0
LINE
  5
ED
330
1F
100
AcDbEntity
  8
0
  6
Continuous
 62
     7
370
    25
100
AcDbLine
 10
857.6292233787
 20
1074.1543978661
 30
0.0
 11
858.1292233787
 21
1074.1543978661
 31
0.0
  0
LINE
  5
EE
330
1F
100
AcDbEntity
  8
0
  6
Continuous
 62
     7
370
    25
100
AcDbLine
 10
857.6292233787
 20
1074.1543978661
 30
0.0
 11
857.6292233787
 21
1075.7103560054
 31
0.0
  0
LINE
  5
EF
330
1F
100
AcDbEntity
  8
0
  6
Continuous
 62
     7
370
    25
100
AcDbLine
 10
858.1292233787
 20
1057.7984397272
 30
0.0
 11
857.6292233787
 21
1057.7984397272
 31
0.0
  0
LINE
  5
F0
330
1F
100
AcDbEntity
  8
0
  6
Continuous
 62
     7
370
    25
100
AcDbLine
 10
857.6292233787
 20
1057.7984397272
 30
0.0
 11
857.6292233787
 21
1059.3543978665
 31
0.0
  0
LINE
  5
F1
330
1F
100
AcDbEntity
  8
0
  6
Continuous
 62
     7
370
    25
100
AcDbLine
 10
858.1292233787
 20
1059.3543978665
 30
0.0
 11
857.6292233787
 21
1059.3543978665
 31
0.0
  0
LINE
  5
F2
330
1F
100
AcDbEntity
  8
0
  6
Continuous
 62
     7
370
    25
100
AcDbLine
 10
857.9292233787
 20
1085.1459720241
 30
0.0
 11
857.6292233787
 21
1085.1459720241
 31
0.0
  0
LINE
  5
F3
330
1F
100
AcDbEntity
  8
0
  6
Continuous
 62
     7
370
    25
100
AcDbLine
 10
858.1292233787
 20
1085.1459720241
 30
0.0
 11
857.9292233787
 21
1085.1459720241
 31
0.0
  0
LINE
  5
F4
330
1F
100
AcDbEntity
  8
0
  6
Continuous
 62
     7
370
    25
100
AcDbLine
 10
857.6292233787
 20
1085.1459720241
 30
0.0
 11
857.6292233787
 21
1075.7103560054
 31
0.0
  0
LINE
  5
F5
330
1F
100
AcDbEntity
  8
0
  6
Continuous
 62
     7
370
    25
100
AcDbLine
 10
857.9292233787
 20
1048.3628237086
 30
0.0
 11
858.1292233787
 21
1048.3628237086
 31
0.0
  0
LINE
  5
F6
330
1F
100
AcDbEntity
  8
0
  6
Continuous
 62
     7
370
    25
100
AcDbLine
 10
857.6292233787
 20
1048.3628237086
 30
0.0
 11
857.9292233787
 21
1048.3628237086
 31
0.0
  0
LINE
  5
F7
330
1F
100
AcDbEntity
  8
0
  6
Continuous
 62
     7
370
    25
100
AcDbLine
 10
857.6292233787
 20
1057.7984397272
 30
0.0
 11
857.6292233787
 21
1048.3628237086
 31
0.0
  0
SPLINE
  5
F8
330
1F
100
AcDbEntity
  8
0
  6
Continuous
 62
     7
370
    25
100
AcDbSpline
210
0.0
220
0.0
230
1.0
 70
    24
 71
     3
 72
    12
 73
     8
 74
     0
 42
0.00000001
 43
0.00000001
 40
0.0
 40
0.0
 40
0.0
 40
0.0
 40
0.12348821896015
 40
0.304757477606331
 40
0.4857888495155248
 40
0.6670582153993138
 40
1.0
 40
1.0
 40
1.0
 40
1.0
 10
856.1292233786872
 20
1095.254397866311
 30
0.0
 10
856.1689699477234
 20
1095.254397866311
 30
0.0
 10
856.2670607957812
 20
1095.254397866311
 30
0.0
 10
856.5070340841406
 20
1095.254397866311
 30
0.0
 10
856.8226482726351
 20
1095.254397866311
 30
0.0
 10
857.2895583617349
 20
1095.254397866311
 30
0.0
 10
857.6778269619718
 20
1095.254397866313
 30
0.0
 10
857.9292233786879
 20
1095.254397866314
 30
0.0
  0
LINE
  5
F9
330
1F
100
AcDbEntity
  8
0
  6
Continuous
 62
     7
370
    25
100
AcDbLine
 10
857.9292233787
 20
1094.2543978663
 30
0.0
 11
857.9292233787
 21
1095.2543978663
 31
0.0
  0
SPLINE
  5
FA
330
1F
100
AcDbEntity
  8
0
  6
Continuous
 62
     7
370
    25
100
AcDbSpline
210
0.0
220
0.0
230
1.0
 70
    24
 71
     3
 72
    12
 73
     8
 74
     0
 42
0.00000001
 43
0.00000001
 40
0.0
 40
0.0
 40
0.0
 40
0.0
 40
0.3329369653745642
 40
0.5139656098133367
 40
0.6952322446451367
 40
0.8762609961858793
 40
1.0
 40
1.0
 40
1.0
 40
1.0
 10
857.9292233786941
 20
1038.254397866315
 30
0.0
 10
857.6778259655517
 20
1038.254397866314
 30
0.0
 10
857.2897356115536
 20
1038.254397866312
 30
0.0
 10
856.8228063418788
 20
1038.254397866312
 30
0.0
 10
856.5072874528577
 20
1038.254397866312
 30
0.0
 10
856.2671632343407
 20
1038.254397866312
 30
0.0
 10
856.1690559833303
 20
1038.254397866312
 30
0.0
 10
856.1292233786872
 20
1038.254397866312
 30
0.0
  0
LINE
  5
FB
330
1F
100
AcDbEntity
  8
0
  6
Continuous
 62
     7
370
    25
100
AcDbLine
 10
857.9292233787
 20
1039.2543978663
 30
0.0
 11
857.9292233787
 21
1038.2543978663
 31
0.0
  0
LINE
  5
FC
330
1F
100
AcDbEntity
  8
0
  6
Continuous
 62
     7
370
    25
100
AcDbLine
 10
858.1292233787
 20
1094.2543978663
 30
0.0
 11
857.9292233787
 21
1094.2543978663
 31
0.0
  0
LINE
  5
FD
330
1F
100
AcDbEntity
  8
0
  6
Continuous
 62
     7
370
    25
100
AcDbLine
 10
857.9292233787
 20
1094.2543978663
 30
0.0
 11
857.9292233787
 21
1085.1459720241
 31
0.0
  0
SPLINE
  5
FE
330
1F
100
AcDbEntity
  8
0
  6
Continuous
 62
     7
370
    25
100
AcDbSpline
210
0.0
220
0.0
230
1.0
 70
     8
 71
     3
 72
    10
 73
     6
 74
     0
 42
0.00000001
 43
0.00000001
 40
0.0
 40
0.0
 40
0.0
 40
0.0
 40
0.0371311943360443
 40
0.5486628195558783
 40
1.0
 40
1.0
 40
1.0
 40
1.0
 10
856.1292233786872
 20
1077.000162206483
 30
0.0
 10
856.1348462309
 20
1076.993443859057
 30
0.0
 10
856.217931356606
 20
1076.894171333437
 30
0.0
 10
856.4394873291897
 20
1076.793742420243
 30
0.0
 10
856.6707982184356
 20
1076.766954495413
 30
0.0
 10
856.7792233786904
 20
1076.754397866315
 30
0.0
  0
LINE
  5
FF
330
1F
100
AcDbEntity
  8
0
  6
Continuous
 62
     7
370
    25
100
AcDbLine
 10
857.6292233787
 20
1076.7543978663
 30
0.0
 11
856.7792233787
 21
1076.7543978663
 31
0.0
  0
LINE
  5
100
330
1F
100
AcDbEntity
  8
0
  6
Continuous
 62
     7
370
    25
100
AcDbLine
 10
858.1292233787
 20
1039.2543978663
 30
0.0
 11
857.9292233787
 21
1039.2543978663
 31
0.0
  0
LINE
  5
101
330
1F
100
AcDbEntity
  8
0
  6
Continuous
 62
     7
370
    25
100
AcDbLine
 10
857.9292233787
 20
1048.3628237086
 30
0.0
 11
857.9292233787
 21
1039.2543978663
 31
0.0
  0
SPLINE
  5
102
330
1F
100
AcDbEntity
  8
0
  6
Continuous
 62
     7
370
    25
100
AcDbSpline
210
0.0
220
0.0
230
1.0
 70
     8
 71
     3
 72
     9
 73
     5
 74
     0
 42
0.00000001
 43
0.00000001
 40
0.0
 40
0.0
 40
0.0
 40
0.0
 40
0.505008126894762
 40
1.0
 40
1.0
 40
1.0
 40
1.0
 10
856.7792233786922
 20
1056.754397866314
 30
0.0
 10
856.6559271068246
 20
1056.742178006931
 30
0.0
 10
856.4117800024491
 20
1056.717980654981
 30
0.0
 10
856.2227778888957
 20
1056.580904581719
 30
0.0
 10
856.1292233786872
 20
1056.513053039457
 30
0.0
  0
LINE
  5
103
330
1F
100
AcDbEntity
  8
0
  6
Continuous
 62
     7
370
    25
100
AcDbLine
 10
856.7792233787
 20
1056.7543978663
 30
0.0
 11
857.6292233787
 21
1056.7543978663
 31
0.0
  0
LINE
  5
104
330
1F
100
AcDbEntity
  8
0
  6
Continuous
 62
     7
370
    25
100
AcDbLine
 10
858.1292233787
 20
1095.2543978663
 30
0.0
 11
857.9292233787
 21
1095.2543978663
 31
0.0
  0
LINE
  5
105
330
1F
100
AcDbEntity
  8
0
  6
Continuous
 62
     7
370
    25
100
AcDbLine
 10
858.1292233787
 20
1038.2543978663
 30
0.0
 11
857.9292233787
 21
1038.2543978663
 31
0.0
  0
LINE
  5
106
330
1F
100
AcDbEntity
  8
0
  6
Continuous
 62
     7
370
    25
100
AcDbLine
 10
857.6292233787
 20
1445.7103560054
 30
0.0
 11
858.1292233787
 21
1445.7103560054
 31
0.0
  0
LINE
  5
107
330
1F
100
AcDbEntity
  8
0
  6
Continuous
 62
     7
370
    25
100
AcDbLine
 10
857.6292233787
 20
1444.1543978661
 30
0.0
 11
858.1292233787
 21
1444.1543978661
 31
0.0
  0
LINE
  5
108
330
1F
100
AcDbEntity
  8
0
  6
Continuous
 62
     7
370
    25
100
AcDbLine
 10
857.6292233787
 20
1444.1543978661
 30
0.0
 11
857.6292233787
 21
1445.7103560054
 31
0.0
  0
LINE
  5
109
330
1F
100
AcDbEntity
  8
0
  6
Continuous
 62
     7
370
    25
100
AcDbLine
 10
858.1292233787
 20
1427.7984397272
 30
0.0
 11
857.6292233787
 21
1427.7984397272
 31
0.0
  0
LINE
  5
10A
330
1F
100
AcDbEntity
  8
0
  6
Continuous
 62
     7
370
    25
100
AcDbLine
 10
857.6292233787
 20
1427.7984397272
 30
0.0
 11
857.6292233787
 21
1429.3543978665
 31
0.0
  0
LINE
  5
10B
330
1F
100
AcDbEntity
  8
0
  6
Continuous
 62
     7
370
    25
100
AcDbLine
 10
858.1292233787
 20
1429.3543978665
 30
0.0
 11
857.6292233787
 21
1429.3543978665
 31
0.0
  0
LINE
  5
10C
330
1F
100
AcDbEntity
  8
0
  6
Continuous
 62
     7
370
    25
100
AcDbLine
 10
857.9292233787
 20
1455.1459720241
 30
0.0
 11
857.6292233787
 21
1455.1459720241
 31
0.0
  0
LINE
  5
10D
330
1F
100
AcDbEntity
  8
0
  6
Continuous
 62
     7
370
    25
100
AcDbLine
 10
858.1292233787
 20
1455.1459720241
 30
0.0
 11
857.9292233787
 21
1455.1459720241
 31
0.0
  0
LINE
  5
10E
330
1F
100
AcDbEntity
  8
0
  6
Continuous
 62
     7
370
    25
100
AcDbLine
 10
857.6292233787
 20
1455.1459720241
 30
0.0
 11
857.6292233787
 21
1445.7103560054
 31
0.0
  0
LINE
  5
10F
330
1F
100
AcDbEntity
  8
0
  6
Continuous
 62
     7
370
    25
100
AcDbLine
 10
857.9292233787
 20
1418.3628237086
 30
0.0
 11
858.1292233787
 21
1418.3628237086
 31
0.0
  0
LINE
  5
110
330
1F
100
AcDbEntity
  8
0
  6
Continuous
 62
     7
370
    25
100
AcDbLine
 10
857.6292233787
 20
1418.3628237086
 30
0.0
 11
857.9292233787
 21
1418.3628237086
 31
0.0
  0
LINE
  5
111
330
1F
100
AcDbEntity
  8
0
  6
Continuous
 62
     7
370
    25
100
AcDbLine
 10
857.6292233787
 20
1427.7984397272
 30
0.0
 11
857.6292233787
 21
1418.3628237086
 31
0.0
  0
SPLINE
  5
112
330
1F
100
AcDbEntity
  8
0
  6
Continuous
 62
     7
370
    25
100
AcDbSpline
210
0.0
220
0.0
230
1.0
 70
    24
 71
     3
 72
    12
 73
     8
 74
     0
 42
0.00000001
 43
0.00000001
 40
0.0
 40
0.0
 40
0.0
 40
0.0
 40
0.1234882189599848
 40
0.3047574776061822
 40
0.4857888495154294
 40
0.6670582153992513
 40
1.0
 40
1.0
 40
1.0
 40
1.0
 10
856.1292233786872
 20
1465.254397866311
 30
0.0
 10
856.1689699477232
 20
1465.254397866311
 30
0.0
 10
856.2670607957808
 20
1465.254397866311
 30
0.0
 10
856.5070340841404
 20
1465.254397866311
 30
0.0
 10
856.8226482726351
 20
1465.254397866312
 30
0.0
 10
857.2895583617345
 20
1465.254397866311
 30
0.0
 10
857.6778269619714
 20
1465.254397866313
 30
0.0
 10
857.9292233786878
 20
1465.254397866314
 30
0.0
  0
LINE
  5
113
330
1F
100
AcDbEntity
  8
0
  6
Continuous
 62
     7
370
    25
100
AcDbLine
 10
857.9292233787
 20
1464.2543978663
 30
0.0
 11
857.9292233787
 21
1465.2543978663
 31
0.0
  0
SPLINE
  5
114
330
1F
100
AcDbEntity
  8
0
  6
Continuous
 62
     7
370
    25
100
AcDbSpline
210
0.0
220
0.0
230
1.0
 70
    24
 71
     3
 72
    12
 73
     8
 74
     0
 42
0.00000001
 43
0.00000001
 40
0.0
 40
0.0
 40
0.0
 40
0.0
 40
0.3329369653746284
 40
0.5139656098134346
 40
0.6952322446452689
 40
0.8762609961860467
 40
1.0
 40
1.0
 40
1.0
 40
1.0
 10
857.9292233786939
 20
1408.254397866315
 30
0.0
 10
857.6778259655516
 20
1408.254397866314
 30
0.0
 10
857.2897356115536
 20
1408.254397866312
 30
0.0
 10
856.8228063418788
 20
1408.254397866312
 30
0.0
 10
856.5072874528573
 20
1408.254397866312
 30
0.0
 10
856.2671632343406
 20
1408.254397866312
 30
0.0
 10
856.1690559833302
 20
1408.254397866312
 30
0.0
 10
856.1292233786872
 20
1408.254397866312
 30
0.0
  0
LINE
  5
115
330
1F
100
AcDbEntity
  8
0
  6
Continuous
 62
     7
370
    25
100
AcDbLine
 10
857.9292233787
 20
1409.2543978663
 30
0.0
 11
857.9292233787
 21
1408.2543978663
 31
0.0
  0
SPLINE
  5
116
330
1F
100
AcDbEntity
  8
0
  6
Continuous
 62
     7
370
    25
100
AcDbSpline
210
0.0
220
0.0
230
1.0
 70
     8
 71
     3
 72
    10
 73
     6
 74
     0
 42
0.00000001
 43
0.00000001
 40
0.0
 40
0.0
 40
0.0
 40
0.0
 40
0.0371311943356962
 40
0.548662819555715
 40
1.0
 40
1.0
 40
1.0
 40
1.0
 10
856.1292233786872
 20
1447.000162206483
 30
0.0
 10
856.1348462308999
 20
1446.993443859057
 30
0.0
 10
856.2179313566056
 20
1446.894171333436
 30
0.0
 10
856.4394873291897
 20
1446.793742420243
 30
0.0
 10
856.6707982184356
 20
1446.766954495413
 30
0.0
 10
856.7792233786902
 20
1446.754397866315
 30
0.0
  0
LINE
  5
117
330
1F
100
AcDbEntity
  8
0
  6
Continuous
 62
     7
370
    25
100
AcDbLine
 10
857.9292233787
 20
1464.2543978663
 30
0.0
 11
857.9292233787
 21
1455.1459720241
 31
0.0
  0
LINE
  5
118
330
1F
100
AcDbEntity
  8
0
  6
Continuous
 62
     7
370
    25
100
AcDbLine
 10
857.6292233787
 20
1446.7543978663
 30
0.0
 11
856.7792233787
 21
1446.7543978663
 31
0.0
  0
LINE
  5
119
330
1F
100
AcDbEntity
  8
0
  6
Continuous
 62
     7
370
    25
100
AcDbLine
 10
858.1292233787
 20
1464.2543978663
 30
0.0
 11
857.9292233787
 21
1464.2543978663
 31
0.0
  0
SPLINE
  5
11A
330
1F
100
AcDbEntity
  8
0
  6
Continuous
 62
     7
370
    25
100
AcDbSpline
210
0.0
220
0.0
230
1.0
 70
     8
 71
     3
 72
     9
 73
     5
 74
     0
 42
0.00000001
 43
0.00000001
 40
0.0
 40
0.0
 40
0.0
 40
0.0
 40
0.505008126894909
 40
1.0
 40
1.0
 40
1.0
 40
1.0
 10
856.779223378692
 20
1426.754397866314
 30
0.0
 10
856.6559271068246
 20
1426.742178006931
 30
0.0
 10
856.4117800024491
 20
1426.717980654981
 30
0.0
 10
856.2227778888957
 20
1426.580904581719
 30
0.0
 10
856.1292233786872
 20
1426.513053039457
 30
0.0
  0
LINE
  5
11B
330
1F
100
AcDbEntity
  8
0
  6
Continuous
 62
     7
370
    25
100
AcDbLine
 10
857.9292233787
 20
1418.3628237086
 30
0.0
 11
857.9292233787
 21
1409.2543978663
 31
0.0
  0
LINE
  5
11C
330
1F
100
AcDbEntity
  8
0
  6
Continuous
 62
     7
370
    25
100
AcDbLine
 10
856.7792233787
 20
1426.7543978663
 30
0.0
 11
857.6292233787
 21
1426.7543978663
 31
0.0
  0
LINE
  5
11D
330
1F
100
AcDbEntity
  8
0
  6
Continuous
 62
     7
370
    25
100
AcDbLine
 10
858.1292233787
 20
1409.2543978663
 30
0.0
 11
857.9292233787
 21
1409.2543978663
 31
0.0
  0
LINE
  5
11E
330
1F
100
AcDbEntity
  8
0
  6
Continuous
 62
     7
370
    25
100
AcDbLine
 10
858.1292233787
 20
1465.2543978663
 30
0.0
 11
857.9292233787
 21
1465.2543978663
 31
0.0
  0
LINE
  5
11F
330
1F
100
AcDbEntity
  8
0
  6
Continuous
 62
     7
370
    25
100
AcDbLine
 10
858.1292233787
 20
1408.2543978663
 30
0.0
 11
857.9292233787
 21
1408.2543978663
 31
0.0
  0
LINE
  5
120
330
1F
100
AcDbEntity
  8
0
  6
Continuous
 62
     7
370
    25
100
AcDbLine
 10
856.2640384536
 20
1445.1293978663
 30
0.0
 11
856.2640384536
 21
1444.2043978663
 31
0.0
  0
LINE
  5
121
330
1F
100
AcDbEntity
  8
0
  6
Continuous
 62
     7
370
    25
100
AcDbLine
 10
856.2640384536
 20
1429.3043978663
 30
0.0
 11
856.2640384536
 21
1428.3793978663
 31
0.0
  0
LINE
  5
122
330
1F
100
AcDbEntity
  8
0
  6
Continuous
 62
     7
370
    25
100
AcDbLine
 10
856.2640384536
 20
1428.3793978663
 30
0.0
 11
856.1292233787
 21
1428.3793978663
 31
0.0
  0
LINE
  5
123
330
1F
100
AcDbEntity
  8
0
  6
Continuous
 62
     7
370
    25
100
AcDbLine
 10
856.1292233787
 20
1445.1293978663
 30
0.0
 11
856.2640384536
 21
1445.1293978663
 31
0.0
  0
LINE
  5
124
330
1F
100
AcDbEntity
  8
0
  6
Continuous
 62
     7
370
    25
100
AcDbLine
 10
857.6292233787
 20
1428.3793978663
 30
0.0
 11
856.2640384536
 21
1428.3793978663
 31
0.0
  0
LINE
  5
125
330
1F
100
AcDbEntity
  8
0
  6
Continuous
 62
     7
370
    25
100
AcDbLine
 10
856.2640384536
 20
1445.1293978663
 30
0.0
 11
857.6292233787
 21
1445.1293978663
 31
0.0
  0
LINE
  5
126
330
1F
100
AcDbEntity
  8
0
  6
Continuous
 62
     7
370
    25
100
AcDbLine
 10
856.2640384536
 20
1075.1293978663
 30
0.0
 11
856.2640384536
 21
1074.2043978663
 31
0.0
  0
LINE
  5
127
330
1F
100
AcDbEntity
  8
0
  6
Continuous
 62
     7
370
    25
100
AcDbLine
 10
856.2640384536
 20
1059.3043978663
 30
0.0
 11
856.2640384536
 21
1058.3793978663
 31
0.0
  0
LINE
  5
128
330
1F
100
AcDbEntity
  8
0
  6
Continuous
 62
     7
370
    25
100
AcDbLine
 10
856.2640384536
 20
1058.3793978663
 30
0.0
 11
856.1292233787
 21
1058.3793978663
 31
0.0
  0
LINE
  5
129
330
1F
100
AcDbEntity
  8
0
  6
Continuous
 62
     7
370
    25
100
AcDbLine
 10
856.1292233787
 20
1075.1293978663
 30
0.0
 11
856.2640384536
 21
1075.1293978663
 31
0.0
  0
LINE
  5
12A
330
1F
100
AcDbEntity
  8
0
  6
Continuous
 62
     7
370
    25
100
AcDbLine
 10
857.6292233787
 20
1058.3793978663
 30
0.0
 11
856.2640384536
 21
1058.3793978663
 31
0.0
  0
LINE
  5
12B
330
1F
100
AcDbEntity
  8
0
  6
Continuous
 62
     7
370
    25
100
AcDbLine
 10
856.2640384536
 20
1075.1293978663
 30
0.0
 11
857.6292233787
 21
1075.1293978663
 31
0.0
  0
LINE
  5
12C
330
1F
100
AcDbEntity
  8
0
  6
Continuous
 62
     7
370
    25
100
AcDbLine
 10
856.1292233787
 20
1073.2543978663
 30
0.0
 11
858.1292233787
 21
1073.2543978663
 31
0.0
  0
LINE
  5
12D
330
1F
100
AcDbEntity
  8
0
  6
Continuous
 62
     7
370
    25
100
AcDbLine
 10
858.1292233787
 20
1060.2543978663
 30
0.0
 11
856.1292233787
 21
1060.2543978663
 31
0.0
  0
LINE
  5
12E
330
1F
100
AcDbEntity
  8
0
  6
Continuous
 62
     7
370
    25
100
AcDbLine
 10
856.8579408335
 20
1059.3043978663
 30
0.0
 11
856.8579408335
 21
1060.2543978663
 31
0.0
  0
LINE
  5
12F
330
1F
100
AcDbEntity
  8
0
  6
Continuous
 62
     7
370
    25
100
AcDbLine
 10
856.8579408335
 20
1073.2543978663
 30
0.0
 11
856.8579408335
 21
1074.2043978663
 31
0.0
  0
LINE
  5
130
330
1F
100
AcDbEntity
  8
0
  6
Continuous
 62
     7
370
    25
100
AcDbLine
 10
856.8579408335
 20
1059.3043978663
 30
0.0
 11
856.1292233787
 21
1059.3043978663
 31
0.0
  0
LINE
  5
131
330
1F
100
AcDbEntity
  8
0
  6
Continuous
 62
     7
370
    25
100
AcDbLine
 10
856.8579408335
 20
1074.2043978663
 30
0.0
 11
856.1292233787
 21
1074.2043978663
 31
0.0
  0
LINE
  5
132
330
1F
100
AcDbEntity
  8
0
  6
Continuous
 62
     7
370
    25
100
AcDbLine
 10
856.9193103291
 20
1059.3043978663
 30
0.0
 11
856.9193103291
 21
1060.2543978663
 31
0.0
  0
LINE
  5
133
330
1F
100
AcDbEntity
  8
0
  6
Continuous
 62
     7
370
    25
100
AcDbLine
 10
856.9193103291
 20
1073.2543978663
 30
0.0
 11
856.9193103291
 21
1074.2043978663
 31
0.0
  0
LINE
  5
134
330
1F
100
AcDbEntity
  8
0
  6
Continuous
 62
     7
370
    25
100
AcDbLine
 10
856.9193103291
 20
1059.3043978663
 30
0.0
 11
856.8579408335
 21
1059.3043978663
 31
0.0
  0
LINE
  5
135
330
1F
100
AcDbEntity
  8
0
  6
Continuous
 62
     7
370
    25
100
AcDbLine
 10
856.9193103291
 20
1074.2043978663
 30
0.0
 11
856.8579408335
 21
1074.2043978663
 31
0.0
  0
LINE
  5
136
330
1F
100
AcDbEntity
  8
0
  6
Continuous
 62
     7
370
    25
100
AcDbLine
 10
856.1292233787
 20
1443.2543978663
 30
0.0
 11
858.1292233787
 21
1443.2543978663
 31
0.0
  0
LINE
  5
137
330
1F
100
AcDbEntity
  8
0
  6
Continuous
 62
     7
370
    25
100
AcDbLine
 10
858.1292233787
 20
1430.2543978663
 30
0.0
 11
856.1292233787
 21
1430.2543978663
 31
0.0
  0
LINE
  5
138
330
1F
100
AcDbEntity
  8
0
  6
Continuous
 62
     7
370
    25
100
AcDbLine
 10
856.8579408335
 20
1429.3043978663
 30
0.0
 11
856.8579408335
 21
1430.2543978663
 31
0.0
  0
LINE
  5
139
330
1F
100
AcDbEntity
  8
0
  6
Continuous
 62
     7
370
    25
100
AcDbLine
 10
856.8579408335
 20
1443.2543978663
 30
0.0
 11
856.8579408335
 21
1444.2043978663
 31
0.0
  0
LINE
  5
13A
330
1F
100
AcDbEntity
  8
0
  6
Continuous
 62
     7
370
    25
100
AcDbLine
 10
856.8579408335
 20
1429.3043978663
 30
0.0
 11
856.1292233787
 21
1429.3043978663
 31
0.0
  0
LINE
  5
13B
330
1F
100
AcDbEntity
  8
0
  6
Continuous
 62
     7
370
    25
100
AcDbLine
 10
856.8579408335
 20
1444.2043978663
 30
0.0
 11
856.1292233787
 21
1444.2043978663
 31
0.0
  0
LINE
  5
13C
330
1F
100
AcDbEntity
  8
0
  6
Continuous
 62
     7
370
    25
100
AcDbLine
 10
856.9193103291
 20
1429.3043978663
 30
0.0
 11
856.9193103291
 21
1430.2543978663
 31
0.0
  0
LINE
  5
13D
330
1F
100
AcDbEntity
  8
0
  6
Continuous
 62
     7
370
    25
100
AcDbLine
 10
856.9193103291
 20
1443.2543978663
 30
0.0
 11
856.9193103291
 21
1444.2043978663
 31
0.0
  0
LINE
  5
13E
330
1F
100
AcDbEntity
  8
0
  6
Continuous
 62
     7
370
    25
100
AcDbLine
 10
856.9193103291
 20
1429.3043978663
 30
0.0
 11
856.8579408335
 21
1429.3043978663
 31
0.0
  0
LINE
  5
13F
330
1F
100
AcDbEntity
  8
0
  6
Continuous
 62
     7
370
    25
100
AcDbLine
 10
856.9193103291
 20
1444.2043978663
 30
0.0
 11
856.8579408335
 21
1444.2043978663
 31
0.0
  0
LINE
  5
140
330
1F
100
AcDbEntity
  8
0
  6
Continuous
 62
     7
370
    25
100
AcDbLine
 10
857.6292233787
 20
1429.2793978663
 30
0.0
 11
857.3176575759
 21
1429.2793978663
 31
0.0
  0
LINE
  5
141
330
1F
100
AcDbEntity
  8
0
  6
Continuous
 62
     7
370
    25
100
AcDbLine
 10
857.3176575759
 20
1444.2293978663
 30
0.0
 11
857.3176575759
 21
1443.2543978663
 31
0.0
  0
LINE
  5
142
330
1F
100
AcDbEntity
  8
0
  6
Continuous
 62
     7
370
    25
100
AcDbLine
 10
857.3176575759
 20
1430.2543978663
 30
0.0
 11
857.3176575759
 21
1429.2793978663
 31
0.0
  0
LINE
  5
143
330
1F
100
AcDbEntity
  8
0
  6
Continuous
 62
     7
370
    25
100
AcDbLine
 10
857.6292233787
 20
1444.2293978663
 30
0.0
 11
857.3176575759
 21
1444.2293978663
 31
0.0
  0
LINE
  5
144
330
1F
100
AcDbEntity
  8
0
  6
Continuous
 62
     7
370
    25
100
AcDbLine
 10
857.3176575759
 20
1429.2793978663
 30
0.0
 11
857.2785149814
 21
1429.2793978663
 31
0.0
  0
LINE
  5
145
330
1F
100
AcDbEntity
  8
0
  6
Continuous
 62
     7
370
    25
100
AcDbLine
 10
857.3176575759
 20
1444.2293978663
 30
0.0
 11
857.2785149814
 21
1444.2293978663
 31
0.0
  0
LINE
  5
146
330
1F
100
AcDbEntity
  8
0
  6
Continuous
 62
     7
370
    25
100
AcDbLine
 10
857.6292233787
 20
1059.2793978663
 30
0.0
 11
857.3176575759
 21
1059.2793978663
 31
0.0
  0
LINE
  5
147
330
1F
100
AcDbEntity
  8
0
  6
Continuous
 62
     7
370
    25
100
AcDbLine
 10
857.3176575759
 20
1074.2293978663
 30
0.0
 11
857.3176575759
 21
1073.2543978663
 31
0.0
  0
LINE
  5
148
330
1F
100
AcDbEntity
  8
0
  6
Continuous
 62
     7
370
    25
100
AcDbLine
 10
857.3176575759
 20
1060.2543978663
 30
0.0
 11
857.3176575759
 21
1059.2793978663
 31
0.0
  0
LINE
  5
149
330
1F
100
AcDbEntity
  8
0
  6
Continuous
 62
     7
370
    25
100
AcDbLine
 10
857.6292233787
 20
1074.2293978663
 30
0.0
 11
857.3176575759
 21
1074.2293978663
 31
0.0
  0
LINE
  5
14A
330
1F
100
AcDbEntity
  8
0
  6
Continuous
 62
     7
370
    25
100
AcDbLine
 10
857.3176575759
 20
1059.2793978663
 30
0.0
 11
857.2785149814
 21
1059.2793978663
 31
0.0
  0
LINE
  5
14B
330
1F
100
AcDbEntity
  8
0
  6
Continuous
 62
     7
370
    25
100
AcDbLine
 10
857.3176575759
 20
1074.2293978663
 30
0.0
 11
857.2785149814
 21
1074.2293978663
 31
0.0
  0
LINE
  5
14C
330
1F
100
AcDbEntity
  8
0
  6
Continuous
 62
     7
370
    25
100
AcDbLine
 10
475.7954764323
 20
1434.7748720752
 30
0.0
 11
475.6515032166
 21
1429.2767567878
 31
0.0
  0
LINE
  5
14D
330
1F
100
AcDbEntity
  8
0
  6
Continuous
 62
     7
370
    25
100
AcDbLine
 10
474.1805906639
 20
1459.0754720652
 30
0.0
 11
473.6570516978
 21
1439.0823255657
 31
0.0
  0
LINE
  5
14E
330
1F
100
AcDbEntity
  8
0
  6
Continuous
 62
     7
370
    25
100
AcDbLine
 10
472.4907022777
 20
1440.2086561082
 30
0.0
 11
472.9568920992
 21
1458.0117271317
 31
0.0
  0
LINE
  5
14F
330
1F
100
AcDbEntity
  8
0
  6
Continuous
 62
     7
370
    25
100
AcDbLine
 10
474.6764915164
 20
1449.3448871838
 30
0.0
 11
474.9307814413
 21
1459.0558276283
 31
0.0
  0
LINE
  5
150
330
1F
100
AcDbEntity
  8
0
  6
Continuous
 62
     7
370
    25
100
AcDbLine
 10
472.7751043047
 20
1456.4161961367
 30
0.0
 11
472.3926672574
 21
1441.8115145215
 31
0.0
  0
LINE
  5
151
330
1F
100
AcDbEntity
  8
0
  6
Continuous
 62
     7
370
    25
100
AcDbLine
 10
475.4865683072
 20
1453.5393867276
 30
0.0
 11
475.3649024678
 21
1448.8931557708
 31
0.0
  0
LINE
  5
152
330
1F
100
AcDbEntity
  8
0
  6
Continuous
 62
     7
370
    25
100
AcDbLine
 10
475.3649024678
 20
1448.8931557708
 30
0.0
 11
475.250975856
 21
1444.5424739934
 31
0.0
  0
LINE
  5
153
330
1F
100
AcDbEntity
  8
0
  6
Continuous
 62
     7
370
    25
100
AcDbLine
 10
857.9292233787
 20
1094.2543978663
 30
0.0
 11
856.1292233787
 21
1094.2543978663
 31
0.0
  0
LINE
  5
154
330
1F
100
AcDbEntity
  8
0
  6
Continuous
 62
     7
370
    25
100
AcDbLine
 10
857.9292233787
 20
1039.2543978663
 30
0.0
 11
856.1292233787
 21
1039.2543978663
 31
0.0
  0
LINE
  5
155
330
1F
100
AcDbEntity
  8
0
  6
Continuous
 62
     7
370
    25
100
AcDbLine
 10
856.7792233787
 20
1075.1293978663
 30
0.0
 11
856.7792233787
 21
1076.7543978663
 31
0.0
  0
LINE
  5
156
330
1F
100
AcDbEntity
  8
0
  6
Continuous
 62
     7
370
    25
100
AcDbLine
 10
856.7792233787
 20
1056.7543978663
 30
0.0
 11
856.7792233787
 21
1058.3793978663
 31
0.0
  0
LINE
  5
157
330
1F
100
AcDbEntity
  8
0
  6
Continuous
 62
     7
370
    25
100
AcDbLine
 10
857.9292233787
 20
1464.2543978663
 30
0.0
 11
856.1292233787
 21
1464.2543978663
 31
0.0
  0
LINE
  5
158
330
1F
100
AcDbEntity
  8
0
  6
Continuous
 62
     7
370
    25
100
AcDbLine
 10
857.9292233787
 20
1409.2543978663
 30
0.0
 11
856.1292233787
 21
1409.2543978663
 31
0.0
  0
LINE
  5
159
330
1F
100
AcDbEntity
  8
0
  6
Continuous
 62
     7
370
    25
100
AcDbLine
 10
856.7792233787
 20
1445.1293978663
 30
0.0
 11
856.7792233787
 21
1446.7543978663
 31
0.0
  0
LINE
  5
15A
330
1F
100
AcDbEntity
  8
0
  6
Continuous
 62
     7
370
    25
100
AcDbLine
 10
856.7792233787
 20
1426.7543978663
 30
0.0
 11
856.7792233787
 21
1428.3793978663
 31
0.0
  0
LINE
  5
15B
330
1F
100
AcDbEntity
  8
0
  6
Continuous
 62
     7
370
    25
100
AcDbLine
 10
4517.7500479585
 20
1434.7748720752
 30
0.0
 11
4515.9163010121
 21
1434.7268537215
 31
0.0
  0
LINE
  5
15C
330
1F
100
AcDbEntity
  8
0
  6
Continuous
 62
     7
370
    25
100
AcDbLine
 10
4515.9163010121
 20
1429.2249683628
 30
0.0
 11
4517.8940211741
 21
1429.2767567878
 31
0.0
  0
ARC
  5
15D
330
1F
100
AcDbEntity
  8
0
  6
Continuous
 62
     7
370
    25
100
AcDbCircle
 10
4517.757901043
 20
1434.4749748777
 30
0.0
 40
0.3000000000001331
100
AcDbArc
 50
1.4999999999
 51
91.5000000001
  0
ARC
  5
15E
330
1F
100
AcDbEntity
  8
0
  6
Continuous
 62
     7
370
    25
100
AcDbCircle
 10
4517.8861680897
 20
1429.5766539853
 30
0.0
 40
0.2999999999998819
100
AcDbArc
 50
271.5
 51
1.4999999999
  0
LINE
  5
15F
330
1F
100
AcDbEntity
  8
0
  6
Continuous
 62
     7
370
    25
100
AcDbLine
 10
4519.1382819156
 20
1439.0626811288
 30
0.0
 11
4519.8884726929
 21
1439.0823255657
 31
0.0
  0
LINE
  5
160
330
1F
100
AcDbEntity
  8
0
  6
Continuous
 62
     7
370
    25
100
AcDbLine
 10
4519.3649337268
 20
1459.0754720652
 30
0.0
 11
4518.6147429495
 21
1459.0558276283
 31
0.0
  0
ARC
  5
161
330
1F
100
AcDbEntity
  8
0
  6
Continuous
 62
     7
370
    25
100
AcDbCircle
 10
4519.133046526
 20
1439.2626125938
 30
0.0
 40
0.1999999999998535
100
AcDbArc
 50
181.4999999999
 51
271.5
  0
ARC
  5
162
330
1F
100
AcDbEntity
  8
0
  6
Continuous
 62
     7
370
    25
100
AcDbCircle
 10
4518.6199783391
 20
1458.8558961633
 30
0.0
 40
0.200000000000057
100
AcDbArc
 50
91.4999999998
 51
181.5
  0
ARC
  5
163
330
1F
100
AcDbEntity
  8
0
  6
Continuous
 62
     7
370
    25
100
AcDbCircle
 10
4519.857060355
 20
1440.2819143556
 30
0.0
 40
1.200000000000298
100
AcDbArc
 50
271.5
 51
356.5000000032
  0
ARC
  5
164
330
1F
100
AcDbEntity
  8
0
  6
Continuous
 62
     7
370
    25
100
AcDbCircle
 10
4519.3963460648
 20
1457.8758832752
 30
0.0
 40
1.200000000000529
100
AcDbArc
 50
6.4999999967
 51
91.4999999999
  0
LINE
  5
165
330
1F
100
AcDbEntity
  8
0
  6
Continuous
 62
     7
370
    25
100
AcDbLine
 10
4521.0548221131
 20
1440.2086561082
 30
0.0
 11
4521.1528571334
 21
1441.8115145215
 31
0.0
  0
LINE
  5
166
330
1F
100
AcDbEntity
  8
0
  6
Continuous
 62
     7
370
    25
100
AcDbLine
 10
4520.7704200861
 20
1456.4161961367
 30
0.0
 11
4520.5886322916
 21
1458.0117271316
 31
0.0
  0
ARC
  5
167
330
1F
100
AcDbEntity
  8
0
  6
Continuous
 62
     7
370
    25
100
AcDbCircle
 10
4491.2088131807
 20
1443.6429707076
 30
0.0
 40
30.00000000000288
100
AcDbArc
 50
356.4999999999
 51
1.4999999999
  0
ARC
  5
168
330
1F
100
AcDbEntity
  8
0
  6
Continuous
 62
     7
370
    25
100
AcDbCircle
 10
4490.9632644158
 20
1453.0200997237
 30
0.0
 40
30.00000000000258
100
AcDbArc
 50
1.4999999999
 51
6.4999999999
  0
LINE
  5
169
330
1F
100
AcDbEntity
  8
0
  6
Continuous
 62
     7
370
    25
100
AcDbLine
 10
4521.0782320384
 20
1449.0223848583
 30
0.0
 11
4521.0757585475
 21
1449.1168436648
 31
0.0
  0
SPLINE
  5
16A
330
1F
100
AcDbEntity
  8
0
  6
Continuous
 62
     7
370
    25
100
AcDbSpline
210
0.0
220
0.0
230
1.0
 70
     8
 71
     3
 72
    11
 73
     7
 74
     0
 42
0.00000001
 43
0.00000001
 40
0.0
 40
0.0
 40
0.0
 40
0.0
 40
0.270671270904453
 40
0.5632120728001537
 40
0.7903891635244903
 40
1.0
 40
1.0
 40
1.0
 40
1.0
 10
4518.294548572448
 20
1444.542472552354
 30
0.0
 10
4518.366361280958
 20
1444.535344805513
 30
0.0
 10
4518.515788977064
 20
1444.520513408523
 30
0.0
 10
4518.687900202777
 20
1444.38709392635
 30
0.0
 10
4518.788951168402
 20
1444.218965531411
 30
0.0
 10
4518.80158698596
 20
1444.103888307109
 30
0.0
 10
4518.807650808066
 20
1444.048663719286
 30
0.0
  0
SPLINE
  5
16B
330
1F
100
AcDbEntity
  8
0
  6
Continuous
 62
     7
370
    25
100
AcDbSpline
210
0.0
220
0.0
230
1.0
 70
     8
 71
     3
 72
    11
 73
     7
 74
     0
 42
0.00000001
 43
0.00000001
 40
0.0
 40
0.0
 40
0.0
 40
0.0
 40
0.2695105035985529
 40
0.5617364405776453
 40
0.7894224931279767
 40
1.0
 40
1.0
 40
1.0
 40
1.0
 10
4518.545511127043
 20
1454.059374258503
 30
0.0
 10
4518.539444966037
 20
1453.987784817779
 30
0.0
 10
4518.526801363482
 20
1453.838572089227
 30
0.0
 10
4518.396408797245
 20
1453.664552517793
 30
0.0
 10
4518.229638749764
 20
1453.560590211836
 30
0.0
 10
4518.114350096174
 20
1453.546269373958
 30
0.0
 10
4518.058956037687
 20
1453.539388477128
 30
0.0
  0
LINE
  5
16C
330
1F
100
AcDbEntity
  8
0
  6
Continuous
 62
     7
370
    25
100
AcDbLine
 10
4515.9163010121
 20
1444.4801959483
 30
0.0
 11
4518.2945485724
 21
1444.5424725523
 31
0.0
  0
LINE
  5
16D
330
1F
100
AcDbEntity
  8
0
  6
Continuous
 62
     7
370
    25
100
AcDbLine
 10
4518.0589560377
 20
1453.5393884771
 30
0.0
 11
4515.9163010121
 21
1453.4832810807
 31
0.0
  0
LINE
  5
16E
330
1F
100
AcDbEntity
  8
0
  6
Continuous
 62
     7
370
    25
100
AcDbLine
 10
4136.9163010121
 20
1498.2543978663
 30
0.0
 11
4515.9163010121
 21
1498.2543978663
 31
0.0
  0
LINE
  5
16F
330
1F
100
AcDbEntity
  8
0
  6
Continuous
 62
     7
370
    25
100
AcDbLine
 10
4136.9163010121
 20
1526.7543978663
 30
0.0
 11
4136.9163010121
 21
1498.2543978663
 31
0.0
  0
LINE
  5
170
330
1F
100
AcDbEntity
  8
0
  6
Continuous
 62
     7
370
    25
100
AcDbLine
 10
4515.9163010121
 20
1526.7543978663
 30
0.0
 11
4136.9163010121
 21
1526.7543978663
 31
0.0
  0
LINE
  5
171
330
1F
100
AcDbEntity
  8
0
  6
Continuous
 62
     7
370
    25
100
AcDbLine
 10
4515.9163010121
 20
1498.2543978663
 30
0.0
 11
4515.9163010121
 21
1526.7543978663
 31
0.0
  0
LINE
  5
172
330
1F
100
AcDbEntity
  8
0
  6
Continuous
 62
     7
370
    25
100
AcDbLine
 10
4137.4163010121
 20
976.7543978663
 30
0.0
 11
4137.4163010121
 21
1498.2543978663
 31
0.0
  0
LINE
  5
173
330
1F
100
AcDbEntity
  8
0
  6
Continuous
 62
     7
370
    25
100
AcDbLine
 10
4137.4163010121
 20
976.7543978663
 30
0.0
 11
4515.9163010121
 21
976.7543978663
 31
0.0
  0
LINE
  5
174
330
1F
100
AcDbEntity
  8
0
  6
Continuous
 62
     7
370
    25
100
AcDbLine
 10
4515.9163010121
 20
976.7543978663
 30
0.0
 11
4515.9163010121
 21
1498.2543978663
 31
0.0
  0
LINE
  5
175
330
1F
100
AcDbEntity
  8
0
  6
Continuous
 62
     7
370
    25
100
AcDbLine
 10
4133.9163010121
 20
999.7543978663
 30
0.0
 11
4133.9163010121
 21
1020.2543978663
 31
0.0
  0
LINE
  5
176
330
1F
100
AcDbEntity
  8
0
  6
Continuous
 62
     7
370
    25
100
AcDbLine
 10
4121.4163010121
 20
999.7543978663
 30
0.0
 11
4133.9163010121
 21
999.7543978663
 31
0.0
  0
LINE
  5
177
330
1F
100
AcDbEntity
  8
0
  6
Continuous
 62
     7
370
    25
100
AcDbLine
 10
4121.4163010121
 20
986.7543978663
 30
0.0
 11
4121.4163010121
 21
999.7543978663
 31
0.0
  0
LINE
  5
178
330
1F
100
AcDbEntity
  8
0
  6
Continuous
 62
     7
370
    25
100
AcDbLine
 10
4117.4163010121
 20
986.7543978663
 30
0.0
 11
4121.4163010121
 21
986.7543978663
 31
0.0
  0
LINE
  5
179
330
1F
100
AcDbEntity
  8
0
  6
Continuous
 62
     7
370
    25
100
AcDbLine
 10
4117.4163010121
 20
986.7543978663
 30
0.0
 11
4117.4163010121
 21
1516.7543978663
 31
0.0
  0
LINE
  5
17A
330
1F
100
AcDbEntity
  8
0
  6
Continuous
 62
     7
370
    25
100
AcDbLine
 10
4133.9163010121
 20
1020.2543978663
 30
0.0
 11
4135.4163010121
 21
1020.2543978663
 31
0.0
  0
LINE
  5
17B
330
1F
100
AcDbEntity
  8
0
  6
Continuous
 62
     7
370
    25
100
AcDbLine
 10
4135.4163010121
 20
1020.2543978663
 30
0.0
 11
4135.4163010121
 21
1516.7543978663
 31
0.0
  0
LINE
  5
17C
330
1F
100
AcDbEntity
  8
0
  6
Continuous
 62
     7
370
    25
100
AcDbLine
 10
4117.4163010121
 20
1516.7543978663
 30
0.0
 11
4135.4163010121
 21
1516.7543978663
 31
0.0
  0
SPLINE
  5
17D
330
1F
100
AcDbEntity
  8
0
  6
Continuous
 62
     7
370
    25
100
AcDbSpline
210
0.0
220
0.0
230
1.0
 70
    24
 71
     3
 72
    12
 73
     8
 74
     0
 42
0.00000001
 43
0.00000001
 40
0.0
 40
0.0
 40
0.0
 40
0.0
 40
0.2460973337390177
 40
0.4921955654195569
 40
0.7383025770441171
 40
0.984416004048273
 40
1.0
 40
1.0
 40
1.0
 40
1.0
 10
4518.121931763796
 20
1432.033667515997
 30
0.0
 10
4518.130161240797
 20
1431.7193964685
 30
0.0
 10
4518.146620224826
 20
1431.090853226815
 30
0.0
 10
4518.167936227936
 20
1430.276827909653
 30
0.0
 10
4518.181476490681
 20
1429.759746136905
 30
0.0
 10
4518.187395967763
 20
1429.533690427252
 30
0.0
 10
4518.185875737426
 20
1429.591745681664
 30
0.0
 10
4518.185785208206
 20
1429.595202853078
 30
0.0
  0
SPLINE
  5
17E
330
1F
100
AcDbEntity
  8
0
  6
Continuous
 62
     7
370
    25
100
AcDbSpline
210
0.0
220
0.0
230
1.0
 70
     8
 71
     3
 72
    11
 73
     7
 74
     0
 42
0.00000001
 43
0.00000001
 40
0.0
 40
0.0
 40
0.0
 40
0.0
 40
0.238224734985242
 40
0.4921376904596705
 40
0.7460575595478633
 40
1.0
 40
1.0
 40
1.0
 40
1.0
 10
4518.058072034717
 20
1434.472372180741
 30
0.0
 10
4518.058744419021
 20
1434.446694861226
 30
0.0
 10
4518.060133467299
 20
1434.393649249806
 30
0.0
 10
4518.073671064535
 20
1433.87666925106
 30
0.0
 10
4518.093771655869
 20
1433.109058705195
 30
0.0
 10
4518.110155297261
 20
1432.483392512938
 30
0.0
 10
4518.118347482034
 20
1432.170545513298
 30
0.0
  0
LINE
  5
17F
330
1F
100
AcDbEntity
  8
0
  6
Continuous
 62
     7
370
    25
100
AcDbLine
 10
4518.118347482
 20
1432.1705455133
 30
0.0
 11
4518.1219317638
 21
1432.033667516
 31
0.0
  0
SPLINE
  5
180
330
1F
100
AcDbEntity
  8
0
  6
Continuous
 62
     7
370
    25
100
AcDbSpline
210
0.0
220
0.0
230
1.0
 70
    24
 71
     3
 72
    13
 73
     9
 74
     0
 42
0.00000001
 43
0.00000001
 40
0.0
 40
0.0
 40
0.0
 40
0.0
 40
0.1813201537907878
 40
0.4101468448380577
 40
0.5438150184965111
 40
0.6886421238875787
 40
0.8419966874126957
 40
1.0
 40
1.0
 40
1.0
 40
1.0
 10
4518.676580967555
 20
1449.054018988888
 30
0.0
 10
4518.652354093912
 20
1449.979205966929
 30
0.0
 10
4518.597552817952
 20
1452.071982263416
 30
0.0
 10
4518.53119258693
 20
1454.606177244853
 30
0.0
 10
4518.481221570377
 20
1456.514493376595
 30
0.0
 10
4518.448299481662
 20
1457.771737221526
 30
0.0
 10
4518.425017322935
 20
1458.660846992432
 30
0.0
 10
4518.421725129526
 20
1458.786570786431
 30
0.0
 10
4518.420054455667
 20
1458.85037124708
 30
0.0
  0
SPLINE
  5
181
330
1F
100
AcDbEntity
  8
0
  6
Continuous
 62
     7
370
    25
100
AcDbSpline
210
0.0
220
0.0
230
1.0
 70
    24
 71
     3
 72
    13
 73
     9
 74
     0
 42
0.00000001
 43
0.00000001
 40
0.0
 40
0.0
 40
0.0
 40
0.0
 40
0.1538581583652009
 40
0.3079676862452758
 40
0.4535077802385011
 40
0.587834007834561
 40
0.8177872163813449
 40
1.0
 40
1.0
 40
1.0
 40
1.0
 10
4518.932881372516
 20
1439.26630140585
 30
0.0
 10
4518.931561895873
 20
1439.316690185942
 30
0.0
 10
4518.928920786858
 20
1439.417550070024
 30
0.0
 10
4518.906694001446
 20
1440.266356760078
 30
0.0
 10
4518.874525991149
 20
1441.494803511995
 30
0.0
 10
4518.825263059562
 20
1443.376078969867
 30
0.0
 10
4518.759443730822
 20
1445.889617726497
 30
0.0
 10
4518.704718667675
 20
1447.979483573088
 30
0.0
 10
4518.680525487551
 20
1448.903383847577
 30
0.0
  0
LINE
  5
182
330
1F
100
AcDbEntity
  8
0
  6
Continuous
 62
     7
370
    25
100
AcDbLine
 10
4521.0782320384
 20
1449.0223848582
 30
0.0
 11
4521.19853293
 21
1444.4282791568
 31
0.0
  0
LINE
  5
183
330
1F
100
AcDbEntity
  8
0
  6
Continuous
 62
     7
370
    25
100
AcDbLine
 10
4520.952984165
 20
1453.8054081729
 30
0.0
 11
4521.0757585475
 21
1449.1168436648
 31
0.0
  0
SPLINE
  5
184
330
1F
100
AcDbEntity
  8
0
  6
Continuous
 62
     7
370
    25
100
AcDbSpline
210
0.0
220
0.0
230
1.0
 70
     8
 71
     3
 72
    11
 73
     7
 74
     0
 42
0.00000001
 43
0.00000001
 40
0.0
 40
0.0
 40
0.0
 40
0.0
 40
0.2702602051691431
 40
0.5624283659902588
 40
0.7897359586728051
 40
1.0
 40
1.0
 40
1.0
 40
1.0
 10
4518.67228138343
 20
1449.218213482243
 30
0.0
 10
4518.663531975718
 20
1449.215656025558
 30
0.0
 10
4518.645323911826
 20
1449.210333798472
 30
0.0
 10
4518.510265639422
 20
1449.201285824091
 30
0.0
 10
4518.342203449888
 20
1449.193677152426
 30
0.0
 10
4518.227838085996
 20
1449.190318953097
 30
0.0
 10
4518.172882687311
 20
1449.188705254887
 30
0.0
  0
SPLINE
  5
185
330
1F
100
AcDbEntity
  8
0
  6
Continuous
 62
     7
370
    25
100
AcDbSpline
210
0.0
220
0.0
230
1.0
 70
     8
 71
     3
 72
    10
 73
     6
 74
     0
 42
0.00000001
 43
0.00000001
 40
0.0
 40
0.0
 40
0.0
 40
0.0
 40
0.3698682463934105
 40
0.7394183665248103
 40
1.0
 40
1.0
 40
1.0
 40
1.0
 10
4518.400161334801
 20
1448.531609380492
 30
0.0
 10
4518.396941611833
 20
1448.655185441903
 30
0.0
 10
4518.390504935202
 20
1448.902231276093
 30
0.0
 10
4518.3810123833
 20
1449.268343236765
 30
0.0
 10
4518.375485084351
 20
1449.475556144414
 30
0.0
 10
4518.373199351913
 20
1449.561245966651
 30
0.0
  0
ARC
  5
186
330
1F
100
AcDbEntity
  8
0
  6
Continuous
 62
     7
370
    25
100
AcDbCircle
 10
4121.4162626861
 20
986.7613658174
 30
0.0
 40
0.3000000000004442
100
AcDbArc
 50
223.6216529672
 51
260.4234115189
  0
LINE
  5
187
330
1F
100
AcDbEntity
  8
0
  6
Continuous
 62
     7
370
    25
100
AcDbLine
 10
4121.3663529321
 20
986.4655465881
 30
0.0
 11
4121.3330797627
 21
986.2683337685
 31
0.0
  0
ARC
  5
188
330
1F
100
AcDbEntity
  8
0
  6
Continuous
 62
     7
370
    25
100
AcDbCircle
 10
4121.4162626861
 20
986.7613658174
 30
0.0
 40
0.5000000000001907
100
AcDbArc
 50
180.7984942261
 51
260.4234115189
  0
SPLINE
  5
189
330
1F
100
AcDbEntity
  8
0
  6
Continuous
 62
     7
370
    25
100
AcDbSpline
210
0.0
220
0.0
230
1.0
 70
     8
 71
     3
 72
    13
 73
     9
 74
     0
 42
0.00000001
 43
0.00000001
 40
0.0
 40
0.0
 40
0.0
 40
0.0
 40
0.0075029974113236
 40
0.3818974549655527
 40
0.6070018873266352
 40
0.7653769096340154
 40
0.8824605049805269
 40
0.9999999999999999
 40
0.9999999999999999
 40
0.9999999999999999
 40
0.9999999999999999
 10
4121.1990893286
 20
986.5543978663159
 30
0.0
 10
4121.198071551985
 20
986.554835864211
 30
0.0
 10
4121.146267415846
 20
986.5771296585804
 30
0.0
 10
4121.067682050479
 20
986.6240140467957
 30
0.0
 10
4120.985042586445
 20
986.6902984838322
 30
0.0
 10
4120.942946468347
 20
986.7285600430048
 30
0.0
 10
4120.920423041512
 20
986.7503158187399
 30
0.0
 10
4120.917683615398
 20
986.7530354222895
 30
0.0
 10
4120.916311240831
 20
986.7543978663158
 30
0.0
  0
ARC
  5
18A
330
1F
100
AcDbEntity
  8
0
  6
Continuous
 62
     7
370
    25
100
AcDbCircle
 10
4134.7163010121
 20
998.7543978663
 30
0.0
 40
0.8000000000001819
100
AcDbArc
 50
270.0
 51
0.0
  0
LINE
  5
18B
330
1F
100
AcDbEntity
  8
0
  6
Continuous
 62
     7
370
    25
100
AcDbLine
 10
4135.7163010121
 20
998.7543978663
 30
0.0
 11
4135.5163010121
 21
998.7543978663
 31
0.0
  0
ARC
  5
18C
330
1F
100
AcDbEntity
  8
0
  6
Continuous
 62
     7
370
    25
100
AcDbCircle
 10
4134.7163010121
 20
998.7543978663
 30
0.0
 40
1.0
100
AcDbArc
 50
270.0
 51
0.0
  0
LINE
  5
18D
330
1F
100
AcDbEntity
  8
0
  6
Continuous
 62
     7
370
    25
100
AcDbLine
 10
4134.7163010121
 20
997.9543978663
 30
0.0
 11
4134.7163010121
 21
997.7543978663
 31
0.0
  0
LINE
  5
18E
330
1F
100
AcDbEntity
  8
0
  6
Continuous
 62
     7
370
    25
100
AcDbLine
 10
4133.9163010121
 20
999.7543978663
 30
0.0
 11
4134.1163010121
 21
999.5543978663
 31
0.0
  0
LINE
  5
18F
330
1F
100
AcDbEntity
  8
0
  6
Continuous
 62
     7
370
    25
100
AcDbLine
 10
4134.1163010121
 20
999.5543978663
 30
0.0
 11
4121.6163010121
 21
999.5543978663
 31
0.0
  0
LINE
  5
190
330
1F
100
AcDbEntity
  8
0
  6
Continuous
 62
     7
370
    25
100
AcDbLine
 10
4121.4163010121
 20
999.7543978663
 30
0.0
 11
4121.6163010121
 21
999.5543978663
 31
0.0
  0
ARC
  5
191
330
1F
100
AcDbEntity
  8
0
  6
Continuous
 62
     7
370
    25
100
AcDbCircle
 10
4121.4994456096
 20
987.2543978663
 30
0.0
 40
0.8000000000002055
100
AcDbArc
 50
260.4234115189
 51
355.0300534053
  0
LINE
  5
192
330
1F
100
AcDbEntity
  8
0
  6
Continuous
 62
     7
370
    25
100
AcDbLine
 10
4122.2964378311
 20
987.1850913096
 30
0.0
 11
4122.4956858865
 21
987.1677646704
 31
0.0
  0
ARC
  5
193
330
1F
100
AcDbEntity
  8
0
  6
Continuous
 62
     7
370
    25
100
AcDbCircle
 10
4121.4994456096
 20
987.2543978663
 30
0.0
 40
1.000000000000051
100
AcDbArc
 50
260.4234115189
 51
355.0300534053
  0
LINE
  5
194
330
1F
100
AcDbEntity
  8
0
  6
Continuous
 62
     7
370
    25
100
AcDbLine
 10
4124.333114782
 20
997.9543978663
 30
0.0
 11
4134.7163010121
 21
997.9543978663
 31
0.0
  0
LINE
  5
195
330
1F
100
AcDbEntity
  8
0
  6
Continuous
 62
     7
370
    25
100
AcDbLine
 10
4134.7163010121
 20
997.7543978663
 30
0.0
 11
4124.333114782
 21
997.7543978663
 31
0.0
  0
LINE
  5
196
330
1F
100
AcDbEntity
  8
0
  6
Continuous
 62
     7
370
    25
100
AcDbLine
 10
4124.333114782
 20
997.9543978663
 30
0.0
 11
4124.333114782
 21
997.7543978663
 31
0.0
  0
LINE
  5
197
330
1F
100
AcDbEntity
  8
0
  6
Continuous
 62
     7
370
    25
100
AcDbLine
 10
4135.7163010121
 20
1019.5543978663
 30
0.0
 11
4135.7163010121
 21
998.7543978663
 31
0.0
  0
LINE
  5
198
330
1F
100
AcDbEntity
  8
0
  6
Continuous
 62
     7
370
    25
100
AcDbLine
 10
4135.5163010121
 20
998.7543978663
 30
0.0
 11
4135.5163010121
 21
1019.5543978663
 31
0.0
  0
LINE
  5
199
330
1F
100
AcDbEntity
  8
0
  6
Continuous
 62
     7
370
    25
100
AcDbLine
 10
4135.7163010121
 20
1019.5543978663
 30
0.0
 11
4135.5163010121
 21
1019.5543978663
 31
0.0
  0
LINE
  5
19A
330
1F
100
AcDbEntity
  8
0
  6
Continuous
 62
     7
370
    25
100
AcDbLine
 10
4121.4163010121
 20
986.7543978663
 30
0.0
 11
4121.6163010121
 21
986.5543978663
 31
0.0
  0
LINE
  5
19B
330
1F
100
AcDbEntity
  8
0
  6
Continuous
 62
     7
370
    25
100
AcDbLine
 10
4121.6163010121
 20
986.5543978663
 30
0.0
 11
4121.1990893286
 21
986.5543978663
 31
0.0
  0
LINE
  5
19C
330
1F
100
AcDbEntity
  8
0
  6
Continuous
 62
     7
370
    25
100
AcDbLine
 10
4121.6163010121
 20
999.5543978663
 30
0.0
 11
4121.6163010121
 21
986.5543978663
 31
0.0
  0
LINE
  5
19D
330
1F
100
AcDbEntity
  8
0
  6
Continuous
 62
     7
370
    25
100
AcDbLine
 10
4122.2964378311
 20
987.1850913096
 30
0.0
 11
4123.1376264497
 21
996.8583577014
 31
0.0
  0
LINE
  5
19E
330
1F
100
AcDbEntity
  8
0
  6
Continuous
 62
     7
370
    25
100
AcDbLine
 10
4123.1376264497
 20
996.8583577014
 30
0.0
 11
4123.3368745051
 21
996.8410310622
 31
0.0
  0
LINE
  5
19F
330
1F
100
AcDbEntity
  8
0
  6
Continuous
 62
     7
370
    25
100
AcDbLine
 10
4123.3368745051
 20
996.8410310622
 30
0.0
 11
4122.4956858865
 21
987.1677646704
 31
0.0
  0
LINE
  5
1A0
330
1F
100
AcDbEntity
  8
0
  6
Continuous
 62
     7
370
    25
100
AcDbLine
 10
4133.9163010121
 20
1019.7543978663
 30
0.0
 11
4134.1163010121
 21
1019.5543978663
 31
0.0
  0
LINE
  5
1A1
330
1F
100
AcDbEntity
  8
0
  6
Continuous
 62
     7
370
    25
100
AcDbLine
 10
4134.1163010121
 20
1019.5543978663
 30
0.0
 11
4134.1163010121
 21
999.5543978663
 31
0.0
  0
ARC
  5
1A2
330
1F
100
AcDbEntity
  8
0
  6
Continuous
 62
     7
370
    25
100
AcDbCircle
 10
4124.333114782
 20
996.7543978663
 30
0.0
 40
1.200000000000045
100
AcDbArc
 50
90.0
 51
175.0300534053
  0
LINE
  5
1A3
330
1F
100
AcDbEntity
  8
0
  6
Continuous
 62
     7
370
    25
100
AcDbLine
 10
4135.5163010121
 20
1019.5543978663
 30
0.0
 11
4134.1163010121
 21
1019.5543978663
 31
0.0
  0
LINE
  5
1A4
330
1F
100
AcDbEntity
  8
0
  6
Continuous
 62
     7
370
    25
100
AcDbLine
 10
4133.9163010121
 20
1019.7543978663
 30
0.0
 11
4135.5163010121
 21
1019.7543978663
 31
0.0
  0
LINE
  5
1A5
330
1F
100
AcDbEntity
  8
0
  6
Continuous
 62
     7
370
    25
100
AcDbLine
 10
4135.5163010121
 20
1019.7543978663
 30
0.0
 11
4135.5163010121
 21
1019.5543978663
 31
0.0
  0
ARC
  5
1A6
330
1F
100
AcDbEntity
  8
0
  6
Continuous
 62
     7
370
    25
100
AcDbCircle
 10
4135.5163010121
 20
1019.5543978663
 30
0.0
 40
0.1999999999999318
100
AcDbArc
 50
0.0
 51
90.0
  0
ARC
  5
1A7
330
1F
100
AcDbEntity
  8
0
  6
Continuous
 62
     7
370
    25
100
AcDbCircle
 10
4124.333114782
 20
996.7543978663
 30
0.0
 40
1.0
100
AcDbArc
 50
90.0
 51
175.0300534053
  0
LINE
  5
1A8
330
1F
100
AcDbEntity
  8
0
  6
Continuous
 62
     7
370
    25
100
AcDbLine
 10
4136.6163010121
 20
1484.0543978663
 30
0.0
 11
4136.6163010121
 21
1485.2543978663
 31
0.0
  0
LINE
  5
1A9
330
1F
100
AcDbEntity
  8
0
  6
Continuous
 62
     7
370
    25
100
AcDbLine
 10
4136.6163010121
 20
1484.0543978663
 30
0.0
 11
4137.4163010121
 21
1484.0543978663
 31
0.0
  0
LINE
  5
1AA
330
1F
100
AcDbEntity
  8
0
  6
Continuous
 62
     7
370
    25
100
AcDbLine
 10
4136.6163010121
 20
1485.2543978663
 30
0.0
 11
4137.4163010121
 21
1485.2543978663
 31
0.0
  0
LINE
  5
1AB
330
1F
100
AcDbEntity
  8
0
  6
Continuous
 62
     7
370
    25
100
AcDbLine
 10
4135.4163010121
 20
1484.0543978663
 30
0.0
 11
4136.6163010121
 21
1484.0543978663
 31
0.0
  0
LINE
  5
1AC
330
1F
100
AcDbEntity
  8
0
  6
Continuous
 62
     7
370
    25
100
AcDbLine
 10
4135.4163010121
 20
1485.2543978663
 30
0.0
 11
4136.6163010121
 21
1485.2543978663
 31
0.0
  0
LINE
  5
1AD
330
1F
100
AcDbEntity
  8
0
  6
Continuous
 62
     7
370
    25
100
AcDbLine
 10
4136.6163010121
 20
1466.2543978663
 30
0.0
 11
4136.6163010121
 21
1484.0543978663
 31
0.0
  0
LINE
  5
1AE
330
1F
100
AcDbEntity
  8
0
  6
Continuous
 62
     7
370
    25
100
AcDbLine
 10
4135.4163010121
 20
1466.2543978663
 30
0.0
 11
4136.6163010121
 21
1466.2543978663
 31
0.0
  0
LINE
  5
1AF
330
1F
100
AcDbEntity
  8
0
  6
Continuous
 62
     7
370
    25
100
AcDbLine
 10
4136.6163010121
 20
1463.2543978663
 30
0.0
 11
4135.4163010121
 21
1463.2543978663
 31
0.0
  0
LINE
  5
1B0
330
1F
100
AcDbEntity
  8
0
  6
Continuous
 62
     7
370
    25
100
AcDbLine
 10
4136.6163010121
 20
1466.2543978663
 30
0.0
 11
4136.6163010121
 21
1463.2543978663
 31
0.0
  0
SPLINE
  5
1B1
330
1F
100
AcDbEntity
  8
0
  6
Continuous
 62
     7
370
    25
100
AcDbSpline
210
0.0
220
0.0
230
1.0
 70
    24
 71
     3
 72
    12
 73
     8
 74
     0
 42
0.00000001
 43
0.00000001
 40
0.0
 40
0.0
 40
0.0
 40
0.0
 40
0.1234882189617465
 40
0.3047574776072735
 40
0.4857888495162611
 40
0.6670582153984448
 40
0.9999999999999999
 40
0.9999999999999999
 40
0.9999999999999999
 40
0.9999999999999999
 10
4137.416301012059
 20
1038.254397866312
 30
0.0
 10
4137.376554443021
 20
1038.254397866312
 30
0.0
 10
4137.278463594963
 20
1038.254397866312
 30
0.0
 10
4137.038490306602
 20
1038.254397866312
 30
0.0
 10
4136.722876118107
 20
1038.254397866312
 30
0.0
 10
4136.255966029006
 20
1038.254397866312
 30
0.0
 10
4135.867697428767
 20
1038.254397866313
 30
0.0
 10
4135.616301012049
 20
1038.254397866313
 30
0.0
  0
LINE
  5
1B2
330
1F
100
AcDbEntity
  8
0
  6
Continuous
 62
     7
370
    25
100
AcDbLine
 10
4135.6163010121
 20
1039.2543978663
 30
0.0
 11
4135.616301012
 21
1038.2543978663
 31
0.0
  0
LINE
  5
1B3
330
1F
100
AcDbEntity
  8
0
  6
Continuous
 62
     7
370
    25
100
AcDbLine
 10
4135.6163010121
 20
1095.2543978663
 30
0.0
 11
4135.6163010121
 21
1094.2543978663
 31
0.0
  0
SPLINE
  5
1B4
330
1F
100
AcDbEntity
  8
0
  6
Continuous
 62
     7
370
    25
100
AcDbSpline
210
0.0
220
0.0
230
1.0
 70
    24
 71
     3
 72
    12
 73
     8
 74
     0
 42
0.00000001
 43
0.00000001
 40
0.0
 40
0.0
 40
0.0
 40
0.0
 40
0.3329369653767156
 40
0.5139656098173423
 40
0.6952322446484817
 40
0.8762609961869745
 40
0.9999999999999999
 40
0.9999999999999999
 40
0.9999999999999999
 40
0.9999999999999999
 10
4135.616301012054
 20
1095.254397866312
 30
0.0
 10
4135.867698425196
 20
1095.254397866311
 30
0.0
 10
4136.255788779197
 20
1095.254397866311
 30
0.0
 10
4136.722718048871
 20
1095.254397866311
 30
0.0
 10
4137.038236937892
 20
1095.254397866311
 30
0.0
 10
4137.278361156404
 20
1095.254397866311
 30
0.0
 10
4137.376468407415
 20
1095.254397866311
 30
0.0
 10
4137.416301012059
 20
1095.254397866311
 30
0.0
  0
LINE
  5
1B5
330
1F
100
AcDbEntity
  8
0
  6
Continuous
 62
     7
370
    25
100
AcDbLine
 10
4135.6163010121
 20
1039.2543978663
 30
0.0
 11
4135.6163010121
 21
1094.2543978663
 31
0.0
  0
LINE
  5
1B6
330
1F
100
AcDbEntity
  8
0
  6
Continuous
 62
     7
370
    25
100
AcDbLine
 10
4135.4163010121
 20
1094.2543978663
 30
0.0
 11
4135.6163010121
 21
1094.2543978663
 31
0.0
  0
LINE
  5
1B7
330
1F
100
AcDbEntity
  8
0
  6
Continuous
 62
     7
370
    25
100
AcDbLine
 10
4135.416301012
 20
1039.2543978663
 30
0.0
 11
4135.6163010121
 21
1039.2543978663
 31
0.0
  0
LINE
  5
1B8
330
1F
100
AcDbEntity
  8
0
  6
Continuous
 62
     7
370
    25
100
AcDbLine
 10
4135.416301012
 20
1038.2543978663
 30
0.0
 11
4135.616301012
 21
1038.2543978663
 31
0.0
  0
LINE
  5
1B9
330
1F
100
AcDbEntity
  8
0
  6
Continuous
 62
     7
370
    25
100
AcDbLine
 10
4135.6163010121
 20
1095.2543978663
 30
0.0
 11
4135.4163010121
 21
1095.2543978663
 31
0.0
  0
SPLINE
  5
1BA
330
1F
100
AcDbEntity
  8
0
  6
Continuous
 62
     7
370
    25
100
AcDbSpline
210
0.0
220
0.0
230
1.0
 70
    24
 71
     3
 72
    12
 73
     8
 74
     0
 42
0.00000001
 43
0.00000001
 40
0.0
 40
0.0
 40
0.0
 40
0.0
 40
0.1234882189614201
 40
0.3047574776070119
 40
0.4857888495160668
 40
0.6670582153983207
 40
1.0
 40
1.0
 40
1.0
 40
1.0
 10
4137.416301012059
 20
1408.254397866312
 30
0.0
 10
4137.376554443021
 20
1408.254397866312
 30
0.0
 10
4137.278463594963
 20
1408.254397866312
 30
0.0
 10
4137.038490306602
 20
1408.254397866312
 30
0.0
 10
4136.722876118108
 20
1408.254397866312
 30
0.0
 10
4136.255966029006
 20
1408.254397866313
 30
0.0
 10
4135.867697428768
 20
1408.254397866313
 30
0.0
 10
4135.61630101205
 20
1408.254397866313
 30
0.0
  0
LINE
  5
1BB
330
1F
100
AcDbEntity
  8
0
  6
Continuous
 62
     7
370
    25
100
AcDbLine
 10
4135.6163010121
 20
1409.2543978663
 30
0.0
 11
4135.6163010121
 21
1408.2543978663
 31
0.0
  0
SPLINE
  5
1BC
330
1F
100
AcDbEntity
  8
0
  6
Continuous
 62
     7
370
    25
100
AcDbSpline
210
0.0
220
0.0
230
1.0
 70
    24
 71
     3
 72
    11
 73
     7
 74
     0
 42
0.00000001
 43
0.00000001
 40
0.0
 40
0.0
 40
0.0
 40
0.0
 40
0.0916613905663861
 40
0.430426478685936
 40
0.7687469921341945
 40
0.9999999999999999
 40
0.9999999999999999
 40
0.9999999999999999
 40
0.9999999999999999
 10
4136.61630101206
 20
1465.254397866311
 30
0.0
 10
4136.649366844539
 20
1465.254397866311
 30
0.0
 10
4136.804638434365
 20
1465.254397866311
 30
0.0
 10
4137.036178632068
 20
1465.254397866311
 30
0.0
 10
4137.278690659664
 20
1465.254397866311
 30
0.0
 10
4137.376563557385
 20
1465.254397866311
 30
0.0
 10
4137.416301012059
 20
1465.254397866311
 30
0.0
  0
LINE
  5
1BD
330
1F
100
AcDbEntity
  8
0
  6
Continuous
 62
     7
370
    25
100
AcDbLine
 10
4135.4163010121
 20
1409.2543978663
 30
0.0
 11
4135.6163010121
 21
1409.2543978663
 31
0.0
  0
LINE
  5
1BE
330
1F
100
AcDbEntity
  8
0
  6
Continuous
 62
     7
370
    25
100
AcDbLine
 10
4135.416301012
 20
1408.2543978663
 30
0.0
 11
4135.6163010121
 21
1408.2543978663
 31
0.0
  0
LINE
  5
1BF
330
1F
100
AcDbEntity
  8
0
  6
Continuous
 62
     7
370
    25
100
AcDbLine
 10
4517.8940211741
 20
1429.2767567878
 30
0.0
 11
4517.7500479585
 21
1434.7748720752
 31
0.0
  0
LINE
  5
1C0
330
1F
100
AcDbEntity
  8
0
  6
Continuous
 62
     7
370
    25
100
AcDbLine
 10
4518.8843458927
 20
1448.7601066029
 30
0.0
 11
4519.1382819156
 21
1439.0626811288
 31
0.0
  0
LINE
  5
1C1
330
1F
100
AcDbEntity
  8
0
  6
Continuous
 62
     7
370
    25
100
AcDbLine
 10
4519.8884726929
 20
1439.0823255657
 30
0.0
 11
4519.3649337268
 21
1459.0754720652
 31
0.0
  0
LINE
  5
1C2
330
1F
100
AcDbEntity
  8
0
  6
Continuous
 62
     7
370
    25
100
AcDbLine
 10
4520.5886322916
 20
1458.0117271316
 30
0.0
 11
4521.0548221131
 21
1440.2086561082
 31
0.0
  0
LINE
  5
1C3
330
1F
100
AcDbEntity
  8
0
  6
Continuous
 62
     7
370
    25
100
AcDbLine
 10
4521.1528571334
 20
1441.8115145215
 30
0.0
 11
4520.7704200861
 21
1456.4161961367
 31
0.0
  0
LINE
  5
1C4
330
1F
100
AcDbEntity
  8
0
  6
Continuous
 62
     7
370
    25
100
AcDbLine
 10
4518.2945485266
 20
1444.5424743019
 30
0.0
 11
4518.1728826872
 21
1449.1887052586
 31
0.0
  0
LINE
  5
1C5
330
1F
100
AcDbEntity
  8
0
  6
Continuous
 62
     7
370
    25
100
AcDbLine
 10
4518.1728826872
 20
1449.1887052586
 30
0.0
 11
4518.0589560754
 21
1453.539387036
 31
0.0
  0
LINE
  5
1C6
330
1F
100
AcDbEntity
  8
0
  6
Continuous
 62
     7
370
    25
100
AcDbLine
 10
4135.6163010121
 20
1039.2543978663
 30
0.0
 11
4137.4163010121
 21
1039.2543978663
 31
0.0
  0
LINE
  5
1C7
330
1F
100
AcDbEntity
  8
0
  6
Continuous
 62
     7
370
    25
100
AcDbLine
 10
4137.4163010121
 20
1094.2543978663
 30
0.0
 11
4135.6163010121
 21
1094.2543978663
 31
0.0
  0
LINE
  5
1C8
330
1F
100
AcDbEntity
  8
0
  6
Continuous
 62
     7
370
    25
100
AcDbLine
 10
4135.6163010121
 20
1409.2543978663
 30
0.0
 11
4137.4163010121
 21
1409.2543978663
 31
0.0
  0
LINE
  5
1C9
330
1F
100
AcDbEntity
  8
0
  6
Continuous
 62
     7
370
    25
100
AcDbLine
 10
4137.4163010121
 20
1464.2543978663
 30
0.0
 11
4136.6163010121
 21
1464.2543978663
 31
0.0
  0
LINE
  5
1CA
330
1F
100
AcDbEntity
  8
0
  6
Continuous
 62
     7
370
    25
100
AcDbLine
 10
4135.6163010121
 20
1409.2543978663
 30
0.0
 11
4135.6163010121
 21
1463.2543978663
 31
0.0
  0
SPLINE
  5
1CB
330
1F
100
AcDbEntity
  8
0
  6
Continuous
 62
     7
370
    25
100
AcDbSpline
210
0.0
220
0.0
230
1.0
 70
     8
 71
     3
 72
    16
 73
    12
 74
     0
 42
0.00000001
 43
0.00000001
 40
0.0
 40
0.0
 40
0.0
 40
0.0
 40
0.0490847390187415
 40
0.1518473045647022
 40
0.2358684990992584
 40
0.3090519161655172
 40
0.3734786142110905
 40
0.4370328180328246
 40
0.525801624825135
 40
0.7068629655468506
 40
1.0
 40
1.0
 40
1.0
 40
1.0
 10
2231.425074168673
 20
2753.66474910927
 30
0.0
 10
2231.429765765408
 20
2753.730939501491
 30
0.0
 10
2231.444279570156
 20
2753.935704421254
 30
0.0
 10
2231.317101818786
 20
2754.239921080901
 30
0.0
 10
2231.11288540926
 20
2754.515984719922
 30
0.0
 10
2230.891873803394
 20
2754.689323194562
 30
0.0
 10
2230.700107235651
 20
2754.786327207065
 30
0.0
 10
2230.542893347468
 20
2754.840400572421
 30
0.0
 10
2230.377542172415
 20
2754.879033393793
 30
0.0
 10
2230.181828237489
 20
2754.908770279313
 30
0.0
 10
2229.954213845382
 20
2754.925985948585
 30
0.0
 10
2229.813508580679
 20
2754.93662822511
 30
0.0
  0
SPLINE
  5
1CC
330
1F
100
AcDbEntity
  8
0
  6
Continuous
 62
     7
370
    25
100
AcDbSpline
210
0.0
220
0.0
230
1.0
 70
     8
 71
     3
 72
    14
 73
    10
 74
     0
 42
0.00000001
 43
0.00000001
 40
0.0
 40
0.0
 40
0.0
 40
0.0
 40
0.4380448777707909
 40
0.5889072021156289
 40
0.6648524542794869
 40
0.7505291071917559
 40
0.8517030556681141
 40
0.962026731475616
 40
1.0
 40
1.0
 40
1.0
 40
1.0
 10
2213.029691039083
 20
2754.935504543183
 30
0.0
 10
2212.857587419203
 20
2754.920813519865
 30
0.0
 10
2212.626211442904
 20
2754.901062919235
 30
0.0
 10
2212.326901395452
 20
2754.840915253045
 30
0.0
 10
2212.053382146908
 20
2754.724397548354
 30
0.0
 10
2211.789180317123
 20
2754.534471220178
 30
0.0
 10
2211.56095638253
 20
2754.2219750859
 30
0.0
 10
2211.436910392499
 20
2753.90001010072
 30
0.0
 10
2211.458389890539
 20
2753.704696279348
 30
0.0
 10
2211.463889981929
 20
2753.654683757384
 30
0.0
  0
LINE
  5
1CD
330
1F
100
AcDbEntity
  8
0
  6
Continuous
 62
     7
370
    25
100
AcDbLine
 10
2231.4454585654
 20
2752.914092518
 30
0.0
 11
2231.4454585654
 21
2753.6642832953
 31
0.0
  0
LINE
  5
1CE
330
1F
100
AcDbEntity
  8
0
  6
Continuous
 62
     7
370
    25
100
AcDbLine
 10
2211.4454585654
 20
2753.6642832953
 30
0.0
 11
2211.4454585654
 21
2752.914092518
 31
0.0
  0
LINE
  5
1CF
330
1F
100
AcDbEntity
  8
0
  6
Continuous
 62
     7
370
    25
100
AcDbLine
 10
2229.9418327899
 20
2754.9290740988
 30
0.0
 11
2228.4154268517
 21
2755.0564516333
 31
0.0
  0
LINE
  5
1D0
330
1F
100
AcDbEntity
  8
0
  6
Continuous
 62
     7
370
    25
100
AcDbLine
 10
2214.475490279
 20
2755.0564516333
 30
0.0
 11
2212.9490843408
 21
2754.9290740988
 31
0.0
  0
SPLINE
  5
1D1
330
1F
100
AcDbEntity
  8
0
  6
Continuous
 62
     7
370
    25
100
AcDbSpline
210
0.0
220
0.0
230
1.0
 70
     8
 71
     3
 72
    14
 73
    10
 74
     0
 42
0.00000001
 43
0.00000001
 40
0.0
 40
0.0
 40
0.0
 40
0.0
 40
0.0907475556428554
 40
0.2288563839002812
 40
0.4128530542465852
 40
0.6071420004332669
 40
0.7878282318392422
 40
0.9626611221742767
 40
1.0
 40
1.0
 40
1.0
 40
1.0
 10
2228.32546092373
 20
2755.061553406059
 30
0.0
 10
2228.113909756881
 20
2755.078385939607
 30
0.0
 10
2227.580398581712
 20
2755.120835928838
 30
0.0
 10
2226.719912941162
 20
2755.162796219049
 30
0.0
 10
2225.67011258098
 20
2755.199728364267
 30
0.0
 10
2224.435496063457
 20
2755.225453930889
 30
0.0
 10
2223.098989846255
 20
2755.241299849524
 30
0.0
 10
2222.088959722667
 20
2755.246111519762
 30
0.0
 10
2221.541757506831
 20
2755.246351103259
 30
0.0
 10
2221.445458565364
 20
2755.246393266167
 30
0.0
  0
SPLINE
  5
1D2
330
1F
100
AcDbEntity
  8
0
  6
Continuous
 62
     7
370
    25
100
AcDbSpline
210
0.0
220
0.0
230
1.0
 70
     8
 71
     3
 72
    13
 73
     9
 74
     0
 42
0.00000001
 43
0.00000001
 40
0.0
 40
0.0
 40
0.0
 40
0.0
 40
0.0971790056423943
 40
0.2845710337029654
 40
0.4775192778488019
 40
0.6890792027697126
 40
0.8771625243238599
 40
1.0
 40
1.0
 40
1.0
 40
1.0
 10
2221.445458565364
 20
2755.246393266167
 30
0.0
 10
2221.198437493655
 20
2755.246131497291
 30
0.0
 10
2220.475081237249
 20
2755.245364954772
 30
0.0
 10
2219.282482825122
 20
2755.236490482708
 30
0.0
 10
2217.912409207466
 20
2755.216251138439
 30
0.0
 10
2216.678104082206
 20
2755.182234192516
 30
0.0
 10
2215.648335398514
 20
2755.142730979271
 30
0.0
 10
2214.941932094418
 20
2755.089110818866
 30
0.0
 10
2214.6628488055
 20
2755.067926757818
 30
0.0
  0
LINE
  5
1D3
330
1F
100
AcDbEntity
  8
0
  6
Continuous
 62
     7
370
    25
100
AcDbLine
 10
2225.9454585654
 20
2749.9538810975
 30
0.0
 11
2225.9454585654
 21
2752.2143323905
 31
0.0
  0
LINE
  5
1D4
330
1F
100
AcDbEntity
  8
0
  6
Continuous
 62
     7
370
    25
100
AcDbLine
 10
2216.9454585654
 20
2752.2143323905
 30
0.0
 11
2216.9454585654
 21
2749.9538810975
 31
0.0
  0
SPLINE
  5
1D5
330
1F
100
AcDbEntity
  8
0
  6
Continuous
 62
     7
370
    25
100
AcDbSpline
210
0.0
220
0.0
230
1.0
 70
     8
 71
     3
 72
    16
 73
    12
 74
     0
 42
0.00000001
 43
0.00000001
 40
0.0
 40
0.0
 40
0.0
 40
0.0
 40
0.0490847390187408
 40
0.1518473045647049
 40
0.2358684990992565
 40
0.3090519161655183
 40
0.3734786142110918
 40
0.437032818032825
 40
0.5258016248251248
 40
0.7068629655468522
 40
1.0
 40
1.0
 40
1.0
 40
1.0
 10
2607.925074168673
 20
2753.66474910927
 30
0.0
 10
2607.929765765407
 20
2753.730939501491
 30
0.0
 10
2607.944279570155
 20
2753.935704421254
 30
0.0
 10
2607.817101818785
 20
2754.239921080901
 30
0.0
 10
2607.612885409259
 20
2754.515984719922
 30
0.0
 10
2607.391873803394
 20
2754.689323194562
 30
0.0
 10
2607.20010723565
 20
2754.786327207064
 30
0.0
 10
2607.042893347468
 20
2754.840400572421
 30
0.0
 10
2606.877542172414
 20
2754.879033393793
 30
0.0
 10
2606.681828237488
 20
2754.908770279313
 30
0.0
 10
2606.454213845381
 20
2754.925985948585
 30
0.0
 10
2606.313508580678
 20
2754.93662822511
 30
0.0
  0
SPLINE
  5
1D6
330
1F
100
AcDbEntity
  8
0
  6
Continuous
 62
     7
370
    25
100
AcDbSpline
210
0.0
220
0.0
230
1.0
 70
     8
 71
     3
 72
    15
 73
    11
 74
     0
 42
0.00000001
 43
0.00000001
 40
0.0
 40
0.0
 40
0.0
 40
0.0
 40
0.0366146332909073
 40
0.4586206584971618
 40
0.6039592141587001
 40
0.6771237587643912
 40
0.7596633924486804
 40
0.8571328939029912
 40
0.9634171087774931
 40
1.0
 40
1.0
 40
1.0
 40
1.0
 10
2589.595706343177
 20
2754.939322194258
 30
0.0
 10
2589.573357319799
 20
2754.938049745588
 30
0.0
 10
2589.293422143688
 20
2754.922111548354
 30
0.0
 10
2589.137947923128
 20
2754.901059449092
 30
0.0
 10
2588.826115586824
 20
2754.840915485386
 30
0.0
 10
2588.553551866987
 20
2754.724397498173
 30
0.0
 10
2588.289122930548
 20
2754.534471237145
 30
0.0
 10
2588.060974971921
 20
2754.221975080404
 30
0.0
 10
2587.936909000218
 20
2753.900010101132
 30
0.0
 10
2587.958389606706
 20
2753.704696279432
 30
0.0
 10
2587.963889981929
 20
2753.654683757384
 30
0.0
  0
LINE
  5
1D7
330
1F
100
AcDbEntity
  8
0
  6
Continuous
 62
     7
370
    25
100
AcDbLine
 10
2607.9454585654
 20
2752.914092518
 30
0.0
 11
2607.9454585654
 21
2753.6642832953
 31
0.0
  0
LINE
  5
1D8
330
1F
100
AcDbEntity
  8
0
  6
Continuous
 62
     7
370
    25
100
AcDbLine
 10
2587.9454585654
 20
2753.6642832953
 30
0.0
 11
2587.9454585654
 21
2752.914092518
 31
0.0
  0
LINE
  5
1D9
330
1F
100
AcDbEntity
  8
0
  6
Continuous
 62
     7
370
    25
100
AcDbLine
 10
2606.4418327899
 20
2754.9290740988
 30
0.0
 11
2604.9154268517
 21
2755.0564516333
 31
0.0
  0
LINE
  5
1DA
330
1F
100
AcDbEntity
  8
0
  6
Continuous
 62
     7
370
    25
100
AcDbLine
 10
2590.975490279
 20
2755.0564516333
 30
0.0
 11
2589.4490843408
 21
2754.9290740988
 31
0.0
  0
SPLINE
  5
1DB
330
1F
100
AcDbEntity
  8
0
  6
Continuous
 62
     7
370
    25
100
AcDbSpline
210
0.0
220
0.0
230
1.0
 70
     8
 71
     3
 72
    14
 73
    10
 74
     0
 42
0.00000001
 43
0.00000001
 40
0.0
 40
0.0
 40
0.0
 40
0.0
 40
0.0907475556429238
 40
0.2288563839003586
 40
0.4128530542467118
 40
0.6071420004333882
 40
0.7878282318393547
 40
0.9626611221743904
 40
1.0
 40
1.0
 40
1.0
 40
1.0
 10
2604.825460923729
 20
2755.061553406059
 30
0.0
 10
2604.613909756881
 20
2755.078385939607
 30
0.0
 10
2604.080398581711
 20
2755.120835928838
 30
0.0
 10
2603.219912941161
 20
2755.162796219049
 30
0.0
 10
2602.170112580979
 20
2755.199728364267
 30
0.0
 10
2600.935496063456
 20
2755.225453930889
 30
0.0
 10
2599.598989846253
 20
2755.241299849524
 30
0.0
 10
2598.588959722665
 20
2755.246111519762
 30
0.0
 10
2598.04175750683
 20
2755.246351103259
 30
0.0
 10
2597.945458565364
 20
2755.246393266167
 30
0.0
  0
SPLINE
  5
1DC
330
1F
100
AcDbEntity
  8
0
  6
Continuous
 62
     7
370
    25
100
AcDbSpline
210
0.0
220
0.0
230
1.0
 70
     8
 71
     3
 72
    13
 73
     9
 74
     0
 42
0.00000001
 43
0.00000001
 40
0.0
 40
0.0
 40
0.0
 40
0.0
 40
0.0971790056423972
 40
0.2845710337029659
 40
0.4775192778487993
 40
0.6890792027697091
 40
0.8771625243238558
 40
1.0
 40
1.0
 40
1.0
 40
1.0
 10
2597.945458565364
 20
2755.246393266167
 30
0.0
 10
2597.698437493654
 20
2755.246131497291
 30
0.0
 10
2596.975081237248
 20
2755.245364954772
 30
0.0
 10
2595.78248282512
 20
2755.236490482708
 30
0.0
 10
2594.412409207465
 20
2755.216251138439
 30
0.0
 10
2593.178104082206
 20
2755.182234192516
 30
0.0
 10
2592.148335398512
 20
2755.142730979271
 30
0.0
 10
2591.441932094417
 20
2755.089110818866
 30
0.0
 10
2591.162848805499
 20
2755.067926757818
 30
0.0
  0
LINE
  5
1DD
330
1F
100
AcDbEntity
  8
0
  6
Continuous
 62
     7
370
    25
100
AcDbLine
 10
2602.4454585654
 20
2749.9538810975
 30
0.0
 11
2602.4454585654
 21
2752.2143323905
 31
0.0
  0
LINE
  5
1DE
330
1F
100
AcDbEntity
  8
0
  6
Continuous
 62
     7
370
    25
100
AcDbLine
 10
2593.4454585654
 20
2752.2143323905
 30
0.0
 11
2593.4454585654
 21
2749.9538810975
 31
0.0
  0
LINE
  5
1DF
330
1F
100
AcDbEntity
  8
0
  6
Continuous
 62
     7
370
    25
100
AcDbLine
 10
2634.9454585654
 20
2749.9538810975
 30
0.0
 11
2634.9454585654
 21
2370.9538810975
 31
0.0
  0
LINE
  5
1E0
330
1F
100
AcDbEntity
  8
0
  6
Continuous
 62
     7
370
    25
100
AcDbLine
 10
2634.9454585654
 20
2370.9538810975
 30
0.0
 11
2184.4454585654
 21
2370.9538810975
 31
0.0
  0
LINE
  5
1E1
330
1F
100
AcDbEntity
  8
0
  6
Continuous
 62
     7
370
    25
100
AcDbLine
 10
2634.9454585654
 20
2749.9538810975
 30
0.0
 11
2184.4454585654
 21
2749.9538810975
 31
0.0
  0
LINE
  5
1E2
330
1F
100
AcDbEntity
  8
0
  6
Continuous
 62
     7
370
    25
100
AcDbLine
 10
2184.4454585654
 20
2749.9538810975
 30
0.0
 11
2184.4454585654
 21
2370.9538810975
 31
0.0
  0
LINE
  5
1E3
330
1F
100
AcDbEntity
  8
0
  6
Continuous
 62
     7
370
    25
100
AcDbLine
 10
2632.9454585654
 20
2351.4538810975
 30
0.0
 11
2632.9454585654
 21
2369.4538810975
 31
0.0
  0
LINE
  5
1E4
330
1F
100
AcDbEntity
  8
0
  6
Continuous
 62
     7
370
    25
100
AcDbLine
 10
2632.9454585654
 20
2351.4538810975
 30
0.0
 11
2186.9454585654
 21
2351.4538810975
 31
0.0
  0
LINE
  5
1E5
330
1F
100
AcDbEntity
  8
0
  6
Continuous
 62
     7
370
    25
100
AcDbLine
 10
2186.9454585654
 20
2351.4538810975
 30
0.0
 11
2186.9454585654
 21
2369.4538810975
 31
0.0
  0
LINE
  5
1E6
330
1F
100
AcDbEntity
  8
0
  6
Continuous
 62
     7
370
    25
100
AcDbLine
 10
2632.9454585654
 20
2369.4538810975
 30
0.0
 11
2186.9454585654
 21
2369.4538810975
 31
0.0
  0
ARC
  5
1E7
330
1F
100
AcDbEntity
  8
0
  6
Continuous
 62
     7
370
    25
100
AcDbCircle
 10
2222.4487994324
 20
2944.9300038106
 30
0.0
 40
190.3064363780102
100
AcDbArc
 50
269.697921602
 51
271.989829998
  0
ARC
  5
1E8
330
1F
100
AcDbEntity
  8
0
  6
Continuous
 62
     7
370
    25
100
AcDbCircle
 10
2220.8807674915
 20
2989.2063632794
 30
0.0
 40
234.5808305753037
100
AcDbArc
 50
268.5008299502
 51
270.1379245117
  0
ARC
  5
1E9
330
1F
100
AcDbEntity
  8
0
  6
Continuous
 62
     7
370
    25
100
AcDbCircle
 10
2224.2883976532
 20
2835.1862780979
 30
0.0
 40
82.58290404789993
100
AcDbArc
 50
268.0271873052
 51
274.971785139
  0
ARC
  5
1EA
330
1F
100
AcDbEntity
  8
0
  6
Continuous
 62
     7
370
    25
100
AcDbCircle
 10
2218.8258447337
 20
2843.7176490438
 30
0.0
 40
91.10299653537194
100
AcDbArc
 50
265.3532935281
 51
271.6477340277
  0
SPLINE
  5
1EB
330
1F
100
AcDbEntity
  8
0
  6
Continuous
 62
     7
370
    25
100
AcDbSpline
210
0.0
220
0.0
230
1.0
 70
     8
 71
     3
 72
    19
 73
    15
 74
     0
 42
0.00000001
 43
0.00000001
 40
0.0
 40
0.0
 40
0.0
 40
0.0
 40
0.0906600731280737
 40
0.205073413897336
 40
0.2719074979493165
 40
0.3443210476357526
 40
0.4209983262120358
 40
0.4999999792228269
 40
0.5790016347260505
 40
0.6556789199260378
 40
0.7280924783131315
 40
0.794926570954284
 40
0.909339923567463
 40
1.0
 40
1.0
 40
1.0
 40
1.0
 10
2231.245458565364
 20
2752.71416105302
 30
0.0
 10
2231.168604520697
 20
2752.689935507784
 30
0.0
 10
2230.994760393199
 20
2752.635137236684
 30
0.0
 10
2229.674903170725
 20
2752.568753953304
 30
0.0
 10
2227.918984010528
 20
2752.518841342657
 30
0.0
 10
2226.095890405646
 20
2752.485710477378
 30
0.0
 10
2223.914524317422
 20
2752.463277619614
 30
0.0
 10
2221.521572113835
 20
2752.455015509582
 30
0.0
 10
2219.124049624952
 20
2752.462313475466
 30
0.0
 10
2216.929764294538
 20
2752.483865677207
 30
0.0
 10
2215.087425031513
 20
2752.51625882664
 30
0.0
 10
2213.302394606037
 20
2752.565458774839
 30
0.0
 10
2211.943699588437
 20
2752.631302962632
 30
0.0
 10
2211.737687244345
 20
2752.686024785418
 30
0.0
 10
2211.646612086787
 20
2752.710216533024
 30
0.0
  0
LINE
  5
1EC
330
1F
100
AcDbEntity
  8
0
  6
Continuous
 62
     7
370
    25
100
AcDbLine
 10
2214.475490279
 20
2755.0564516333
 30
0.0
 11
2214.5274519143
 21
2755.0606198496
 31
0.0
  0
LINE
  5
1ED
330
1F
100
AcDbEntity
  8
0
  6
Continuous
 62
     7
370
    25
100
AcDbLine
 10
2226.1356302781
 20
2755.113338633
 30
0.0
 11
2226.1346783417
 21
2755.1158121239
 31
0.0
  0
LWPOLYLINE
  5
1EE
330
1F
100
AcDbEntity
  8
0
  6
Continuous
 62
     7
370
    25
100
AcDbPolyline
 90
       23
 70
   128
 43
0.0
 10
2226.1346783417
 20
2755.1158121239
 10
2225.9194017973
 20
2755.1501872105
 10
2225.3439780752
 20
2755.18159603
 10
2224.4547281093
 20
2755.2075102091
 10
2223.3232354781
 20
2755.2258436869
 10
2222.04058401
 20
2755.2351206399
 10
2220.7100256422
 20
2755.2345942843
 10
2219.4386687613
 20
2755.2243069912
 10
2218.3288561037
 20
2755.2050868755
 10
2217.4699262854
 20
2755.178481134
 10
2216.9310221483
 20
2755.1466314976
 10
2216.7555248428
 20
2755.1121018248
 10
2216.9575616959
 20
2755.0776717135
 10
2217.5208689783
 20
2755.0461127473
 10
2218.4001011149
 20
2755.0199653861
 10
2219.5244809511
 20
2755.0013344616
 10
2220.8034972299
 20
2754.9917197414
 10
2222.1341906426
 20
2754.9918951992
 10
2223.4094419316
 20
2755.0018467108
 10
2224.5265948654
 20
2755.0207731913
 10
2225.3957199443
 20
2755.0471510811
 10
2225.9468536198
 20
2755.0788569912
 10
2226.1356302781
 20
2755.113338633
  0
LINE
  5
1EF
330
1F
100
AcDbEntity
  8
0
  6
Continuous
 62
     7
370
    25
100
AcDbLine
 10
2218.9996091614
 20
2755.0998575046
 30
0.0
 11
2220.9304585654
 21
2755.0998575046
 31
0.0
  0
LINE
  5
1F0
330
1F
100
AcDbEntity
  8
0
  6
Continuous
 62
     7
370
    25
100
AcDbLine
 10
2220.9304585654
 20
2755.0998575046
 30
0.0
 11
2220.9304585654
 21
2755.0493137595
 31
0.0
  0
ARC
  5
1F1
330
1F
100
AcDbEntity
  8
0
  6
Continuous
 62
     7
370
    25
100
AcDbCircle
 10
2221.4454585654
 20
2849.33717489
 30
0.0
 40
94.28926758419735
100
AcDbArc
 50
269.6870537451
 51
270.3129462549
  0
LINE
  5
1F2
330
1F
100
AcDbEntity
  8
0
  6
Continuous
 62
     7
370
    25
100
AcDbLine
 10
2221.9604585654
 20
2755.0493137595
 30
0.0
 11
2221.9604585654
 21
2755.0998575046
 31
0.0
  0
LINE
  5
1F3
330
1F
100
AcDbEntity
  8
0
  6
Continuous
 62
     7
370
    25
100
AcDbLine
 10
2221.9604585654
 20
2755.0998575046
 30
0.0
 11
2223.8913079693
 21
2755.0998575046
 31
0.0
  0
LWPOLYLINE
  5
1F4
330
1F
100
AcDbEntity
  8
0
  6
Continuous
 62
     7
370
    25
100
AcDbPolyline
 90
        9
 70
   128
 43
0.0
 10
2223.8913079693
 20
2755.1268197613
 10
2223.9147242752
 20
2755.123481353
 10
2223.9314953662
 20
2755.1201156488
 10
2223.9415761084
 20
2755.1167317065
 10
2223.9449393728
 20
2755.1133386329
 10
2223.9415761084
 20
2755.1099455593
 10
2223.9314953662
 20
2755.1065616171
 10
2223.9147242752
 20
2755.1031959129
 10
2223.8913079693
 20
2755.0998575046
  0
LINE
  5
1F5
330
1F
100
AcDbEntity
  8
0
  6
Continuous
 62
     7
370
    25
100
AcDbLine
 10
2223.8913079693
 20
2755.1268197613
 30
0.0
 11
2221.9604585654
 21
2755.1268197613
 31
0.0
  0
LINE
  5
1F6
330
1F
100
AcDbEntity
  8
0
  6
Continuous
 62
     7
370
    25
100
AcDbLine
 10
2221.9604585654
 20
2755.1268197613
 30
0.0
 11
2221.9604585654
 21
2755.1773635064
 31
0.0
  0
ARC
  5
1F7
330
1F
100
AcDbEntity
  8
0
  6
Continuous
 62
     7
370
    25
100
AcDbCircle
 10
2221.4454585654
 20
2660.8895023521
 30
0.0
 40
94.28926760797027
100
AcDbArc
 50
89.6870537452
 51
90.3129462548
  0
LINE
  5
1F8
330
1F
100
AcDbEntity
  8
0
  6
Continuous
 62
     7
370
    25
100
AcDbLine
 10
2220.9304585654
 20
2755.1773635064
 30
0.0
 11
2220.9304585654
 21
2755.1268197613
 31
0.0
  0
LINE
  5
1F9
330
1F
100
AcDbEntity
  8
0
  6
Continuous
 62
     7
370
    25
100
AcDbLine
 10
2220.9304585654
 20
2755.1268197613
 30
0.0
 11
2218.9996091614
 21
2755.1268197613
 31
0.0
  0
LWPOLYLINE
  5
1FA
330
1F
100
AcDbEntity
  8
0
  6
Continuous
 62
     7
370
    25
100
AcDbPolyline
 90
        9
 70
   128
 43
0.0
 10
2218.9996091614
 20
2755.0998575046
 10
2218.9761928556
 20
2755.1031959129
 10
2218.9594217646
 20
2755.1065616171
 10
2218.9493410224
 20
2755.1099455593
 10
2218.9459777579
 20
2755.1133386329
 10
2218.9493410224
 20
2755.1167317065
 10
2218.9594217646
 20
2755.1201156488
 10
2218.9761928556
 20
2755.123481353
 10
2218.9996091614
 20
2755.1268197613
  0
LINE
  5
1FB
330
1F
100
AcDbEntity
  8
0
  6
Continuous
 62
     7
370
    25
100
AcDbLine
 10
2219.0133329309
 20
2755.0998575046
 30
0.0
 11
2218.9996091614
 21
2755.1268197613
 31
0.0
  0
LINE
  5
1FC
330
1F
100
AcDbEntity
  8
0
  6
Continuous
 62
     7
370
    25
100
AcDbLine
 10
2221.9604585654
 20
2755.1268197613
 30
0.0
 11
2221.9604585654
 21
2755.0998575046
 31
0.0
  0
LINE
  5
1FD
330
1F
100
AcDbEntity
  8
0
  6
Continuous
 62
     7
370
    25
100
AcDbLine
 10
2220.9304585654
 20
2755.1268197613
 30
0.0
 11
2220.9304585654
 21
2755.0998575046
 31
0.0
  0
ARC
  5
1FE
330
1F
100
AcDbEntity
  8
0
  6
Continuous
 62
     7
370
    25
100
AcDbCircle
 10
2598.9487994324
 20
2944.9300038113
 30
0.0
 40
190.3064363786273
100
AcDbArc
 50
269.697921602
 51
271.989829998
  0
ARC
  5
1FF
330
1F
100
AcDbEntity
  8
0
  6
Continuous
 62
     7
370
    25
100
AcDbCircle
 10
2597.3807674915
 20
2989.2063632795
 30
0.0
 40
234.5808305753505
100
AcDbArc
 50
268.5008299502
 51
270.1379245117
  0
ARC
  5
200
330
1F
100
AcDbEntity
  8
0
  6
Continuous
 62
     7
370
    25
100
AcDbCircle
 10
2600.7883976532
 20
2835.1862780978
 30
0.0
 40
82.5829040478845
100
AcDbArc
 50
268.0271873052
 51
274.971785139
  0
ARC
  5
201
330
1F
100
AcDbEntity
  8
0
  6
Continuous
 62
     7
370
    25
100
AcDbCircle
 10
2595.3258447337
 20
2843.7176490437
 30
0.0
 40
91.10299653524295
100
AcDbArc
 50
265.3532935281
 51
271.6477340277
  0
SPLINE
  5
202
330
1F
100
AcDbEntity
  8
0
  6
Continuous
 62
     7
370
    25
100
AcDbSpline
210
0.0
220
0.0
230
1.0
 70
     8
 71
     3
 72
    19
 73
    15
 74
     0
 42
0.00000001
 43
0.00000001
 40
0.0
 40
0.0
 40
0.0
 40
0.0
 40
0.0906600731280736
 40
0.2050734138973367
 40
0.2719074979493166
 40
0.3443210476357525
 40
0.4209983262120366
 40
0.4999999792228266
 40
0.5790016347260509
 40
0.6556789199260376
 40
0.7280924783131317
 40
0.7949265709542851
 40
0.9093399235674628
 40
1.0
 40
1.0
 40
1.0
 40
1.0
 10
2607.745458565364
 20
2752.71416105302
 30
0.0
 10
2607.668604520696
 20
2752.689935507784
 30
0.0
 10
2607.494760393198
 20
2752.635137236684
 30
0.0
 10
2606.174903170724
 20
2752.568753953304
 30
0.0
 10
2604.418984010528
 20
2752.518841342657
 30
0.0
 10
2602.595890405645
 20
2752.485710477378
 30
0.0
 10
2600.414524317421
 20
2752.463277619614
 30
0.0
 10
2598.021572113835
 20
2752.455015509582
 30
0.0
 10
2595.624049624951
 20
2752.462313475466
 30
0.0
 10
2593.429764294537
 20
2752.483865677207
 30
0.0
 10
2591.587425031513
 20
2752.51625882664
 30
0.0
 10
2589.802394606037
 20
2752.565458774839
 30
0.0
 10
2588.443699588436
 20
2752.631302962632
 30
0.0
 10
2588.237687244345
 20
2752.686024785418
 30
0.0
 10
2588.146612086786
 20
2752.710216533024
 30
0.0
  0
LINE
  5
203
330
1F
100
AcDbEntity
  8
0
  6
Continuous
 62
     7
370
    25
100
AcDbLine
 10
2590.975490279
 20
2755.0564516333
 30
0.0
 11
2591.0274519143
 21
2755.0606198496
 31
0.0
  0
LINE
  5
204
330
1F
100
AcDbEntity
  8
0
  6
Continuous
 62
     7
370
    25
100
AcDbLine
 10
2602.6356302781
 20
2755.113338633
 30
0.0
 11
2602.6346783417
 21
2755.1158121239
 31
0.0
  0
LWPOLYLINE
  5
205
330
1F
100
AcDbEntity
  8
0
  6
Continuous
 62
     7
370
    25
100
AcDbPolyline
 90
       23
 70
   128
 43
0.0
 10
2602.6346783417
 20
2755.1158121239
 10
2602.4194017973
 20
2755.1501872105
 10
2601.8439780752
 20
2755.18159603
 10
2600.9547281093
 20
2755.2075102091
 10
2599.8232354781
 20
2755.2258436869
 10
2598.54058401
 20
2755.2351206399
 10
2597.2100256422
 20
2755.2345942843
 10
2595.9386687613
 20
2755.2243069912
 10
2594.8288561037
 20
2755.2050868755
 10
2593.9699262854
 20
2755.178481134
 10
2593.4310221483
 20
2755.1466314976
 10
2593.2555248428
 20
2755.1121018248
 10
2593.4575616959
 20
2755.0776717135
 10
2594.0208689783
 20
2755.0461127473
 10
2594.9001011149
 20
2755.0199653861
 10
2596.0244809511
 20
2755.0013344616
 10
2597.3034972299
 20
2754.9917197414
 10
2598.6341906426
 20
2754.9918951992
 10
2599.9094419316
 20
2755.0018467108
 10
2601.0265948654
 20
2755.0207731913
 10
2601.8957199443
 20
2755.0471510811
 10
2602.4468536198
 20
2755.0788569912
 10
2602.6356302781
 20
2755.113338633
  0
LINE
  5
206
330
1F
100
AcDbEntity
  8
0
  6
Continuous
 62
     7
370
    25
100
AcDbLine
 10
2595.4996091614
 20
2755.0998575046
 30
0.0
 11
2597.4304585654
 21
2755.0998575046
 31
0.0
  0
LINE
  5
207
330
1F
100
AcDbEntity
  8
0
  6
Continuous
 62
     7
370
    25
100
AcDbLine
 10
2597.4304585654
 20
2755.0998575046
 30
0.0
 11
2597.4304585654
 21
2755.0493137595
 31
0.0
  0
ARC
  5
208
330
1F
100
AcDbEntity
  8
0
  6
Continuous
 62
     7
370
    25
100
AcDbCircle
 10
2597.9454585654
 20
2849.3371748901
 30
0.0
 40
94.28926758423464
100
AcDbArc
 50
269.6870537451
 51
270.3129462549
  0
LINE
  5
209
330
1F
100
AcDbEntity
  8
0
  6
Continuous
 62
     7
370
    25
100
AcDbLine
 10
2598.4604585654
 20
2755.0493137595
 30
0.0
 11
2598.4604585654
 21
2755.0998575046
 31
0.0
  0
LINE
  5
20A
330
1F
100
AcDbEntity
  8
0
  6
Continuous
 62
     7
370
    25
100
AcDbLine
 10
2598.4604585654
 20
2755.0998575046
 30
0.0
 11
2600.3913079693
 21
2755.0998575046
 31
0.0
  0
LWPOLYLINE
  5
20B
330
1F
100
AcDbEntity
  8
0
  6
Continuous
 62
     7
370
    25
100
AcDbPolyline
 90
        9
 70
   128
 43
0.0
 10
2600.3913079693
 20
2755.1268197613
 10
2600.4147242752
 20
2755.123481353
 10
2600.4314953661
 20
2755.1201156488
 10
2600.4415761084
 20
2755.1167317065
 10
2600.4449393728
 20
2755.1133386329
 10
2600.4415761084
 20
2755.1099455593
 10
2600.4314953661
 20
2755.1065616171
 10
2600.4147242752
 20
2755.1031959129
 10
2600.3913079693
 20
2755.0998575046
  0
LINE
  5
20C
330
1F
100
AcDbEntity
  8
0
  6
Continuous
 62
     7
370
    25
100
AcDbLine
 10
2600.3913079693
 20
2755.1268197613
 30
0.0
 11
2598.4604585654
 21
2755.1268197613
 31
0.0
  0
LINE
  5
20D
330
1F
100
AcDbEntity
  8
0
  6
Continuous
 62
     7
370
    25
100
AcDbLine
 10
2598.4604585654
 20
2755.1268197613
 30
0.0
 11
2598.4604585654
 21
2755.1773635064
 31
0.0
  0
ARC
  5
20E
330
1F
100
AcDbEntity
  8
0
  6
Continuous
 62
     7
370
    25
100
AcDbCircle
 10
2597.9454585654
 20
2660.8895023521
 30
0.0
 40
94.28926760800802
100
AcDbArc
 50
89.6870537452
 51
90.3129462548
  0
LINE
  5
20F
330
1F
100
AcDbEntity
  8
0
  6
Continuous
 62
     7
370
    25
100
AcDbLine
 10
2597.4304585654
 20
2755.1773635064
 30
0.0
 11
2597.4304585654
 21
2755.1268197613
 31
0.0
  0
LINE
  5
210
330
1F
100
AcDbEntity
  8
0
  6
Continuous
 62
     7
370
    25
100
AcDbLine
 10
2597.4304585654
 20
2755.1268197613
 30
0.0
 11
2595.4996091614
 21
2755.1268197613
 31
0.0
  0
LWPOLYLINE
  5
211
330
1F
100
AcDbEntity
  8
0
  6
Continuous
 62
     7
370
    25
100
AcDbPolyline
 90
        9
 70
   128
 43
0.0
 10
2595.4996091614
 20
2755.0998575046
 10
2595.4761928556
 20
2755.1031959129
 10
2595.4594217646
 20
2755.1065616171
 10
2595.4493410224
 20
2755.1099455593
 10
2595.4459777579
 20
2755.1133386329
 10
2595.4493410224
 20
2755.1167317065
 10
2595.4594217646
 20
2755.1201156488
 10
2595.4761928556
 20
2755.123481353
 10
2595.4996091614
 20
2755.1268197613
  0
LINE
  5
212
330
1F
100
AcDbEntity
  8
0
  6
Continuous
 62
     7
370
    25
100
AcDbLine
 10
2595.5133329309
 20
2755.0998575046
 30
0.0
 11
2595.4996091614
 21
2755.1268197613
 31
0.0
  0
LINE
  5
213
330
1F
100
AcDbEntity
  8
0
  6
Continuous
 62
     7
370
    25
100
AcDbLine
 10
2598.4604585654
 20
2755.1268197613
 30
0.0
 11
2598.4604585654
 21
2755.0998575046
 31
0.0
  0
LINE
  5
214
330
1F
100
AcDbEntity
  8
0
  6
Continuous
 62
     7
370
    25
100
AcDbLine
 10
2597.4304585654
 20
2755.1268197613
 30
0.0
 11
2597.4304585654
 21
2755.0998575046
 31
0.0
  0
LINE
  5
215
330
1F
100
AcDbEntity
  8
0
  6
Continuous
 62
     7
370
    25
100
AcDbLine
 10
2630.9454585654
 20
2369.5538810975
 30
0.0
 11
2630.9454585654
 21
2369.7538810975
 31
0.0
  0
LINE
  5
216
330
1F
100
AcDbEntity
  8
0
  6
Continuous
 62
     7
370
    25
100
AcDbLine
 10
2630.9454585654
 20
2369.7538810975
 30
0.0
 11
2632.7454585654
 21
2369.7538810975
 31
0.0
  0
LINE
  5
217
330
1F
100
AcDbEntity
  8
0
  6
Continuous
 62
     7
370
    25
100
AcDbLine
 10
2632.7454585654
 20
2369.5538810975
 30
0.0
 11
2632.7454585654
 21
2369.7538810975
 31
0.0
  0
LINE
  5
218
330
1F
100
AcDbEntity
  8
0
  6
Continuous
 62
     7
370
    25
100
AcDbLine
 10
2632.7454585654
 20
2369.5538810975
 30
0.0
 11
2630.9454585654
 21
2369.5538810975
 31
0.0
  0
ARC
  5
219
330
1F
100
AcDbEntity
  8
0
  6
Continuous
 62
     7
370
    25
100
AcDbCircle
 10
2632.7454585654
 20
2369.5538810975
 30
0.0
 40
0.2000000000002728
100
AcDbArc
 50
0.0
 51
90.0
  0
LINE
  5
21A
330
1F
100
AcDbEntity
  8
0
  6
Continuous
 62
     7
370
    25
100
AcDbLine
 10
2632.7454585654
 20
2369.5538810975
 30
0.0
 11
2632.9454585654
 21
2369.5538810975
 31
0.0
  0
LINE
  5
21B
330
1F
100
AcDbEntity
  8
0
  6
Continuous
 62
     7
370
    25
100
AcDbLine
 10
2632.9454585654
 20
2369.5538810975
 30
0.0
 11
2632.9454585654
 21
2369.4538810975
 31
0.0
  0
LINE
  5
21C
330
1F
100
AcDbEntity
  8
0
  6
Continuous
 62
     7
370
    25
100
AcDbLine
 10
2630.9454585654
 20
2369.5538810975
 30
0.0
 11
2630.9454585654
 21
2369.4538810975
 31
0.0
  0
LINE
  5
21D
330
1F
100
AcDbEntity
  8
0
  6
Continuous
 62
     7
370
    25
100
AcDbLine
 10
2188.9454585654
 20
2369.7538810975
 30
0.0
 11
2188.9454585654
 21
2369.5538810975
 31
0.0
  0
LINE
  5
21E
330
1F
100
AcDbEntity
  8
0
  6
Continuous
 62
     7
370
    25
100
AcDbLine
 10
2188.9454585654
 20
2369.7538810975
 30
0.0
 11
2191.2577838159
 21
2369.7538810975
 31
0.0
  0
LINE
  5
21F
330
1F
100
AcDbEntity
  8
0
  6
Continuous
 62
     7
370
    25
100
AcDbLine
 10
2227.4437914398
 20
2369.7538810975
 30
0.0
 11
2394.9454585654
 21
2369.7538810975
 31
0.0
  0
LINE
  5
220
330
1F
100
AcDbEntity
  8
0
  6
Continuous
 62
     7
370
    25
100
AcDbLine
 10
2424.9454585654
 20
2369.7538810975
 30
0.0
 11
2630.9454585654
 21
2369.7538810975
 31
0.0
  0
LINE
  5
221
330
1F
100
AcDbEntity
  8
0
  6
Continuous
 62
     7
370
    25
100
AcDbLine
 10
2188.9454585654
 20
2369.4538810975
 30
0.0
 11
2188.9454585654
 21
2369.5538810975
 31
0.0
  0
LINE
  5
222
330
1F
100
AcDbEntity
  8
0
  6
Continuous
 62
     7
370
    25
100
AcDbLine
 10
2188.9454585654
 20
2369.5538810975
 30
0.0
 11
2187.1454585654
 21
2369.5538810975
 31
0.0
  0
LINE
  5
223
330
1F
100
AcDbEntity
  8
0
  6
Continuous
 62
     7
370
    25
100
AcDbLine
 10
2187.1454585654
 20
2369.7538810975
 30
0.0
 11
2187.1454585654
 21
2369.5538810975
 31
0.0
  0
LINE
  5
224
330
1F
100
AcDbEntity
  8
0
  6
Continuous
 62
     7
370
    25
100
AcDbLine
 10
2187.1454585654
 20
2369.7538810975
 30
0.0
 11
2188.9454585654
 21
2369.7538810975
 31
0.0
  0
LINE
  5
225
330
1F
100
AcDbEntity
  8
0
  6
Continuous
 62
     7
370
    25
100
AcDbLine
 10
2187.1454585654
 20
2369.5538810975
 30
0.0
 11
2186.9454585654
 21
2369.5538810975
 31
0.0
  0
ARC
  5
226
330
1F
100
AcDbEntity
  8
0
  6
Continuous
 62
     7
370
    25
100
AcDbCircle
 10
2187.1454585654
 20
2369.5538810975
 30
0.0
 40
0.2000000000002728
100
AcDbArc
 50
90.0
 51
180.0
  0
LINE
  5
227
330
1F
100
AcDbEntity
  8
0
  6
Continuous
 62
     7
370
    25
100
AcDbLine
 10
2186.9454585654
 20
2369.4538810975
 30
0.0
 11
2186.9454585654
 21
2369.5538810975
 31
0.0
  0
LINE
  5
228
330
1F
100
AcDbEntity
  8
0
  6
Continuous
 62
     7
370
    25
100
AcDbLine
 10
2424.9454585654
 20
2369.4538810975
 30
0.0
 11
2424.9454585654
 21
2370.6538810975
 31
0.0
  0
LINE
  5
229
330
1F
100
AcDbEntity
  8
0
  6
Continuous
 62
     7
370
    25
100
AcDbLine
 10
2394.9454585654
 20
2370.6538810975
 30
0.0
 11
2394.9454585654
 21
2369.4538810975
 31
0.0
  0
LINE
  5
22A
330
1F
100
AcDbEntity
  8
0
  6
Continuous
 62
     7
370
    25
100
AcDbLine
 10
2394.966408286
 20
2370.9538810975
 30
0.0
 11
2394.9454585654
 21
2370.6538810975
 31
0.0
  0
LINE
  5
22B
330
1F
100
AcDbEntity
  8
0
  6
Continuous
 62
     7
370
    25
100
AcDbLine
 10
2399.5468228464
 20
2370.6538810975
 30
0.0
 11
2420.3440942843
 21
2370.6538810975
 31
0.0
  0
LINE
  5
22C
330
1F
100
AcDbEntity
  8
0
  6
Continuous
 62
     7
370
    25
100
AcDbLine
 10
2420.3440942843
 20
2370.6538810975
 30
0.0
 11
2420.323824014
 21
2370.9538810975
 31
0.0
  0
LINE
  5
22D
330
1F
100
AcDbEntity
  8
0
  6
Continuous
 62
     7
370
    25
100
AcDbLine
 10
2424.9454585654
 20
2370.6538810975
 30
0.0
 11
2424.9245088447
 21
2370.9538810975
 31
0.0
  0
LINE
  5
22E
330
1F
100
AcDbEntity
  8
0
  6
Continuous
 62
     7
370
    25
100
AcDbLine
 10
2399.5670931167
 20
2370.9538810975
 30
0.0
 11
2399.5468228464
 21
2370.6538810975
 31
0.0
  0
LINE
  5
22F
330
1F
100
AcDbEntity
  8
0
  6
Continuous
 62
     7
370
    25
100
AcDbLine
 10
2226.4454585697
 20
2369.6538810975
 30
0.0
 11
2226.4454585697
 21
2369.4538810975
 31
0.0
  0
LINE
  5
230
330
1F
100
AcDbEntity
  8
0
  6
Continuous
 62
     7
370
    25
100
AcDbLine
 10
2206.4454585697
 20
2369.4538810975
 30
0.0
 11
2206.4454585697
 21
2369.6538810975
 31
0.0
  0
LINE
  5
231
330
1F
100
AcDbEntity
  8
0
  6
Continuous
 62
     7
370
    25
100
AcDbLine
 10
2205.4454585697
 20
2369.4538810975
 30
0.0
 11
2205.4454585697
 21
2369.6538810975
 31
0.0
  0
LINE
  5
232
330
1F
100
AcDbEntity
  8
0
  6
Continuous
 62
     7
370
    25
100
AcDbLine
 10
2205.4454585697
 20
2369.6538810975
 30
0.0
 11
2206.4454585697
 21
2369.6538810975
 31
0.0
  0
LINE
  5
233
330
1F
100
AcDbEntity
  8
0
  6
Continuous
 62
     7
370
    25
100
AcDbLine
 10
2227.4454585697
 20
2369.4538810975
 30
0.0
 11
2227.4454585697
 21
2369.6538810975
 31
0.0
  0
LINE
  5
234
330
1F
100
AcDbEntity
  8
0
  6
Continuous
 62
     7
370
    25
100
AcDbLine
 10
2226.4454585697
 20
2369.6538810975
 30
0.0
 11
2227.4454585697
 21
2369.6538810975
 31
0.0
  0
ARC
  5
235
330
1F
100
AcDbEntity
  8
0
  6
Continuous
 62
     7
370
    25
100
AcDbCircle
 10
2208.4454585697
 20
2369.6538810975
 30
0.0
 40
3.000000000000455
100
AcDbArc
 50
154.3207113805
 51
180.0
  0
ARC
  5
236
330
1F
100
AcDbEntity
  8
0
  6
Continuous
 62
     7
370
    25
100
AcDbCircle
 10
2224.4454585697
 20
2369.6538810975
 30
0.0
 40
2.99999999999968
100
AcDbArc
 50
0.0
 51
25.6792886196
  0
LINE
  5
237
330
1F
100
AcDbEntity
  8
0
  6
Continuous
 62
     7
370
    25
100
AcDbLine
 10
2205.4454585697
 20
2369.9538810975
 30
0.0
 11
2191.2577838159
 21
2369.9538810975
 31
0.0
  0
LINE
  5
238
330
1F
100
AcDbEntity
  8
0
  6
Continuous
 62
     7
370
    25
100
AcDbLine
 10
2191.2577838159
 20
2369.9538810975
 30
0.0
 11
2191.2577838159
 21
2369.4538810975
 31
0.0
  0
LINE
  5
239
330
1F
100
AcDbEntity
  8
0
  6
Continuous
 62
     7
370
    25
100
AcDbLine
 10
2205.4454585697
 20
2369.6538810975
 30
0.0
 11
2205.4454585697
 21
2369.9538810975
 31
0.0
  0
LINE
  5
23A
330
1F
100
AcDbEntity
  8
0
  6
Continuous
 62
     7
370
    25
100
AcDbLine
 10
2203.3859106131
 20
2370.9538810975
 30
0.0
 11
2203.3628582571
 21
2369.9538810975
 31
0.0
  0
LINE
  5
23B
330
1F
100
AcDbEntity
  8
0
  6
Continuous
 62
     7
370
    25
100
AcDbLine
 10
2204.6632036285
 20
2369.9538810975
 30
0.0
 11
2204.6862559845
 21
2370.9538810975
 31
0.0
  0
ARC
  5
23C
330
1F
100
AcDbEntity
  8
0
  6
Continuous
 62
     7
370
    25
100
AcDbCircle
 10
2221.4448257767
 20
2900.3320258099
 30
0.0
 40
147.0082502473463
100
AcDbArc
 50
266.0997819289
 51
273.9007124515
  0
LWPOLYLINE
  5
23D
330
1F
100
AcDbEntity
  8
0
  6
Continuous
 62
     7
370
    25
100
AcDbPolyline
 90
        6
 70
   128
 43
0.0
 10
2229.056639358
 20
2754.7383210839
 10
2229.7957539085
 20
2754.7783522009
 10
2230.2473606486
 20
2754.8240102435
 10
2230.3386164832
 20
2754.8711133513
 10
2230.0657853877
 20
2754.9177331174
 10
2229.9418327899
 20
2754.9290740988
  0
LWPOLYLINE
  5
23E
330
1F
100
AcDbEntity
  8
0
  6
Continuous
 62
     7
370
    25
100
AcDbPolyline
 90
        7
 70
   128
 43
0.0
 10
2212.9490843408
 20
2754.9290740988
 10
2212.825131743
 20
2754.9177331174
 10
2212.5523006476
 20
2754.8711133513
 10
2212.6435564822
 20
2754.8240102435
 10
2213.0951632222
 20
2754.7783522009
 10
2213.8886320348
 20
2754.736008469
 10
2214.7435540402
 20
2754.7058287716
  0
LWPOLYLINE
  5
23F
330
1F
100
AcDbEntity
  8
0
  6
Continuous
 62
     7
370
    25
100
AcDbPolyline
 90
       19
 70
   128
 43
0.0
 10
2228.4154268517
 20
2755.0564516333
 10
2228.5671548704
 20
2755.0417688196
 10
2228.7503025605
 20
2754.9992186952
 10
2228.5671548704
 20
2754.9566685707
 10
2228.0268955899
 20
2754.9162520871
 10
2227.1566155753
 20
2754.8799958958
 10
2225.9999543005
 20
2754.8497180334
 10
2224.6149115917
 20
2754.8269367584
 10
2223.0709392736
 20
2754.8127944191
 10
2221.4454585654
 20
2754.8080001715
 10
2219.8199778572
 20
2754.8127944191
 10
2218.2760055391
 20
2754.8269367584
 10
2216.8909628302
 20
2754.8497180334
 10
2215.7343015554
 20
2754.8799958958
 10
2214.8640215408
 20
2754.9162520871
 10
2214.3237622603
 20
2754.9566685707
 10
2214.1406145702
 20
2754.9992186952
 10
2214.3237622603
 20
2755.0417688196
 10
2214.475490279
 20
2755.0564516333
  0
SPLINE
  5
240
330
1F
100
AcDbEntity
  8
0
  6
Continuous
 62
     7
370
    25
100
AcDbSpline
210
0.0
220
0.0
230
1.0
 70
     8
 71
     3
 72
    10
 73
     6
 74
     0
 42
0.00000001
 43
0.00000001
 40
0.0
 40
0.0
 40
0.0
 40
0.0
 40
0.0219459922087544
 40
0.530020750134235
 40
1.0
 40
1.0
 40
1.0
 40
1.0
 10
2226.062172969177
 20
2752.531668758931
 30
0.0
 10
2226.060135481751
 20
2752.530130453346
 30
0.0
 10
2226.010927835857
 20
2752.492978618405
 30
0.0
 10
2225.962555166666
 20
2752.375907282435
 30
0.0
 10
2225.949367076367
 20
2752.264160079888
 30
0.0
 10
2225.943029871329
 20
2752.210462772777
 30
0.0
  0
ARC
  5
241
330
1F
100
AcDbEntity
  8
0
  6
Continuous
 62
     7
370
    25
100
AcDbCircle
 10
2221.4727661044
 20
2818.5310144338
 30
0.0
 40
66.47103753346735
100
AcDbArc
 50
266.0945910318
 51
273.8561261672
  0
LINE
  5
242
330
1F
100
AcDbEntity
  8
0
  6
Continuous
 62
     7
370
    25
100
AcDbLine
 10
2225.9454585654
 20
2752.2143323905
 30
0.0
 11
2225.9430298712
 21
2752.2104627727
 31
0.0
  0
ARC
  5
243
330
1F
100
AcDbEntity
  8
0
  6
Continuous
 62
     7
370
    25
100
AcDbCircle
 10
2597.9448257767
 20
2900.3320258099
 30
0.0
 40
147.0082502473395
100
AcDbArc
 50
266.0997819288
 51
273.9007124515
  0
LWPOLYLINE
  5
244
330
1F
100
AcDbEntity
  8
0
  6
Continuous
 62
     7
370
    25
100
AcDbPolyline
 90
        6
 70
   128
 43
0.0
 10
2605.556639358
 20
2754.7383210839
 10
2606.2957539085
 20
2754.7783522009
 10
2606.7473606486
 20
2754.8240102435
 10
2606.8386164832
 20
2754.8711133513
 10
2606.5657853877
 20
2754.9177331174
 10
2606.4418327899
 20
2754.9290740988
  0
LWPOLYLINE
  5
245
330
1F
100
AcDbEntity
  8
0
  6
Continuous
 62
     7
370
    25
100
AcDbPolyline
 90
        7
 70
   128
 43
0.0
 10
2589.4490843408
 20
2754.9290740988
 10
2589.325131743
 20
2754.9177331174
 10
2589.0523006476
 20
2754.8711133513
 10
2589.1435564822
 20
2754.8240102435
 10
2589.5951632222
 20
2754.7783522009
 10
2590.3886320348
 20
2754.736008469
 10
2591.2435540402
 20
2754.7058287716
  0
LWPOLYLINE
  5
246
330
1F
100
AcDbEntity
  8
0
  6
Continuous
 62
     7
370
    25
100
AcDbPolyline
 90
       19
 70
   128
 43
0.0
 10
2604.9154268517
 20
2755.0564516333
 10
2605.0671548704
 20
2755.0417688196
 10
2605.2503025605
 20
2754.9992186952
 10
2605.0671548704
 20
2754.9566685707
 10
2604.5268955899
 20
2754.9162520871
 10
2603.6566155753
 20
2754.8799958958
 10
2602.4999543005
 20
2754.8497180334
 10
2601.1149115917
 20
2754.8269367584
 10
2599.5709392736
 20
2754.8127944191
 10
2597.9454585654
 20
2754.8080001715
 10
2596.3199778572
 20
2754.8127944191
 10
2594.7760055391
 20
2754.8269367584
 10
2593.3909628302
 20
2754.8497180334
 10
2592.2343015554
 20
2754.8799958958
 10
2591.3640215408
 20
2754.9162520871
 10
2590.8237622603
 20
2754.9566685707
 10
2590.6406145702
 20
2754.9992186952
 10
2590.8237622603
 20
2755.0417688196
 10
2590.975490279
 20
2755.0564516333
  0
SPLINE
  5
247
330
1F
100
AcDbEntity
  8
0
  6
Continuous
 62
     7
370
    25
100
AcDbSpline
210
0.0
220
0.0
230
1.0
 70
     8
 71
     3
 72
    10
 73
     6
 74
     0
 42
0.00000001
 43
0.00000001
 40
0.0
 40
0.0
 40
0.0
 40
0.0
 40
0.0219459922089709
 40
0.5300207501343119
 40
0.9999999999999999
 40
0.9999999999999999
 40
0.9999999999999999
 40
0.9999999999999999
 10
2602.562172969176
 20
2752.531668758931
 30
0.0
 10
2602.560135481751
 20
2752.530130453346
 30
0.0
 10
2602.510927835857
 20
2752.492978618405
 30
0.0
 10
2602.462555166665
 20
2752.375907282435
 30
0.0
 10
2602.449367076367
 20
2752.264160079888
 30
0.0
 10
2602.443029871328
 20
2752.210462772777
 30
0.0
  0
ARC
  5
248
330
1F
100
AcDbEntity
  8
0
  6
Continuous
 62
     7
370
    25
100
AcDbCircle
 10
2597.9727661044
 20
2818.5310144338
 30
0.0
 40
66.47103753346734
100
AcDbArc
 50
266.0945910318
 51
273.8561261672
  0
LINE
  5
249
330
1F
100
AcDbEntity
  8
0
  6
Continuous
 62
     7
370
    25
100
AcDbLine
 10
2602.4454585654
 20
2752.2143323905
 30
0.0
 11
2602.4430298712
 21
2752.2104627727
 31
0.0
  0
LINE
  5
24A
330
1F
100
AcDbEntity
  8
0
  6
Continuous
 62
     7
370
    25
100
AcDbLine
 10
2632.7454585654
 20
2369.4538810975
 30
0.0
 11
2632.7454585654
 21
2369.5538810975
 31
0.0
  0
LINE
  5
24B
330
1F
100
AcDbEntity
  8
0
  6
Continuous
 62
     7
370
    25
100
AcDbLine
 10
2630.9454585654
 20
2369.5538810975
 30
0.0
 11
2424.9454585654
 21
2369.5538810975
 31
0.0
  0
LINE
  5
24C
330
1F
100
AcDbEntity
  8
0
  6
Continuous
 62
     7
370
    25
100
AcDbLine
 10
2394.9454585654
 20
2369.5538810975
 30
0.0
 11
2227.4454585697
 21
2369.5538810975
 31
0.0
  0
LINE
  5
24D
330
1F
100
AcDbEntity
  8
0
  6
Continuous
 62
     7
370
    25
100
AcDbLine
 10
2191.2577838159
 20
2369.5538810975
 30
0.0
 11
2188.9454585654
 21
2369.5538810975
 31
0.0
  0
LINE
  5
24E
330
1F
100
AcDbEntity
  8
0
  6
Continuous
 62
     7
370
    25
100
AcDbLine
 10
2187.1454585654
 20
2369.5538810975
 30
0.0
 11
2187.1454585654
 21
2369.4538810975
 31
0.0
  0
SPLINE
  5
24F
330
1F
100
AcDbEntity
  8
0
  6
Continuous
 62
     7
370
    25
100
AcDbSpline
210
0.0
220
0.0
230
1.0
 70
     8
 71
     3
 72
    10
 73
     6
 74
     0
 42
0.00000001
 43
0.00000001
 40
0.0
 40
0.0
 40
0.0
 40
0.0
 40
0.1834740337130535
 40
0.4713152133471985
 40
1.0
 40
1.0
 40
1.0
 40
1.0
 10
2206.938044120535
 20
2370.953881097523
 30
0.0
 10
2206.881017377283
 20
2370.888430563511
 30
0.0
 10
2206.734524867589
 20
2370.720298693422
 30
0.0
 10
2206.516685233475
 20
2370.291298749881
 30
0.0
 10
2206.473451546607
 20
2369.904394271619
 30
0.0
 10
2206.445458569701
 20
2369.653881097524
 30
0.0
  0
SPLINE
  5
250
330
1F
100
AcDbEntity
  8
0
  6
Continuous
 62
     7
370
    25
100
AcDbSpline
210
0.0
220
0.0
230
1.0
 70
     8
 71
     3
 72
    10
 73
     6
 74
     0
 42
0.00000001
 43
0.00000001
 40
0.0
 40
0.0
 40
0.0
 40
0.0
 40
0.5286786081633229
 40
0.8161383429881198
 40
0.9999999999999999
 40
0.9999999999999999
 40
0.9999999999999999
 40
0.9999999999999999
 10
2226.445458569703
 20
2369.653881097518
 30
0.0
 10
2226.417467933858
 20
2369.904395604495
 30
0.0
 10
2226.374257879953
 20
2370.291122987563
 30
0.0
 10
2226.15647597297
 20
2370.720139553951
 30
0.0
 10
2226.009989980864
 20
2370.888287050807
 30
0.0
 10
2225.95284604956
 20
2370.953881097523
 30
0.0
  0
ENDSEC
  0
SECTION
  2
OBJECTS
  0
DICTIONARY
  5
C
330
0
100
AcDbDictionary
281
     1
  3
ACAD_GROUP
350
D
  3
ACAD_LAYOUT
350
1A
  3
ACAD_MLINESTYLE
350
17
  3
ACAD_PLOTSETTINGS
350
19
  3
ACAD_PLOTSTYLENAME
350
E
  3
ACAD_SCALELIST
350
47
  3
DWGPROPS
350
251
  0
DICTIONARY
  5
D
102
{ACAD_REACTORS
330
C
102
}
330
C
100
AcDbDictionary
281
     1
  0
DICTIONARY
  5
1A
102
{ACAD_REACTORS
330
C
102
}
330
C
100
AcDbDictionary
281
     1
  3
Layout1
350
1E
  3
Layout2
350
26
  3
Model
350
22
  0
DICTIONARY
  5
17
102
{ACAD_REACTORS
330
C
102
}
330
C
100
AcDbDictionary
281
     1
  3
Standard
350
18
  0
DICTIONARY
  5
19
102
{ACAD_REACTORS
330
C
102
}
330
C
100
AcDbDictionary
281
     1
  0
ACDBDICTIONARYWDFLT
  5
E
102
{ACAD_REACTORS
330
C
102
}
330
C
100
AcDbDictionary
281
     1
  3
Normal
350
F
100
AcDbDictionaryWithDefault
340
F
  0
DICTIONARY
  5
47
102
{ACAD_REACTORS
330
C
102
}
330
C
100
AcDbDictionary
281
     1
  3
A0
350
48
  3
A1
350
49
  3
A2
350
4A
  3
A3
350
4B
  3
A4
350
4C
  3
A5
350
4D
  3
A6
350
4E
  3
A7
350
4F
  3
A8
350
50
  3
A9
350
51
  3
B0
350
52
  3
B1
350
53
  3
B2
350
54
  3
B3
350
55
  3
B4
350
56
  3
B5
350
57
  3
B6
350
58
  0
XRECORD
  5
251
102
{ACAD_REACTORS
330
C
102
}
330
C
100
AcDbXrecord
280
     1
  1
DWGPROPS COOKIE
  2

  3

  4

  6

  7

  8
b
  9

300
=
301
=
302
=
303
=
304
=
305
=
306
=
307
=
308
=
309
=
 40
0.0
 41
2460383.308855532
 42
2460383.308855787
  1

 90
        0
  0
LAYOUT
  5
1E
102
{ACAD_REACTORS
330
1A
102
}
330
1A
100
AcDbPlotSettings
  1

  2
none_device
  4

  6

 40
0.0
 41
0.0
 42
0.0
 43
0.0
 44
0.0
 45
0.0
 46
0.0
 47
0.0
 48
0.0
 49
0.0
140
0.0
141
0.0
142
1.0
143
1.0
 70
   688
 72
     1
 73
     0
 74
     5
  7

 75
    16
147
1.0
148
0.0
149
0.0
100
AcDbLayout
  1
Layout1
 70
     1
 71
     1
 10
0.0
 20
0.0
 11
420.0
 21
297.0
 12
0.0
 22
0.0
 32
0.0
 14
1.0000000000E+20
 24
1.0000000000E+20
 34
1.0000000000E+20
 15
-1.0000000000E+20
 25
-1.0000000000E+20
 35
-1.0000000000E+20
146
0.0
 13
0.0
 23
0.0
 33
0.0
 16
1.0
 26
0.0
 36
0.0
 17
0.0
 27
1.0
 37
0.0
 76
     0
330
1B
  0
LAYOUT
  5
26
102
{ACAD_REACTORS
330
1A
102
}
330
1A
100
AcDbPlotSettings
  1

  2
none_device
  4

  6

 40
0.0
 41
0.0
 42
0.0
 43
0.0
 44
0.0
 45
0.0
 46
0.0
 47
0.0
 48
0.0
 49
0.0
140
0.0
141
0.0
142
1.0
143
1.0
 70
   688
 72
     1
 73
     0
 74
     5
  7

 75
    16
147
1.0
148
0.0
149
0.0
100
AcDbLayout
  1
Layout2
 70
     1
 71
     2
 10
0.0
 20
0.0
 11
0.0
 21
0.0
 12
0.0
 22
0.0
 32
0.0
 14
0.0
 24
0.0
 34
0.0
 15
0.0
 25
0.0
 35
0.0
146
0.0
 13
0.0
 23
0.0
 33
0.0
 16
1.0
 26
0.0
 36
0.0
 17
0.0
 27
1.0
 37
0.0
 76
     0
330
23
  0
LAYOUT
  5
22
102
{ACAD_REACTORS
330
1A
102
}
330
1A
100
AcDbPlotSettings
  1

  2
none_device
  4
Letter_(8.50_x_11.00_Inches)
  6

 40
6.35
 41
6.35
 42
6.35000508
 43
6.35000508
 44
215.9
 45
279.4
 46
0.0
 47
0.0
 48
0.0
 49
0.0
140
0.0
141
0.0
142
1.0
143
1.0
 70
  1712
 72
     1
 73
     0
 74
     0
  7

 75
     0
147
1.0
148
0.0
149
0.0
100
AcDbLayout
  1
Model
 70
     1
 71
     0
 10
0.0
 20
0.0
 11
5000.0
 21
3500.0
 12
0.0
 22
0.0
 32
0.0
 14
0.0
 24
0.0
 34
0.0
 15
5000.0
 25
3500.0
 35
0.0
146
0.0
 13
0.0
 23
0.0
 33
0.0
 16
1.0
 26
0.0
 36
0.0
 17
0.0
 27
1.0
 37
0.0
 76
     0
330
1F
331
29
  0
MLINESTYLE
  5
18
102
{ACAD_REACTORS
330
17
102
}
330
17
100
AcDbMlineStyle
  2
Standard
 70
     0
  3

 62
   256
 51
90.0
 52
90.0
 71
     2
 49
0.5
 62
   256
  6
BYLAYER
 49
-0.5
 62
   256
  6
BYLAYER
  0
ACDBPLACEHOLDER
  5
F
102
{ACAD_REACTORS
330
E
102
}
330
E
  0
SCALE
  5
48
102
{ACAD_REACTORS
330
47
102
}
330
47
100
AcDbScale
 70
     0
300
1:1
140
1.0
141
1.0
290
     1
  0
SCALE
  5
49
102
{ACAD_REACTORS
330
47
102
}
330
47
100
AcDbScale
 70
     0
300
1:2
140
1.0
141
2.0
290
     0
  0
SCALE
  5
4A
102
{ACAD_REACTORS
330
47
102
}
330
47
100
AcDbScale
 70
     0
300
1:4
140
1.0
141
4.0
290
     0
  0
SCALE
  5
4B
102
{ACAD_REACTORS
330
47
102
}
330
47
100
AcDbScale
 70
     0
300
1:5
140
1.0
141
5.0
290
     0
  0
SCALE
  5
4C
102
{ACAD_REACTORS
330
47
102
}
330
47
100
AcDbScale
 70
     0
300
1:8
140
1.0
141
8.0
290
     0
  0
SCALE
  5
4D
102
{ACAD_REACTORS
330
47
102
}
330
47
100
AcDbScale
 70
     0
300
1:10
140
1.0
141
10.0
290
     0
  0
SCALE
  5
4E
102
{ACAD_REACTORS
330
47
102
}
330
47
100
AcDbScale
 70
     0
300
1:16
140
1.0
141
16.0
290
     0
  0
SCALE
  5
4F
102
{ACAD_REACTORS
330
47
102
}
330
47
100
AcDbScale
 70
     0
300
1:20
140
1.0
141
20.0
290
     0
  0
SCALE
  5
50
102
{ACAD_REACTORS
330
47
102
}
330
47
100
AcDbScale
 70
     0
300
1:30
140
1.0
141
30.0
290
     0
  0
SCALE
  5
51
102
{ACAD_REACTORS
330
47
102
}
330
47
100
AcDbScale
 70
     0
300
1:40
140
1.0
141
40.0
290
     0
  0
SCALE
  5
52
102
{ACAD_REACTORS
330
47
102
}
330
47
100
AcDbScale
 70
     0
300
1:50
140
1.0
141
50.0
290
     0
  0
SCALE
  5
53
102
{ACAD_REACTORS
330
47
102
}
330
47
100
AcDbScale
 70
     0
300
1:100
140
1.0
141
100.0
290
     0
  0
SCALE
  5
54
102
{ACAD_REACTORS
330
47
102
}
330
47
100
AcDbScale
 70
     0
300
2:1
140
2.0
141
1.0
290
     0
  0
SCALE
  5
55
102
{ACAD_REACTORS
330
47
102
}
330
47
100
AcDbScale
 70
     0
300
4:1
140
4.0
141
1.0
290
     0
  0
SCALE
  5
56
102
{ACAD_REACTORS
330
47
102
}
330
47
100
AcDbScale
 70
     0
300
8:1
140
8.0
141
1.0
290
     0
  0
SCALE
  5
57
102
{ACAD_REACTORS
330
47
102
}
330
47
100
AcDbScale
 70
     0
300
10:1
140
10.0
141
1.0
290
     0
  0
SCALE
  5
58
102
{ACAD_REACTORS
330
47
102
}
330
47
100
AcDbScale
 70
     0
300
100:1
140
100.0
141
1.0
290
     0
  0
ENDSEC
  0
EOF
