  0
SECTION
  2
HEADER
  9
$ACADVER
  1
AC1015
  9
$ACADMAINTVER
 70
     6
  9
$DWGCODEPAGE
  3
DOS932
  9
$INSBASE
 10
0.0
 20
0.0
 30
0.0
  9
$EXTMIN
 10
0.0
 20
0.0
 30
0.0
  9
$EXTMAX
 10
5000.0
 20
3500.0
 30
0.0
  9
$LIMMIN
 10
0.0
 20
0.0
  9
$LIMMAX
 10
5000.0
 20
3500.0
  9
$ORTHOMODE
 70
     0
  9
$REGENMODE
 70
     1
  9
$FILLMODE
 70
     1
  9
$QTEXTMODE
 70
     0
  9
$MIRRTEXT
 70
     1
  9
$LTSCALE
 40
1.0
  9
$ATTMODE
 70
     1
  9
$TEXTSIZE
 40
3.5
  9
$TRACEWID
 40
1.0
  9
$TEXTSTYLE
  7
Standard
  9
$CLAYER
  8
0
  9
$CELTYPE
  6
ByLayer
  9
$CECOLOR
 62
   256
  9
$CELTSCALE
 40
1.0
  9
$DISPSILH
 70
     0
  9
$DIMSCALE
 40
1.0
  9
$DIMASZ
 40
3.302
  9
$DIMEXO
 40
1.0
  9
$DIMDLI
 40
3.75
  9
$DIMRND
 40
0.0
  9
$DIMDLE
 40
0.0
  9
$DIMEXE
 40
1.0
  9
$DIMTP
 40
0.0
  9
$DIMTM
 40
0.0
  9
$DIMTXT
 40
3.5
  9
$DIMCEN
 40
2.5
  9
$DIMTSZ
 40
0.0
  9
$DIMTOL
 70
     0
  9
$DIMLIM
 70
     0
  9
$DIMTIH
 70
     1
  9
$DIMTOH
 70
     1
  9
$DIMSE1
 70
     0
  9
$DIMSE2
 70
     0
  9
$DIMTAD
 70
     1
  9
$DIMZIN
 70
     0
  9
$DIMBLK
  1

  9
$DIMASO
 70
     1
  9
$DIMSHO
 70
     1
  9
$DIMPOST
  1

  9
$DIMAPOST
  1

  9
$DIMALT
 70
     0
  9
$DIMALTD
 70
     3
  9
$DIMALTF
 40
0.0393700787
  9
$DIMLFAC
 40
1.0
  9
$DIMTOFL
 70
     1
  9
$DIMTVP
 40
0.0
  9
$DIMTIX
 70
     0
  9
$DIMSOXD
 70
     0
  9
$DIMSAH
 70
     0
  9
$DIMBLK1
  1

  9
$DIMBLK2
  1

  9
$DIMSTYLE
  2
ISO-25
  9
$DIMCLRD
 70
     0
  9
$DIMCLRE
 70
     0
  9
$DIMCLRT
 70
     0
  9
$DIMTFAC
 40
1.0
  9
$DIMGAP
 40
1.524
  9
$DIMJUST
 70
     0
  9
$DIMSD1
 70
     0
  9
$DIMSD2
 70
     0
  9
$DIMTOLJ
 70
     0
  9
$DIMTZIN
 70
     0
  9
$DIMALTZ
 70
     0
  9
$DIMALTTZ
 70
     0
  9
$DIMUPT
 70
     0
  9
$DIMDEC
 70
     2
  9
$DIMTDEC
 70
     2
  9
$DIMALTU
 70
     2
  9
$DIMALTTD
 70
     3
  9
$DIMTXSTY
  7
Standard
  9
$DIMAUNIT
 70
     0
  9
$DIMADEC
 70
     2
  9
$DIMALTRND
 40
0.0
  9
$DIMAZIN
 70
     0
  9
$DIMDSEP
 70
    44
  9
$DIMATFIT
 70
     3
  9
$DIMFRAC
 70
     0
  9
$DIMLDRBLK
  1

  9
$DIMLUNIT
 70
     2
  9
$DIMLWD
 70
    -2
  9
$DIMLWE
 70
    -2
  9
$DIMTMOVE
 70
     0
  9
$LUNITS
 70
     2
  9
$LUPREC
 70
     3
  9
$SKETCHINC
 40
1.0
  9
$FILLETRAD
 40
0.0
  9
$AUNITS
 70
     0
  9
$AUPREC
 70
     2
  9
$MENU
  1
.
  9
$ELEVATION
 40
0.0
  9
$PELEVATION
 40
0.0
  9
$THICKNESS
 40
0.0
  9
$LIMCHECK
 70
     0
  9
$CHAMFERA
 40
0.0
  9
$CHAMFERB
 40
0.0
  9
$CHAMFERC
 40
0.0
  9
$CHAMFERD
 40
0.0
  9
$SKPOLY
 70
     0
  9
$TDCREATE
 40
2460383.661074641
  9
$TDUCREATE
 40
2460383.286074641
  9
$TDUPDATE
 40
2460383.661075
  9
$TDUUPDATE
 40
2460383.286075
  9
$TDINDWG
 40
0.0000000116
  9
$TDUSRTIMER
 40
0.0000000116
  9
$USRTIMER
 70
     1
  9
$ANGBASE
 50
0.0
  9
$ANGDIR
 70
     0
  9
$PDMODE
 70
     0
  9
$PDSIZE
 40
-1.0
  9
$PLINEWID
 40
0.0
  9
$SPLFRAME
 70
     0
  9
$SPLINETYPE
 70
     6
  9
$SPLINESEGS
 70
     8
  9
$HANDSEED
  5
27C
  9
$SURFTAB1
 70
     6
  9
$SURFTAB2
 70
     6
  9
$SURFTYPE
 70
     6
  9
$SURFU
 70
     6
  9
$SURFV
 70
     6
  9
$UCSBASE
  2

  9
$UCSNAME
  2

  9
$UCSORG
 10
0.0
 20
0.0
 30
0.0
  9
$UCSXDIR
 10
1.0
 20
0.0
 30
0.0
  9
$UCSYDIR
 10
0.0
 20
1.0
 30
0.0
  9
$UCSORTHOREF
  2

  9
$UCSORTHOVIEW
 70
     0
  9
$UCSORGTOP
 10
0.0
 20
0.0
 30
0.0
  9
$UCSORGBOTTOM
 10
0.0
 20
0.0
 30
0.0
  9
$UCSORGLEFT
 10
0.0
 20
0.0
 30
0.0
  9
$UCSORGRIGHT
 10
0.0
 20
0.0
 30
0.0
  9
$UCSORGFRONT
 10
0.0
 20
0.0
 30
0.0
  9
$UCSORGBACK
 10
0.0
 20
0.0
 30
0.0
  9
$PUCSBASE
  2

  9
$PUCSNAME
  2

  9
$PUCSORG
 10
0.0
 20
0.0
 30
0.0
  9
$PUCSXDIR
 10
1.0
 20
0.0
 30
0.0
  9
$PUCSYDIR
 10
0.0
 20
1.0
 30
0.0
  9
$PUCSORTHOREF
  2

  9
$PUCSORTHOVIEW
 70
     0
  9
$PUCSORGTOP
 10
0.0
 20
0.0
 30
0.0
  9
$PUCSORGBOTTOM
 10
0.0
 20
0.0
 30
0.0
  9
$PUCSORGLEFT
 10
0.0
 20
0.0
 30
0.0
  9
$PUCSORGRIGHT
 10
0.0
 20
0.0
 30
0.0
  9
$PUCSORGFRONT
 10
0.0
 20
0.0
 30
0.0
  9
$PUCSORGBACK
 10
0.0
 20
0.0
 30
0.0
  9
$USERI1
 70
     0
  9
$USERI2
 70
     0
  9
$USERI3
 70
     0
  9
$USERI4
 70
     0
  9
$USERI5
 70
     0
  9
$USERR1
 40
0.0
  9
$USERR2
 40
0.0
  9
$USERR3
 40
0.0
  9
$USERR4
 40
0.0
  9
$USERR5
 40
0.0
  9
$WORLDVIEW
 70
     1
  9
$SHADEDGE
 70
     3
  9
$SHADEDIF
 70
    70
  9
$TILEMODE
 70
     1
  9
$MAXACTVP
 70
    64
  9
$PINSBASE
 10
0.0
 20
0.0
 30
0.0
  9
$PLIMCHECK
 70
     0
  9
$PEXTMIN
 10
1.0000000000E+20
 20
1.0000000000E+20
 30
1.0000000000E+20
  9
$PEXTMAX
 10
-1.0000000000E+20
 20
-1.0000000000E+20
 30
-1.0000000000E+20
  9
$PLIMMIN
 10
0.0
 20
0.0
  9
$PLIMMAX
 10
420.0
 20
297.0
  9
$UNITMODE
 70
     0
  9
$VISRETAIN
 70
     1
  9
$PLINEGEN
 70
     0
  9
$PSLTSCALE
 70
     1
  9
$TREEDEPTH
 70
  3020
  9
$CMLSTYLE
  2
Standard
  9
$CMLJUST
 70
     0
  9
$CMLSCALE
 40
20.0
  9
$PROXYGRAPHICS
 70
     1
  9
$MEASUREMENT
 70
     1
  9
$CELWEIGHT
370
    -1
  9
$ENDCAPS
280
     0
  9
$JOINSTYLE
280
     0
  9
$LWDISPLAY
290
     1
  9
$INSUNITS
 70
     4
  9
$HYPERLINKBASE
  1

  9
$STYLESHEET
  1

  9
$XEDIT
290
     1
  9
$CEPSNTYPE
380
     0
  9
$PSTYLEMODE
290
     1
  9
$FINGERPRINTGUID
  2
{9a01c735-22bc-4234-9ae2-1bca7859161a}
  9
$VERSIONGUID
  2
{FAEB1C32-E019-11D5-929B-00C0DF256EC4}
  9
$EXTNAMES
290
     1
  9
$PSVPSCALE
 40
0.0
  9
$OLESTARTUP
290
     0
  0
ENDSEC
  0
SECTION
  2
CLASSES
  0
CLASS
  1
ACDBDICTIONARYWDFLT
  2
AcDbDictionaryWithDefault
  3
ObjectDBX Classes
 90
        0
280
     0
281
     0
  0
CLASS
  1
VISUALSTYLE
  2
AcDbVisualStyle
  3
ObjectDBX Classes
 90
     4095
280
     0
281
     0
  0
CLASS
  1
MATERIAL
  2
AcDbMaterial
  3
ObjectDBX Classes
 90
     1153
280
     0
281
     0
  0
CLASS
  1
SCALE
  2
AcDbScale
  3
ObjectDBX Classes
 90
     1153
280
     0
281
     0
  0
CLASS
  1
TABLESTYLE
  2
AcDbTableStyle
  3
ObjectDBX Classes
 90
     4095
280
     0
281
     0
  0
CLASS
  1
MLEADERSTYLE
  2
AcDbMLeaderStyle
  3
ACDB_MLEADERSTYLE_CLASS
 90
     4095
280
     0
281
     0
  0
CLASS
  1
SUN
  2
AcDbSun
  3
SCENEOE
 90
     1153
280
     0
281
     0
  0
CLASS
  1
ACDBPLACEHOLDER
  2
AcDbPlaceHolder
  3
ObjectDBX Classes
 90
        0
280
     0
281
     0
  0
CLASS
  1
LAYOUT
  2
AcDbLayout
  3
ObjectDBX Classes
 90
        0
280
     0
281
     0
  0
ENDSEC
  0
SECTION
  2
TABLES
  0
TABLE
  2
VPORT
  5
8
330
0
100
AcDbSymbolTable
 70
     1
  0
VPORT
  5
29
330
8
100
AcDbSymbolTableRecord
100
AcDbViewportTableRecord
  2
*Active
 70
     0
 10
0.0
 20
0.0
 11
1.0
 21
1.0
 12
2500.0
 22
1750.0
 13
0.0
 23
0.0
 14
10.0
 24
10.0
 15
10.0
 25
10.0
 16
0.0
 26
0.0
 36
1.0
 17
0.0
 27
0.0
 37
0.0
 40
3500.0
 41
1.4285714286
 42
50.0
 43
0.0
 44
0.0
 50
0.0
 51
0.0
 71
     0
 72
  2000
 73
     1
 74
     3
 75
     0
 76
     0
 77
     0
 78
     0
281
     0
 65
     1
110
0.0
120
0.0
130
0.0
111
1.0
121
0.0
131
0.0
112
0.0
122
1.0
132
0.0
 79
     0
146
0.0
  0
ENDTAB
  0
TABLE
  2
LTYPE
  5
5
330
0
100
AcDbSymbolTable
 70
     6
  0
LTYPE
  5
14
330
5
100
AcDbSymbolTableRecord
100
AcDbLinetypeTableRecord
  2
ByBlock
 70
     0
  3

 72
    65
 73
     0
 40
0.0
  0
LTYPE
  5
15
330
5
100
AcDbSymbolTableRecord
100
AcDbLinetypeTableRecord
  2
ByLayer
 70
     0
  3

 72
    65
 73
     0
 40
0.0
  0
LTYPE
  5
16
330
5
100
AcDbSymbolTableRecord
100
AcDbLinetypeTableRecord
  2
Continuous
 70
     0
  3
Solid line
 72
    65
 73
     0
 40
0.0
  0
LTYPE
  5
5E
330
5
100
AcDbSymbolTableRecord
100
AcDbLinetypeTableRecord
  2
HIDDEN
 70
     0
  3
Hidden __ __ __ __ __ __ __ __ __ __ __ __ __ __
 72
    65
 73
     2
 40
1.905
 49
1.27
 74
     0
 49
-0.635
 74
     0
  0
LTYPE
  5
5F
330
5
100
AcDbSymbolTableRecord
100
AcDbLinetypeTableRecord
  2
PHANTOM
 70
     0
  3
Phantom ______  __  __  ______  __  __  ______
 72
    65
 73
     6
 40
12.7
 49
6.35
 74
     0
 49
-1.27
 74
     0
 49
1.27
 74
     0
 49
-1.27
 74
     0
 49
1.27
 74
     0
 49
-1.27
 74
     0
  0
LTYPE
  5
60
330
5
100
AcDbSymbolTableRecord
100
AcDbLinetypeTableRecord
  2
CENTER
 70
     0
  3
Center ____ _ ____ _ ____ _ ____ _ ____ _ ____
 72
    65
 73
     4
 40
10.16
 49
6.35
 74
     0
 49
-1.27
 74
     0
 49
1.27
 74
     0
 49
-1.27
 74
     0
  0
LTYPE
  5
61
330
5
100
AcDbSymbolTableRecord
100
AcDbLinetypeTableRecord
  2
CENTERX2
 70
     0
  3
Center (2x) ________  __  ________  __  _____
 72
    65
 73
     4
 40
20.32
 49
12.7
 74
     0
 49
-2.54
 74
     0
 49
2.54
 74
     0
 49
-2.54
 74
     0
  0
LTYPE
  5
62
330
5
100
AcDbSymbolTableRecord
100
AcDbLinetypeTableRecord
  2
DOT2
 70
     0
  3
Dot (.5x) ........................................
 72
    65
 73
     2
 40
0.635
 49
0.0
 74
     0
 49
-0.635
 74
     0
  0
ENDTAB
  0
TABLE
  2
LAYER
  5
2
330
0
100
AcDbSymbolTable
 70
     3
  0
LAYER
  5
10
330
2
100
AcDbSymbolTableRecord
100
AcDbLayerTableRecord
  2
0
 70
     0
 62
     7
  6
Continuous
370
    -3
390
F
  0
LAYER
  5
63
330
2
100
AcDbSymbolTableRecord
100
AcDbLayerTableRecord
  2
SLD-0
 70
     0
 62
   179
  6
Continuous
370
    -3
390
F
  0
LAYER
  5
64
330
2
100
AcDbSymbolTableRecord
100
AcDbLayerTableRecord
  2
寸法
 70
     0
 62
   179
  6
Continuous
370
    -3
390
F
  0
ENDTAB
  0
TABLE
  2
STYLE
  5
3
330
0
100
AcDbSymbolTable
 70
     2
  0
STYLE
  5
11
330
3
100
AcDbSymbolTableRecord
100
AcDbTextStyleTableRecord
  2
Standard
 70
     0
 40
0.0
 41
1.0
 50
0.0
 71
     0
 42
3.5
  3
txt
  4
bigfont
  0
STYLE
  5
66
330
3
100
AcDbSymbolTableRecord
100
AcDbTextStyleTableRecord
  2
SLDTEXTSTYLE0
 70
     0
 40
0.0
 41
0.75
 50
0.0
 71
     0
 42
3.5
  3
TXT
  4
bigfont
  0
ENDTAB
  0
TABLE
  2
VIEW
  5
6
330
0
100
AcDbSymbolTable
 70
     0
  0
ENDTAB
  0
TABLE
  2
UCS
  5
7
330
0
100
AcDbSymbolTable
 70
     0
  0
ENDTAB
  0
TABLE
  2
APPID
  5
9
330
0
100
AcDbSymbolTable
 70
     1
  0
APPID
  5
12
330
9
100
AcDbSymbolTableRecord
100
AcDbRegAppTableRecord
  2
ACAD
 70
     0
  0
ENDTAB
  0
TABLE
  2
DIMSTYLE
  5
A
330
0
100
AcDbSymbolTable
 70
     1
100
AcDbDimStyleTable
  0
DIMSTYLE
105
27
330
A
100
AcDbSymbolTableRecord
100
AcDbDimStyleTableRecord
  2
ISO-25
 70
     0
 41
2.5
 42
0.625
 43
3.75
 44
1.25
 73
     0
 74
     0
 77
     1
 78
     8
140
2.5
141
2.5
143
0.0393700787
147
0.625
171
     3
172
     1
178
     0
271
     2
272
     2
274
     3
278
    44
283
     0
284
     8
340
11
  0
ENDTAB
  0
TABLE
  2
BLOCK_RECORD
  5
1
330
0
100
AcDbSymbolTable
 70
     1
  0
BLOCK_RECORD
  5
1F
330
1
100
AcDbSymbolTableRecord
100
AcDbBlockTableRecord
  2
*Model_Space
340
22
  0
BLOCK_RECORD
  5
1B
330
1
100
AcDbSymbolTableRecord
100
AcDbBlockTableRecord
  2
*Paper_Space
340
1E
  0
BLOCK_RECORD
  5
23
330
1
100
AcDbSymbolTableRecord
100
AcDbBlockTableRecord
  2
*Paper_Space0
340
26
  0
ENDTAB
  0
ENDSEC
  0
SECTION
  2
BLOCKS
  0
BLOCK
  5
20
330
1F
100
AcDbEntity
  8
0
100
AcDbBlockBegin
  2
*Model_Space
 70
     0
 10
0.0
 20
0.0
 30
0.0
  3
*Model_Space
  1

  0
ENDBLK
  5
21
330
1F
100
AcDbEntity
  8
0
100
AcDbBlockEnd
  0
BLOCK
  5
1C
330
1B
100
AcDbEntity
 67
     1
  8
0
100
AcDbBlockBegin
  2
*Paper_Space
 70
     0
 10
0.0
 20
0.0
 30
0.0
  3
*Paper_Space
  1

  0
ENDBLK
  5
1D
330
1B
100
AcDbEntity
 67
     1
  8
0
100
AcDbBlockEnd
  0
BLOCK
  5
24
330
23
100
AcDbEntity
  8
0
100
AcDbBlockBegin
  2
*Paper_Space0
 70
     0
 10
0.0
 20
0.0
 30
0.0
  3
*Paper_Space0
  1

  0
ENDBLK
  5
25
330
23
100
AcDbEntity
  8
0
100
AcDbBlockEnd
  0
ENDSEC
  0
SECTION
  2
ENTITIES
  0
LINE
  5
65
330
1F
100
AcDbEntity
  8
0
  6
Continuous
 62
     7
370
    18
100
AcDbLine
 10
4801.663086451
 20
279.1403827252
 30
0.0
 11
3345.9062220501
 21
279.1403827252
 31
0.0
  0
MTEXT
  5
67
330
1F
100
AcDbEntity
  8
0
  6
Continuous
 62
     7
370
     0
100
AcDbMText
 10
1762.8324799637
 20
1989.2846179971
 30
0.0
 40
52.9166666667
 41
0.0
 71
     1
 72
     1
  1
＜正面＞
  7
SLDTEXTSTYLE0
 73
     1
 44
1.0
  0
MTEXT
  5
68
330
1F
100
AcDbEntity
  8
0
  6
Continuous
 62
     7
370
     0
100
AcDbMText
 10
3377.8142431891
 20
379.4057208634
 30
0.0
 40
52.9166666667
 41
0.0
 71
     1
 72
     1
  1
品名：
  7
SLDTEXTSTYLE0
 73
     1
 44
1.0
  0
MTEXT
  5
69
330
1F
100
AcDbEntity
  8
0
  6
Continuous
 62
     7
370
     0
100
AcDbMText
 10
4446.6634374817
 20
385.2343854145
 30
0.0
 40
52.9166666667
 41
0.0
 71
     1
 72
     1
  1
Pamouna
  7
SLDTEXTSTYLE0
 73
     1
 44
1.0
  0
MTEXT
  5
6A
330
1F
100
AcDbEntity
  8
寸法
 62
     7
100
AcDbMText
 10
4688.0073048854
 20
218.6255182943
 30
0.0
 40
52.9166666667
 41
0.0
 71
     1
 72
     1
  1
1/1
  7
SLDTEXTSTYLE0
 73
     1
 44
1.0
  0
MTEXT
  5
6B
330
1F
100
AcDbEntity
  8
寸法
 62
     7
100
AcDbMText
 10
3611.2831293492
 20
398.3924235142
 30
0.0
 40
66.1458333333
 41
0.0
 71
     1
 72
     1
  1
MAG46R
  7
SLDTEXTSTYLE0
 73
     1
 44
1.0
  0
MTEXT
  5
6C
330
1F
100
AcDbEntity
  8
寸法
 62
     7
100
AcDbMText
 10
4198.7969392118
 20
218.6255210883
 30
0.0
 40
52.9166666667
 41
0.0
 71
     1
 72
     1
  1
2024/03/13
  7
SLDTEXTSTYLE0
 73
     1
 44
1.0
  0
MTEXT
  5
6D
330
1F
100
AcDbEntity
  8
寸法
 62
     7
100
AcDbMText
 10
3972.4665930518
 20
2002.9002064516
 30
0.0
 40
52.9166666667
 41
0.0
 71
     1
 72
     1
  1
＜右側面＞
  7
SLDTEXTSTYLE0
 73
     1
 44
1.0
  0
MTEXT
  5
6E
330
1F
100
AcDbEntity
  8
0
  6
Continuous
 62
     7
370
     0
100
AcDbMText
 10
669.5723251208
 20
1997.9509737295
 30
0.0
 40
52.9166666667
 41
0.0
 71
     1
 72
     1
  1
＜左側面＞
  7
SLDTEXTSTYLE0
 73
     1
 44
1.0
  0
MTEXT
  5
6F
330
1F
100
AcDbEntity
  8
0
  6
Continuous
 62
     7
370
     0
100
AcDbMText
 10
1765.2858929776
 20
2965.5678091759
 30
0.0
 40
52.9166666667
 41
0.0
 71
     1
 72
     1
  1
＜上面＞
  7
SLDTEXTSTYLE0
 73
     1
 44
1.0
  0
ARC
  5
70
330
1F
100
AcDbEntity
  8
0
  6
Continuous
 62
     7
370
    25
100
AcDbCircle
 10
2126.6454585654
 20
1617.0543978663
 30
0.0
 40
0.2000000000000455
100
AcDbArc
 50
90.0
 51
180.0
  0
LINE
  5
71
330
1F
100
AcDbEntity
  8
0
  6
Continuous
 62
     7
370
    25
100
AcDbLine
 10
2128.4454585654
 20
1617.2543978663
 30
0.0
 11
2126.6454585654
 21
1617.2543978663
 31
0.0
  0
LINE
  5
72
330
1F
100
AcDbEntity
  8
0
  6
Continuous
 62
     7
370
    25
100
AcDbLine
 10
2570.4454585654
 20
1617.2543978663
 30
0.0
 11
2128.4454585654
 21
1617.2543978663
 31
0.0
  0
LINE
  5
73
330
1F
100
AcDbEntity
  8
0
  6
Continuous
 62
     7
370
    25
100
AcDbLine
 10
2572.2454585654
 20
1617.2543978663
 30
0.0
 11
2570.4454585654
 21
1617.2543978663
 31
0.0
  0
ARC
  5
74
330
1F
100
AcDbEntity
  8
0
  6
Continuous
 62
     7
370
    25
100
AcDbCircle
 10
2572.2454585654
 20
1617.0543978663
 30
0.0
 40
0.2000000000000455
100
AcDbArc
 50
0.0
 51
90.0
  0
LINE
  5
75
330
1F
100
AcDbEntity
  8
0
  6
Continuous
 62
     7
370
    25
100
AcDbLine
 10
2126.4454585654
 20
986.7543978663
 30
0.0
 11
2572.4454585654
 21
986.7543978663
 31
0.0
  0
LINE
  5
76
330
1F
100
AcDbEntity
  8
0
  6
Continuous
 62
     7
370
    25
100
AcDbLine
 10
2572.4454585654
 20
1616.7543978663
 30
0.0
 11
2126.4454585654
 21
1616.7543978663
 31
0.0
  0
LINE
  5
77
330
1F
100
AcDbEntity
  8
0
  6
Continuous
 62
     7
370
    25
100
AcDbLine
 10
2572.4454585654
 20
986.7543978663
 30
0.0
 11
2572.4454585654
 21
1616.7543978663
 31
0.0
  0
LINE
  5
78
330
1F
100
AcDbEntity
  8
0
  6
Continuous
 62
     7
370
    25
100
AcDbLine
 10
2126.4454585654
 20
1616.7543978663
 30
0.0
 11
2126.4454585654
 21
986.7543978663
 31
0.0
  0
LINE
  5
79
330
1F
100
AcDbEntity
  8
0
  6
Continuous
 62
     7
370
    25
100
AcDbLine
 10
2574.9454585654
 20
1626.7543978663
 30
0.0
 11
2124.4454585654
 21
1626.7543978663
 31
0.0
  0
LINE
  5
7A
330
1F
100
AcDbEntity
  8
0
  6
Continuous
 62
     7
370
    25
100
AcDbLine
 10
2574.9454585654
 20
1626.7543978663
 30
0.0
 11
2574.9454585654
 21
1598.2543978663
 31
0.0
  0
LINE
  5
7B
330
1F
100
AcDbEntity
  8
0
  6
Continuous
 62
     7
370
    25
100
AcDbLine
 10
2574.9454585654
 20
1598.2543978663
 30
0.0
 11
2572.4454585654
 21
1598.2543978663
 31
0.0
  0
LINE
  5
7C
330
1F
100
AcDbEntity
  8
0
  6
Continuous
 62
     7
370
    25
100
AcDbLine
 10
2126.4454585654
 20
1598.2543978663
 30
0.0
 11
2124.4454585654
 21
1598.2543978663
 31
0.0
  0
LINE
  5
7D
330
1F
100
AcDbEntity
  8
0
  6
Continuous
 62
     7
370
    25
100
AcDbLine
 10
2124.4454585654
 20
1626.7543978663
 30
0.0
 11
2124.4454585654
 21
1598.2543978663
 31
0.0
  0
LINE
  5
7E
330
1F
100
AcDbEntity
  8
0
  6
Continuous
 62
     7
370
    25
100
AcDbLine
 10
2125.4454585654
 20
1598.2543978663
 30
0.0
 11
2125.4454585654
 21
976.7543978663
 31
0.0
  0
LINE
  5
7F
330
1F
100
AcDbEntity
  8
0
  6
Continuous
 62
     7
370
    25
100
AcDbLine
 10
2142.9454585654
 20
976.7543978663
 30
0.0
 11
2142.9454585654
 21
986.7543978663
 31
0.0
  0
LINE
  5
80
330
1F
100
AcDbEntity
  8
0
  6
Continuous
 62
     7
370
    25
100
AcDbLine
 10
2125.4454585654
 20
976.7543978663
 30
0.0
 11
2142.9454585654
 21
976.7543978663
 31
0.0
  0
LINE
  5
81
330
1F
100
AcDbEntity
  8
0
  6
Continuous
 62
     7
370
    25
100
AcDbLine
 10
2573.9454585654
 20
976.7543978663
 30
0.0
 11
2573.9454585654
 21
1598.2543978663
 31
0.0
  0
LINE
  5
82
330
1F
100
AcDbEntity
  8
0
  6
Continuous
 62
     7
370
    25
100
AcDbLine
 10
2556.4454585654
 20
986.7543978663
 30
0.0
 11
2556.4454585654
 21
976.7543978663
 31
0.0
  0
LINE
  5
83
330
1F
100
AcDbEntity
  8
0
  6
Continuous
 62
     7
370
    25
100
AcDbLine
 10
2556.4454585654
 20
976.7543978663
 30
0.0
 11
2573.9454585654
 21
976.7543978663
 31
0.0
  0
LINE
  5
84
330
1F
100
AcDbEntity
  8
0
  6
Continuous
 62
     7
370
    25
100
AcDbLine
 10
2556.4454585654
 20
977.7543978663
 30
0.0
 11
2142.9454585654
 21
977.7543978663
 31
0.0
  0
LINE
  5
85
330
1F
100
AcDbEntity
  8
0
  6
Continuous
 62
     7
370
    25
100
AcDbLine
 10
2126.4454585654
 20
1616.9543978663
 30
0.0
 11
2126.4454585654
 21
1617.0432491446
 31
0.0
  0
ARC
  5
86
330
1F
100
AcDbEntity
  8
0
  6
Continuous
 62
     7
370
    25
100
AcDbCircle
 10
2126.6440746856
 20
1617.0418457066
 30
0.0
 40
0.1986210785926311
100
AcDbArc
 50
89.6007920655
 51
179.5951500238
  0
LINE
  5
87
330
1F
100
AcDbEntity
  8
0
  6
Continuous
 62
     7
370
    25
100
AcDbLine
 10
2126.6454585654
 20
1617.2404619641
 30
0.0
 11
2126.6454585654
 21
1616.7543978663
 31
0.0
  0
SPLINE
  5
88
330
1F
100
AcDbEntity
  8
0
  6
Continuous
 62
     7
370
    25
100
AcDbSpline
210
0.0
220
0.0
230
1.0
 70
     8
 71
     3
 72
    13
 73
     9
 74
     0
 42
0.00000001
 43
0.00000001
 40
0.0
 40
0.0
 40
0.0
 40
0.0
 40
0.0075029974113236
 40
0.3818974549655527
 40
0.6070018873266353
 40
0.7653769096340154
 40
0.8824605049805269
 40
0.9999999999999999
 40
0.9999999999999999
 40
0.9999999999999999
 40
0.9999999999999999
 10
2126.445458565365
 20
1616.954397866314
 30
0.0
 10
2126.445459520969
 20
1616.953959868419
 30
0.0
 10
2126.445508160583
 20
1616.931666074048
 30
0.0
 10
2126.451630265324
 20
1616.884781685835
 30
0.0
 10
2126.493646370798
 20
1616.818497248798
 30
0.0
 10
2126.542457172764
 20
1616.780235689625
 30
0.0
 10
2126.593187820078
 20
1616.75847991389
 30
0.0
 10
2126.628012427529
 20
1616.755760310341
 30
0.0
 10
2126.645458565365
 20
1616.754397866314
 30
0.0
  0
LINE
  5
89
330
1F
100
AcDbEntity
  8
0
  6
Continuous
 62
     7
370
    25
100
AcDbLine
 10
2128.4454585654
 20
1617.2404619641
 30
0.0
 11
2126.6454585654
 21
1617.2404619641
 31
0.0
  0
LINE
  5
8A
330
1F
100
AcDbEntity
  8
0
  6
Continuous
 62
     7
370
    25
100
AcDbLine
 10
2128.4454585654
 20
1616.7543978663
 30
0.0
 11
2128.4454585654
 21
1617.2404619641
 31
0.0
  0
LINE
  5
8B
330
1F
100
AcDbEntity
  8
0
  6
Continuous
 62
     7
370
    25
100
AcDbLine
 10
2126.4454585654
 20
1617.0432491446
 30
0.0
 11
2126.4454585654
 21
1617.0543978663
 31
0.0
  0
LINE
  5
8C
330
1F
100
AcDbEntity
  8
0
  6
Continuous
 62
     7
370
    25
100
AcDbLine
 10
2128.4454585654
 20
1617.2404619641
 30
0.0
 11
2128.4454585654
 21
1617.2543978663
 31
0.0
  0
LINE
  5
8D
330
1F
100
AcDbEntity
  8
0
  6
Continuous
 62
     7
370
    25
100
AcDbLine
 10
2126.4454585654
 20
1616.7543978663
 30
0.0
 11
2126.4454585654
 21
1616.9543978663
 31
0.0
  0
LINE
  5
8E
330
1F
100
AcDbEntity
  8
0
  6
Continuous
 62
     7
370
    25
100
AcDbLine
 10
2570.4454585654
 20
1617.2404619641
 30
0.0
 11
2128.4454585654
 21
1617.2404619641
 31
0.0
  0
LINE
  5
8F
330
1F
100
AcDbEntity
  8
0
  6
Continuous
 62
     7
370
    25
100
AcDbLine
 10
2570.4454585654
 20
1617.2404619641
 30
0.0
 11
2570.4454585654
 21
1616.7543978663
 31
0.0
  0
LINE
  5
90
330
1F
100
AcDbEntity
  8
0
  6
Continuous
 62
     7
370
    25
100
AcDbLine
 10
2570.4454585654
 20
1617.2543978663
 30
0.0
 11
2570.4454585654
 21
1617.2404619641
 31
0.0
  0
LINE
  5
91
330
1F
100
AcDbEntity
  8
0
  6
Continuous
 62
     7
370
    25
100
AcDbLine
 10
2572.4454585654
 20
1617.0432491446
 30
0.0
 11
2572.4454585654
 21
1616.9543978663
 31
0.0
  0
LINE
  5
92
330
1F
100
AcDbEntity
  8
0
  6
Continuous
 62
     7
370
    25
100
AcDbLine
 10
2572.2454585654
 20
1616.7543978663
 30
0.0
 11
2572.2454585654
 21
1617.2404619641
 31
0.0
  0
ARC
  5
93
330
1F
100
AcDbEntity
  8
0
  6
Continuous
 62
     7
370
    25
100
AcDbCircle
 10
2572.2468424451
 20
1617.0418457066
 30
0.0
 40
0.1986210785926344
100
AcDbArc
 50
0.4048499763
 51
90.3992079345
  0
SPLINE
  5
94
330
1F
100
AcDbEntity
  8
0
  6
Continuous
 62
     7
370
    25
100
AcDbSpline
210
0.0
220
0.0
230
1.0
 70
     8
 71
     3
 72
    13
 73
     9
 74
     0
 42
0.00000001
 43
0.00000001
 40
0.0
 40
0.0
 40
0.0
 40
0.0
 40
0.0075029974114387
 40
0.3818974549662866
 40
0.6070018873272978
 40
0.7653769096343249
 40
0.8824605049810137
 40
1.0
 40
1.0
 40
1.0
 40
1.0
 10
2572.445458565365
 20
1616.954397866315
 30
0.0
 10
2572.445457609761
 20
1616.95395986842
 30
0.0
 10
2572.445408970147
 20
1616.931666074047
 30
0.0
 10
2572.439286865407
 20
1616.884781685836
 30
0.0
 10
2572.397270759933
 20
1616.818497248798
 30
0.0
 10
2572.348459957966
 20
1616.780235689626
 30
0.0
 10
2572.297729310651
 20
1616.75847991389
 30
0.0
 10
2572.262904703201
 20
1616.755760310341
 30
0.0
 10
2572.245458565365
 20
1616.754397866314
 30
0.0
  0
LINE
  5
95
330
1F
100
AcDbEntity
  8
0
  6
Continuous
 62
     7
370
    25
100
AcDbLine
 10
2572.2454585654
 20
1617.2404619641
 30
0.0
 11
2570.4454585654
 21
1617.2404619641
 31
0.0
  0
LINE
  5
96
330
1F
100
AcDbEntity
  8
0
  6
Continuous
 62
     7
370
    25
100
AcDbLine
 10
2572.4454585654
 20
1617.0543978663
 30
0.0
 11
2572.4454585654
 21
1617.0432491446
 31
0.0
  0
LINE
  5
97
330
1F
100
AcDbEntity
  8
0
  6
Continuous
 62
     7
370
    25
100
AcDbLine
 10
2572.4454585654
 20
1616.9543978663
 30
0.0
 11
2572.4454585654
 21
1616.7543978663
 31
0.0
  0
LINE
  5
98
330
1F
100
AcDbEntity
  8
0
  6
Continuous
 62
     7
370
    25
100
AcDbLine
 10
2126.6454585654
 20
1617.2543978663
 30
0.0
 11
2126.6454585654
 21
1617.2404619641
 31
0.0
  0
LINE
  5
99
330
1F
100
AcDbEntity
  8
0
  6
Continuous
 62
     7
370
    25
100
AcDbLine
 10
2572.2454585654
 20
1617.2404619641
 30
0.0
 11
2572.2454585654
 21
1617.2543978663
 31
0.0
  0
LINE
  5
9A
330
1F
100
AcDbEntity
  8
0
  6
Continuous
 62
     7
370
    25
100
AcDbLine
 10
475.6515032166
 20
1529.2767567878
 30
0.0
 11
477.6292233787
 21
1529.2249683628
 31
0.0
  0
LINE
  5
9B
330
1F
100
AcDbEntity
  8
0
  6
Continuous
 62
     7
370
    25
100
AcDbLine
 10
477.6292233787
 20
1534.7268537215
 30
0.0
 11
475.7954764323
 21
1534.7748720752
 31
0.0
  0
ARC
  5
9C
330
1F
100
AcDbEntity
  8
0
  6
Continuous
 62
     7
370
    25
100
AcDbCircle
 10
475.6593563011
 20
1529.5766539853
 30
0.0
 40
0.3000000000001063
100
AcDbArc
 50
178.5
 51
268.5000000001
  0
ARC
  5
9D
330
1F
100
AcDbEntity
  8
0
  6
Continuous
 62
     7
370
    25
100
AcDbCircle
 10
475.7876233478
 20
1534.4749748777
 30
0.0
 40
0.3000000000000524
100
AcDbArc
 50
88.5000000001
 51
178.5
  0
ARC
  5
9E
330
1F
100
AcDbEntity
  8
0
  6
Continuous
 62
     7
370
    25
100
AcDbCircle
 10
474.149178326
 20
1557.8758832752
 30
0.0
 40
1.199999999999974
100
AcDbArc
 50
88.5000000001
 51
173.5000000033
  0
ARC
  5
9F
330
1F
100
AcDbEntity
  8
0
  6
Continuous
 62
     7
370
    25
100
AcDbCircle
 10
473.6884640358
 20
1540.2819143556
 30
0.0
 40
1.199999999999975
100
AcDbArc
 50
183.4999999968
 51
268.5000000001
  0
LINE
  5
A0
330
1F
100
AcDbEntity
  8
0
  6
Continuous
 62
     7
370
    25
100
AcDbLine
 10
474.9307814413
 20
1559.0558276283
 30
0.0
 11
474.1805906639
 21
1559.0754720652
 31
0.0
  0
LINE
  5
A1
330
1F
100
AcDbEntity
  8
0
  6
Continuous
 62
     7
370
    25
100
AcDbLine
 10
473.6570516978
 20
1539.0823255657
 30
0.0
 11
474.4072424751
 21
1539.0626811288
 31
0.0
  0
ARC
  5
A2
330
1F
100
AcDbEntity
  8
0
  6
Continuous
 62
     7
370
    25
100
AcDbCircle
 10
474.9255460516
 20
1558.8558961633
 30
0.0
 40
0.2000000000000689
100
AcDbArc
 50
358.5000000001
 51
88.5000000001
  0
ARC
  5
A3
330
1F
100
AcDbEntity
  8
0
  6
Continuous
 62
     7
370
    25
100
AcDbCircle
 10
474.4124778648
 20
1539.2626125938
 30
0.0
 40
0.2000000000000718
100
AcDbArc
 50
268.5000000001
 51
358.5
  0
LINE
  5
A4
330
1F
100
AcDbEntity
  8
0
  6
Continuous
 62
     7
370
    25
100
AcDbLine
 10
472.9568920992
 20
1558.0117271316
 30
0.0
 11
472.7751043047
 21
1556.4161961367
 31
0.0
  0
LINE
  5
A5
330
1F
100
AcDbEntity
  8
0
  6
Continuous
 62
     7
370
    25
100
AcDbLine
 10
472.3926672574
 20
1541.8115145215
 30
0.0
 11
472.4907022777
 21
1540.2086561082
 31
0.0
  0
ARC
  5
A6
330
1F
100
AcDbEntity
  8
0
  6
Continuous
 62
     7
370
    25
100
AcDbCircle
 10
502.582259975
 20
1553.0200997237
 30
0.0
 40
30.0000000000021
100
AcDbArc
 50
173.5000000001
 51
178.5000000001
  0
ARC
  5
A7
330
1F
100
AcDbEntity
  8
0
  6
Continuous
 62
     7
370
    25
100
AcDbCircle
 10
502.33671121
 20
1543.6429707076
 30
0.0
 40
30.00000000000209
100
AcDbArc
 50
178.5000000001
 51
183.5000000001
  0
SPLINE
  5
A8
330
1F
100
AcDbEntity
  8
0
  6
Continuous
 62
     7
370
    25
100
AcDbSpline
210
0.0
220
0.0
230
1.0
 70
     8
 71
     3
 72
    11
 73
     7
 74
     0
 42
0.00000001
 43
0.00000001
 40
0.0
 40
0.0
 40
0.0
 40
0.0
 40
0.2706712709043592
 40
0.5632120727999858
 40
0.7903891635245148
 40
1.0
 40
1.0
 40
1.0
 40
1.0
 10
475.4865683530602
 20
1553.539388477128
 30
0.0
 10
475.4152270988183
 20
1553.55026484241
 30
0.0
 10
475.2667804035206
 20
1553.572896354851
 30
0.0
 10
475.1018876864412
 20
1553.715140595837
 30
0.0
 10
475.0097743679735
 20
1553.888327175569
 30
0.0
 10
475.0031785439385
 20
1554.00390799813
 30
0.0
 10
475.0000132637026
 20
1554.059374258503
 30
0.0
  0
SPLINE
  5
A9
330
1F
100
AcDbEntity
  8
0
  6
Continuous
 62
     7
370
    25
100
AcDbSpline
210
0.0
220
0.0
230
1.0
 70
     8
 71
     3
 72
    11
 73
     7
 74
     0
 42
0.00000001
 43
0.00000001
 40
0.0
 40
0.0
 40
0.0
 40
0.0
 40
0.2695105035985145
 40
0.561736440577534
 40
0.7894224931279473
 40
0.9999999999999999
 40
0.9999999999999999
 40
0.9999999999999999
 40
0.9999999999999999
 10
474.7378735826806
 20
1544.048663719286
 30
0.0
 10
474.7476781320615
 20
1544.119837570832
 30
0.0
 10
474.7681135978307
 20
1544.268184093495
 30
0.0
 10
474.9074349462628
 20
1544.435140957514
 30
0.0
 10
475.0794174078846
 20
1544.530232716837
 30
0.0
 10
475.195297557127
 20
1544.538500186575
 30
0.0
 10
475.2509758182984
 20
1544.542472552354
 30
0.0
  0
LINE
  5
AA
330
1F
100
AcDbEntity
  8
0
  6
Continuous
 62
     7
370
    25
100
AcDbLine
 10
477.6292233787
 20
1553.4832810807
 30
0.0
 11
475.4865683531
 21
1553.5393884771
 31
0.0
  0
LINE
  5
AB
330
1F
100
AcDbEntity
  8
0
  6
Continuous
 62
     7
370
    25
100
AcDbLine
 10
475.2509758183
 20
1544.5424725523
 30
0.0
 11
477.6292233787
 21
1544.4801959483
 31
0.0
  0
LINE
  5
AC
330
1F
100
AcDbEntity
  8
0
  6
Continuous
 62
     7
370
    25
100
AcDbLine
 10
859.6292233787
 20
1603.7543978663
 30
0.0
 11
859.6292233787
 21
1583.2543978663
 31
0.0
  0
LINE
  5
AD
330
1F
100
AcDbEntity
  8
0
  6
Continuous
 62
     7
370
    25
100
AcDbLine
 10
872.1292233787
 20
1603.7543978663
 30
0.0
 11
859.6292233787
 21
1603.7543978663
 31
0.0
  0
LINE
  5
AE
330
1F
100
AcDbEntity
  8
0
  6
Continuous
 62
     7
370
    25
100
AcDbLine
 10
872.1292233787
 20
1616.7543978663
 30
0.0
 11
872.1292233787
 21
1603.7543978663
 31
0.0
  0
LINE
  5
AF
330
1F
100
AcDbEntity
  8
0
  6
Continuous
 62
     7
370
    25
100
AcDbLine
 10
876.1292233787
 20
1616.7543978663
 30
0.0
 11
872.1292233787
 21
1616.7543978663
 31
0.0
  0
LINE
  5
B0
330
1F
100
AcDbEntity
  8
0
  6
Continuous
 62
     7
370
    25
100
AcDbLine
 10
876.1292233787
 20
1616.7543978663
 30
0.0
 11
876.1292233787
 21
986.7543978663
 31
0.0
  0
LINE
  5
B1
330
1F
100
AcDbEntity
  8
0
  6
Continuous
 62
     7
370
    25
100
AcDbLine
 10
876.1292233787
 20
986.7543978663
 30
0.0
 11
858.1292233787
 21
986.7543978663
 31
0.0
  0
LINE
  5
B2
330
1F
100
AcDbEntity
  8
0
  6
Continuous
 62
     7
370
    25
100
AcDbLine
 10
858.1292233787
 20
1583.2543978663
 30
0.0
 11
858.1292233787
 21
986.7543978663
 31
0.0
  0
LINE
  5
B3
330
1F
100
AcDbEntity
  8
0
  6
Continuous
 62
     7
370
    25
100
AcDbLine
 10
859.6292233787
 20
1583.2543978663
 30
0.0
 11
858.1292233787
 21
1583.2543978663
 31
0.0
  0
LINE
  5
B4
330
1F
100
AcDbEntity
  8
0
  6
Continuous
 62
     7
370
    25
100
AcDbLine
 10
477.6292233787
 20
1626.7543978663
 30
0.0
 11
856.6292233787
 21
1626.7543978663
 31
0.0
  0
LINE
  5
B5
330
1F
100
AcDbEntity
  8
0
  6
Continuous
 62
     7
370
    25
100
AcDbLine
 10
856.6292233787
 20
1626.7543978663
 30
0.0
 11
856.6292233787
 21
1598.2543978663
 31
0.0
  0
LINE
  5
B6
330
1F
100
AcDbEntity
  8
0
  6
Continuous
 62
     7
370
    25
100
AcDbLine
 10
477.6292233787
 20
1598.2543978663
 30
0.0
 11
477.6292233787
 21
1626.7543978663
 31
0.0
  0
LINE
  5
B7
330
1F
100
AcDbEntity
  8
0
  6
Continuous
 62
     7
370
    25
100
AcDbLine
 10
856.6292233787
 20
1598.2543978663
 30
0.0
 11
477.6292233787
 21
1598.2543978663
 31
0.0
  0
LINE
  5
B8
330
1F
100
AcDbEntity
  8
0
  6
Continuous
 62
     7
370
    25
100
AcDbLine
 10
856.1292233787
 20
1598.2543978663
 30
0.0
 11
856.1292233787
 21
976.7543978663
 31
0.0
  0
LINE
  5
B9
330
1F
100
AcDbEntity
  8
0
  6
Continuous
 62
     7
370
    25
100
AcDbLine
 10
477.6292233787
 20
1598.2543978663
 30
0.0
 11
477.6292233787
 21
976.7543978663
 31
0.0
  0
LINE
  5
BA
330
1F
100
AcDbEntity
  8
0
  6
Continuous
 62
     7
370
    25
100
AcDbLine
 10
856.1292233787
 20
976.7543978663
 30
0.0
 11
477.6292233787
 21
976.7543978663
 31
0.0
  0
SPLINE
  5
BB
330
1F
100
AcDbEntity
  8
0
  6
Continuous
 62
     7
370
    25
100
AcDbSpline
210
0.0
220
0.0
230
1.0
 70
     8
 71
     3
 72
    11
 73
     7
 74
     0
 42
0.00000001
 43
0.00000001
 40
0.0
 40
0.0
 40
0.0
 40
0.0
 40
0.2382247349852471
 40
0.4921376904596722
 40
0.7460575595480212
 40
0.9999999999999999
 40
0.9999999999999999
 40
0.9999999999999999
 40
0.9999999999999999
 10
475.3597328978715
 20
1529.594962851255
 30
0.0
 10
475.3604052821179
 20
1529.62064017077
 30
0.0
 10
475.3617943302793
 20
1529.673685782194
 30
0.0
 10
475.375331928442
 20
1530.190665780915
 30
0.0
 10
475.3954325162077
 20
1530.958276326873
 30
0.0
 10
475.4118161664861
 20
1531.583942518898
 30
0.0
 10
475.4200083557016
 20
1531.896789518421
 30
0.0
  0
LINE
  5
BC
330
1F
100
AcDbEntity
  8
0
  6
Continuous
 62
     7
370
    25
100
AcDbLine
 10
475.4200083557
 20
1531.8967895184
 30
0.0
 11
475.423592627
 21
1532.033667516
 31
0.0
  0
SPLINE
  5
BD
330
1F
100
AcDbEntity
  8
0
  6
Continuous
 62
     7
370
    25
100
AcDbSpline
210
0.0
220
0.0
230
1.0
 70
    24
 71
     3
 72
    12
 73
     8
 74
     0
 42
0.00000001
 43
0.00000001
 40
0.0
 40
0.0
 40
0.0
 40
0.0
 40
0.2460973337390081
 40
0.49219556541952
 40
0.7383025770440201
 40
0.9844160040481612
 40
1.0
 40
1.0
 40
1.0
 40
1.0
 10
475.4235926269504
 20
1532.033667515998
 30
0.0
 10
475.4318221039513
 20
1532.347938563496
 30
0.0
 10
475.4482810879802
 20
1532.97648180518
 30
0.0
 10
475.46959709109
 20
1533.790507122341
 30
0.0
 10
475.4831373538354
 20
1534.30758889509
 30
0.0
 10
475.4890568309185
 20
1534.533644604744
 30
0.0
 10
475.4875366005798
 20
1534.475589350331
 30
0.0
 10
475.4874460713603
 20
1534.472132178917
 30
0.0
  0
SPLINE
  5
BE
330
1F
100
AcDbEntity
  8
0
  6
Continuous
 62
     7
370
    25
100
AcDbSpline
210
0.0
220
0.0
230
1.0
 70
    24
 71
     3
 72
    13
 73
     9
 74
     0
 42
0.00000001
 43
0.00000001
 40
0.0
 40
0.0
 40
0.0
 40
0.0
 40
0.1538581583652743
 40
0.307967686245389
 40
0.453507780238646
 40
0.5878340078347417
 40
0.8177872163815765
 40
1.0
 40
1.0
 40
1.0
 40
1.0
 10
475.1252438281522
 20
1558.841736571925
 30
0.0
 10
475.1239243515088
 20
1558.791347791834
 30
0.0
 10
475.1212832424949
 20
1558.690487907752
 30
0.0
 10
475.0990564570826
 20
1557.841681217697
 30
0.0
 10
475.0668884467862
 20
1556.613234465781
 30
0.0
 10
475.0176255151982
 20
1554.731959007909
 30
0.0
 10
474.9518061864587
 20
1552.218420251279
 30
0.0
 10
474.8970811233118
 20
1550.128554404691
 30
0.0
 10
474.8728879431872
 20
1549.204654130203
 30
0.0
  0
SPLINE
  5
BF
330
1F
100
AcDbEntity
  8
0
  6
Continuous
 62
     7
370
    25
100
AcDbSpline
210
0.0
220
0.0
230
1.0
 70
    24
 71
     3
 72
    13
 73
     9
 74
     0
 42
0.00000001
 43
0.00000001
 40
0.0
 40
0.0
 40
0.0
 40
0.0
 40
0.1813201537908822
 40
0.4101468448381232
 40
0.5438150184965622
 40
0.688642123887617
 40
0.8419966874127122
 40
0.9999999999999999
 40
0.9999999999999999
 40
0.9999999999999999
 40
0.9999999999999999
 10
474.8689434231914
 20
1549.054018988889
 30
0.0
 10
474.8447165495485
 20
1548.128832010848
 30
0.0
 10
474.789915273589
 20
1546.03605571436
 30
0.0
 10
474.7235550425667
 20
1543.501860732923
 30
0.0
 10
474.6735840260135
 20
1541.593544601181
 30
0.0
 10
474.6406619372981
 20
1540.336300756249
 30
0.0
 10
474.6173797785717
 20
1539.447190985343
 30
0.0
 10
474.6140875851628
 20
1539.321467191345
 30
0.0
 10
474.6124169113042
 20
1539.257666730695
 30
0.0
  0
LINE
  5
C0
330
1F
100
AcDbEntity
  8
0
  6
Continuous
 62
     7
370
    25
100
AcDbLine
 10
472.3469914608
 20
1544.4282791568
 30
0.0
 11
472.5925402257
 21
1553.8054081729
 31
0.0
  0
SPLINE
  5
C1
330
1F
100
AcDbEntity
  8
0
  6
Continuous
 62
     7
370
    25
100
AcDbSpline
210
0.0
220
0.0
230
1.0
 70
     8
 71
     3
 72
    11
 73
     7
 74
     0
 42
0.00000001
 43
0.00000001
 40
0.0
 40
0.0
 40
0.0
 40
0.0
 40
0.2702619356875419
 40
0.5624305486172633
 40
0.7897374073710794
 40
1.0
 40
1.0
 40
1.0
 40
1.0
 10
475.3649024679239
 20
1548.893155774585
 30
0.0
 10
475.2940652736362
 20
1548.894721041429
 30
0.0
 10
475.1466490200511
 20
1548.897978451272
 30
0.0
 10
474.9788778048948
 20
1548.897927095683
 30
0.0
 10
474.8811543747951
 20
1548.894958610163
 30
0.0
 10
474.870002555234
 20
1548.891490841407
 30
0.0
 10
474.8646438390666
 20
1548.889824495535
 30
0.0
  0
ARC
  5
C2
330
1F
100
AcDbEntity
  8
0
  6
Continuous
 62
     7
370
    25
100
AcDbCircle
 10
858.8292233787
 20
1604.7543978663
 30
0.0
 40
0.8000000000001819
100
AcDbArc
 50
90.0
 51
180.0
  0
LINE
  5
C3
330
1F
100
AcDbEntity
  8
0
  6
Continuous
 62
     7
370
    25
100
AcDbLine
 10
857.8292233787
 20
1604.7543978663
 30
0.0
 11
858.0292233787
 21
1604.7543978663
 31
0.0
  0
ARC
  5
C4
330
1F
100
AcDbEntity
  8
0
  6
Continuous
 62
     7
370
    25
100
AcDbCircle
 10
858.8292233787
 20
1604.7543978663
 30
0.0
 40
1.000000000000227
100
AcDbArc
 50
90.0
 51
180.0
  0
LINE
  5
C5
330
1F
100
AcDbEntity
  8
0
  6
Continuous
 62
     7
370
    25
100
AcDbLine
 10
858.8292233787
 20
1605.5543978663
 30
0.0
 11
858.8292233787
 21
1605.7543978663
 31
0.0
  0
LINE
  5
C6
330
1F
100
AcDbEntity
  8
0
  6
Continuous
 62
     7
370
    25
100
AcDbLine
 10
857.8292233787
 20
1583.9543978663
 30
0.0
 11
857.8292233787
 21
1604.7543978663
 31
0.0
  0
LINE
  5
C7
330
1F
100
AcDbEntity
  8
0
  6
Continuous
 62
     7
370
    25
100
AcDbLine
 10
858.0292233787
 20
1604.7543978663
 30
0.0
 11
858.0292233787
 21
1583.9543978663
 31
0.0
  0
LINE
  5
C8
330
1F
100
AcDbEntity
  8
0
  6
Continuous
 62
     7
370
    25
100
AcDbLine
 10
857.8292233787
 20
1583.9543978663
 30
0.0
 11
858.0292233787
 21
1583.9543978663
 31
0.0
  0
LINE
  5
C9
330
1F
100
AcDbEntity
  8
0
  6
Continuous
 62
     7
370
    25
100
AcDbLine
 10
869.2124096087
 20
1605.5543978663
 30
0.0
 11
858.8292233787
 21
1605.5543978663
 31
0.0
  0
LINE
  5
CA
330
1F
100
AcDbEntity
  8
0
  6
Continuous
 62
     7
370
    25
100
AcDbLine
 10
858.8292233787
 20
1605.7543978663
 30
0.0
 11
869.2124096087
 21
1605.7543978663
 31
0.0
  0
LINE
  5
CB
330
1F
100
AcDbEntity
  8
0
  6
Continuous
 62
     7
370
    25
100
AcDbLine
 10
869.2124096087
 20
1605.5543978663
 30
0.0
 11
869.2124096087
 21
1605.7543978663
 31
0.0
  0
LINE
  5
CC
330
1F
100
AcDbEntity
  8
0
  6
Continuous
 62
     7
370
    25
100
AcDbLine
 10
859.6292233787
 20
1603.7543978663
 30
0.0
 11
859.4292233787
 21
1603.9543978663
 31
0.0
  0
LINE
  5
CD
330
1F
100
AcDbEntity
  8
0
  6
Continuous
 62
     7
370
    25
100
AcDbLine
 10
859.4292233787
 20
1603.9543978663
 30
0.0
 11
871.9292233787
 21
1603.9543978663
 31
0.0
  0
LINE
  5
CE
330
1F
100
AcDbEntity
  8
0
  6
Continuous
 62
     7
370
    25
100
AcDbLine
 10
872.1292233787
 20
1603.7543978663
 30
0.0
 11
871.9292233787
 21
1603.9543978663
 31
0.0
  0
LINE
  5
CF
330
1F
100
AcDbEntity
  8
0
  6
Continuous
 62
     7
370
    25
100
AcDbLine
 10
859.6292233787
 20
1583.7543978663
 30
0.0
 11
859.4292233787
 21
1583.9543978663
 31
0.0
  0
LINE
  5
D0
330
1F
100
AcDbEntity
  8
0
  6
Continuous
 62
     7
370
    25
100
AcDbLine
 10
859.4292233787
 20
1583.9543978663
 30
0.0
 11
859.4292233787
 21
1603.9543978663
 31
0.0
  0
LINE
  5
D1
330
1F
100
AcDbEntity
  8
0
  6
Continuous
 62
     7
370
    25
100
AcDbLine
 10
858.0292233787
 20
1583.7543978663
 30
0.0
 11
858.0292233787
 21
1583.9543978663
 31
0.0
  0
ARC
  5
D2
330
1F
100
AcDbEntity
  8
0
  6
Continuous
 62
     7
370
    25
100
AcDbCircle
 10
858.0292233787
 20
1583.9543978663
 30
0.0
 40
0.1999999999999318
100
AcDbArc
 50
180.0
 51
270.0
  0
LINE
  5
D3
330
1F
100
AcDbEntity
  8
0
  6
Continuous
 62
     7
370
    25
100
AcDbLine
 10
859.6292233787
 20
1583.7543978663
 30
0.0
 11
858.0292233787
 21
1583.7543978663
 31
0.0
  0
LINE
  5
D4
330
1F
100
AcDbEntity
  8
0
  6
Continuous
 62
     7
370
    25
100
AcDbLine
 10
858.0292233787
 20
1583.9543978663
 30
0.0
 11
859.4292233787
 21
1583.9543978663
 31
0.0
  0
ARC
  5
D5
330
1F
100
AcDbEntity
  8
0
  6
Continuous
 62
     7
370
    25
100
AcDbCircle
 10
869.2124096087
 20
1606.7543978663
 30
0.0
 40
1.200000000000074
100
AcDbArc
 50
270.0
 51
355.0300534053
  0
LINE
  5
D6
330
1F
100
AcDbEntity
  8
0
  6
Continuous
 62
     7
370
    25
100
AcDbLine
 10
871.2490865597
 20
1616.323704423
 30
0.0
 11
870.407897941
 21
1606.6504380312
 31
0.0
  0
ARC
  5
D7
330
1F
100
AcDbEntity
  8
0
  6
Continuous
 62
     7
370
    25
100
AcDbCircle
 10
872.0460787812
 20
1616.2543978663
 30
0.0
 40
0.800000000000074
100
AcDbArc
 50
80.4234115189
 51
175.0300534053
  0
ARC
  5
D8
330
1F
100
AcDbEntity
  8
0
  6
Continuous
 62
     7
370
    25
100
AcDbCircle
 10
872.1292617046
 20
1616.7474299152
 30
0.0
 40
0.3000000000000327
100
AcDbArc
 50
43.6216529673
 51
80.4234115189
  0
LINE
  5
D9
330
1F
100
AcDbEntity
  8
0
  6
Continuous
 62
     7
370
    25
100
AcDbLine
 10
871.9292233787
 20
1616.9543978663
 30
0.0
 11
872.3464350621
 21
1616.9543978663
 31
0.0
  0
LINE
  5
DA
330
1F
100
AcDbEntity
  8
0
  6
Continuous
 62
     7
370
    25
100
AcDbLine
 10
871.9292233787
 20
1603.9543978663
 30
0.0
 11
871.9292233787
 21
1616.9543978663
 31
0.0
  0
LINE
  5
DB
330
1F
100
AcDbEntity
  8
0
  6
Continuous
 62
     7
370
    25
100
AcDbLine
 10
870.407897941
 20
1606.6504380312
 30
0.0
 11
870.2086498856
 21
1606.6677646704
 31
0.0
  0
LINE
  5
DC
330
1F
100
AcDbEntity
  8
0
  6
Continuous
 62
     7
370
    25
100
AcDbLine
 10
870.2086498856
 20
1606.6677646704
 30
0.0
 11
871.0498385043
 21
1616.3410310622
 31
0.0
  0
LINE
  5
DD
330
1F
100
AcDbEntity
  8
0
  6
Continuous
 62
     7
370
    25
100
AcDbLine
 10
871.2490865597
 20
1616.323704423
 30
0.0
 11
871.0498385043
 21
1616.3410310622
 31
0.0
  0
ARC
  5
DE
330
1F
100
AcDbEntity
  8
0
  6
Continuous
 62
     7
370
    25
100
AcDbCircle
 10
869.2124096087
 20
1606.7543978663
 30
0.0
 40
1.000000000000084
100
AcDbArc
 50
270.0
 51
355.0300534053
  0
ARC
  5
DF
330
1F
100
AcDbEntity
  8
0
  6
Continuous
 62
     7
370
    25
100
AcDbCircle
 10
872.0460787812
 20
1616.2543978663
 30
0.0
 40
1.000000000000064
100
AcDbArc
 50
80.4234115189
 51
175.0300534053
  0
LINE
  5
E0
330
1F
100
AcDbEntity
  8
0
  6
Continuous
 62
     7
370
    25
100
AcDbLine
 10
872.1791714587
 20
1617.0432491446
 30
0.0
 11
872.212444628
 21
1617.2404619641
 31
0.0
  0
LINE
  5
E1
330
1F
100
AcDbEntity
  8
0
  6
Continuous
 62
     7
370
    25
100
AcDbLine
 10
872.1292233787
 20
1616.7543978663
 30
0.0
 11
871.9292233787
 21
1616.9543978663
 31
0.0
  0
SPLINE
  5
E2
330
1F
100
AcDbEntity
  8
0
  6
Continuous
 62
     7
370
    25
100
AcDbSpline
210
0.0
220
0.0
230
1.0
 70
     8
 71
     3
 72
    13
 73
     9
 74
     0
 42
0.00000001
 43
0.00000001
 40
0.0
 40
0.0
 40
0.0
 40
0.0
 40
0.0075029974113236
 40
0.3818974549655527
 40
0.6070018873266353
 40
0.7653769096340154
 40
0.8824605049805269
 40
0.9999999999999999
 40
0.9999999999999999
 40
0.9999999999999999
 40
0.9999999999999999
 10
872.3464350621468
 20
1616.954397866314
 30
0.0
 10
872.3474528387627
 20
1616.953959868419
 30
0.0
 10
872.3992569749017
 20
1616.931666074048
 30
0.0
 10
872.477842340269
 20
1616.884781685835
 30
0.0
 10
872.5604818043015
 20
1616.818497248798
 30
0.0
 10
872.6025779224
 20
1616.780235689625
 30
0.0
 10
872.6251013492357
 20
1616.75847991389
 30
0.0
 10
872.6278407753496
 20
1616.755760310341
 30
0.0
 10
872.629213149917
 20
1616.754397866314
 30
0.0
  0
ARC
  5
E3
330
1F
100
AcDbEntity
  8
0
  6
Continuous
 62
     7
370
    25
100
AcDbCircle
 10
872.1292617046
 20
1616.7474299152
 30
0.0
 40
0.5000000000000755
100
AcDbArc
 50
0.7984942261
 51
80.4234115189
  0
LINE
  5
E4
330
1F
100
AcDbEntity
  8
0
  6
Continuous
 62
     7
370
    25
100
AcDbLine
 10
856.9292233787
 20
1584.0543978663
 30
0.0
 11
856.9292233787
 21
1585.2543978663
 31
0.0
  0
LINE
  5
E5
330
1F
100
AcDbEntity
  8
0
  6
Continuous
 62
     7
370
    25
100
AcDbLine
 10
856.1292233787
 20
1584.0543978663
 30
0.0
 11
856.9292233787
 21
1584.0543978663
 31
0.0
  0
LINE
  5
E6
330
1F
100
AcDbEntity
  8
0
  6
Continuous
 62
     7
370
    25
100
AcDbLine
 10
856.1292233787
 20
1585.2543978663
 30
0.0
 11
856.9292233787
 21
1585.2543978663
 31
0.0
  0
LINE
  5
E7
330
1F
100
AcDbEntity
  8
0
  6
Continuous
 62
     7
370
    25
100
AcDbLine
 10
856.9292233787
 20
1584.0543978663
 30
0.0
 11
857.8292233787
 21
1584.0543978663
 31
0.0
  0
LINE
  5
E8
330
1F
100
AcDbEntity
  8
0
  6
Continuous
 62
     7
370
    25
100
AcDbLine
 10
856.9292233787
 20
1585.2543978663
 30
0.0
 11
857.8292233787
 21
1585.2543978663
 31
0.0
  0
LINE
  5
E9
330
1F
100
AcDbEntity
  8
0
  6
Continuous
 62
     7
370
    25
100
AcDbLine
 10
858.1292233787
 20
1563.2543978663
 30
0.0
 11
856.9292233787
 21
1563.2543978663
 31
0.0
  0
LINE
  5
EA
330
1F
100
AcDbEntity
  8
0
  6
Continuous
 62
     7
370
    25
100
AcDbLine
 10
856.9292233787
 20
1566.2543978663
 30
0.0
 11
858.1292233787
 21
1566.2543978663
 31
0.0
  0
LINE
  5
EB
330
1F
100
AcDbEntity
  8
0
  6
Continuous
 62
     7
370
    25
100
AcDbLine
 10
856.9292233787
 20
1563.2543978663
 30
0.0
 11
856.9292233787
 21
1566.2543978663
 31
0.0
  0
LINE
  5
EC
330
1F
100
AcDbEntity
  8
0
  6
Continuous
 62
     7
370
    25
100
AcDbLine
 10
858.1292233787
 20
1583.2543978663
 30
0.0
 11
858.1292233787
 21
1583.7543978663
 31
0.0
  0
LINE
  5
ED
330
1F
100
AcDbEntity
  8
0
  6
Continuous
 62
     7
370
    25
100
AcDbLine
 10
856.9292233787
 20
1566.2543978663
 30
0.0
 11
856.9292233787
 21
1584.0543978663
 31
0.0
  0
SPLINE
  5
EE
330
1F
100
AcDbEntity
  8
0
  6
Continuous
 62
     7
370
    25
100
AcDbSpline
210
0.0
220
0.0
230
1.0
 70
    24
 71
     3
 72
    11
 73
     7
 74
     0
 42
0.00000001
 43
0.00000001
 40
0.0
 40
0.0
 40
0.0
 40
0.0
 40
0.2307910683626072
 40
0.569570963441621
 40
0.9079062644165184
 40
1.0
 40
1.0
 40
1.0
 40
1.0
 10
856.1292233786886
 20
1565.254397866317
 30
0.0
 10
856.1688751091609
 20
1565.254397866317
 30
0.0
 10
856.2667319044324
 20
1565.254397866317
 30
0.0
 10
856.5090943209906
 20
1565.254397866317
 30
0.0
 10
856.7407383342984
 20
1565.254397866317
 30
0.0
 10
856.8960032153468
 20
1565.254397866317
 30
0.0
 10
856.9292233786866
 20
1565.254397866317
 30
0.0
  0
LINE
  5
EF
330
1F
100
AcDbEntity
  8
0
  6
Continuous
 62
     7
370
    25
100
AcDbLine
 10
857.9292233787
 20
1508.2543978663
 30
0.0
 11
857.9292233787
 21
1509.2543978663
 31
0.0
  0
SPLINE
  5
F0
330
1F
100
AcDbEntity
  8
0
  6
Continuous
 62
     7
370
    25
100
AcDbSpline
210
0.0
220
0.0
230
1.0
 70
    24
 71
     3
 72
    12
 73
     8
 74
     0
 42
0.00000001
 43
0.00000001
 40
0.0
 40
0.0
 40
0.0
 40
0.0
 40
0.3329369653759576
 40
0.5139656098162152
 40
0.6952322446469456
 40
0.8762609961850513
 40
1.0
 40
1.0
 40
1.0
 40
1.0
 10
857.9292233786957
 20
1508.254397866318
 30
0.0
 10
857.6778259655522
 20
1508.254397866318
 30
0.0
 10
857.289735611552
 20
1508.254397866318
 30
0.0
 10
856.8228063418775
 20
1508.254397866318
 30
0.0
 10
856.5072874528566
 20
1508.254397866318
 30
0.0
 10
856.2671632343432
 20
1508.254397866318
 30
0.0
 10
856.1690559833323
 20
1508.254397866318
 30
0.0
 10
856.1292233786887
 20
1508.254397866318
 30
0.0
  0
LINE
  5
F1
330
1F
100
AcDbEntity
  8
0
  6
Continuous
 62
     7
370
    25
100
AcDbLine
 10
858.1292233787
 20
1509.2543978663
 30
0.0
 11
857.9292233787
 21
1509.2543978663
 31
0.0
  0
LINE
  5
F2
330
1F
100
AcDbEntity
  8
0
  6
Continuous
 62
     7
370
    25
100
AcDbLine
 10
857.9292233787
 20
1508.2543978663
 30
0.0
 11
858.1292233787
 21
1508.2543978663
 31
0.0
  0
SPLINE
  5
F3
330
1F
100
AcDbEntity
  8
0
  6
Continuous
 62
     7
370
    25
100
AcDbSpline
210
0.0
220
0.0
230
1.0
 70
    24
 71
     3
 72
    12
 73
     8
 74
     0
 42
0.00000001
 43
0.00000001
 40
0.0
 40
0.0
 40
0.0
 40
0.0
 40
0.123488218963677
 40
0.3047574776088134
 40
0.4857888495173935
 40
0.6670582153991856
 40
1.0
 40
1.0
 40
1.0
 40
1.0
 10
856.1292233786886
 20
1095.254397866317
 30
0.0
 10
856.1689699477259
 20
1095.254397866317
 30
0.0
 10
856.2670607957849
 20
1095.254397866317
 30
0.0
 10
856.5070340841474
 20
1095.254397866317
 30
0.0
 10
856.8226482726415
 20
1095.254397866317
 30
0.0
 10
857.2895583617434
 20
1095.254397866317
 30
0.0
 10
857.6778269619816
 20
1095.254397866317
 30
0.0
 10
857.9292233786997
 20
1095.254397866316
 30
0.0
  0
LINE
  5
F4
330
1F
100
AcDbEntity
  8
0
  6
Continuous
 62
     7
370
    25
100
AcDbLine
 10
857.9292233787
 20
1094.2543978663
 30
0.0
 11
857.9292233787
 21
1095.2543978663
 31
0.0
  0
LINE
  5
F5
330
1F
100
AcDbEntity
  8
0
  6
Continuous
 62
     7
370
    25
100
AcDbLine
 10
857.9292233787
 20
1038.2543978663
 30
0.0
 11
857.9292233787
 21
1039.2543978663
 31
0.0
  0
SPLINE
  5
F6
330
1F
100
AcDbEntity
  8
0
  6
Continuous
 62
     7
370
    25
100
AcDbSpline
210
0.0
220
0.0
230
1.0
 70
    24
 71
     3
 72
    12
 73
     8
 74
     0
 42
0.00000001
 43
0.00000001
 40
0.0
 40
0.0
 40
0.0
 40
0.0
 40
0.3329369653759576
 40
0.5139656098162152
 40
0.6952322446469456
 40
0.8762609961850513
 40
1.0
 40
1.0
 40
1.0
 40
1.0
 10
857.9292233786957
 20
1038.254397866318
 30
0.0
 10
857.6778259655522
 20
1038.254397866318
 30
0.0
 10
857.289735611552
 20
1038.254397866318
 30
0.0
 10
856.8228063418775
 20
1038.254397866318
 30
0.0
 10
856.5072874528566
 20
1038.254397866318
 30
0.0
 10
856.2671632343432
 20
1038.254397866318
 30
0.0
 10
856.1690559833323
 20
1038.254397866318
 30
0.0
 10
856.1292233786887
 20
1038.254397866318
 30
0.0
  0
LINE
  5
F7
330
1F
100
AcDbEntity
  8
0
  6
Continuous
 62
     7
370
    25
100
AcDbLine
 10
858.1292233787
 20
1039.2543978663
 30
0.0
 11
857.9292233787
 21
1039.2543978663
 31
0.0
  0
LINE
  5
F8
330
1F
100
AcDbEntity
  8
0
  6
Continuous
 62
     7
370
    25
100
AcDbLine
 10
857.9292233787
 20
1094.2543978663
 30
0.0
 11
857.9292233787
 21
1039.2543978663
 31
0.0
  0
LINE
  5
F9
330
1F
100
AcDbEntity
  8
0
  6
Continuous
 62
     7
370
    25
100
AcDbLine
 10
858.1292233787
 20
1094.2543978663
 30
0.0
 11
857.9292233787
 21
1094.2543978663
 31
0.0
  0
LINE
  5
FA
330
1F
100
AcDbEntity
  8
0
  6
Continuous
 62
     7
370
    25
100
AcDbLine
 10
858.1292233787
 20
1095.2543978663
 30
0.0
 11
857.9292233787
 21
1095.2543978663
 31
0.0
  0
LINE
  5
FB
330
1F
100
AcDbEntity
  8
0
  6
Continuous
 62
     7
370
    25
100
AcDbLine
 10
857.9292233787
 20
1038.2543978663
 30
0.0
 11
858.1292233787
 21
1038.2543978663
 31
0.0
  0
LINE
  5
FC
330
1F
100
AcDbEntity
  8
0
  6
Continuous
 62
     7
370
    25
100
AcDbLine
 10
475.7954764323
 20
1534.7748720752
 30
0.0
 11
475.6515032166
 21
1529.2767567878
 31
0.0
  0
LINE
  5
FD
330
1F
100
AcDbEntity
  8
0
  6
Continuous
 62
     7
370
    25
100
AcDbLine
 10
474.1805906639
 20
1559.0754720652
 30
0.0
 11
473.6570516978
 21
1539.0823255657
 31
0.0
  0
LINE
  5
FE
330
1F
100
AcDbEntity
  8
0
  6
Continuous
 62
     7
370
    25
100
AcDbLine
 10
472.4907022777
 20
1540.2086561082
 30
0.0
 11
472.9568920992
 21
1558.0117271316
 31
0.0
  0
LINE
  5
FF
330
1F
100
AcDbEntity
  8
0
  6
Continuous
 62
     7
370
    25
100
AcDbLine
 10
474.6764915164
 20
1549.3448871838
 30
0.0
 11
474.9307814413
 21
1559.0558276283
 31
0.0
  0
LINE
  5
100
330
1F
100
AcDbEntity
  8
0
  6
Continuous
 62
     7
370
    25
100
AcDbLine
 10
472.7751043047
 20
1556.4161961367
 30
0.0
 11
472.3926672574
 21
1541.8115145215
 31
0.0
  0
LINE
  5
101
330
1F
100
AcDbEntity
  8
0
  6
Continuous
 62
     7
370
    25
100
AcDbLine
 10
475.4865683072
 20
1553.5393867276
 30
0.0
 11
475.3649024678
 21
1548.8931557708
 31
0.0
  0
LINE
  5
102
330
1F
100
AcDbEntity
  8
0
  6
Continuous
 62
     7
370
    25
100
AcDbLine
 10
475.3649024678
 20
1548.8931557708
 30
0.0
 11
475.250975856
 21
1544.5424739934
 31
0.0
  0
LINE
  5
103
330
1F
100
AcDbEntity
  8
0
  6
Continuous
 62
     7
370
    25
100
AcDbLine
 10
856.9292233787
 20
1564.2543978663
 30
0.0
 11
856.1292233787
 21
1564.2543978663
 31
0.0
  0
LINE
  5
104
330
1F
100
AcDbEntity
  8
0
  6
Continuous
 62
     7
370
    25
100
AcDbLine
 10
856.1292233787
 20
1509.2543978663
 30
0.0
 11
857.9292233787
 21
1509.2543978663
 31
0.0
  0
LINE
  5
105
330
1F
100
AcDbEntity
  8
0
  6
Continuous
 62
     7
370
    25
100
AcDbLine
 10
857.9292233787
 20
1563.2543978663
 30
0.0
 11
857.9292233787
 21
1509.2543978663
 31
0.0
  0
LINE
  5
106
330
1F
100
AcDbEntity
  8
0
  6
Continuous
 62
     7
370
    25
100
AcDbLine
 10
857.9292233787
 20
1094.2543978663
 30
0.0
 11
856.1292233787
 21
1094.2543978663
 31
0.0
  0
LINE
  5
107
330
1F
100
AcDbEntity
  8
0
  6
Continuous
 62
     7
370
    25
100
AcDbLine
 10
856.1292233787
 20
1039.2543978663
 30
0.0
 11
857.9292233787
 21
1039.2543978663
 31
0.0
  0
LINE
  5
108
330
1F
100
AcDbEntity
  8
0
  6
Continuous
 62
     7
370
    25
100
AcDbLine
 10
4517.7500479585
 20
1534.7748720752
 30
0.0
 11
4515.9163010121
 21
1534.7268537215
 31
0.0
  0
LINE
  5
109
330
1F
100
AcDbEntity
  8
0
  6
Continuous
 62
     7
370
    25
100
AcDbLine
 10
4515.9163010121
 20
1529.2249683628
 30
0.0
 11
4517.8940211741
 21
1529.2767567878
 31
0.0
  0
ARC
  5
10A
330
1F
100
AcDbEntity
  8
0
  6
Continuous
 62
     7
370
    25
100
AcDbCircle
 10
4517.757901043
 20
1534.4749748777
 30
0.0
 40
0.3000000000003366
100
AcDbArc
 50
1.5
 51
91.5
  0
ARC
  5
10B
330
1F
100
AcDbEntity
  8
0
  6
Continuous
 62
     7
370
    25
100
AcDbCircle
 10
4517.8861680897
 20
1529.5766539853
 30
0.0
 40
0.2999999999998819
100
AcDbArc
 50
271.5
 51
1.5
  0
ARC
  5
10C
330
1F
100
AcDbEntity
  8
0
  6
Continuous
 62
     7
370
    25
100
AcDbCircle
 10
4519.133046526
 20
1539.2626125938
 30
0.0
 40
0.2000000000000808
100
AcDbArc
 50
181.4999999999
 51
271.5
  0
ARC
  5
10D
330
1F
100
AcDbEntity
  8
0
  6
Continuous
 62
     7
370
    25
100
AcDbCircle
 10
4518.6199783391
 20
1558.8558961633
 30
0.0
 40
0.1999999999998297
100
AcDbArc
 50
91.4999999998
 51
181.5
  0
ARC
  5
10E
330
1F
100
AcDbEntity
  8
0
  6
Continuous
 62
     7
370
    25
100
AcDbCircle
 10
4519.857060355
 20
1540.2819143556
 30
0.0
 40
1.20000000000027
100
AcDbArc
 50
271.5
 51
356.5000000032
  0
ARC
  5
10F
330
1F
100
AcDbEntity
  8
0
  6
Continuous
 62
     7
370
    25
100
AcDbCircle
 10
4519.3963460648
 20
1557.8758832752
 30
0.0
 40
1.200000000000503
100
AcDbArc
 50
6.4999999967
 51
91.4999999999
  0
LINE
  5
110
330
1F
100
AcDbEntity
  8
0
  6
Continuous
 62
     7
370
    25
100
AcDbLine
 10
4519.1382819156
 20
1539.0626811288
 30
0.0
 11
4519.8884726929
 21
1539.0823255657
 31
0.0
  0
LINE
  5
111
330
1F
100
AcDbEntity
  8
0
  6
Continuous
 62
     7
370
    25
100
AcDbLine
 10
4519.3649337268
 20
1559.0754720652
 30
0.0
 11
4518.6147429495
 21
1559.0558276283
 31
0.0
  0
LINE
  5
112
330
1F
100
AcDbEntity
  8
0
  6
Continuous
 62
     7
370
    25
100
AcDbLine
 10
4521.0548221131
 20
1540.2086561082
 30
0.0
 11
4521.1528571334
 21
1541.8115145215
 31
0.0
  0
LINE
  5
113
330
1F
100
AcDbEntity
  8
0
  6
Continuous
 62
     7
370
    25
100
AcDbLine
 10
4520.7704200861
 20
1556.4161961367
 30
0.0
 11
4520.5886322916
 21
1558.0117271316
 31
0.0
  0
ARC
  5
114
330
1F
100
AcDbEntity
  8
0
  6
Continuous
 62
     7
370
    25
100
AcDbCircle
 10
4491.2088131807
 20
1543.6429707076
 30
0.0
 40
30.00000000000288
100
AcDbArc
 50
356.4999999999
 51
1.4999999999
  0
ARC
  5
115
330
1F
100
AcDbEntity
  8
0
  6
Continuous
 62
     7
370
    25
100
AcDbCircle
 10
4490.9632644158
 20
1553.0200997237
 30
0.0
 40
30.00000000000259
100
AcDbArc
 50
1.4999999999
 51
6.4999999999
  0
LINE
  5
116
330
1F
100
AcDbEntity
  8
0
  6
Continuous
 62
     7
370
    25
100
AcDbLine
 10
4521.0782320384
 20
1549.0223848583
 30
0.0
 11
4521.0757585475
 21
1549.1168436648
 31
0.0
  0
SPLINE
  5
117
330
1F
100
AcDbEntity
  8
0
  6
Continuous
 62
     7
370
    25
100
AcDbSpline
210
0.0
220
0.0
230
1.0
 70
     8
 71
     3
 72
    11
 73
     7
 74
     0
 42
0.00000001
 43
0.00000001
 40
0.0
 40
0.0
 40
0.0
 40
0.0
 40
0.2706712709044296
 40
0.5632120728000667
 40
0.790389163524506
 40
1.0
 40
1.0
 40
1.0
 40
1.0
 10
4518.294548572448
 20
1544.542472552354
 30
0.0
 10
4518.366361280958
 20
1544.535344805513
 30
0.0
 10
4518.515788977064
 20
1544.520513408522
 30
0.0
 10
4518.687900202777
 20
1544.38709392635
 30
0.0
 10
4518.788951168401
 20
1544.218965531411
 30
0.0
 10
4518.80158698596
 20
1544.103888307108
 30
0.0
 10
4518.807650808066
 20
1544.048663719286
 30
0.0
  0
SPLINE
  5
118
330
1F
100
AcDbEntity
  8
0
  6
Continuous
 62
     7
370
    25
100
AcDbSpline
210
0.0
220
0.0
230
1.0
 70
     8
 71
     3
 72
    11
 73
     7
 74
     0
 42
0.00000001
 43
0.00000001
 40
0.0
 40
0.0
 40
0.0
 40
0.0
 40
0.2695105035985372
 40
0.5617364405776607
 40
0.7894224931279853
 40
1.0
 40
1.0
 40
1.0
 40
1.0
 10
4518.545511127043
 20
1554.059374258503
 30
0.0
 10
4518.539444966037
 20
1553.987784817779
 30
0.0
 10
4518.526801363482
 20
1553.838572089228
 30
0.0
 10
4518.396408797245
 20
1553.664552517794
 30
0.0
 10
4518.229638749764
 20
1553.560590211836
 30
0.0
 10
4518.114350096174
 20
1553.546269373958
 30
0.0
 10
4518.058956037687
 20
1553.539388477128
 30
0.0
  0
LINE
  5
119
330
1F
100
AcDbEntity
  8
0
  6
Continuous
 62
     7
370
    25
100
AcDbLine
 10
4515.9163010121
 20
1544.4801959483
 30
0.0
 11
4518.2945485724
 21
1544.5424725523
 31
0.0
  0
LINE
  5
11A
330
1F
100
AcDbEntity
  8
0
  6
Continuous
 62
     7
370
    25
100
AcDbLine
 10
4518.0589560377
 20
1553.5393884771
 30
0.0
 11
4515.9163010121
 21
1553.4832810807
 31
0.0
  0
LINE
  5
11B
330
1F
100
AcDbEntity
  8
0
  6
Continuous
 62
     7
370
    25
100
AcDbLine
 10
4135.4163010121
 20
986.7543978663
 30
0.0
 11
4135.4163010121
 21
1583.2543978663
 31
0.0
  0
LINE
  5
11C
330
1F
100
AcDbEntity
  8
0
  6
Continuous
 62
     7
370
    25
100
AcDbLine
 10
4117.4163010121
 20
986.7543978663
 30
0.0
 11
4135.4163010121
 21
986.7543978663
 31
0.0
  0
LINE
  5
11D
330
1F
100
AcDbEntity
  8
0
  6
Continuous
 62
     7
370
    25
100
AcDbLine
 10
4117.4163010121
 20
986.7543978663
 30
0.0
 11
4117.4163010121
 21
1616.7543978663
 31
0.0
  0
LINE
  5
11E
330
1F
100
AcDbEntity
  8
0
  6
Continuous
 62
     7
370
    25
100
AcDbLine
 10
4117.4163010121
 20
1616.7543978663
 30
0.0
 11
4121.4163010121
 21
1616.7543978663
 31
0.0
  0
LINE
  5
11F
330
1F
100
AcDbEntity
  8
0
  6
Continuous
 62
     7
370
    25
100
AcDbLine
 10
4121.4163010121
 20
1603.7543978663
 30
0.0
 11
4121.4163010121
 21
1616.7543978663
 31
0.0
  0
LINE
  5
120
330
1F
100
AcDbEntity
  8
0
  6
Continuous
 62
     7
370
    25
100
AcDbLine
 10
4133.9163010121
 20
1603.7543978663
 30
0.0
 11
4121.4163010121
 21
1603.7543978663
 31
0.0
  0
LINE
  5
121
330
1F
100
AcDbEntity
  8
0
  6
Continuous
 62
     7
370
    25
100
AcDbLine
 10
4133.9163010121
 20
1583.2543978663
 30
0.0
 11
4133.9163010121
 21
1603.7543978663
 31
0.0
  0
LINE
  5
122
330
1F
100
AcDbEntity
  8
0
  6
Continuous
 62
     7
370
    25
100
AcDbLine
 10
4135.4163010121
 20
1583.2543978663
 30
0.0
 11
4133.9163010121
 21
1583.2543978663
 31
0.0
  0
LINE
  5
123
330
1F
100
AcDbEntity
  8
0
  6
Continuous
 62
     7
370
    25
100
AcDbLine
 10
4136.9163010121
 20
1626.7543978663
 30
0.0
 11
4136.9163010121
 21
1598.2543978663
 31
0.0
  0
LINE
  5
124
330
1F
100
AcDbEntity
  8
0
  6
Continuous
 62
     7
370
    25
100
AcDbLine
 10
4515.9163010121
 20
1626.7543978663
 30
0.0
 11
4136.9163010121
 21
1626.7543978663
 31
0.0
  0
LINE
  5
125
330
1F
100
AcDbEntity
  8
0
  6
Continuous
 62
     7
370
    25
100
AcDbLine
 10
4515.9163010121
 20
1598.2543978663
 30
0.0
 11
4515.9163010121
 21
1626.7543978663
 31
0.0
  0
LINE
  5
126
330
1F
100
AcDbEntity
  8
0
  6
Continuous
 62
     7
370
    25
100
AcDbLine
 10
4136.9163010121
 20
1598.2543978663
 30
0.0
 11
4515.9163010121
 21
1598.2543978663
 31
0.0
  0
SPLINE
  5
127
330
1F
100
AcDbEntity
  8
0
  6
Continuous
 62
     7
370
    25
100
AcDbSpline
210
0.0
220
0.0
230
1.0
 70
    24
 71
     3
 72
    12
 73
     8
 74
     0
 42
0.00000001
 43
0.00000001
 40
0.0
 40
0.0
 40
0.0
 40
0.0
 40
0.2460973337390466
 40
0.4921955654195898
 40
0.7383025770441249
 40
0.9844160040482759
 40
1.0
 40
1.0
 40
1.0
 40
1.0
 10
4518.121931763796
 20
1532.033667515998
 30
0.0
 10
4518.130161240797
 20
1531.7193964685
 30
0.0
 10
4518.146620224826
 20
1531.090853226815
 30
0.0
 10
4518.167936227936
 20
1530.276827909654
 30
0.0
 10
4518.181476490681
 20
1529.759746136905
 30
0.0
 10
4518.187395967763
 20
1529.533690427252
 30
0.0
 10
4518.185875737426
 20
1529.591745681664
 30
0.0
 10
4518.185785208206
 20
1529.595202853078
 30
0.0
  0
SPLINE
  5
128
330
1F
100
AcDbEntity
  8
0
  6
Continuous
 62
     7
370
    25
100
AcDbSpline
210
0.0
220
0.0
230
1.0
 70
     8
 71
     3
 72
    11
 73
     7
 74
     0
 42
0.00000001
 43
0.00000001
 40
0.0
 40
0.0
 40
0.0
 40
0.0
 40
0.2382247349852558
 40
0.4921376904596806
 40
0.7460575595479095
 40
1.0
 40
1.0
 40
1.0
 40
1.0
 10
4518.058072034717
 20
1534.472372180741
 30
0.0
 10
4518.058744419021
 20
1534.446694861227
 30
0.0
 10
4518.060133467299
 20
1534.393649249806
 30
0.0
 10
4518.073671064535
 20
1533.87666925106
 30
0.0
 10
4518.093771655869
 20
1533.109058705195
 30
0.0
 10
4518.110155297261
 20
1532.483392512939
 30
0.0
 10
4518.118347482034
 20
1532.170545513298
 30
0.0
  0
LINE
  5
129
330
1F
100
AcDbEntity
  8
0
  6
Continuous
 62
     7
370
    25
100
AcDbLine
 10
4518.118347482
 20
1532.1705455133
 30
0.0
 11
4518.1219317638
 21
1532.033667516
 31
0.0
  0
SPLINE
  5
12A
330
1F
100
AcDbEntity
  8
0
  6
Continuous
 62
     7
370
    25
100
AcDbSpline
210
0.0
220
0.0
230
1.0
 70
    24
 71
     3
 72
    13
 73
     9
 74
     0
 42
0.00000001
 43
0.00000001
 40
0.0
 40
0.0
 40
0.0
 40
0.0
 40
0.1813201537907939
 40
0.4101468448380602
 40
0.5438150184965125
 40
0.6886421238875787
 40
0.841996687412693
 40
1.0
 40
1.0
 40
1.0
 40
1.0
 10
4518.676580967555
 20
1549.054018988888
 30
0.0
 10
4518.652354093912
 20
1549.979205966929
 30
0.0
 10
4518.597552817952
 20
1552.071982263416
 30
0.0
 10
4518.53119258693
 20
1554.606177244853
 30
0.0
 10
4518.481221570377
 20
1556.514493376595
 30
0.0
 10
4518.448299481662
 20
1557.771737221527
 30
0.0
 10
4518.425017322935
 20
1558.660846992433
 30
0.0
 10
4518.421725129526
 20
1558.786570786431
 30
0.0
 10
4518.420054455667
 20
1558.85037124708
 30
0.0
  0
SPLINE
  5
12B
330
1F
100
AcDbEntity
  8
0
  6
Continuous
 62
     7
370
    25
100
AcDbSpline
210
0.0
220
0.0
230
1.0
 70
    24
 71
     3
 72
    13
 73
     9
 74
     0
 42
0.00000001
 43
0.00000001
 40
0.0
 40
0.0
 40
0.0
 40
0.0
 40
0.1538581583652087
 40
0.307967686245285
 40
0.4535077802385084
 40
0.5878340078345657
 40
0.817787216381353
 40
1.0
 40
1.0
 40
1.0
 40
1.0
 10
4518.932881372516
 20
1539.26630140585
 30
0.0
 10
4518.931561895873
 20
1539.316690185942
 30
0.0
 10
4518.928920786858
 20
1539.417550070024
 30
0.0
 10
4518.906694001446
 20
1540.266356760079
 30
0.0
 10
4518.874525991149
 20
1541.494803511995
 30
0.0
 10
4518.825263059562
 20
1543.376078969867
 30
0.0
 10
4518.759443730822
 20
1545.889617726497
 30
0.0
 10
4518.704718667675
 20
1547.979483573088
 30
0.0
 10
4518.680525487551
 20
1548.903383847577
 30
0.0
  0
LINE
  5
12C
330
1F
100
AcDbEntity
  8
0
  6
Continuous
 62
     7
370
    25
100
AcDbLine
 10
4521.0782320384
 20
1549.0223848582
 30
0.0
 11
4521.19853293
 21
1544.4282791568
 31
0.0
  0
LINE
  5
12D
330
1F
100
AcDbEntity
  8
0
  6
Continuous
 62
     7
370
    25
100
AcDbLine
 10
4520.952984165
 20
1553.8054081729
 30
0.0
 11
4521.0757585475
 21
1549.1168436648
 31
0.0
  0
SPLINE
  5
12E
330
1F
100
AcDbEntity
  8
0
  6
Continuous
 62
     7
370
    25
100
AcDbSpline
210
0.0
220
0.0
230
1.0
 70
     8
 71
     3
 72
    11
 73
     7
 74
     0
 42
0.00000001
 43
0.00000001
 40
0.0
 40
0.0
 40
0.0
 40
0.0
 40
0.2702602051692163
 40
0.5624283659902211
 40
0.7897359586727662
 40
0.9999999999999999
 40
0.9999999999999999
 40
0.9999999999999999
 40
0.9999999999999999
 10
4518.67228138343
 20
1549.218213482243
 30
0.0
 10
4518.663531975718
 20
1549.215656025559
 30
0.0
 10
4518.645323911826
 20
1549.210333798472
 30
0.0
 10
4518.510265639421
 20
1549.201285824091
 30
0.0
 10
4518.342203449888
 20
1549.193677152426
 30
0.0
 10
4518.227838085996
 20
1549.190318953097
 30
0.0
 10
4518.172882687311
 20
1549.188705254887
 30
0.0
  0
SPLINE
  5
12F
330
1F
100
AcDbEntity
  8
0
  6
Continuous
 62
     7
370
    25
100
AcDbSpline
210
0.0
220
0.0
230
1.0
 70
     8
 71
     3
 72
    10
 73
     6
 74
     0
 42
0.00000001
 43
0.00000001
 40
0.0
 40
0.0
 40
0.0
 40
0.0
 40
0.3698682463933519
 40
0.7394183665248724
 40
1.0
 40
1.0
 40
1.0
 40
1.0
 10
4518.400161334801
 20
1548.531609380492
 30
0.0
 10
4518.396941611833
 20
1548.655185441903
 30
0.0
 10
4518.390504935202
 20
1548.902231276093
 30
0.0
 10
4518.3810123833
 20
1549.268343236765
 30
0.0
 10
4518.375485084351
 20
1549.475556144415
 30
0.0
 10
4518.373199351913
 20
1549.561245966651
 30
0.0
  0
LINE
  5
130
330
1F
100
AcDbEntity
  8
0
  6
Continuous
 62
     7
370
    25
100
AcDbLine
 10
4137.4163010121
 20
976.7543978663
 30
0.0
 11
4515.9163010121
 21
976.7543978663
 31
0.0
  0
LINE
  5
131
330
1F
100
AcDbEntity
  8
0
  6
Continuous
 62
     7
370
    25
100
AcDbLine
 10
4137.4163010121
 20
976.7543978663
 30
0.0
 11
4137.4163010121
 21
1598.2543978663
 31
0.0
  0
LINE
  5
132
330
1F
100
AcDbEntity
  8
0
  6
Continuous
 62
     7
370
    25
100
AcDbLine
 10
4515.9163010121
 20
976.7543978663
 30
0.0
 11
4515.9163010121
 21
1598.2543978663
 31
0.0
  0
LINE
  5
133
330
1F
100
AcDbEntity
  8
0
  6
Continuous
 62
     7
370
    25
100
AcDbLine
 10
4121.6163010121
 20
1616.9543978663
 30
0.0
 11
4121.6163010121
 21
1603.9543978663
 31
0.0
  0
LINE
  5
134
330
1F
100
AcDbEntity
  8
0
  6
Continuous
 62
     7
370
    25
100
AcDbLine
 10
4121.1990893286
 20
1616.9543978663
 30
0.0
 11
4121.6163010121
 21
1616.9543978663
 31
0.0
  0
ARC
  5
135
330
1F
100
AcDbEntity
  8
0
  6
Continuous
 62
     7
370
    25
100
AcDbCircle
 10
4121.4162626861
 20
1616.7474299152
 30
0.0
 40
0.3000000000004442
100
AcDbArc
 50
99.5765884811
 51
136.3783470328
  0
ARC
  5
136
330
1F
100
AcDbEntity
  8
0
  6
Continuous
 62
     7
370
    25
100
AcDbCircle
 10
4121.4994456096
 20
1616.2543978663
 30
0.0
 40
0.7999999999999814
100
AcDbArc
 50
4.9699465947
 51
99.5765884811
  0
LINE
  5
137
330
1F
100
AcDbEntity
  8
0
  6
Continuous
 62
     7
370
    25
100
AcDbLine
 10
4123.1376264497
 20
1606.6504380312
 30
0.0
 11
4122.2964378311
 21
1616.323704423
 31
0.0
  0
ARC
  5
138
330
1F
100
AcDbEntity
  8
0
  6
Continuous
 62
     7
370
    25
100
AcDbCircle
 10
4124.333114782
 20
1606.7543978663
 30
0.0
 40
1.200000000000045
100
AcDbArc
 50
184.9699465947
 51
270.0
  0
LINE
  5
139
330
1F
100
AcDbEntity
  8
0
  6
Continuous
 62
     7
370
    25
100
AcDbLine
 10
4134.7163010121
 20
1605.5543978663
 30
0.0
 11
4124.333114782
 21
1605.5543978663
 31
0.0
  0
ARC
  5
13A
330
1F
100
AcDbEntity
  8
0
  6
Continuous
 62
     7
370
    25
100
AcDbCircle
 10
4134.7163010121
 20
1604.7543978663
 30
0.0
 40
0.8000000000001819
100
AcDbArc
 50
0.0
 51
90.0
  0
LINE
  5
13B
330
1F
100
AcDbEntity
  8
0
  6
Continuous
 62
     7
370
    25
100
AcDbLine
 10
4135.5163010121
 20
1583.9543978663
 30
0.0
 11
4135.5163010121
 21
1604.7543978663
 31
0.0
  0
LINE
  5
13C
330
1F
100
AcDbEntity
  8
0
  6
Continuous
 62
     7
370
    25
100
AcDbLine
 10
4134.1163010121
 20
1583.9543978663
 30
0.0
 11
4135.5163010121
 21
1583.9543978663
 31
0.0
  0
LINE
  5
13D
330
1F
100
AcDbEntity
  8
0
  6
Continuous
 62
     7
370
    25
100
AcDbLine
 10
4134.1163010121
 20
1603.9543978663
 30
0.0
 11
4134.1163010121
 21
1583.9543978663
 31
0.0
  0
LINE
  5
13E
330
1F
100
AcDbEntity
  8
0
  6
Continuous
 62
     7
370
    25
100
AcDbLine
 10
4121.6163010121
 20
1603.9543978663
 30
0.0
 11
4134.1163010121
 21
1603.9543978663
 31
0.0
  0
SPLINE
  5
13F
330
1F
100
AcDbEntity
  8
0
  6
Continuous
 62
     7
370
    25
100
AcDbSpline
210
0.0
220
0.0
230
1.0
 70
     8
 71
     3
 72
    13
 73
     9
 74
     0
 42
0.00000001
 43
0.00000001
 40
0.0
 40
0.0
 40
0.0
 40
0.0
 40
0.0075029974114387
 40
0.3818974549662866
 40
0.6070018873272978
 40
0.7653769096343249
 40
0.8824605049810137
 40
1.0
 40
1.0
 40
1.0
 40
1.0
 10
4121.1990893286
 20
1616.954397866315
 30
0.0
 10
4121.198071551985
 20
1616.95395986842
 30
0.0
 10
4121.146267415847
 20
1616.931666074047
 30
0.0
 10
4121.067682050478
 20
1616.884781685836
 30
0.0
 10
4120.985042586445
 20
1616.818497248798
 30
0.0
 10
4120.942946468347
 20
1616.780235689626
 30
0.0
 10
4120.920423041512
 20
1616.75847991389
 30
0.0
 10
4120.917683615398
 20
1616.755760310341
 30
0.0
 10
4120.916311240831
 20
1616.754397866314
 30
0.0
  0
ARC
  5
140
330
1F
100
AcDbEntity
  8
0
  6
Continuous
 62
     7
370
    25
100
AcDbCircle
 10
4121.4162626861
 20
1616.7474299152
 30
0.0
 40
0.500000000000186
100
AcDbArc
 50
99.5765884811
 51
179.2015057739
  0
LINE
  5
141
330
1F
100
AcDbEntity
  8
0
  6
Continuous
 62
     7
370
    25
100
AcDbLine
 10
4121.3663529321
 20
1617.0432491446
 30
0.0
 11
4121.3330797627
 21
1617.2404619641
 31
0.0
  0
LINE
  5
142
330
1F
100
AcDbEntity
  8
0
  6
Continuous
 62
     7
370
    25
100
AcDbLine
 10
4122.4956858865
 20
1616.3410310622
 30
0.0
 11
4123.3368745051
 21
1606.6677646704
 31
0.0
  0
LINE
  5
143
330
1F
100
AcDbEntity
  8
0
  6
Continuous
 62
     7
370
    25
100
AcDbLine
 10
4123.3368745051
 20
1606.6677646704
 30
0.0
 11
4123.1376264497
 21
1606.6504380312
 31
0.0
  0
LINE
  5
144
330
1F
100
AcDbEntity
  8
0
  6
Continuous
 62
     7
370
    25
100
AcDbLine
 10
4122.2964378311
 20
1616.323704423
 30
0.0
 11
4122.4956858865
 21
1616.3410310622
 31
0.0
  0
ARC
  5
145
330
1F
100
AcDbEntity
  8
0
  6
Continuous
 62
     7
370
    25
100
AcDbCircle
 10
4124.333114782
 20
1606.7543978663
 30
0.0
 40
0.9999999999997726
100
AcDbArc
 50
184.9699465947
 51
270.0
  0
LINE
  5
146
330
1F
100
AcDbEntity
  8
0
  6
Continuous
 62
     7
370
    25
100
AcDbLine
 10
4124.333114782
 20
1605.7543978663
 30
0.0
 11
4124.333114782
 21
1605.5543978663
 31
0.0
  0
LINE
  5
147
330
1F
100
AcDbEntity
  8
0
  6
Continuous
 62
     7
370
    25
100
AcDbLine
 10
4121.6163010121
 20
1603.9543978663
 30
0.0
 11
4121.4163010121
 21
1603.7543978663
 31
0.0
  0
LINE
  5
148
330
1F
100
AcDbEntity
  8
0
  6
Continuous
 62
     7
370
    25
100
AcDbLine
 10
4121.6163010121
 20
1616.9543978663
 30
0.0
 11
4121.4163010121
 21
1616.7543978663
 31
0.0
  0
LINE
  5
149
330
1F
100
AcDbEntity
  8
0
  6
Continuous
 62
     7
370
    25
100
AcDbLine
 10
4134.1163010121
 20
1603.9543978663
 30
0.0
 11
4133.9163010121
 21
1603.7543978663
 31
0.0
  0
ARC
  5
14A
330
1F
100
AcDbEntity
  8
0
  6
Continuous
 62
     7
370
    25
100
AcDbCircle
 10
4121.4994456096
 20
1616.2543978663
 30
0.0
 40
0.9999999999999388
100
AcDbArc
 50
4.9699465947
 51
99.5765884811
  0
LINE
  5
14B
330
1F
100
AcDbEntity
  8
0
  6
Continuous
 62
     7
370
    25
100
AcDbLine
 10
4124.333114782
 20
1605.7543978663
 30
0.0
 11
4134.7163010121
 21
1605.7543978663
 31
0.0
  0
LINE
  5
14C
330
1F
100
AcDbEntity
  8
0
  6
Continuous
 62
     7
370
    25
100
AcDbLine
 10
4134.7163010121
 20
1605.7543978663
 30
0.0
 11
4134.7163010121
 21
1605.5543978663
 31
0.0
  0
LINE
  5
14D
330
1F
100
AcDbEntity
  8
0
  6
Continuous
 62
     7
370
    25
100
AcDbLine
 10
4135.7163010121
 20
1604.7543978663
 30
0.0
 11
4135.7163010121
 21
1583.9543978663
 31
0.0
  0
LINE
  5
14E
330
1F
100
AcDbEntity
  8
0
  6
Continuous
 62
     7
370
    25
100
AcDbLine
 10
4135.7163010121
 20
1583.9543978663
 30
0.0
 11
4135.5163010121
 21
1583.9543978663
 31
0.0
  0
LINE
  5
14F
330
1F
100
AcDbEntity
  8
0
  6
Continuous
 62
     7
370
    25
100
AcDbLine
 10
4135.7163010121
 20
1604.7543978663
 30
0.0
 11
4135.5163010121
 21
1604.7543978663
 31
0.0
  0
LINE
  5
150
330
1F
100
AcDbEntity
  8
0
  6
Continuous
 62
     7
370
    25
100
AcDbLine
 10
4133.9163010121
 20
1583.7543978663
 30
0.0
 11
4134.1163010121
 21
1583.9543978663
 31
0.0
  0
LINE
  5
151
330
1F
100
AcDbEntity
  8
0
  6
Continuous
 62
     7
370
    25
100
AcDbLine
 10
4135.5163010121
 20
1583.7543978663
 30
0.0
 11
4135.5163010121
 21
1583.9543978663
 31
0.0
  0
ARC
  5
152
330
1F
100
AcDbEntity
  8
0
  6
Continuous
 62
     7
370
    25
100
AcDbCircle
 10
4135.5163010121
 20
1583.9543978663
 30
0.0
 40
0.1999999999998181
100
AcDbArc
 50
270.0
 51
0.0
  0
LINE
  5
153
330
1F
100
AcDbEntity
  8
0
  6
Continuous
 62
     7
370
    25
100
AcDbLine
 10
4135.5163010121
 20
1583.7543978663
 30
0.0
 11
4133.9163010121
 21
1583.7543978663
 31
0.0
  0
ARC
  5
154
330
1F
100
AcDbEntity
  8
0
  6
Continuous
 62
     7
370
    25
100
AcDbCircle
 10
4134.7163010121
 20
1604.7543978663
 30
0.0
 40
1.000000000000227
100
AcDbArc
 50
0.0
 51
90.0
  0
LINE
  5
155
330
1F
100
AcDbEntity
  8
0
  6
Continuous
 62
     7
370
    25
100
AcDbLine
 10
4136.6163010121
 20
1584.0543978663
 30
0.0
 11
4136.6163010121
 21
1585.2543978663
 31
0.0
  0
LINE
  5
156
330
1F
100
AcDbEntity
  8
0
  6
Continuous
 62
     7
370
    25
100
AcDbLine
 10
4136.6163010121
 20
1585.2543978663
 30
0.0
 11
4137.4163010121
 21
1585.2543978663
 31
0.0
  0
LINE
  5
157
330
1F
100
AcDbEntity
  8
0
  6
Continuous
 62
     7
370
    25
100
AcDbLine
 10
4136.6163010121
 20
1584.0543978663
 30
0.0
 11
4137.4163010121
 21
1584.0543978663
 31
0.0
  0
LINE
  5
158
330
1F
100
AcDbEntity
  8
0
  6
Continuous
 62
     7
370
    25
100
AcDbLine
 10
4135.7163010121
 20
1585.2543978663
 30
0.0
 11
4136.6163010121
 21
1585.2543978663
 31
0.0
  0
LINE
  5
159
330
1F
100
AcDbEntity
  8
0
  6
Continuous
 62
     7
370
    25
100
AcDbLine
 10
4135.7163010121
 20
1584.0543978663
 30
0.0
 11
4136.6163010121
 21
1584.0543978663
 31
0.0
  0
LINE
  5
15A
330
1F
100
AcDbEntity
  8
0
  6
Continuous
 62
     7
370
    25
100
AcDbLine
 10
4136.6163010121
 20
1566.2543978663
 30
0.0
 11
4136.6163010121
 21
1584.0543978663
 31
0.0
  0
LINE
  5
15B
330
1F
100
AcDbEntity
  8
0
  6
Continuous
 62
     7
370
    25
100
AcDbLine
 10
4135.4163010121
 20
1566.2543978663
 30
0.0
 11
4136.6163010121
 21
1566.2543978663
 31
0.0
  0
LINE
  5
15C
330
1F
100
AcDbEntity
  8
0
  6
Continuous
 62
     7
370
    25
100
AcDbLine
 10
4135.4163010121
 20
1583.2543978663
 30
0.0
 11
4135.4163010121
 21
1583.7543978663
 31
0.0
  0
LINE
  5
15D
330
1F
100
AcDbEntity
  8
0
  6
Continuous
 62
     7
370
    25
100
AcDbLine
 10
4136.6163010121
 20
1566.2543978663
 30
0.0
 11
4136.6163010121
 21
1565.2470896858
 31
0.0
  0
LINE
  5
15E
330
1F
100
AcDbEntity
  8
0
  6
Continuous
 62
     7
370
    25
100
AcDbLine
 10
4135.9163010121
 20
1527.7984397273
 30
0.0
 11
4135.4163010121
 21
1527.7984397273
 31
0.0
  0
LINE
  5
15F
330
1F
100
AcDbEntity
  8
0
  6
Continuous
 62
     7
370
    25
100
AcDbLine
 10
4135.9163010121
 20
1529.3543978665
 30
0.0
 11
4135.4163010121
 21
1529.3543978665
 31
0.0
  0
LINE
  5
160
330
1F
100
AcDbEntity
  8
0
  6
Continuous
 62
     7
370
    25
100
AcDbLine
 10
4135.9163010121
 20
1529.3543978665
 30
0.0
 11
4135.9163010121
 21
1527.7984397273
 31
0.0
  0
LINE
  5
161
330
1F
100
AcDbEntity
  8
0
  6
Continuous
 62
     7
370
    25
100
AcDbLine
 10
4135.4163010121
 20
1545.7103560054
 30
0.0
 11
4135.9163010121
 21
1545.7103560054
 31
0.0
  0
LINE
  5
162
330
1F
100
AcDbEntity
  8
0
  6
Continuous
 62
     7
370
    25
100
AcDbLine
 10
4135.9163010121
 20
1545.7103560054
 30
0.0
 11
4135.9163010121
 21
1544.1543978661
 31
0.0
  0
LINE
  5
163
330
1F
100
AcDbEntity
  8
0
  6
Continuous
 62
     7
370
    25
100
AcDbLine
 10
4135.4163010121
 20
1544.1543978661
 30
0.0
 11
4135.9163010121
 21
1544.1543978661
 31
0.0
  0
LINE
  5
164
330
1F
100
AcDbEntity
  8
0
  6
Continuous
 62
     7
370
    25
100
AcDbLine
 10
4135.6163010121
 20
1518.3628237086
 30
0.0
 11
4135.9163010121
 21
1518.3628237086
 31
0.0
  0
LINE
  5
165
330
1F
100
AcDbEntity
  8
0
  6
Continuous
 62
     7
370
    25
100
AcDbLine
 10
4135.4163010121
 20
1518.3628237086
 30
0.0
 11
4135.6163010121
 21
1518.3628237086
 31
0.0
  0
LINE
  5
166
330
1F
100
AcDbEntity
  8
0
  6
Continuous
 62
     7
370
    25
100
AcDbLine
 10
4135.9163010121
 20
1518.3628237086
 30
0.0
 11
4135.9163010121
 21
1527.7984397273
 31
0.0
  0
LINE
  5
167
330
1F
100
AcDbEntity
  8
0
  6
Continuous
 62
     7
370
    25
100
AcDbLine
 10
4135.6163010121
 20
1555.1459720241
 30
0.0
 11
4135.4163010121
 21
1555.1459720241
 31
0.0
  0
LINE
  5
168
330
1F
100
AcDbEntity
  8
0
  6
Continuous
 62
     7
370
    25
100
AcDbLine
 10
4135.9163010121
 20
1555.1459720241
 30
0.0
 11
4135.6163010121
 21
1555.1459720241
 31
0.0
  0
LINE
  5
169
330
1F
100
AcDbEntity
  8
0
  6
Continuous
 62
     7
370
    25
100
AcDbLine
 10
4135.9163010121
 20
1545.7103560054
 30
0.0
 11
4135.9163010121
 21
1555.1459720241
 31
0.0
  0
SPLINE
  5
16A
330
1F
100
AcDbEntity
  8
0
  6
Continuous
 62
     7
370
    25
100
AcDbSpline
210
0.0
220
0.0
230
1.0
 70
    24
 71
     3
 72
    12
 73
     8
 74
     0
 42
0.00000001
 43
0.00000001
 40
0.0
 40
0.0
 40
0.0
 40
0.0
 40
0.1234882189609838
 40
0.3047574776069715
 40
0.4857888495160043
 40
0.6670582153996233
 40
1.0
 40
1.0
 40
1.0
 40
1.0
 10
4137.416301012059
 20
1508.254397866318
 30
0.0
 10
4137.376554443021
 20
1508.254397866318
 30
0.0
 10
4137.278463594964
 20
1508.254397866318
 30
0.0
 10
4137.038490306604
 20
1508.254397866318
 30
0.0
 10
4136.722876118109
 20
1508.254397866317
 30
0.0
 10
4136.255966029009
 20
1508.254397866318
 30
0.0
 10
4135.867697428772
 20
1508.254397866316
 30
0.0
 10
4135.616301012057
 20
1508.254397866315
 30
0.0
  0
LINE
  5
16B
330
1F
100
AcDbEntity
  8
0
  6
Continuous
 62
     7
370
    25
100
AcDbLine
 10
4135.6163010121
 20
1509.2543978663
 30
0.0
 11
4135.6163010121
 21
1508.2543978663
 31
0.0
  0
SPLINE
  5
16C
330
1F
100
AcDbEntity
  8
0
  6
Continuous
 62
     7
370
    25
100
AcDbSpline
210
0.0
220
0.0
230
1.0
 70
    24
 71
     3
 72
    12
 73
     8
 74
     0
 42
0.00000001
 43
0.00000001
 40
0.0
 40
0.0
 40
0.0
 40
0.0
 40
0.3329369653742574
 40
0.5139656098128643
 40
0.6952322446444931
 40
0.8762609961850781
 40
1.0
 40
1.0
 40
1.0
 40
1.0
 10
4135.61630101205
 20
1565.254397866314
 30
0.0
 10
4135.867698425192
 20
1565.254397866315
 30
0.0
 10
4136.25578877919
 20
1565.254397866317
 30
0.0
 10
4136.722718048865
 20
1565.254397866317
 30
0.0
 10
4137.038236937887
 20
1565.254397866317
 30
0.0
 10
4137.278361156404
 20
1565.254397866317
 30
0.0
 10
4137.376468407414
 20
1565.254397866317
 30
0.0
 10
4137.416301012058
 20
1565.254397866317
 30
0.0
  0
LINE
  5
16D
330
1F
100
AcDbEntity
  8
0
  6
Continuous
 62
     7
370
    25
100
AcDbLine
 10
4135.616301012
 20
1564.2543978663
 30
0.0
 11
4135.6163010121
 21
1565.2543978663
 31
0.0
  0
SPLINE
  5
16E
330
1F
100
AcDbEntity
  8
0
  6
Continuous
 62
     7
370
    25
100
AcDbSpline
210
0.0
220
0.0
230
1.0
 70
     8
 71
     3
 72
    10
 73
     6
 74
     0
 42
0.00000001
 43
0.00000001
 40
0.0
 40
0.0
 40
0.0
 40
0.0
 40
0.037131194338154
 40
0.5486628195568672
 40
1.0
 40
1.0
 40
1.0
 40
1.0
 10
4137.416301012059
 20
1526.508633526145
 30
0.0
 10
4137.410678159845
 20
1526.515351873571
 30
0.0
 10
4137.327593034137
 20
1526.614624399193
 30
0.0
 10
4137.106037061554
 20
1526.715053312386
 30
0.0
 10
4136.874726172308
 20
1526.741841237216
 30
0.0
 10
4136.766301012053
 20
1526.754397866314
 30
0.0
  0
LINE
  5
16F
330
1F
100
AcDbEntity
  8
0
  6
Continuous
 62
     7
370
    25
100
AcDbLine
 10
4135.6163010121
 20
1509.2543978663
 30
0.0
 11
4135.6163010121
 21
1518.3628237086
 31
0.0
  0
LINE
  5
170
330
1F
100
AcDbEntity
  8
0
  6
Continuous
 62
     7
370
    25
100
AcDbLine
 10
4135.9163010121
 20
1526.7543978663
 30
0.0
 11
4136.7663010121
 21
1526.7543978663
 31
0.0
  0
LINE
  5
171
330
1F
100
AcDbEntity
  8
0
  6
Continuous
 62
     7
370
    25
100
AcDbLine
 10
4135.4163010121
 20
1509.2543978663
 30
0.0
 11
4135.6163010121
 21
1509.2543978663
 31
0.0
  0
LINE
  5
172
330
1F
100
AcDbEntity
  8
0
  6
Continuous
 62
     7
370
    25
100
AcDbLine
 10
4135.416301012
 20
1564.2543978663
 30
0.0
 11
4135.616301012
 21
1564.2543978663
 31
0.0
  0
LINE
  5
173
330
1F
100
AcDbEntity
  8
0
  6
Continuous
 62
     7
370
    25
100
AcDbLine
 10
4135.6163010121
 20
1555.1459720241
 30
0.0
 11
4135.616301012
 21
1564.2543978663
 31
0.0
  0
SPLINE
  5
174
330
1F
100
AcDbEntity
  8
0
  6
Continuous
 62
     7
370
    25
100
AcDbSpline
210
0.0
220
0.0
230
1.0
 70
     8
 71
     3
 72
     9
 73
     5
 74
     0
 42
0.00000001
 43
0.00000001
 40
0.0
 40
0.0
 40
0.0
 40
0.0
 40
0.5050081268939081
 40
1.0
 40
1.0
 40
1.0
 40
1.0
 10
4136.766301012052
 20
1546.754397866315
 30
0.0
 10
4136.889597283919
 20
1546.766617725699
 30
0.0
 10
4137.133744388296
 20
1546.790815077648
 30
0.0
 10
4137.322746501849
 20
1546.927891150911
 30
0.0
 10
4137.416301012059
 20
1546.995742693173
 30
0.0
  0
LINE
  5
175
330
1F
100
AcDbEntity
  8
0
  6
Continuous
 62
     7
370
    25
100
AcDbLine
 10
4136.7663010121
 20
1546.7543978663
 30
0.0
 11
4135.9163010121
 21
1546.7543978663
 31
0.0
  0
LINE
  5
176
330
1F
100
AcDbEntity
  8
0
  6
Continuous
 62
     7
370
    25
100
AcDbLine
 10
4135.4163010121
 20
1508.2543978663
 30
0.0
 11
4135.6163010121
 21
1508.2543978663
 31
0.0
  0
LINE
  5
177
330
1F
100
AcDbEntity
  8
0
  6
Continuous
 62
     7
370
    25
100
AcDbLine
 10
4135.416301012
 20
1565.2543978663
 30
0.0
 11
4135.6163010121
 21
1565.2543978663
 31
0.0
  0
LINE
  5
178
330
1F
100
AcDbEntity
  8
0
  6
Continuous
 62
     7
370
    25
100
AcDbLine
 10
4135.9163010121
 20
1057.7984397273
 30
0.0
 11
4135.4163010121
 21
1057.7984397273
 31
0.0
  0
LINE
  5
179
330
1F
100
AcDbEntity
  8
0
  6
Continuous
 62
     7
370
    25
100
AcDbLine
 10
4135.9163010121
 20
1059.3543978665
 30
0.0
 11
4135.4163010121
 21
1059.3543978665
 31
0.0
  0
LINE
  5
17A
330
1F
100
AcDbEntity
  8
0
  6
Continuous
 62
     7
370
    25
100
AcDbLine
 10
4135.9163010121
 20
1059.3543978665
 30
0.0
 11
4135.9163010121
 21
1057.7984397273
 31
0.0
  0
LINE
  5
17B
330
1F
100
AcDbEntity
  8
0
  6
Continuous
 62
     7
370
    25
100
AcDbLine
 10
4135.4163010121
 20
1075.7103560054
 30
0.0
 11
4135.9163010121
 21
1075.7103560054
 31
0.0
  0
LINE
  5
17C
330
1F
100
AcDbEntity
  8
0
  6
Continuous
 62
     7
370
    25
100
AcDbLine
 10
4135.9163010121
 20
1075.7103560054
 30
0.0
 11
4135.9163010121
 21
1074.1543978661
 31
0.0
  0
LINE
  5
17D
330
1F
100
AcDbEntity
  8
0
  6
Continuous
 62
     7
370
    25
100
AcDbLine
 10
4135.4163010121
 20
1074.1543978661
 30
0.0
 11
4135.9163010121
 21
1074.1543978661
 31
0.0
  0
LINE
  5
17E
330
1F
100
AcDbEntity
  8
0
  6
Continuous
 62
     7
370
    25
100
AcDbLine
 10
4135.6163010121
 20
1048.3628237086
 30
0.0
 11
4135.9163010121
 21
1048.3628237086
 31
0.0
  0
LINE
  5
17F
330
1F
100
AcDbEntity
  8
0
  6
Continuous
 62
     7
370
    25
100
AcDbLine
 10
4135.4163010121
 20
1048.3628237086
 30
0.0
 11
4135.6163010121
 21
1048.3628237086
 31
0.0
  0
LINE
  5
180
330
1F
100
AcDbEntity
  8
0
  6
Continuous
 62
     7
370
    25
100
AcDbLine
 10
4135.9163010121
 20
1048.3628237086
 30
0.0
 11
4135.9163010121
 21
1057.7984397273
 31
0.0
  0
LINE
  5
181
330
1F
100
AcDbEntity
  8
0
  6
Continuous
 62
     7
370
    25
100
AcDbLine
 10
4135.6163010121
 20
1085.1459720241
 30
0.0
 11
4135.4163010121
 21
1085.1459720241
 31
0.0
  0
LINE
  5
182
330
1F
100
AcDbEntity
  8
0
  6
Continuous
 62
     7
370
    25
100
AcDbLine
 10
4135.9163010121
 20
1085.1459720241
 30
0.0
 11
4135.6163010121
 21
1085.1459720241
 31
0.0
  0
LINE
  5
183
330
1F
100
AcDbEntity
  8
0
  6
Continuous
 62
     7
370
    25
100
AcDbLine
 10
4135.9163010121
 20
1075.7103560054
 30
0.0
 11
4135.9163010121
 21
1085.1459720241
 31
0.0
  0
SPLINE
  5
184
330
1F
100
AcDbEntity
  8
0
  6
Continuous
 62
     7
370
    25
100
AcDbSpline
210
0.0
220
0.0
230
1.0
 70
    24
 71
     3
 72
    12
 73
     8
 74
     0
 42
0.00000001
 43
0.00000001
 40
0.0
 40
0.0
 40
0.0
 40
0.0
 40
0.1234882189609838
 40
0.3047574776069715
 40
0.4857888495160043
 40
0.6670582153996233
 40
1.0
 40
1.0
 40
1.0
 40
1.0
 10
4137.416301012059
 20
1038.254397866318
 30
0.0
 10
4137.376554443021
 20
1038.254397866318
 30
0.0
 10
4137.278463594964
 20
1038.254397866318
 30
0.0
 10
4137.038490306604
 20
1038.254397866318
 30
0.0
 10
4136.722876118109
 20
1038.254397866318
 30
0.0
 10
4136.255966029009
 20
1038.254397866318
 30
0.0
 10
4135.867697428772
 20
1038.254397866316
 30
0.0
 10
4135.616301012057
 20
1038.254397866315
 30
0.0
  0
LINE
  5
185
330
1F
100
AcDbEntity
  8
0
  6
Continuous
 62
     7
370
    25
100
AcDbLine
 10
4135.6163010121
 20
1039.2543978663
 30
0.0
 11
4135.6163010121
 21
1038.2543978663
 31
0.0
  0
SPLINE
  5
186
330
1F
100
AcDbEntity
  8
0
  6
Continuous
 62
     7
370
    25
100
AcDbSpline
210
0.0
220
0.0
230
1.0
 70
    24
 71
     3
 72
    12
 73
     8
 74
     0
 42
0.00000001
 43
0.00000001
 40
0.0
 40
0.0
 40
0.0
 40
0.0
 40
0.3329369653742574
 40
0.5139656098128643
 40
0.6952322446444931
 40
0.8762609961850781
 40
1.0
 40
1.0
 40
1.0
 40
1.0
 10
4135.61630101205
 20
1095.254397866314
 30
0.0
 10
4135.867698425192
 20
1095.254397866315
 30
0.0
 10
4136.25578877919
 20
1095.254397866317
 30
0.0
 10
4136.722718048865
 20
1095.254397866317
 30
0.0
 10
4137.038236937887
 20
1095.254397866317
 30
0.0
 10
4137.278361156404
 20
1095.254397866317
 30
0.0
 10
4137.376468407414
 20
1095.254397866317
 30
0.0
 10
4137.416301012058
 20
1095.254397866317
 30
0.0
  0
LINE
  5
187
330
1F
100
AcDbEntity
  8
0
  6
Continuous
 62
     7
370
    25
100
AcDbLine
 10
4135.616301012
 20
1094.2543978663
 30
0.0
 11
4135.6163010121
 21
1095.2543978663
 31
0.0
  0
SPLINE
  5
188
330
1F
100
AcDbEntity
  8
0
  6
Continuous
 62
     7
370
    25
100
AcDbSpline
210
0.0
220
0.0
230
1.0
 70
     8
 71
     3
 72
    10
 73
     6
 74
     0
 42
0.00000001
 43
0.00000001
 40
0.0
 40
0.0
 40
0.0
 40
0.0
 40
0.0371311943381316
 40
0.5486628195568567
 40
1.0
 40
1.0
 40
1.0
 40
1.0
 10
4137.416301012059
 20
1056.508633526145
 30
0.0
 10
4137.410678159845
 20
1056.515351873571
 30
0.0
 10
4137.327593034138
 20
1056.614624399192
 30
0.0
 10
4137.106037061554
 20
1056.715053312386
 30
0.0
 10
4136.874726172308
 20
1056.741841237216
 30
0.0
 10
4136.766301012053
 20
1056.754397866314
 30
0.0
  0
LINE
  5
189
330
1F
100
AcDbEntity
  8
0
  6
Continuous
 62
     7
370
    25
100
AcDbLine
 10
4135.6163010121
 20
1039.2543978663
 30
0.0
 11
4135.6163010121
 21
1048.3628237086
 31
0.0
  0
LINE
  5
18A
330
1F
100
AcDbEntity
  8
0
  6
Continuous
 62
     7
370
    25
100
AcDbLine
 10
4135.9163010121
 20
1056.7543978663
 30
0.0
 11
4136.7663010121
 21
1056.7543978663
 31
0.0
  0
LINE
  5
18B
330
1F
100
AcDbEntity
  8
0
  6
Continuous
 62
     7
370
    25
100
AcDbLine
 10
4135.4163010121
 20
1039.2543978663
 30
0.0
 11
4135.6163010121
 21
1039.2543978663
 31
0.0
  0
LINE
  5
18C
330
1F
100
AcDbEntity
  8
0
  6
Continuous
 62
     7
370
    25
100
AcDbLine
 10
4135.416301012
 20
1094.2543978663
 30
0.0
 11
4135.616301012
 21
1094.2543978663
 31
0.0
  0
LINE
  5
18D
330
1F
100
AcDbEntity
  8
0
  6
Continuous
 62
     7
370
    25
100
AcDbLine
 10
4135.6163010121
 20
1085.1459720241
 30
0.0
 11
4135.616301012
 21
1094.2543978663
 31
0.0
  0
SPLINE
  5
18E
330
1F
100
AcDbEntity
  8
0
  6
Continuous
 62
     7
370
    25
100
AcDbSpline
210
0.0
220
0.0
230
1.0
 70
     8
 71
     3
 72
     9
 73
     5
 74
     0
 42
0.00000001
 43
0.00000001
 40
0.0
 40
0.0
 40
0.0
 40
0.0
 40
0.5050081268939081
 40
1.0
 40
1.0
 40
1.0
 40
1.0
 10
4136.766301012052
 20
1076.754397866315
 30
0.0
 10
4136.889597283919
 20
1076.766617725698
 30
0.0
 10
4137.133744388296
 20
1076.790815077648
 30
0.0
 10
4137.322746501849
 20
1076.927891150911
 30
0.0
 10
4137.416301012059
 20
1076.995742693173
 30
0.0
  0
LINE
  5
18F
330
1F
100
AcDbEntity
  8
0
  6
Continuous
 62
     7
370
    25
100
AcDbLine
 10
4136.7663010121
 20
1076.7543978663
 30
0.0
 11
4135.9163010121
 21
1076.7543978663
 31
0.0
  0
LINE
  5
190
330
1F
100
AcDbEntity
  8
0
  6
Continuous
 62
     7
370
    25
100
AcDbLine
 10
4135.4163010121
 20
1038.2543978663
 30
0.0
 11
4135.6163010121
 21
1038.2543978663
 31
0.0
  0
LINE
  5
191
330
1F
100
AcDbEntity
  8
0
  6
Continuous
 62
     7
370
    25
100
AcDbLine
 10
4135.416301012
 20
1095.2543978663
 30
0.0
 11
4135.6163010121
 21
1095.2543978663
 31
0.0
  0
LINE
  5
192
330
1F
100
AcDbEntity
  8
0
  6
Continuous
 62
     7
370
    25
100
AcDbLine
 10
4137.2814859371
 20
1058.3793978663
 30
0.0
 11
4137.2814859371
 21
1059.3043978663
 31
0.0
  0
LINE
  5
193
330
1F
100
AcDbEntity
  8
0
  6
Continuous
 62
     7
370
    25
100
AcDbLine
 10
4137.2814859371
 20
1074.2043978663
 30
0.0
 11
4137.2814859371
 21
1075.1293978663
 31
0.0
  0
LINE
  5
194
330
1F
100
AcDbEntity
  8
0
  6
Continuous
 62
     7
370
    25
100
AcDbLine
 10
4137.2814859371
 20
1075.1293978663
 30
0.0
 11
4137.4163010121
 21
1075.1293978663
 31
0.0
  0
LINE
  5
195
330
1F
100
AcDbEntity
  8
0
  6
Continuous
 62
     7
370
    25
100
AcDbLine
 10
4137.4163010121
 20
1058.3793978663
 30
0.0
 11
4137.2814859371
 21
1058.3793978663
 31
0.0
  0
LINE
  5
196
330
1F
100
AcDbEntity
  8
0
  6
Continuous
 62
     7
370
    25
100
AcDbLine
 10
4135.9163010121
 20
1075.1293978663
 30
0.0
 11
4137.2814859371
 21
1075.1293978663
 31
0.0
  0
LINE
  5
197
330
1F
100
AcDbEntity
  8
0
  6
Continuous
 62
     7
370
    25
100
AcDbLine
 10
4137.2814859371
 20
1058.3793978663
 30
0.0
 11
4135.9163010121
 21
1058.3793978663
 31
0.0
  0
LINE
  5
198
330
1F
100
AcDbEntity
  8
0
  6
Continuous
 62
     7
370
    25
100
AcDbLine
 10
4137.2814859371
 20
1528.3793978663
 30
0.0
 11
4137.2814859371
 21
1529.3043978663
 31
0.0
  0
LINE
  5
199
330
1F
100
AcDbEntity
  8
0
  6
Continuous
 62
     7
370
    25
100
AcDbLine
 10
4137.2814859371
 20
1544.2043978663
 30
0.0
 11
4137.2814859371
 21
1545.1293978663
 31
0.0
  0
LINE
  5
19A
330
1F
100
AcDbEntity
  8
0
  6
Continuous
 62
     7
370
    25
100
AcDbLine
 10
4137.2814859371
 20
1545.1293978663
 30
0.0
 11
4137.4163010121
 21
1545.1293978663
 31
0.0
  0
LINE
  5
19B
330
1F
100
AcDbEntity
  8
0
  6
Continuous
 62
     7
370
    25
100
AcDbLine
 10
4137.4163010121
 20
1528.3793978663
 30
0.0
 11
4137.2814859371
 21
1528.3793978663
 31
0.0
  0
LINE
  5
19C
330
1F
100
AcDbEntity
  8
0
  6
Continuous
 62
     7
370
    25
100
AcDbLine
 10
4135.9163010121
 20
1545.1293978663
 30
0.0
 11
4137.2814859371
 21
1545.1293978663
 31
0.0
  0
LINE
  5
19D
330
1F
100
AcDbEntity
  8
0
  6
Continuous
 62
     7
370
    25
100
AcDbLine
 10
4137.2814859371
 20
1528.3793978663
 30
0.0
 11
4135.9163010121
 21
1528.3793978663
 31
0.0
  0
LINE
  5
19E
330
1F
100
AcDbEntity
  8
0
  6
Continuous
 62
     7
370
    25
100
AcDbLine
 10
4137.4163010121
 20
1060.2543978663
 30
0.0
 11
4135.4163010121
 21
1060.2543978663
 31
0.0
  0
LINE
  5
19F
330
1F
100
AcDbEntity
  8
0
  6
Continuous
 62
     7
370
    25
100
AcDbLine
 10
4135.4163010121
 20
1073.2543978663
 30
0.0
 11
4137.4163010121
 21
1073.2543978663
 31
0.0
  0
LINE
  5
1A0
330
1F
100
AcDbEntity
  8
0
  6
Continuous
 62
     7
370
    25
100
AcDbLine
 10
4136.6875835572
 20
1074.2043978663
 30
0.0
 11
4136.6875835572
 21
1073.2543978663
 31
0.0
  0
LINE
  5
1A1
330
1F
100
AcDbEntity
  8
0
  6
Continuous
 62
     7
370
    25
100
AcDbLine
 10
4136.6875835572
 20
1060.2543978663
 30
0.0
 11
4136.6875835572
 21
1059.3043978663
 31
0.0
  0
LINE
  5
1A2
330
1F
100
AcDbEntity
  8
0
  6
Continuous
 62
     7
370
    25
100
AcDbLine
 10
4136.6875835572
 20
1074.2043978663
 30
0.0
 11
4137.4163010121
 21
1074.2043978663
 31
0.0
  0
LINE
  5
1A3
330
1F
100
AcDbEntity
  8
0
  6
Continuous
 62
     7
370
    25
100
AcDbLine
 10
4136.6875835572
 20
1059.3043978663
 30
0.0
 11
4137.4163010121
 21
1059.3043978663
 31
0.0
  0
LINE
  5
1A4
330
1F
100
AcDbEntity
  8
0
  6
Continuous
 62
     7
370
    25
100
AcDbLine
 10
4136.6262140616
 20
1074.2043978663
 30
0.0
 11
4136.6262140616
 21
1073.2543978663
 31
0.0
  0
LINE
  5
1A5
330
1F
100
AcDbEntity
  8
0
  6
Continuous
 62
     7
370
    25
100
AcDbLine
 10
4136.6262140616
 20
1060.2543978663
 30
0.0
 11
4136.6262140616
 21
1059.3043978663
 31
0.0
  0
LINE
  5
1A6
330
1F
100
AcDbEntity
  8
0
  6
Continuous
 62
     7
370
    25
100
AcDbLine
 10
4136.6262140616
 20
1074.2043978663
 30
0.0
 11
4136.6875835572
 21
1074.2043978663
 31
0.0
  0
LINE
  5
1A7
330
1F
100
AcDbEntity
  8
0
  6
Continuous
 62
     7
370
    25
100
AcDbLine
 10
4136.6262140616
 20
1059.3043978663
 30
0.0
 11
4136.6875835572
 21
1059.3043978663
 31
0.0
  0
LINE
  5
1A8
330
1F
100
AcDbEntity
  8
0
  6
Continuous
 62
     7
370
    25
100
AcDbLine
 10
4137.4163010121
 20
1530.2543978663
 30
0.0
 11
4135.4163010121
 21
1530.2543978663
 31
0.0
  0
LINE
  5
1A9
330
1F
100
AcDbEntity
  8
0
  6
Continuous
 62
     7
370
    25
100
AcDbLine
 10
4135.4163010121
 20
1543.2543978663
 30
0.0
 11
4137.4163010121
 21
1543.2543978663
 31
0.0
  0
LINE
  5
1AA
330
1F
100
AcDbEntity
  8
0
  6
Continuous
 62
     7
370
    25
100
AcDbLine
 10
4136.6875835572
 20
1544.2043978663
 30
0.0
 11
4136.6875835572
 21
1543.2543978663
 31
0.0
  0
LINE
  5
1AB
330
1F
100
AcDbEntity
  8
0
  6
Continuous
 62
     7
370
    25
100
AcDbLine
 10
4136.6875835572
 20
1530.2543978663
 30
0.0
 11
4136.6875835572
 21
1529.3043978663
 31
0.0
  0
LINE
  5
1AC
330
1F
100
AcDbEntity
  8
0
  6
Continuous
 62
     7
370
    25
100
AcDbLine
 10
4136.6875835572
 20
1544.2043978663
 30
0.0
 11
4137.4163010121
 21
1544.2043978663
 31
0.0
  0
LINE
  5
1AD
330
1F
100
AcDbEntity
  8
0
  6
Continuous
 62
     7
370
    25
100
AcDbLine
 10
4136.6875835572
 20
1529.3043978663
 30
0.0
 11
4137.4163010121
 21
1529.3043978663
 31
0.0
  0
LINE
  5
1AE
330
1F
100
AcDbEntity
  8
0
  6
Continuous
 62
     7
370
    25
100
AcDbLine
 10
4136.6262140616
 20
1544.2043978663
 30
0.0
 11
4136.6262140616
 21
1543.2543978663
 31
0.0
  0
LINE
  5
1AF
330
1F
100
AcDbEntity
  8
0
  6
Continuous
 62
     7
370
    25
100
AcDbLine
 10
4136.6262140616
 20
1530.2543978663
 30
0.0
 11
4136.6262140616
 21
1529.3043978663
 31
0.0
  0
LINE
  5
1B0
330
1F
100
AcDbEntity
  8
0
  6
Continuous
 62
     7
370
    25
100
AcDbLine
 10
4136.6262140616
 20
1544.2043978663
 30
0.0
 11
4136.6875835572
 21
1544.2043978663
 31
0.0
  0
LINE
  5
1B1
330
1F
100
AcDbEntity
  8
0
  6
Continuous
 62
     7
370
    25
100
AcDbLine
 10
4136.6262140616
 20
1529.3043978663
 30
0.0
 11
4136.6875835572
 21
1529.3043978663
 31
0.0
  0
LINE
  5
1B2
330
1F
100
AcDbEntity
  8
0
  6
Continuous
 62
     7
370
    25
100
AcDbLine
 10
4135.9163010121
 20
1074.2293978663
 30
0.0
 11
4136.2278668149
 21
1074.2293978663
 31
0.0
  0
LINE
  5
1B3
330
1F
100
AcDbEntity
  8
0
  6
Continuous
 62
     7
370
    25
100
AcDbLine
 10
4136.2278668149
 20
1059.2793978663
 30
0.0
 11
4136.2278668149
 21
1060.2543978663
 31
0.0
  0
LINE
  5
1B4
330
1F
100
AcDbEntity
  8
0
  6
Continuous
 62
     7
370
    25
100
AcDbLine
 10
4136.2278668149
 20
1073.2543978663
 30
0.0
 11
4136.2278668149
 21
1074.2293978663
 31
0.0
  0
LINE
  5
1B5
330
1F
100
AcDbEntity
  8
0
  6
Continuous
 62
     7
370
    25
100
AcDbLine
 10
4135.9163010121
 20
1059.2793978663
 30
0.0
 11
4136.2278668149
 21
1059.2793978663
 31
0.0
  0
LINE
  5
1B6
330
1F
100
AcDbEntity
  8
0
  6
Continuous
 62
     7
370
    25
100
AcDbLine
 10
4136.2278668149
 20
1074.2293978663
 30
0.0
 11
4136.2670094093
 21
1074.2293978663
 31
0.0
  0
LINE
  5
1B7
330
1F
100
AcDbEntity
  8
0
  6
Continuous
 62
     7
370
    25
100
AcDbLine
 10
4136.2278668149
 20
1059.2793978663
 30
0.0
 11
4136.2670094093
 21
1059.2793978663
 31
0.0
  0
LINE
  5
1B8
330
1F
100
AcDbEntity
  8
0
  6
Continuous
 62
     7
370
    25
100
AcDbLine
 10
4135.9163010121
 20
1544.2293978663
 30
0.0
 11
4136.2278668149
 21
1544.2293978663
 31
0.0
  0
LINE
  5
1B9
330
1F
100
AcDbEntity
  8
0
  6
Continuous
 62
     7
370
    25
100
AcDbLine
 10
4136.2278668149
 20
1529.2793978663
 30
0.0
 11
4136.2278668149
 21
1530.2543978663
 31
0.0
  0
LINE
  5
1BA
330
1F
100
AcDbEntity
  8
0
  6
Continuous
 62
     7
370
    25
100
AcDbLine
 10
4136.2278668149
 20
1543.2543978663
 30
0.0
 11
4136.2278668149
 21
1544.2293978663
 31
0.0
  0
LINE
  5
1BB
330
1F
100
AcDbEntity
  8
0
  6
Continuous
 62
     7
370
    25
100
AcDbLine
 10
4135.9163010121
 20
1529.2793978663
 30
0.0
 11
4136.2278668149
 21
1529.2793978663
 31
0.0
  0
LINE
  5
1BC
330
1F
100
AcDbEntity
  8
0
  6
Continuous
 62
     7
370
    25
100
AcDbLine
 10
4136.2278668149
 20
1544.2293978663
 30
0.0
 11
4136.2670094093
 21
1544.2293978663
 31
0.0
  0
LINE
  5
1BD
330
1F
100
AcDbEntity
  8
0
  6
Continuous
 62
     7
370
    25
100
AcDbLine
 10
4136.2278668149
 20
1529.2793978663
 30
0.0
 11
4136.2670094093
 21
1529.2793978663
 31
0.0
  0
LINE
  5
1BE
330
1F
100
AcDbEntity
  8
0
  6
Continuous
 62
     7
370
    25
100
AcDbLine
 10
4517.8940211741
 20
1529.2767567878
 30
0.0
 11
4517.7500479585
 21
1534.7748720752
 31
0.0
  0
LINE
  5
1BF
330
1F
100
AcDbEntity
  8
0
  6
Continuous
 62
     7
370
    25
100
AcDbLine
 10
4518.8843462156
 20
1548.7600942736
 30
0.0
 11
4519.1382819156
 21
1539.0626811288
 31
0.0
  0
LINE
  5
1C0
330
1F
100
AcDbEntity
  8
0
  6
Continuous
 62
     7
370
    25
100
AcDbLine
 10
4519.8884726929
 20
1539.0823255657
 30
0.0
 11
4519.3649337268
 21
1559.0754720652
 31
0.0
  0
LINE
  5
1C1
330
1F
100
AcDbEntity
  8
0
  6
Continuous
 62
     7
370
    25
100
AcDbLine
 10
4520.5886322916
 20
1558.0117271316
 30
0.0
 11
4521.0548221131
 21
1540.2086561082
 31
0.0
  0
LINE
  5
1C2
330
1F
100
AcDbEntity
  8
0
  6
Continuous
 62
     7
370
    25
100
AcDbLine
 10
4521.1528571334
 20
1541.8115145215
 30
0.0
 11
4520.7704200861
 21
1556.4161961367
 31
0.0
  0
LINE
  5
1C3
330
1F
100
AcDbEntity
  8
0
  6
Continuous
 62
     7
370
    25
100
AcDbLine
 10
4518.2945485266
 20
1544.5424743019
 30
0.0
 11
4518.1728826872
 21
1549.1887052587
 31
0.0
  0
LINE
  5
1C4
330
1F
100
AcDbEntity
  8
0
  6
Continuous
 62
     7
370
    25
100
AcDbLine
 10
4518.1728826872
 20
1549.1887052587
 30
0.0
 11
4518.0589560754
 21
1553.539387036
 31
0.0
  0
LINE
  5
1C5
330
1F
100
AcDbEntity
  8
0
  6
Continuous
 62
     7
370
    25
100
AcDbLine
 10
4135.6163010121
 20
1509.2543978663
 30
0.0
 11
4137.4163010121
 21
1509.2543978663
 31
0.0
  0
LINE
  5
1C6
330
1F
100
AcDbEntity
  8
0
  6
Continuous
 62
     7
370
    25
100
AcDbLine
 10
4135.616301012
 20
1564.2543978663
 30
0.0
 11
4137.4163010121
 21
1564.2543978663
 31
0.0
  0
LINE
  5
1C7
330
1F
100
AcDbEntity
  8
0
  6
Continuous
 62
     7
370
    25
100
AcDbLine
 10
4136.7663010121
 20
1528.3793978663
 30
0.0
 11
4136.7663010121
 21
1526.7543978663
 31
0.0
  0
LINE
  5
1C8
330
1F
100
AcDbEntity
  8
0
  6
Continuous
 62
     7
370
    25
100
AcDbLine
 10
4136.7663010121
 20
1546.7543978663
 30
0.0
 11
4136.7663010121
 21
1545.1293978663
 31
0.0
  0
LINE
  5
1C9
330
1F
100
AcDbEntity
  8
0
  6
Continuous
 62
     7
370
    25
100
AcDbLine
 10
4135.6163010121
 20
1039.2543978663
 30
0.0
 11
4137.4163010121
 21
1039.2543978663
 31
0.0
  0
LINE
  5
1CA
330
1F
100
AcDbEntity
  8
0
  6
Continuous
 62
     7
370
    25
100
AcDbLine
 10
4135.616301012
 20
1094.2543978663
 30
0.0
 11
4137.4163010121
 21
1094.2543978663
 31
0.0
  0
LINE
  5
1CB
330
1F
100
AcDbEntity
  8
0
  6
Continuous
 62
     7
370
    25
100
AcDbLine
 10
4136.7663010121
 20
1058.3793978663
 30
0.0
 11
4136.7663010121
 21
1056.7543978663
 31
0.0
  0
LINE
  5
1CC
330
1F
100
AcDbEntity
  8
0
  6
Continuous
 62
     7
370
    25
100
AcDbLine
 10
4136.7663010121
 20
1076.7543978663
 30
0.0
 11
4136.7663010121
 21
1075.1293978663
 31
0.0
  0
SPLINE
  5
1CD
330
1F
100
AcDbEntity
  8
0
  6
Continuous
 62
     7
370
    25
100
AcDbSpline
210
0.0
220
0.0
230
1.0
 70
     8
 71
     3
 72
    16
 73
    12
 74
     0
 42
0.00000001
 43
0.00000001
 40
0.0
 40
0.0
 40
0.0
 40
0.0
 40
0.0490847390187455
 40
0.1518473045647085
 40
0.2358684990992572
 40
0.3090519161655129
 40
0.373478614211095
 40
0.4370328180328391
 40
0.5258016248251263
 40
0.7068629655468531
 40
1.0
 40
1.0
 40
1.0
 40
1.0
 10
2547.925074168674
 20
2753.66474910927
 30
0.0
 10
2547.929765765409
 20
2753.730939501491
 30
0.0
 10
2547.944279570157
 20
2753.935704421254
 30
0.0
 10
2547.817101818786
 20
2754.239921080901
 30
0.0
 10
2547.612885409261
 20
2754.515984719922
 30
0.0
 10
2547.391873803395
 20
2754.689323194562
 30
0.0
 10
2547.200107235652
 20
2754.786327207064
 30
0.0
 10
2547.042893347468
 20
2754.840400572421
 30
0.0
 10
2546.877542172415
 20
2754.879033393793
 30
0.0
 10
2546.681828237489
 20
2754.908770279313
 30
0.0
 10
2546.454213845382
 20
2754.925985948585
 30
0.0
 10
2546.313508580679
 20
2754.93662822511
 30
0.0
  0
SPLINE
  5
1CE
330
1F
100
AcDbEntity
  8
0
  6
Continuous
 62
     7
370
    25
100
AcDbSpline
210
0.0
220
0.0
230
1.0
 70
     8
 71
     3
 72
    14
 73
    10
 74
     0
 42
0.00000001
 43
0.00000001
 40
0.0
 40
0.0
 40
0.0
 40
0.0
 40
0.4380448777707727
 40
0.5889072021156261
 40
0.6648524542794935
 40
0.7505291071917574
 40
0.8517030556681131
 40
0.962026731475614
 40
1.0
 40
1.0
 40
1.0
 40
1.0
 10
2529.529691039083
 20
2754.935504543183
 30
0.0
 10
2529.357587419204
 20
2754.920813519865
 30
0.0
 10
2529.126211442905
 20
2754.901062919235
 30
0.0
 10
2528.826901395453
 20
2754.840915253045
 30
0.0
 10
2528.553382146909
 20
2754.724397548354
 30
0.0
 10
2528.289180317124
 20
2754.534471220177
 30
0.0
 10
2528.06095638253
 20
2754.2219750859
 30
0.0
 10
2527.9369103925
 20
2753.90001010072
 30
0.0
 10
2527.958389890539
 20
2753.704696279348
 30
0.0
 10
2527.963889981929
 20
2753.654683757384
 30
0.0
  0
LINE
  5
1CF
330
1F
100
AcDbEntity
  8
0
  6
Continuous
 62
     7
370
    25
100
AcDbLine
 10
2547.9454585654
 20
2752.914092518
 30
0.0
 11
2547.9454585654
 21
2753.6642832953
 31
0.0
  0
LINE
  5
1D0
330
1F
100
AcDbEntity
  8
0
  6
Continuous
 62
     7
370
    25
100
AcDbLine
 10
2527.9454585654
 20
2753.6642832953
 30
0.0
 11
2527.9454585654
 21
2752.914092518
 31
0.0
  0
LINE
  5
1D1
330
1F
100
AcDbEntity
  8
0
  6
Continuous
 62
     7
370
    25
100
AcDbLine
 10
2546.4418327899
 20
2754.9290740988
 30
0.0
 11
2544.9154268517
 21
2755.0564516333
 31
0.0
  0
LINE
  5
1D2
330
1F
100
AcDbEntity
  8
0
  6
Continuous
 62
     7
370
    25
100
AcDbLine
 10
2530.975490279
 20
2755.0564516333
 30
0.0
 11
2529.4490843408
 21
2754.9290740988
 31
0.0
  0
SPLINE
  5
1D3
330
1F
100
AcDbEntity
  8
0
  6
Continuous
 62
     7
370
    25
100
AcDbSpline
210
0.0
220
0.0
230
1.0
 70
     8
 71
     3
 72
    14
 73
    10
 74
     0
 42
0.00000001
 43
0.00000001
 40
0.0
 40
0.0
 40
0.0
 40
0.0
 40
0.0907475556427842
 40
0.2288563839001996
 40
0.4128530542464732
 40
0.6071420004331656
 40
0.787828231839148
 40
0.9626611221741815
 40
1.0
 40
1.0
 40
1.0
 40
1.0
 10
2544.82546092373
 20
2755.061553406059
 30
0.0
 10
2544.613909756882
 20
2755.078385939607
 30
0.0
 10
2544.080398581713
 20
2755.120835928838
 30
0.0
 10
2543.219912941163
 20
2755.162796219049
 30
0.0
 10
2542.170112580981
 20
2755.199728364267
 30
0.0
 10
2540.935496063458
 20
2755.225453930889
 30
0.0
 10
2539.598989846256
 20
2755.241299849524
 30
0.0
 10
2538.588959722668
 20
2755.246111519762
 30
0.0
 10
2538.041757506833
 20
2755.246351103259
 30
0.0
 10
2537.945458565365
 20
2755.246393266167
 30
0.0
  0
SPLINE
  5
1D4
330
1F
100
AcDbEntity
  8
0
  6
Continuous
 62
     7
370
    25
100
AcDbSpline
210
0.0
220
0.0
230
1.0
 70
     8
 71
     3
 72
    13
 73
     9
 74
     0
 42
0.00000001
 43
0.00000001
 40
0.0
 40
0.0
 40
0.0
 40
0.0
 40
0.0971790056423965
 40
0.2845710337029604
 40
0.4775192778487875
 40
0.6890792027696978
 40
0.8771625243238415
 40
0.9999999999999999
 40
0.9999999999999999
 40
0.9999999999999999
 40
0.9999999999999999
 10
2537.945458565365
 20
2755.246393266167
 30
0.0
 10
2537.698437493655
 20
2755.246131497291
 30
0.0
 10
2536.975081237249
 20
2755.245364954772
 30
0.0
 10
2535.782482825122
 20
2755.236490482708
 30
0.0
 10
2534.412409207467
 20
2755.216251138439
 30
0.0
 10
2533.178104082207
 20
2755.182234192516
 30
0.0
 10
2532.148335398514
 20
2755.142730979271
 30
0.0
 10
2531.441932094419
 20
2755.089110818866
 30
0.0
 10
2531.1628488055
 20
2755.067926757818
 30
0.0
  0
LINE
  5
1D5
330
1F
100
AcDbEntity
  8
0
  6
Continuous
 62
     7
370
    25
100
AcDbLine
 10
2542.4454585654
 20
2749.9538810975
 30
0.0
 11
2542.4454585654
 21
2752.2143323905
 31
0.0
  0
LINE
  5
1D6
330
1F
100
AcDbEntity
  8
0
  6
Continuous
 62
     7
370
    25
100
AcDbLine
 10
2533.4454585654
 20
2752.2143323905
 30
0.0
 11
2533.4454585654
 21
2749.9538810975
 31
0.0
  0
SPLINE
  5
1D7
330
1F
100
AcDbEntity
  8
0
  6
Continuous
 62
     7
370
    25
100
AcDbSpline
210
0.0
220
0.0
230
1.0
 70
     8
 71
     3
 72
    16
 73
    12
 74
     0
 42
0.00000001
 43
0.00000001
 40
0.0
 40
0.0
 40
0.0
 40
0.0
 40
0.0490847390187415
 40
0.1518473045647052
 40
0.2358684990992602
 40
0.3090519161655128
 40
0.3734786142110952
 40
0.4370328180328402
 40
0.5258016248251255
 40
0.706862965546854
 40
0.9999999999999999
 40
0.9999999999999999
 40
0.9999999999999999
 40
0.9999999999999999
 10
2171.425074168675
 20
2753.66474910927
 30
0.0
 10
2171.429765765409
 20
2753.730939501491
 30
0.0
 10
2171.444279570158
 20
2753.935704421254
 30
0.0
 10
2171.317101818787
 20
2754.239921080901
 30
0.0
 10
2171.112885409261
 20
2754.515984719922
 30
0.0
 10
2170.891873803395
 20
2754.689323194562
 30
0.0
 10
2170.700107235653
 20
2754.786327207064
 30
0.0
 10
2170.542893347469
 20
2754.840400572421
 30
0.0
 10
2170.377542172416
 20
2754.879033393793
 30
0.0
 10
2170.18182823749
 20
2754.908770279313
 30
0.0
 10
2169.954213845384
 20
2754.925985948585
 30
0.0
 10
2169.81350858068
 20
2754.93662822511
 30
0.0
  0
SPLINE
  5
1D8
330
1F
100
AcDbEntity
  8
0
  6
Continuous
 62
     7
370
    25
100
AcDbSpline
210
0.0
220
0.0
230
1.0
 70
     8
 71
     3
 72
    14
 73
    10
 74
     0
 42
0.00000001
 43
0.00000001
 40
0.0
 40
0.0
 40
0.0
 40
0.0
 40
0.4380448777707689
 40
0.5889072021156212
 40
0.6648524542794892
 40
0.7505291071917645
 40
0.85170305566811
 40
0.9620267314756122
 40
1.0
 40
1.0
 40
1.0
 40
1.0
 10
2153.029691039084
 20
2754.935504543183
 30
0.0
 10
2152.857587419205
 20
2754.920813519865
 30
0.0
 10
2152.626211442906
 20
2754.901062919235
 30
0.0
 10
2152.326901395453
 20
2754.840915253045
 30
0.0
 10
2152.053382146909
 20
2754.724397548354
 30
0.0
 10
2151.789180317125
 20
2754.534471220178
 30
0.0
 10
2151.560956382531
 20
2754.2219750859
 30
0.0
 10
2151.436910392501
 20
2753.90001010072
 30
0.0
 10
2151.45838989054
 20
2753.704696279348
 30
0.0
 10
2151.463889981931
 20
2753.654683757384
 30
0.0
  0
LINE
  5
1D9
330
1F
100
AcDbEntity
  8
0
  6
Continuous
 62
     7
370
    25
100
AcDbLine
 10
2171.4454585654
 20
2752.914092518
 30
0.0
 11
2171.4454585654
 21
2753.6642832953
 31
0.0
  0
LINE
  5
1DA
330
1F
100
AcDbEntity
  8
0
  6
Continuous
 62
     7
370
    25
100
AcDbLine
 10
2151.4454585654
 20
2753.6642832953
 30
0.0
 11
2151.4454585654
 21
2752.914092518
 31
0.0
  0
LINE
  5
1DB
330
1F
100
AcDbEntity
  8
0
  6
Continuous
 62
     7
370
    25
100
AcDbLine
 10
2169.9418327899
 20
2754.9290740988
 30
0.0
 11
2168.4154268517
 21
2755.0564516333
 31
0.0
  0
LINE
  5
1DC
330
1F
100
AcDbEntity
  8
0
  6
Continuous
 62
     7
370
    25
100
AcDbLine
 10
2154.475490279
 20
2755.0564516333
 30
0.0
 11
2152.9490843408
 21
2754.9290740988
 31
0.0
  0
SPLINE
  5
1DD
330
1F
100
AcDbEntity
  8
0
  6
Continuous
 62
     7
370
    25
100
AcDbSpline
210
0.0
220
0.0
230
1.0
 70
     8
 71
     3
 72
    14
 73
    10
 74
     0
 42
0.00000001
 43
0.00000001
 40
0.0
 40
0.0
 40
0.0
 40
0.0
 40
0.0907475556427901
 40
0.2288563839002152
 40
0.4128530542464929
 40
0.6071420004331755
 40
0.7878282318391628
 40
0.9626611221742005
 40
1.0
 40
1.0
 40
1.0
 40
1.0
 10
2168.325460923731
 20
2755.061553406059
 30
0.0
 10
2168.113909756883
 20
2755.078385939607
 30
0.0
 10
2167.580398581713
 20
2755.120835928838
 30
0.0
 10
2166.719912941164
 20
2755.162796219049
 30
0.0
 10
2165.670112580982
 20
2755.199728364267
 30
0.0
 10
2164.435496063459
 20
2755.225453930889
 30
0.0
 10
2163.098989846257
 20
2755.241299849524
 30
0.0
 10
2162.088959722669
 20
2755.246111519762
 30
0.0
 10
2161.541757506833
 20
2755.246351103259
 30
0.0
 10
2161.445458565366
 20
2755.246393266167
 30
0.0
  0
SPLINE
  5
1DE
330
1F
100
AcDbEntity
  8
0
  6
Continuous
 62
     7
370
    25
100
AcDbSpline
210
0.0
220
0.0
230
1.0
 70
     8
 71
     3
 72
    13
 73
     9
 74
     0
 42
0.00000001
 43
0.00000001
 40
0.0
 40
0.0
 40
0.0
 40
0.0
 40
0.097179005642393
 40
0.2845710337029592
 40
0.4775192778487867
 40
0.6890792027696984
 40
0.8771625243238423
 40
0.9999999999999999
 40
0.9999999999999999
 40
0.9999999999999999
 40
0.9999999999999999
 10
2161.445458565366
 20
2755.246393266167
 30
0.0
 10
2161.198437493656
 20
2755.246131497291
 30
0.0
 10
2160.47508123725
 20
2755.245364954772
 30
0.0
 10
2159.282482825123
 20
2755.236490482708
 30
0.0
 10
2157.912409207468
 20
2755.216251138439
 30
0.0
 10
2156.678104082208
 20
2755.182234192516
 30
0.0
 10
2155.648335398515
 20
2755.142730979271
 30
0.0
 10
2154.941932094419
 20
2755.089110818866
 30
0.0
 10
2154.662848805501
 20
2755.067926757818
 30
0.0
  0
LINE
  5
1DF
330
1F
100
AcDbEntity
  8
0
  6
Continuous
 62
     7
370
    25
100
AcDbLine
 10
2165.9454585654
 20
2749.9538810975
 30
0.0
 11
2165.9454585654
 21
2752.2143323905
 31
0.0
  0
LINE
  5
1E0
330
1F
100
AcDbEntity
  8
0
  6
Continuous
 62
     7
370
    25
100
AcDbLine
 10
2156.9454585654
 20
2752.2143323905
 30
0.0
 11
2156.9454585654
 21
2749.9538810975
 31
0.0
  0
LINE
  5
1E1
330
1F
100
AcDbEntity
  8
0
  6
Continuous
 62
     7
370
    25
100
AcDbLine
 10
2572.4454585654
 20
2351.4538810975
 30
0.0
 11
2126.4454585654
 21
2351.4538810975
 31
0.0
  0
LINE
  5
1E2
330
1F
100
AcDbEntity
  8
0
  6
Continuous
 62
     7
370
    25
100
AcDbLine
 10
2126.4454585654
 20
2351.4538810975
 30
0.0
 11
2126.4454585654
 21
2355.2366694141
 31
0.0
  0
LINE
  5
1E3
330
1F
100
AcDbEntity
  8
0
  6
Continuous
 62
     7
370
    25
100
AcDbLine
 10
2572.4454585654
 20
2351.4538810975
 30
0.0
 11
2572.4454585654
 21
2355.2366694141
 31
0.0
  0
LINE
  5
1E4
330
1F
100
AcDbEntity
  8
0
  6
Continuous
 62
     7
370
    25
100
AcDbLine
 10
2574.9454585654
 20
2749.9538810975
 30
0.0
 11
2124.4454585654
 21
2749.9538810975
 31
0.0
  0
LINE
  5
1E5
330
1F
100
AcDbEntity
  8
0
  6
Continuous
 62
     7
370
    25
100
AcDbLine
 10
2574.9454585654
 20
2749.9538810975
 30
0.0
 11
2574.9454585654
 21
2370.9538810975
 31
0.0
  0
LINE
  5
1E6
330
1F
100
AcDbEntity
  8
0
  6
Continuous
 62
     7
370
    25
100
AcDbLine
 10
2574.9454585654
 20
2370.9538810975
 30
0.0
 11
2124.4454585654
 21
2370.9538810975
 31
0.0
  0
LINE
  5
1E7
330
1F
100
AcDbEntity
  8
0
  6
Continuous
 62
     7
370
    25
100
AcDbLine
 10
2124.4454585654
 20
2749.9538810975
 30
0.0
 11
2124.4454585654
 21
2370.9538810975
 31
0.0
  0
ARC
  5
1E8
330
1F
100
AcDbEntity
  8
0
  6
Continuous
 62
     7
370
    25
100
AcDbCircle
 10
2538.9487994324
 20
2944.9300038129
 30
0.0
 40
190.3064363802914
100
AcDbArc
 50
269.6979216021
 51
271.989829998
  0
ARC
  5
1E9
330
1F
100
AcDbEntity
  8
0
  6
Continuous
 62
     7
370
    25
100
AcDbCircle
 10
2537.3807674915
 20
2989.2063632821
 30
0.0
 40
234.5808305779466
100
AcDbArc
 50
268.5008299502
 51
270.1379245117
  0
ARC
  5
1EA
330
1F
100
AcDbEntity
  8
0
  6
Continuous
 62
     7
370
    25
100
AcDbCircle
 10
2540.7883976532
 20
2835.1862780978
 30
0.0
 40
82.58290404787404
100
AcDbArc
 50
268.0271873052
 51
274.971785139
  0
ARC
  5
1EB
330
1F
100
AcDbEntity
  8
0
  6
Continuous
 62
     7
370
    25
100
AcDbCircle
 10
2535.3258447337
 20
2843.7176490436
 30
0.0
 40
91.1029965352252
100
AcDbArc
 50
265.3532935281
 51
271.6477340277
  0
SPLINE
  5
1EC
330
1F
100
AcDbEntity
  8
0
  6
Continuous
 62
     7
370
    25
100
AcDbSpline
210
0.0
220
0.0
230
1.0
 70
     8
 71
     3
 72
    19
 73
    15
 74
     0
 42
0.00000001
 43
0.00000001
 40
0.0
 40
0.0
 40
0.0
 40
0.0
 40
0.0906600731280771
 40
0.2050734138973389
 40
0.2719074979493185
 40
0.3443210476357541
 40
0.4209983262120372
 40
0.4999999792228288
 40
0.579001634726051
 40
0.6556789199260391
 40
0.7280924783131304
 40
0.794926570954286
 40
0.9093399235674626
 40
0.9999999999999999
 40
0.9999999999999999
 40
0.9999999999999999
 40
0.9999999999999999
 10
2547.745458565365
 20
2752.71416105302
 30
0.0
 10
2547.668604520697
 20
2752.689935507784
 30
0.0
 10
2547.4947603932
 20
2752.635137236684
 30
0.0
 10
2546.174903170726
 20
2752.568753953304
 30
0.0
 10
2544.418984010529
 20
2752.518841342657
 30
0.0
 10
2542.595890405646
 20
2752.485710477378
 30
0.0
 10
2540.414524317423
 20
2752.463277619614
 30
0.0
 10
2538.021572113835
 20
2752.455015509582
 30
0.0
 10
2535.624049624953
 20
2752.462313475466
 30
0.0
 10
2533.429764294538
 20
2752.483865677207
 30
0.0
 10
2531.587425031514
 20
2752.51625882664
 30
0.0
 10
2529.802394606038
 20
2752.565458774839
 30
0.0
 10
2528.443699588437
 20
2752.631302962632
 30
0.0
 10
2528.237687244346
 20
2752.686024785418
 30
0.0
 10
2528.146612086787
 20
2752.710216533024
 30
0.0
  0
LINE
  5
1ED
330
1F
100
AcDbEntity
  8
0
  6
Continuous
 62
     7
370
    25
100
AcDbLine
 10
2530.975490279
 20
2755.0564516333
 30
0.0
 11
2531.0274519143
 21
2755.0606198496
 31
0.0
  0
LINE
  5
1EE
330
1F
100
AcDbEntity
  8
0
  6
Continuous
 62
     7
370
    25
100
AcDbLine
 10
2542.6356302781
 20
2755.113338633
 30
0.0
 11
2542.6346783417
 21
2755.1158121239
 31
0.0
  0
LWPOLYLINE
  5
1EF
330
1F
100
AcDbEntity
  8
0
  6
Continuous
 62
     7
370
    25
100
AcDbPolyline
 90
       23
 70
   128
 43
0.0
 10
2542.6346783417
 20
2755.1158121239
 10
2542.4194017973
 20
2755.1501872105
 10
2541.8439780752
 20
2755.18159603
 10
2540.9547281093
 20
2755.2075102091
 10
2539.8232354781
 20
2755.2258436869
 10
2538.54058401
 20
2755.2351206399
 10
2537.2100256422
 20
2755.2345942843
 10
2535.9386687613
 20
2755.2243069912
 10
2534.8288561037
 20
2755.2050868755
 10
2533.9699262854
 20
2755.178481134
 10
2533.4310221483
 20
2755.1466314976
 10
2533.2555248428
 20
2755.1121018248
 10
2533.4575616959
 20
2755.0776717135
 10
2534.0208689783
 20
2755.0461127473
 10
2534.9001011149
 20
2755.0199653861
 10
2536.0244809511
 20
2755.0013344616
 10
2537.3034972299
 20
2754.9917197414
 10
2538.6341906426
 20
2754.9918951992
 10
2539.9094419316
 20
2755.0018467108
 10
2541.0265948654
 20
2755.0207731913
 10
2541.8957199443
 20
2755.0471510811
 10
2542.4468536198
 20
2755.0788569912
 10
2542.6356302781
 20
2755.113338633
  0
LINE
  5
1F0
330
1F
100
AcDbEntity
  8
0
  6
Continuous
 62
     7
370
    25
100
AcDbLine
 10
2535.4996091614
 20
2755.0998575046
 30
0.0
 11
2537.4304585654
 21
2755.0998575046
 31
0.0
  0
LINE
  5
1F1
330
1F
100
AcDbEntity
  8
0
  6
Continuous
 62
     7
370
    25
100
AcDbLine
 10
2537.4304585654
 20
2755.0998575046
 30
0.0
 11
2537.4304585654
 21
2755.0493137595
 31
0.0
  0
ARC
  5
1F2
330
1F
100
AcDbEntity
  8
0
  6
Continuous
 62
     7
370
    25
100
AcDbCircle
 10
2537.9454585654
 20
2849.3371748629
 30
0.0
 40
94.28926755707754
100
AcDbArc
 50
269.687053745
 51
270.312946255
  0
LINE
  5
1F3
330
1F
100
AcDbEntity
  8
0
  6
Continuous
 62
     7
370
    25
100
AcDbLine
 10
2538.4604585654
 20
2755.0493137595
 30
0.0
 11
2538.4604585654
 21
2755.0998575046
 31
0.0
  0
LINE
  5
1F4
330
1F
100
AcDbEntity
  8
0
  6
Continuous
 62
     7
370
    25
100
AcDbLine
 10
2538.4604585654
 20
2755.0998575046
 30
0.0
 11
2540.3913079693
 21
2755.0998575046
 31
0.0
  0
LWPOLYLINE
  5
1F5
330
1F
100
AcDbEntity
  8
0
  6
Continuous
 62
     7
370
    25
100
AcDbPolyline
 90
        9
 70
   128
 43
0.0
 10
2540.3913079693
 20
2755.1268197613
 10
2540.4147242752
 20
2755.123481353
 10
2540.4314953662
 20
2755.1201156488
 10
2540.4415761084
 20
2755.1167317065
 10
2540.4449393728
 20
2755.1133386329
 10
2540.4415761084
 20
2755.1099455593
 10
2540.4314953662
 20
2755.1065616171
 10
2540.4147242752
 20
2755.1031959129
 10
2540.3913079693
 20
2755.0998575046
  0
LINE
  5
1F6
330
1F
100
AcDbEntity
  8
0
  6
Continuous
 62
     7
370
    25
100
AcDbLine
 10
2540.3913079693
 20
2755.1268197613
 30
0.0
 11
2538.4604585654
 21
2755.1268197613
 31
0.0
  0
LINE
  5
1F7
330
1F
100
AcDbEntity
  8
0
  6
Continuous
 62
     7
370
    25
100
AcDbLine
 10
2538.4604585654
 20
2755.1268197613
 30
0.0
 11
2538.4604585654
 21
2755.1773635064
 31
0.0
  0
ARC
  5
1F8
330
1F
100
AcDbEntity
  8
0
  6
Continuous
 62
     7
370
    25
100
AcDbCircle
 10
2537.9454585654
 20
2660.8895023521
 30
0.0
 40
94.28926760799847
100
AcDbArc
 50
89.6870537452
 51
90.3129462548
  0
LINE
  5
1F9
330
1F
100
AcDbEntity
  8
0
  6
Continuous
 62
     7
370
    25
100
AcDbLine
 10
2537.4304585654
 20
2755.1773635064
 30
0.0
 11
2537.4304585654
 21
2755.1268197613
 31
0.0
  0
LINE
  5
1FA
330
1F
100
AcDbEntity
  8
0
  6
Continuous
 62
     7
370
    25
100
AcDbLine
 10
2537.4304585654
 20
2755.1268197613
 30
0.0
 11
2535.4996091614
 21
2755.1268197613
 31
0.0
  0
LWPOLYLINE
  5
1FB
330
1F
100
AcDbEntity
  8
0
  6
Continuous
 62
     7
370
    25
100
AcDbPolyline
 90
        9
 70
   128
 43
0.0
 10
2535.4996091614
 20
2755.0998575046
 10
2535.4761928556
 20
2755.1031959129
 10
2535.4594217646
 20
2755.1065616171
 10
2535.4493410224
 20
2755.1099455593
 10
2535.4459777579
 20
2755.1133386329
 10
2535.4493410224
 20
2755.1167317065
 10
2535.4594217646
 20
2755.1201156488
 10
2535.4761928556
 20
2755.123481353
 10
2535.4996091614
 20
2755.1268197613
  0
LINE
  5
1FC
330
1F
100
AcDbEntity
  8
0
  6
Continuous
 62
     7
370
    25
100
AcDbLine
 10
2535.5133329309
 20
2755.0998575046
 30
0.0
 11
2535.4996091614
 21
2755.1268197613
 31
0.0
  0
LINE
  5
1FD
330
1F
100
AcDbEntity
  8
0
  6
Continuous
 62
     7
370
    25
100
AcDbLine
 10
2538.4604585654
 20
2755.1268197613
 30
0.0
 11
2538.4604585654
 21
2755.0998575046
 31
0.0
  0
LINE
  5
1FE
330
1F
100
AcDbEntity
  8
0
  6
Continuous
 62
     7
370
    25
100
AcDbLine
 10
2537.4304585654
 20
2755.1268197613
 30
0.0
 11
2537.4304585654
 21
2755.0998575046
 31
0.0
  0
ARC
  5
1FF
330
1F
100
AcDbEntity
  8
0
  6
Continuous
 62
     7
370
    25
100
AcDbCircle
 10
2162.4487994324
 20
2944.9300038106
 30
0.0
 40
190.3064363779993
100
AcDbArc
 50
269.697921602
 51
271.989829998
  0
ARC
  5
200
330
1F
100
AcDbEntity
  8
0
  6
Continuous
 62
     7
370
    25
100
AcDbCircle
 10
2160.8807674915
 20
2989.2063632793
 30
0.0
 40
234.5808305751218
100
AcDbArc
 50
268.5008299502
 51
270.1379245117
  0
ARC
  5
201
330
1F
100
AcDbEntity
  8
0
  6
Continuous
 62
     7
370
    25
100
AcDbCircle
 10
2164.2883976532
 20
2835.1862780979
 30
0.0
 40
82.5829040479063
100
AcDbArc
 50
268.0271873052
 51
274.971785139
  0
ARC
  5
202
330
1F
100
AcDbEntity
  8
0
  6
Continuous
 62
     7
370
    25
100
AcDbCircle
 10
2158.8258447337
 20
2843.7176490438
 30
0.0
 40
91.10299653539415
100
AcDbArc
 50
265.3532935281
 51
271.6477340277
  0
SPLINE
  5
203
330
1F
100
AcDbEntity
  8
0
  6
Continuous
 62
     7
370
    25
100
AcDbSpline
210
0.0
220
0.0
230
1.0
 70
     8
 71
     3
 72
    19
 73
    15
 74
     0
 42
0.00000001
 43
0.00000001
 40
0.0
 40
0.0
 40
0.0
 40
0.0
 40
0.090660073128077
 40
0.2050734138973389
 40
0.2719074979493192
 40
0.3443210476357551
 40
0.4209983262120371
 40
0.4999999792228281
 40
0.5790016347260514
 40
0.6556789199260387
 40
0.7280924783131308
 40
0.7949265709542858
 40
0.9093399235674628
 40
1.0
 40
1.0
 40
1.0
 40
1.0
 10
2171.245458565366
 20
2752.71416105302
 30
0.0
 10
2171.168604520698
 20
2752.689935507784
 30
0.0
 10
2170.9947603932
 20
2752.635137236684
 30
0.0
 10
2169.674903170726
 20
2752.568753953304
 30
0.0
 10
2167.918984010529
 20
2752.518841342657
 30
0.0
 10
2166.095890405647
 20
2752.485710477378
 30
0.0
 10
2163.914524317424
 20
2752.463277619614
 30
0.0
 10
2161.521572113837
 20
2752.455015509582
 30
0.0
 10
2159.124049624954
 20
2752.462313475466
 30
0.0
 10
2156.929764294539
 20
2752.483865677207
 30
0.0
 10
2155.087425031515
 20
2752.51625882664
 30
0.0
 10
2153.302394606039
 20
2752.565458774839
 30
0.0
 10
2151.943699588439
 20
2752.631302962632
 30
0.0
 10
2151.737687244347
 20
2752.686024785418
 30
0.0
 10
2151.646612086788
 20
2752.710216533024
 30
0.0
  0
LINE
  5
204
330
1F
100
AcDbEntity
  8
0
  6
Continuous
 62
     7
370
    25
100
AcDbLine
 10
2154.475490279
 20
2755.0564516333
 30
0.0
 11
2154.5274519143
 21
2755.0606198496
 31
0.0
  0
LINE
  5
205
330
1F
100
AcDbEntity
  8
0
  6
Continuous
 62
     7
370
    25
100
AcDbLine
 10
2166.1356302781
 20
2755.113338633
 30
0.0
 11
2166.1346783417
 21
2755.1158121239
 31
0.0
  0
LWPOLYLINE
  5
206
330
1F
100
AcDbEntity
  8
0
  6
Continuous
 62
     7
370
    25
100
AcDbPolyline
 90
       23
 70
   128
 43
0.0
 10
2166.1346783417
 20
2755.1158121239
 10
2165.9194017973
 20
2755.1501872105
 10
2165.3439780752
 20
2755.18159603
 10
2164.4547281093
 20
2755.2075102091
 10
2163.3232354781
 20
2755.2258436869
 10
2162.04058401
 20
2755.2351206399
 10
2160.7100256422
 20
2755.2345942843
 10
2159.4386687613
 20
2755.2243069912
 10
2158.3288561037
 20
2755.2050868755
 10
2157.4699262854
 20
2755.178481134
 10
2156.9310221483
 20
2755.1466314976
 10
2156.7555248428
 20
2755.1121018248
 10
2156.9575616959
 20
2755.0776717135
 10
2157.5208689783
 20
2755.0461127473
 10
2158.4001011149
 20
2755.0199653861
 10
2159.5244809511
 20
2755.0013344616
 10
2160.8034972299
 20
2754.9917197414
 10
2162.1341906426
 20
2754.9918951992
 10
2163.4094419316
 20
2755.0018467108
 10
2164.5265948654
 20
2755.0207731913
 10
2165.3957199443
 20
2755.0471510811
 10
2165.9468536198
 20
2755.0788569912
 10
2166.1356302781
 20
2755.113338633
  0
LINE
  5
207
330
1F
100
AcDbEntity
  8
0
  6
Continuous
 62
     7
370
    25
100
AcDbLine
 10
2158.9996091614
 20
2755.0998575046
 30
0.0
 11
2160.9304585654
 21
2755.0998575046
 31
0.0
  0
LINE
  5
208
330
1F
100
AcDbEntity
  8
0
  6
Continuous
 62
     7
370
    25
100
AcDbLine
 10
2160.9304585654
 20
2755.0998575046
 30
0.0
 11
2160.9304585654
 21
2755.0493137595
 31
0.0
  0
ARC
  5
209
330
1F
100
AcDbEntity
  8
0
  6
Continuous
 62
     7
370
    25
100
AcDbCircle
 10
2161.4454585654
 20
2849.33717489
 30
0.0
 40
94.28926758410913
100
AcDbArc
 50
269.6870537451
 51
270.3129462549
  0
LINE
  5
20A
330
1F
100
AcDbEntity
  8
0
  6
Continuous
 62
     7
370
    25
100
AcDbLine
 10
2161.9604585654
 20
2755.0493137595
 30
0.0
 11
2161.9604585654
 21
2755.0998575046
 31
0.0
  0
LINE
  5
20B
330
1F
100
AcDbEntity
  8
0
  6
Continuous
 62
     7
370
    25
100
AcDbLine
 10
2161.9604585654
 20
2755.0998575046
 30
0.0
 11
2163.8913079693
 21
2755.0998575046
 31
0.0
  0
LWPOLYLINE
  5
20C
330
1F
100
AcDbEntity
  8
0
  6
Continuous
 62
     7
370
    25
100
AcDbPolyline
 90
        9
 70
   128
 43
0.0
 10
2163.8913079693
 20
2755.1268197613
 10
2163.9147242752
 20
2755.123481353
 10
2163.9314953662
 20
2755.1201156488
 10
2163.9415761084
 20
2755.1167317065
 10
2163.9449393728
 20
2755.1133386329
 10
2163.9415761084
 20
2755.1099455593
 10
2163.9314953662
 20
2755.1065616171
 10
2163.9147242752
 20
2755.1031959129
 10
2163.8913079693
 20
2755.0998575046
  0
LINE
  5
20D
330
1F
100
AcDbEntity
  8
0
  6
Continuous
 62
     7
370
    25
100
AcDbLine
 10
2163.8913079693
 20
2755.1268197613
 30
0.0
 11
2161.9604585654
 21
2755.1268197613
 31
0.0
  0
LINE
  5
20E
330
1F
100
AcDbEntity
  8
0
  6
Continuous
 62
     7
370
    25
100
AcDbLine
 10
2161.9604585654
 20
2755.1268197613
 30
0.0
 11
2161.9604585654
 21
2755.1773635064
 31
0.0
  0
ARC
  5
20F
330
1F
100
AcDbEntity
  8
0
  6
Continuous
 62
     7
370
    25
100
AcDbCircle
 10
2161.4454585654
 20
2660.8895023522
 30
0.0
 40
94.28926760788205
100
AcDbArc
 50
89.6870537452
 51
90.3129462548
  0
LINE
  5
210
330
1F
100
AcDbEntity
  8
0
  6
Continuous
 62
     7
370
    25
100
AcDbLine
 10
2160.9304585654
 20
2755.1773635064
 30
0.0
 11
2160.9304585654
 21
2755.1268197613
 31
0.0
  0
LINE
  5
211
330
1F
100
AcDbEntity
  8
0
  6
Continuous
 62
     7
370
    25
100
AcDbLine
 10
2160.9304585654
 20
2755.1268197613
 30
0.0
 11
2158.9996091614
 21
2755.1268197613
 31
0.0
  0
LWPOLYLINE
  5
212
330
1F
100
AcDbEntity
  8
0
  6
Continuous
 62
     7
370
    25
100
AcDbPolyline
 90
        9
 70
   128
 43
0.0
 10
2158.9996091614
 20
2755.0998575046
 10
2158.9761928556
 20
2755.1031959129
 10
2158.9594217646
 20
2755.1065616171
 10
2158.9493410224
 20
2755.1099455593
 10
2158.9459777579
 20
2755.1133386329
 10
2158.9493410224
 20
2755.1167317065
 10
2158.9594217646
 20
2755.1201156488
 10
2158.9761928556
 20
2755.123481353
 10
2158.9996091614
 20
2755.1268197613
  0
LINE
  5
213
330
1F
100
AcDbEntity
  8
0
  6
Continuous
 62
     7
370
    25
100
AcDbLine
 10
2159.0133329309
 20
2755.0998575046
 30
0.0
 11
2158.9996091614
 21
2755.1268197613
 31
0.0
  0
LINE
  5
214
330
1F
100
AcDbEntity
  8
0
  6
Continuous
 62
     7
370
    25
100
AcDbLine
 10
2161.9604585654
 20
2755.1268197613
 30
0.0
 11
2161.9604585654
 21
2755.0998575046
 31
0.0
  0
LINE
  5
215
330
1F
100
AcDbEntity
  8
0
  6
Continuous
 62
     7
370
    25
100
AcDbLine
 10
2160.9304585654
 20
2755.1268197613
 30
0.0
 11
2160.9304585654
 21
2755.0998575046
 31
0.0
  0
LINE
  5
216
330
1F
100
AcDbEntity
  8
0
  6
Continuous
 62
     7
370
    25
100
AcDbLine
 10
2128.4454585654
 20
2355.3706598482
 30
0.0
 11
2128.4454585654
 21
2356.5332659719
 31
0.0
  0
LINE
  5
217
330
1F
100
AcDbEntity
  8
0
  6
Continuous
 62
     7
370
    25
100
AcDbLine
 10
2128.4454585654
 20
2355.3706598482
 30
0.0
 11
2126.6454585654
 21
2355.3706598482
 31
0.0
  0
LINE
  5
218
330
1F
100
AcDbEntity
  8
0
  6
Continuous
 62
     7
370
    25
100
AcDbLine
 10
2126.6454585654
 20
2356.5332659719
 30
0.0
 11
2126.6454585654
 21
2355.3706598482
 31
0.0
  0
LINE
  5
219
330
1F
100
AcDbEntity
  8
0
  6
Continuous
 62
     7
370
    25
100
AcDbLine
 10
2128.4454585654
 20
2356.5332659719
 30
0.0
 11
2126.6454585654
 21
2356.5332659719
 31
0.0
  0
LINE
  5
21A
330
1F
100
AcDbEntity
  8
0
  6
Continuous
 62
     7
370
    25
100
AcDbLine
 10
2126.4454585654
 20
2355.4039330175
 30
0.0
 11
2126.4454585654
 21
2356.3340179166
 31
0.0
  0
ARC
  5
21B
330
1F
100
AcDbEntity
  8
0
  6
Continuous
 62
     7
370
    25
100
AcDbCircle
 10
2126.6450832998
 20
2356.3336412348
 30
0.0
 40
0.1996250898582732
100
AcDbArc
 50
89.8922923775
 51
179.8918858978
  0
ARC
  5
21C
330
1F
100
AcDbEntity
  8
0
  6
Continuous
 62
     7
370
    25
100
AcDbCircle
 10
2126.5968424451
 20
2355.69615718
 30
0.0
 40
0.3291079460374058
100
AcDbArc
 50
242.6140248793
 51
278.4948720921
  0
LINE
  5
21D
330
1F
100
AcDbEntity
  8
0
  6
Continuous
 62
     7
370
    25
100
AcDbLine
 10
2126.4454585654
 20
2355.2366694141
 30
0.0
 11
2126.4454585654
 21
2355.4039330175
 31
0.0
  0
LINE
  5
21E
330
1F
100
AcDbEntity
  8
0
  6
Continuous
 62
     7
370
    25
100
AcDbLine
 10
2126.6454585654
 20
2355.3706598482
 30
0.0
 11
2126.6454585654
 21
2354.9538913263
 31
0.0
  0
SPLINE
  5
21F
330
1F
100
AcDbEntity
  8
0
  6
Continuous
 62
     7
370
    25
100
AcDbSpline
210
0.0
220
0.0
230
1.0
 70
     8
 71
     3
 72
    13
 73
     9
 74
     0
 42
0.00000001
 43
0.00000001
 40
0.0
 40
0.0
 40
0.0
 40
0.0
 40
0.0075029974113236
 40
0.3818974549655527
 40
0.6070018873266353
 40
0.7653769096340154
 40
0.8824605049805269
 40
0.9999999999999999
 40
0.9999999999999999
 40
0.9999999999999999
 40
0.9999999999999999
 10
2126.445458565365
 20
2355.236669414064
 30
0.0
 10
2126.445459520969
 20
2355.235651637449
 30
0.0
 10
2126.445508160583
 20
2355.183847501309
 30
0.0
 10
2126.451630265324
 20
2355.105262135942
 30
0.0
 10
2126.493646370798
 20
2355.02262267191
 30
0.0
 10
2126.542457172764
 20
2354.980526553811
 30
0.0
 10
2126.593187820078
 20
2354.958003126976
 30
0.0
 10
2126.628012427529
 20
2354.955263700862
 30
0.0
 10
2126.645458565365
 20
2354.953891326294
 30
0.0
  0
LINE
  5
220
330
1F
100
AcDbEntity
  8
0
  6
Continuous
 62
     7
370
    25
100
AcDbLine
 10
2128.4454585654
 20
2354.9538913263
 30
0.0
 11
2126.6454585654
 21
2354.9538913263
 31
0.0
  0
LINE
  5
221
330
1F
100
AcDbEntity
  8
0
  6
Continuous
 62
     7
370
    25
100
AcDbLine
 10
2128.4454585654
 20
2354.9538913263
 30
0.0
 11
2128.4454585654
 21
2355.3706598482
 31
0.0
  0
ARC
  5
222
330
1F
100
AcDbEntity
  8
0
  6
Continuous
 62
     7
370
    25
100
AcDbCircle
 10
2126.6450832998
 20
2357.1748298534
 30
0.0
 40
0.1996250898587262
100
AcDbArc
 50
89.8922923778
 51
179.8918858978
  0
LINE
  5
223
330
1F
100
AcDbEntity
  8
0
  6
Continuous
 62
     7
370
    25
100
AcDbLine
 10
2126.6454585654
 20
2357.3744545906
 30
0.0
 11
2126.6454585654
 21
2356.5332659719
 31
0.0
  0
LINE
  5
224
330
1F
100
AcDbEntity
  8
0
  6
Continuous
 62
     7
370
    25
100
AcDbLine
 10
2126.4454585654
 20
2356.3340179166
 30
0.0
 11
2126.4454585654
 21
2357.1752065352
 31
0.0
  0
LINE
  5
225
330
1F
100
AcDbEntity
  8
0
  6
Continuous
 62
     7
370
    25
100
AcDbLine
 10
2128.4454585654
 20
2357.3744545906
 30
0.0
 11
2126.6454585654
 21
2357.3744545906
 31
0.0
  0
LINE
  5
226
330
1F
100
AcDbEntity
  8
0
  6
Continuous
 62
     7
370
    25
100
AcDbLine
 10
2128.4454585654
 20
2356.5332659719
 30
0.0
 11
2128.4454585654
 21
2357.3744545906
 31
0.0
  0
LINE
  5
227
330
1F
100
AcDbEntity
  8
0
  6
Continuous
 62
     7
370
    25
100
AcDbLine
 10
2126.4454585654
 20
2358.3706948675
 30
0.0
 11
2126.6454585654
 21
2358.3706948675
 31
0.0
  0
LINE
  5
228
330
1F
100
AcDbEntity
  8
0
  6
Continuous
 62
     7
370
    25
100
AcDbLine
 10
2126.6454585654
 20
2358.3706948675
 30
0.0
 11
2126.6454585654
 21
2357.3744545906
 31
0.0
  0
LINE
  5
229
330
1F
100
AcDbEntity
  8
0
  6
Continuous
 62
     7
370
    25
100
AcDbLine
 10
2126.4454585654
 20
2357.1752065352
 30
0.0
 11
2126.4454585654
 21
2358.3706948675
 31
0.0
  0
LINE
  5
22A
330
1F
100
AcDbEntity
  8
0
  6
Continuous
 62
     7
370
    25
100
AcDbLine
 10
2126.6454585654
 20
2358.3706948675
 30
0.0
 11
2128.4454585654
 21
2358.3706948675
 31
0.0
  0
LINE
  5
22B
330
1F
100
AcDbEntity
  8
0
  6
Continuous
 62
     7
370
    25
100
AcDbLine
 10
2128.4454585654
 20
2357.3744545906
 30
0.0
 11
2128.4454585654
 21
2358.3706948675
 31
0.0
  0
LINE
  5
22C
330
1F
100
AcDbEntity
  8
0
  6
Continuous
 62
     7
370
    25
100
AcDbLine
 10
2126.4454585654
 20
2368.7538810975
 30
0.0
 11
2126.6454585654
 21
2368.7538810975
 31
0.0
  0
LINE
  5
22D
330
1F
100
AcDbEntity
  8
0
  6
Continuous
 62
     7
370
    25
100
AcDbLine
 10
2126.6454585654
 20
2368.7538810975
 30
0.0
 11
2126.6454585654
 21
2358.3706948675
 31
0.0
  0
LINE
  5
22E
330
1F
100
AcDbEntity
  8
0
  6
Continuous
 62
     7
370
    25
100
AcDbLine
 10
2126.4454585654
 20
2358.3706948675
 30
0.0
 11
2126.4454585654
 21
2368.7538810975
 31
0.0
  0
ARC
  5
22F
330
1F
100
AcDbEntity
  8
0
  6
Continuous
 62
     7
370
    25
100
AcDbCircle
 10
2126.6454585654
 20
2369.5538810975
 30
0.0
 40
0.2000000000002728
100
AcDbArc
 50
90.0
 51
180.0
  0
LINE
  5
230
330
1F
100
AcDbEntity
  8
0
  6
Continuous
 62
     7
370
    25
100
AcDbLine
 10
2126.6454585654
 20
2369.7538810975
 30
0.0
 11
2126.6454585654
 21
2368.7538810975
 31
0.0
  0
LINE
  5
231
330
1F
100
AcDbEntity
  8
0
  6
Continuous
 62
     7
370
    25
100
AcDbLine
 10
2126.4454585654
 20
2368.7538810975
 30
0.0
 11
2126.4454585654
 21
2369.5538810975
 31
0.0
  0
LINE
  5
232
330
1F
100
AcDbEntity
  8
0
  6
Continuous
 62
     7
370
    25
100
AcDbLine
 10
2128.4454585654
 20
2368.7538810975
 30
0.0
 11
2126.6454585654
 21
2368.7538810975
 31
0.0
  0
LINE
  5
233
330
1F
100
AcDbEntity
  8
0
  6
Continuous
 62
     7
370
    25
100
AcDbLine
 10
2128.4454585654
 20
2358.3706948675
 30
0.0
 11
2128.4454585654
 21
2368.7538810975
 31
0.0
  0
LINE
  5
234
330
1F
100
AcDbEntity
  8
0
  6
Continuous
 62
     7
370
    25
100
AcDbLine
 10
2126.6454585654
 20
2369.7538810975
 30
0.0
 11
2128.4454585654
 21
2369.7538810975
 31
0.0
  0
LINE
  5
235
330
1F
100
AcDbEntity
  8
0
  6
Continuous
 62
     7
370
    25
100
AcDbLine
 10
2128.4454585654
 20
2369.7538810975
 30
0.0
 11
2128.4454585654
 21
2368.7538810975
 31
0.0
  0
LINE
  5
236
330
1F
100
AcDbEntity
  8
0
  6
Continuous
 62
     7
370
    25
100
AcDbLine
 10
2570.4454585654
 20
2356.5332659719
 30
0.0
 11
2128.4454585654
 21
2356.5332659719
 31
0.0
  0
LINE
  5
237
330
1F
100
AcDbEntity
  8
0
  6
Continuous
 62
     7
370
    25
100
AcDbLine
 10
2570.4454585654
 20
2355.3706598482
 30
0.0
 11
2128.4454585654
 21
2355.3706598482
 31
0.0
  0
LINE
  5
238
330
1F
100
AcDbEntity
  8
0
  6
Continuous
 62
     7
370
    25
100
AcDbLine
 10
2570.4454585654
 20
2356.5332659719
 30
0.0
 11
2570.4454585654
 21
2355.3706598482
 31
0.0
  0
LINE
  5
239
330
1F
100
AcDbEntity
  8
0
  6
Continuous
 62
     7
370
    25
100
AcDbLine
 10
2570.4454585654
 20
2354.9538913263
 30
0.0
 11
2128.4454585654
 21
2354.9538913263
 31
0.0
  0
LINE
  5
23A
330
1F
100
AcDbEntity
  8
0
  6
Continuous
 62
     7
370
    25
100
AcDbLine
 10
2570.4454585654
 20
2355.3706598482
 30
0.0
 11
2570.4454585654
 21
2354.9538913263
 31
0.0
  0
LINE
  5
23B
330
1F
100
AcDbEntity
  8
0
  6
Continuous
 62
     7
370
    25
100
AcDbLine
 10
2570.4454585654
 20
2357.3744545906
 30
0.0
 11
2128.4454585654
 21
2357.3744545906
 31
0.0
  0
LINE
  5
23C
330
1F
100
AcDbEntity
  8
0
  6
Continuous
 62
     7
370
    25
100
AcDbLine
 10
2570.4454585654
 20
2357.3744545906
 30
0.0
 11
2570.4454585654
 21
2356.5332659719
 31
0.0
  0
LINE
  5
23D
330
1F
100
AcDbEntity
  8
0
  6
Continuous
 62
     7
370
    25
100
AcDbLine
 10
2128.4454585654
 20
2358.3706948675
 30
0.0
 11
2570.4454585654
 21
2358.3706948675
 31
0.0
  0
LINE
  5
23E
330
1F
100
AcDbEntity
  8
0
  6
Continuous
 62
     7
370
    25
100
AcDbLine
 10
2570.4454585654
 20
2358.3706948675
 30
0.0
 11
2570.4454585654
 21
2357.3744545906
 31
0.0
  0
LINE
  5
23F
330
1F
100
AcDbEntity
  8
0
  6
Continuous
 62
     7
370
    25
100
AcDbLine
 10
2570.4454585654
 20
2368.7538810975
 30
0.0
 11
2128.4454585654
 21
2368.7538810975
 31
0.0
  0
LINE
  5
240
330
1F
100
AcDbEntity
  8
0
  6
Continuous
 62
     7
370
    25
100
AcDbLine
 10
2570.4454585654
 20
2368.7538810975
 30
0.0
 11
2570.4454585654
 21
2358.3706948675
 31
0.0
  0
LINE
  5
241
330
1F
100
AcDbEntity
  8
0
  6
Continuous
 62
     7
370
    25
100
AcDbLine
 10
2128.4454585654
 20
2369.7538810975
 30
0.0
 11
2570.4454585654
 21
2369.7538810975
 31
0.0
  0
LINE
  5
242
330
1F
100
AcDbEntity
  8
0
  6
Continuous
 62
     7
370
    25
100
AcDbLine
 10
2570.4454585654
 20
2368.7538810975
 30
0.0
 11
2570.4454585654
 21
2369.7538810975
 31
0.0
  0
LINE
  5
243
330
1F
100
AcDbEntity
  8
0
  6
Continuous
 62
     7
370
    25
100
AcDbLine
 10
2572.2454585654
 20
2356.5332659719
 30
0.0
 11
2570.4454585654
 21
2356.5332659719
 31
0.0
  0
LINE
  5
244
330
1F
100
AcDbEntity
  8
0
  6
Continuous
 62
     7
370
    25
100
AcDbLine
 10
2572.2454585654
 20
2355.3706598482
 30
0.0
 11
2572.2454585654
 21
2356.5332659719
 31
0.0
  0
LINE
  5
245
330
1F
100
AcDbEntity
  8
0
  6
Continuous
 62
     7
370
    25
100
AcDbLine
 10
2572.2454585654
 20
2355.3706598482
 30
0.0
 11
2570.4454585654
 21
2355.3706598482
 31
0.0
  0
LINE
  5
246
330
1F
100
AcDbEntity
  8
0
  6
Continuous
 62
     7
370
    25
100
AcDbLine
 10
2572.4454585654
 20
2356.3340179166
 30
0.0
 11
2572.4454585654
 21
2355.4039330175
 31
0.0
  0
ARC
  5
247
330
1F
100
AcDbEntity
  8
0
  6
Continuous
 62
     7
370
    25
100
AcDbCircle
 10
2572.2940746856
 20
2355.69615718
 30
0.0
 40
0.3291079460372714
100
AcDbArc
 50
261.505127908
 51
297.3859751209
  0
ARC
  5
248
330
1F
100
AcDbEntity
  8
0
  6
Continuous
 62
     7
370
    25
100
AcDbCircle
 10
2572.2458338309
 20
2356.3336412348
 30
0.0
 40
0.1996250898582732
100
AcDbArc
 50
0.1081141022
 51
90.1077076225
  0
LINE
  5
249
330
1F
100
AcDbEntity
  8
0
  6
Continuous
 62
     7
370
    25
100
AcDbLine
 10
2572.4454585654
 20
2355.4039330175
 30
0.0
 11
2572.4454585654
 21
2355.2366694141
 31
0.0
  0
SPLINE
  5
24A
330
1F
100
AcDbEntity
  8
0
  6
Continuous
 62
     7
370
    25
100
AcDbSpline
210
0.0
220
0.0
230
1.0
 70
     8
 71
     3
 72
    13
 73
     9
 74
     0
 42
0.00000001
 43
0.00000001
 40
0.0
 40
0.0
 40
0.0
 40
0.0
 40
0.0075029974114387
 40
0.3818974549662866
 40
0.6070018873272978
 40
0.7653769096343249
 40
0.8824605049810137
 40
1.0
 40
1.0
 40
1.0
 40
1.0
 10
2572.445458565365
 20
2355.236669414065
 30
0.0
 10
2572.445457609761
 20
2355.23565163745
 30
0.0
 10
2572.445408970147
 20
2355.183847501311
 30
0.0
 10
2572.439286865407
 20
2355.105262135942
 30
0.0
 10
2572.397270759933
 20
2355.022622671911
 30
0.0
 10
2572.348459957966
 20
2354.980526553812
 30
0.0
 10
2572.297729310651
 20
2354.958003126977
 30
0.0
 10
2572.262904703201
 20
2354.955263700863
 30
0.0
 10
2572.245458565365
 20
2354.953891326295
 30
0.0
  0
LINE
  5
24B
330
1F
100
AcDbEntity
  8
0
  6
Continuous
 62
     7
370
    25
100
AcDbLine
 10
2572.2454585654
 20
2354.9538913263
 30
0.0
 11
2572.2454585654
 21
2355.3706598482
 31
0.0
  0
LINE
  5
24C
330
1F
100
AcDbEntity
  8
0
  6
Continuous
 62
     7
370
    25
100
AcDbLine
 10
2572.2454585654
 20
2354.9538913263
 30
0.0
 11
2570.4454585654
 21
2354.9538913263
 31
0.0
  0
LINE
  5
24D
330
1F
100
AcDbEntity
  8
0
  6
Continuous
 62
     7
370
    25
100
AcDbLine
 10
2572.2454585654
 20
2357.3744545906
 30
0.0
 11
2570.4454585654
 21
2357.3744545906
 31
0.0
  0
LINE
  5
24E
330
1F
100
AcDbEntity
  8
0
  6
Continuous
 62
     7
370
    25
100
AcDbLine
 10
2572.2454585654
 20
2356.5332659719
 30
0.0
 11
2572.2454585654
 21
2357.3744545906
 31
0.0
  0
ARC
  5
24F
330
1F
100
AcDbEntity
  8
0
  6
Continuous
 62
     7
370
    25
100
AcDbCircle
 10
2572.2458338309
 20
2357.1748298534
 30
0.0
 40
0.1996250898578184
100
AcDbArc
 50
0.108114102
 51
90.1077076225
  0
LINE
  5
250
330
1F
100
AcDbEntity
  8
0
  6
Continuous
 62
     7
370
    25
100
AcDbLine
 10
2572.4454585654
 20
2357.1752065352
 30
0.0
 11
2572.4454585654
 21
2356.3340179166
 31
0.0
  0
LINE
  5
251
330
1F
100
AcDbEntity
  8
0
  6
Continuous
 62
     7
370
    25
100
AcDbLine
 10
2570.4454585654
 20
2358.3706948675
 30
0.0
 11
2572.2454585654
 21
2358.3706948675
 31
0.0
  0
LINE
  5
252
330
1F
100
AcDbEntity
  8
0
  6
Continuous
 62
     7
370
    25
100
AcDbLine
 10
2572.2454585654
 20
2357.3744545906
 30
0.0
 11
2572.2454585654
 21
2358.3706948675
 31
0.0
  0
LINE
  5
253
330
1F
100
AcDbEntity
  8
0
  6
Continuous
 62
     7
370
    25
100
AcDbLine
 10
2572.2454585654
 20
2358.3706948675
 30
0.0
 11
2572.4454585654
 21
2358.3706948675
 31
0.0
  0
LINE
  5
254
330
1F
100
AcDbEntity
  8
0
  6
Continuous
 62
     7
370
    25
100
AcDbLine
 10
2572.4454585654
 20
2358.3706948675
 30
0.0
 11
2572.4454585654
 21
2357.1752065352
 31
0.0
  0
LINE
  5
255
330
1F
100
AcDbEntity
  8
0
  6
Continuous
 62
     7
370
    25
100
AcDbLine
 10
2572.2454585654
 20
2358.3706948675
 30
0.0
 11
2572.2454585654
 21
2368.7538810975
 31
0.0
  0
LINE
  5
256
330
1F
100
AcDbEntity
  8
0
  6
Continuous
 62
     7
370
    25
100
AcDbLine
 10
2572.2454585654
 20
2368.7538810975
 30
0.0
 11
2572.4454585654
 21
2368.7538810975
 31
0.0
  0
LINE
  5
257
330
1F
100
AcDbEntity
  8
0
  6
Continuous
 62
     7
370
    25
100
AcDbLine
 10
2572.4454585654
 20
2368.7538810975
 30
0.0
 11
2572.4454585654
 21
2358.3706948675
 31
0.0
  0
LINE
  5
258
330
1F
100
AcDbEntity
  8
0
  6
Continuous
 62
     7
370
    25
100
AcDbLine
 10
2570.4454585654
 20
2369.7538810975
 30
0.0
 11
2572.2454585654
 21
2369.7538810975
 31
0.0
  0
LINE
  5
259
330
1F
100
AcDbEntity
  8
0
  6
Continuous
 62
     7
370
    25
100
AcDbLine
 10
2572.2454585654
 20
2368.7538810975
 30
0.0
 11
2572.2454585654
 21
2369.7538810975
 31
0.0
  0
LINE
  5
25A
330
1F
100
AcDbEntity
  8
0
  6
Continuous
 62
     7
370
    25
100
AcDbLine
 10
2572.2454585654
 20
2368.7538810975
 30
0.0
 11
2570.4454585654
 21
2368.7538810975
 31
0.0
  0
ARC
  5
25B
330
1F
100
AcDbEntity
  8
0
  6
Continuous
 62
     7
370
    25
100
AcDbCircle
 10
2572.2454585654
 20
2369.5538810975
 30
0.0
 40
0.1999999999998181
100
AcDbArc
 50
0.0
 51
90.0
  0
LINE
  5
25C
330
1F
100
AcDbEntity
  8
0
  6
Continuous
 62
     7
370
    25
100
AcDbLine
 10
2572.4454585654
 20
2369.5538810975
 30
0.0
 11
2572.4454585654
 21
2368.7538810975
 31
0.0
  0
LINE
  5
25D
330
1F
100
AcDbEntity
  8
0
  6
Continuous
 62
     7
370
    25
100
AcDbLine
 10
2364.4454585654
 20
2369.7538810975
 30
0.0
 11
2364.4454585654
 21
2370.6538810975
 31
0.0
  0
LINE
  5
25E
330
1F
100
AcDbEntity
  8
0
  6
Continuous
 62
     7
370
    25
100
AcDbLine
 10
2334.4454585654
 20
2370.6538810975
 30
0.0
 11
2334.4454585654
 21
2369.7538810975
 31
0.0
  0
LINE
  5
25F
330
1F
100
AcDbEntity
  8
0
  6
Continuous
 62
     7
370
    25
100
AcDbLine
 10
2334.466408286
 20
2370.9538810975
 30
0.0
 11
2334.4454585654
 21
2370.6538810975
 31
0.0
  0
LINE
  5
260
330
1F
100
AcDbEntity
  8
0
  6
Continuous
 62
     7
370
    25
100
AcDbLine
 10
2339.0670931167
 20
2370.9538810975
 30
0.0
 11
2339.0468228464
 21
2370.6538810975
 31
0.0
  0
LINE
  5
261
330
1F
100
AcDbEntity
  8
0
  6
Continuous
 62
     7
370
    25
100
AcDbLine
 10
2339.0468228464
 20
2370.6538810975
 30
0.0
 11
2359.8440942843
 21
2370.6538810975
 31
0.0
  0
LINE
  5
262
330
1F
100
AcDbEntity
  8
0
  6
Continuous
 62
     7
370
    25
100
AcDbLine
 10
2359.8440942843
 20
2370.6538810975
 30
0.0
 11
2359.823824014
 21
2370.9538810975
 31
0.0
  0
LINE
  5
263
330
1F
100
AcDbEntity
  8
0
  6
Continuous
 62
     7
370
    25
100
AcDbLine
 10
2364.4454585654
 20
2370.6538810975
 30
0.0
 11
2364.4245088447
 21
2370.9538810975
 31
0.0
  0
ARC
  5
264
330
1F
100
AcDbEntity
  8
0
  6
Continuous
 62
     7
370
    25
100
AcDbCircle
 10
2534.945458561
 20
2369.6538810975
 30
0.0
 40
2.999999999999995
100
AcDbArc
 50
154.3207113803
 51
178.0897868281
  0
ARC
  5
265
330
1F
100
AcDbEntity
  8
0
  6
Continuous
 62
     7
370
    25
100
AcDbCircle
 10
2550.945458561
 20
2369.6538810975
 30
0.0
 40
3.000000000000405
100
AcDbArc
 50
1.9102131719
 51
25.6792886197
  0
LINE
  5
266
330
1F
100
AcDbEntity
  8
0
  6
Continuous
 62
     7
370
    25
100
AcDbLine
 10
2553.945458561
 20
2369.9538810975
 30
0.0
 11
2553.945458561
 21
2369.7538810975
 31
0.0
  0
LINE
  5
267
330
1F
100
AcDbEntity
  8
0
  6
Continuous
 62
     7
370
    25
100
AcDbLine
 10
2568.1331333148
 20
2369.9538810975
 30
0.0
 11
2553.945458561
 21
2369.9538810975
 31
0.0
  0
LINE
  5
268
330
1F
100
AcDbEntity
  8
0
  6
Continuous
 62
     7
370
    25
100
AcDbLine
 10
2568.1331333148
 20
2369.7538810975
 30
0.0
 11
2568.1331333148
 21
2369.9538810975
 31
0.0
  0
LINE
  5
269
330
1F
100
AcDbEntity
  8
0
  6
Continuous
 62
     7
370
    25
100
AcDbLine
 10
2554.7046611463
 20
2370.9538810975
 30
0.0
 11
2554.7277135023
 21
2369.9538810975
 31
0.0
  0
LINE
  5
26A
330
1F
100
AcDbEntity
  8
0
  6
Continuous
 62
     7
370
    25
100
AcDbLine
 10
2556.0280588736
 20
2369.9538810975
 30
0.0
 11
2556.0050065176
 21
2370.9538810975
 31
0.0
  0
ARC
  5
26B
330
1F
100
AcDbEntity
  8
0
  6
Continuous
 62
     7
370
    25
100
AcDbCircle
 10
2537.9448257767
 20
2900.33202581
 30
0.0
 40
147.0082502475071
100
AcDbArc
 50
266.0997819289
 51
273.9007124515
  0
LWPOLYLINE
  5
26C
330
1F
100
AcDbEntity
  8
0
  6
Continuous
 62
     7
370
    25
100
AcDbPolyline
 90
        6
 70
   128
 43
0.0
 10
2545.556639358
 20
2754.7383210839
 10
2546.2957539085
 20
2754.7783522009
 10
2546.7473606486
 20
2754.8240102435
 10
2546.8386164832
 20
2754.8711133513
 10
2546.5657853877
 20
2754.9177331174
 10
2546.4418327899
 20
2754.9290740988
  0
LWPOLYLINE
  5
26D
330
1F
100
AcDbEntity
  8
0
  6
Continuous
 62
     7
370
    25
100
AcDbPolyline
 90
        7
 70
   128
 43
0.0
 10
2529.4490843408
 20
2754.9290740988
 10
2529.325131743
 20
2754.9177331174
 10
2529.0523006476
 20
2754.8711133513
 10
2529.1435564822
 20
2754.8240102435
 10
2529.5951632222
 20
2754.7783522009
 10
2530.3886320348
 20
2754.736008469
 10
2531.2435540402
 20
2754.7058287716
  0
LWPOLYLINE
  5
26E
330
1F
100
AcDbEntity
  8
0
  6
Continuous
 62
     7
370
    25
100
AcDbPolyline
 90
       19
 70
   128
 43
0.0
 10
2544.9154268517
 20
2755.0564516333
 10
2545.0671548704
 20
2755.0417688196
 10
2545.2503025605
 20
2754.9992186952
 10
2545.0671548704
 20
2754.9566685707
 10
2544.5268955899
 20
2754.9162520871
 10
2543.6566155753
 20
2754.8799958958
 10
2542.4999543005
 20
2754.8497180334
 10
2541.1149115917
 20
2754.8269367584
 10
2539.5709392736
 20
2754.8127944191
 10
2537.9454585654
 20
2754.8080001715
 10
2536.3199778572
 20
2754.8127944191
 10
2534.7760055391
 20
2754.8269367584
 10
2533.3909628302
 20
2754.8497180334
 10
2532.2343015554
 20
2754.8799958958
 10
2531.3640215408
 20
2754.9162520871
 10
2530.8237622603
 20
2754.9566685707
 10
2530.6406145702
 20
2754.9992186952
 10
2530.8237622603
 20
2755.0417688196
 10
2530.975490279
 20
2755.0564516333
  0
SPLINE
  5
26F
330
1F
100
AcDbEntity
  8
0
  6
Continuous
 62
     7
370
    25
100
AcDbSpline
210
0.0
220
0.0
230
1.0
 70
     8
 71
     3
 72
    10
 73
     6
 74
     0
 42
0.00000001
 43
0.00000001
 40
0.0
 40
0.0
 40
0.0
 40
0.0
 40
0.0219459922123375
 40
0.5300207501358835
 40
1.0
 40
1.0
 40
1.0
 40
1.0
 10
2542.562172969178
 20
2752.531668758931
 30
0.0
 10
2542.560135481752
 20
2752.530130453346
 30
0.0
 10
2542.510927835858
 20
2752.492978618405
 30
0.0
 10
2542.462555166667
 20
2752.375907282435
 30
0.0
 10
2542.449367076368
 20
2752.264160079888
 30
0.0
 10
2542.443029871329
 20
2752.210462772777
 30
0.0
  0
ARC
  5
270
330
1F
100
AcDbEntity
  8
0
  6
Continuous
 62
     7
370
    25
100
AcDbCircle
 10
2537.9727661044
 20
2818.5310144338
 30
0.0
 40
66.47103753348686
100
AcDbArc
 50
266.0945910318
 51
273.8561261672
  0
LINE
  5
271
330
1F
100
AcDbEntity
  8
0
  6
Continuous
 62
     7
370
    25
100
AcDbLine
 10
2542.4454585654
 20
2752.2143323905
 30
0.0
 11
2542.4430298712
 21
2752.2104627727
 31
0.0
  0
ARC
  5
272
330
1F
100
AcDbEntity
  8
0
  6
Continuous
 62
     7
370
    25
100
AcDbCircle
 10
2161.4448257767
 20
2900.3320258099
 30
0.0
 40
147.0082502473463
100
AcDbArc
 50
266.0997819289
 51
273.9007124515
  0
LWPOLYLINE
  5
273
330
1F
100
AcDbEntity
  8
0
  6
Continuous
 62
     7
370
    25
100
AcDbPolyline
 90
        6
 70
   128
 43
0.0
 10
2169.056639358
 20
2754.7383210839
 10
2169.7957539085
 20
2754.7783522009
 10
2170.2473606486
 20
2754.8240102435
 10
2170.3386164832
 20
2754.8711133513
 10
2170.0657853877
 20
2754.9177331174
 10
2169.9418327899
 20
2754.9290740988
  0
LWPOLYLINE
  5
274
330
1F
100
AcDbEntity
  8
0
  6
Continuous
 62
     7
370
    25
100
AcDbPolyline
 90
        7
 70
   128
 43
0.0
 10
2152.9490843408
 20
2754.9290740988
 10
2152.825131743
 20
2754.9177331174
 10
2152.5523006476
 20
2754.8711133513
 10
2152.6435564822
 20
2754.8240102435
 10
2153.0951632222
 20
2754.7783522009
 10
2153.8886320348
 20
2754.736008469
 10
2154.7435540402
 20
2754.7058287716
  0
LWPOLYLINE
  5
275
330
1F
100
AcDbEntity
  8
0
  6
Continuous
 62
     7
370
    25
100
AcDbPolyline
 90
       19
 70
   128
 43
0.0
 10
2168.4154268517
 20
2755.0564516333
 10
2168.5671548704
 20
2755.0417688196
 10
2168.7503025605
 20
2754.9992186952
 10
2168.5671548704
 20
2754.9566685707
 10
2168.0268955899
 20
2754.9162520871
 10
2167.1566155753
 20
2754.8799958958
 10
2165.9999543005
 20
2754.8497180334
 10
2164.6149115917
 20
2754.8269367584
 10
2163.0709392736
 20
2754.8127944191
 10
2161.4454585654
 20
2754.8080001715
 10
2159.8199778572
 20
2754.8127944191
 10
2158.2760055391
 20
2754.8269367584
 10
2156.8909628302
 20
2754.8497180334
 10
2155.7343015554
 20
2754.8799958958
 10
2154.8640215408
 20
2754.9162520871
 10
2154.3237622603
 20
2754.9566685707
 10
2154.1406145702
 20
2754.9992186952
 10
2154.3237622603
 20
2755.0417688196
 10
2154.475490279
 20
2755.0564516333
  0
SPLINE
  5
276
330
1F
100
AcDbEntity
  8
0
  6
Continuous
 62
     7
370
    25
100
AcDbSpline
210
0.0
220
0.0
230
1.0
 70
     8
 71
     3
 72
    10
 73
     6
 74
     0
 42
0.00000001
 43
0.00000001
 40
0.0
 40
0.0
 40
0.0
 40
0.0
 40
0.0219459922126484
 40
0.5300207501360275
 40
0.9999999999999999
 40
0.9999999999999999
 40
0.9999999999999999
 40
0.9999999999999999
 10
2166.062172969179
 20
2752.531668758932
 30
0.0
 10
2166.060135481754
 20
2752.530130453346
 30
0.0
 10
2166.010927835859
 20
2752.492978618406
 30
0.0
 10
2165.962555166667
 20
2752.375907282435
 30
0.0
 10
2165.949367076368
 20
2752.264160079888
 30
0.0
 10
2165.94302987133
 20
2752.210462772777
 30
0.0
  0
ARC
  5
277
330
1F
100
AcDbEntity
  8
0
  6
Continuous
 62
     7
370
    25
100
AcDbCircle
 10
2161.4727661044
 20
2818.5310144338
 30
0.0
 40
66.47103753347868
100
AcDbArc
 50
266.0945910318
 51
273.8561261672
  0
LINE
  5
278
330
1F
100
AcDbEntity
  8
0
  6
Continuous
 62
     7
370
    25
100
AcDbLine
 10
2165.9454585654
 20
2752.2143323905
 30
0.0
 11
2165.9430298712
 21
2752.2104627727
 31
0.0
  0
SPLINE
  5
279
330
1F
100
AcDbEntity
  8
0
  6
Continuous
 62
     7
370
    25
100
AcDbSpline
210
0.0
220
0.0
230
1.0
 70
     8
 71
     3
 72
    10
 73
     6
 74
     0
 42
0.00000001
 43
0.00000001
 40
0.0
 40
0.0
 40
0.0
 40
0.0
 40
0.5286786081594724
 40
0.8161383429810918
 40
0.9999999999999999
 40
0.9999999999999999
 40
0.9999999999999999
 40
0.9999999999999999
 10
2552.945458561021
 20
2369.653881097515
 30
0.0
 10
2552.917467925176
 20
2369.904395604491
 30
0.0
 10
2552.87425787127
 20
2370.291122987557
 30
0.0
 10
2552.656475964287
 20
2370.720139553947
 30
0.0
 10
2552.509989972179
 20
2370.888287050804
 30
0.0
 10
2552.452846040872
 20
2370.953881097523
 30
0.0
  0
SPLINE
  5
27A
330
1F
100
AcDbEntity
  8
0
  6
Continuous
 62
     7
370
    25
100
AcDbSpline
210
0.0
220
0.0
230
1.0
 70
     8
 71
     3
 72
    10
 73
     6
 74
     0
 42
0.00000001
 43
0.00000001
 40
0.0
 40
0.0
 40
0.0
 40
0.0
 40
0.1834740337181557
 40
0.4713152133483785
 40
0.9999999999999999
 40
0.9999999999999999
 40
0.9999999999999999
 40
0.9999999999999999
 10
2533.43804411186
 20
2370.953881097523
 30
0.0
 10
2533.381017368607
 20
2370.888430563509
 30
0.0
 10
2533.234524858912
 20
2370.720298693418
 30
0.0
 10
2533.016685224795
 20
2370.291298749873
 30
0.0
 10
2532.973451537928
 20
2369.904394271609
 30
0.0
 10
2532.945458561021
 20
2369.653881097511
 30
0.0
  0
ENDSEC
  0
SECTION
  2
OBJECTS
  0
DICTIONARY
  5
C
330
0
100
AcDbDictionary
281
     1
  3
ACAD_GROUP
350
D
  3
ACAD_LAYOUT
350
1A
  3
ACAD_MLINESTYLE
350
17
  3
ACAD_PLOTSETTINGS
350
19
  3
ACAD_PLOTSTYLENAME
350
E
  3
ACAD_SCALELIST
350
47
  3
DWGPROPS
350
27B
  0
DICTIONARY
  5
D
102
{ACAD_REACTORS
330
C
102
}
330
C
100
AcDbDictionary
281
     1
  0
DICTIONARY
  5
1A
102
{ACAD_REACTORS
330
C
102
}
330
C
100
AcDbDictionary
281
     1
  3
Layout1
350
1E
  3
Layout2
350
26
  3
Model
350
22
  0
DICTIONARY
  5
17
102
{ACAD_REACTORS
330
C
102
}
330
C
100
AcDbDictionary
281
     1
  3
Standard
350
18
  0
DICTIONARY
  5
19
102
{ACAD_REACTORS
330
C
102
}
330
C
100
AcDbDictionary
281
     1
  0
ACDBDICTIONARYWDFLT
  5
E
102
{ACAD_REACTORS
330
C
102
}
330
C
100
AcDbDictionary
281
     1
  3
Normal
350
F
100
AcDbDictionaryWithDefault
340
F
  0
DICTIONARY
  5
47
102
{ACAD_REACTORS
330
C
102
}
330
C
100
AcDbDictionary
281
     1
  3
A0
350
48
  3
A1
350
49
  3
A2
350
4A
  3
A3
350
4B
  3
A4
350
4C
  3
A5
350
4D
  3
A6
350
4E
  3
A7
350
4F
  3
A8
350
50
  3
A9
350
51
  3
B0
350
52
  3
B1
350
53
  3
B2
350
54
  3
B3
350
55
  3
B4
350
56
  3
B5
350
57
  3
B6
350
58
  0
XRECORD
  5
27B
102
{ACAD_REACTORS
330
C
102
}
330
C
100
AcDbXrecord
280
     1
  1
DWGPROPS COOKIE
  2

  3

  4

  6

  7

  8
b
  9

300
=
301
=
302
=
303
=
304
=
305
=
306
=
307
=
308
=
309
=
 40
0.0
 41
2460383.286074641
 42
2460383.286075
  1

 90
        0
  0
LAYOUT
  5
1E
102
{ACAD_REACTORS
330
1A
102
}
330
1A
100
AcDbPlotSettings
  1

  2
none_device
  4

  6

 40
0.0
 41
0.0
 42
0.0
 43
0.0
 44
0.0
 45
0.0
 46
0.0
 47
0.0
 48
0.0
 49
0.0
140
0.0
141
0.0
142
1.0
143
1.0
 70
   688
 72
     1
 73
     0
 74
     5
  7

 75
    16
147
1.0
148
0.0
149
0.0
100
AcDbLayout
  1
Layout1
 70
     1
 71
     1
 10
0.0
 20
0.0
 11
420.0
 21
297.0
 12
0.0
 22
0.0
 32
0.0
 14
1.0000000000E+20
 24
1.0000000000E+20
 34
1.0000000000E+20
 15
-1.0000000000E+20
 25
-1.0000000000E+20
 35
-1.0000000000E+20
146
0.0
 13
0.0
 23
0.0
 33
0.0
 16
1.0
 26
0.0
 36
0.0
 17
0.0
 27
1.0
 37
0.0
 76
     0
330
1B
  0
LAYOUT
  5
26
102
{ACAD_REACTORS
330
1A
102
}
330
1A
100
AcDbPlotSettings
  1

  2
none_device
  4

  6

 40
0.0
 41
0.0
 42
0.0
 43
0.0
 44
0.0
 45
0.0
 46
0.0
 47
0.0
 48
0.0
 49
0.0
140
0.0
141
0.0
142
1.0
143
1.0
 70
   688
 72
     1
 73
     0
 74
     5
  7

 75
    16
147
1.0
148
0.0
149
0.0
100
AcDbLayout
  1
Layout2
 70
     1
 71
     2
 10
0.0
 20
0.0
 11
0.0
 21
0.0
 12
0.0
 22
0.0
 32
0.0
 14
0.0
 24
0.0
 34
0.0
 15
0.0
 25
0.0
 35
0.0
146
0.0
 13
0.0
 23
0.0
 33
0.0
 16
1.0
 26
0.0
 36
0.0
 17
0.0
 27
1.0
 37
0.0
 76
     0
330
23
  0
LAYOUT
  5
22
102
{ACAD_REACTORS
330
1A
102
}
330
1A
100
AcDbPlotSettings
  1

  2
none_device
  4
Letter_(8.50_x_11.00_Inches)
  6

 40
6.35
 41
6.35
 42
6.35000508
 43
6.35000508
 44
215.9
 45
279.4
 46
0.0
 47
0.0
 48
0.0
 49
0.0
140
0.0
141
0.0
142
1.0
143
1.0
 70
  1712
 72
     1
 73
     0
 74
     0
  7

 75
     0
147
1.0
148
0.0
149
0.0
100
AcDbLayout
  1
Model
 70
     1
 71
     0
 10
0.0
 20
0.0
 11
5000.0
 21
3500.0
 12
0.0
 22
0.0
 32
0.0
 14
0.0
 24
0.0
 34
0.0
 15
5000.0
 25
3500.0
 35
0.0
146
0.0
 13
0.0
 23
0.0
 33
0.0
 16
1.0
 26
0.0
 36
0.0
 17
0.0
 27
1.0
 37
0.0
 76
     0
330
1F
331
29
  0
MLINESTYLE
  5
18
102
{ACAD_REACTORS
330
17
102
}
330
17
100
AcDbMlineStyle
  2
Standard
 70
     0
  3

 62
   256
 51
90.0
 52
90.0
 71
     2
 49
0.5
 62
   256
  6
BYLAYER
 49
-0.5
 62
   256
  6
BYLAYER
  0
ACDBPLACEHOLDER
  5
F
102
{ACAD_REACTORS
330
E
102
}
330
E
  0
SCALE
  5
48
102
{ACAD_REACTORS
330
47
102
}
330
47
100
AcDbScale
 70
     0
300
1:1
140
1.0
141
1.0
290
     1
  0
SCALE
  5
49
102
{ACAD_REACTORS
330
47
102
}
330
47
100
AcDbScale
 70
     0
300
1:2
140
1.0
141
2.0
290
     0
  0
SCALE
  5
4A
102
{ACAD_REACTORS
330
47
102
}
330
47
100
AcDbScale
 70
     0
300
1:4
140
1.0
141
4.0
290
     0
  0
SCALE
  5
4B
102
{ACAD_REACTORS
330
47
102
}
330
47
100
AcDbScale
 70
     0
300
1:5
140
1.0
141
5.0
290
     0
  0
SCALE
  5
4C
102
{ACAD_REACTORS
330
47
102
}
330
47
100
AcDbScale
 70
     0
300
1:8
140
1.0
141
8.0
290
     0
  0
SCALE
  5
4D
102
{ACAD_REACTORS
330
47
102
}
330
47
100
AcDbScale
 70
     0
300
1:10
140
1.0
141
10.0
290
     0
  0
SCALE
  5
4E
102
{ACAD_REACTORS
330
47
102
}
330
47
100
AcDbScale
 70
     0
300
1:16
140
1.0
141
16.0
290
     0
  0
SCALE
  5
4F
102
{ACAD_REACTORS
330
47
102
}
330
47
100
AcDbScale
 70
     0
300
1:20
140
1.0
141
20.0
290
     0
  0
SCALE
  5
50
102
{ACAD_REACTORS
330
47
102
}
330
47
100
AcDbScale
 70
     0
300
1:30
140
1.0
141
30.0
290
     0
  0
SCALE
  5
51
102
{ACAD_REACTORS
330
47
102
}
330
47
100
AcDbScale
 70
     0
300
1:40
140
1.0
141
40.0
290
     0
  0
SCALE
  5
52
102
{ACAD_REACTORS
330
47
102
}
330
47
100
AcDbScale
 70
     0
300
1:50
140
1.0
141
50.0
290
     0
  0
SCALE
  5
53
102
{ACAD_REACTORS
330
47
102
}
330
47
100
AcDbScale
 70
     0
300
1:100
140
1.0
141
100.0
290
     0
  0
SCALE
  5
54
102
{ACAD_REACTORS
330
47
102
}
330
47
100
AcDbScale
 70
     0
300
2:1
140
2.0
141
1.0
290
     0
  0
SCALE
  5
55
102
{ACAD_REACTORS
330
47
102
}
330
47
100
AcDbScale
 70
     0
300
4:1
140
4.0
141
1.0
290
     0
  0
SCALE
  5
56
102
{ACAD_REACTORS
330
47
102
}
330
47
100
AcDbScale
 70
     0
300
8:1
140
8.0
141
1.0
290
     0
  0
SCALE
  5
57
102
{ACAD_REACTORS
330
47
102
}
330
47
100
AcDbScale
 70
     0
300
10:1
140
10.0
141
1.0
290
     0
  0
SCALE
  5
58
102
{ACAD_REACTORS
330
47
102
}
330
47
100
AcDbScale
 70
     0
300
100:1
140
100.0
141
1.0
290
     0
  0
ENDSEC
  0
EOF
