  0
SECTION
  2
HEADER
  9
$ACADVER
  1
AC1015
  9
$ACADMAINTVER
 70
     6
  9
$DWGCODEPAGE
  3
DOS932
  9
$INSBASE
 10
0.0
 20
0.0
 30
0.0
  9
$EXTMIN
 10
0.0
 20
0.0
 30
0.0
  9
$EXTMAX
 10
5000.0
 20
3500.0
 30
0.0
  9
$LIMMIN
 10
0.0
 20
0.0
  9
$LIMMAX
 10
5000.0
 20
3500.0
  9
$ORTHOMODE
 70
     0
  9
$REGENMODE
 70
     1
  9
$FILLMODE
 70
     1
  9
$QTEXTMODE
 70
     0
  9
$MIRRTEXT
 70
     1
  9
$LTSCALE
 40
1.0
  9
$ATTMODE
 70
     1
  9
$TEXTSIZE
 40
3.5
  9
$TRACEWID
 40
1.0
  9
$TEXTSTYLE
  7
Standard
  9
$CLAYER
  8
0
  9
$CELTYPE
  6
ByLayer
  9
$CECOLOR
 62
   256
  9
$CELTSCALE
 40
1.0
  9
$DISPSILH
 70
     0
  9
$DIMSCALE
 40
1.0
  9
$DIMASZ
 40
3.302
  9
$DIMEXO
 40
1.0
  9
$DIMDLI
 40
3.75
  9
$DIMRND
 40
0.0
  9
$DIMDLE
 40
0.0
  9
$DIMEXE
 40
1.0
  9
$DIMTP
 40
0.0
  9
$DIMTM
 40
0.0
  9
$DIMTXT
 40
3.5
  9
$DIMCEN
 40
2.5
  9
$DIMTSZ
 40
0.0
  9
$DIMTOL
 70
     0
  9
$DIMLIM
 70
     0
  9
$DIMTIH
 70
     1
  9
$DIMTOH
 70
     1
  9
$DIMSE1
 70
     0
  9
$DIMSE2
 70
     0
  9
$DIMTAD
 70
     1
  9
$DIMZIN
 70
     0
  9
$DIMBLK
  1

  9
$DIMASO
 70
     1
  9
$DIMSHO
 70
     1
  9
$DIMPOST
  1

  9
$DIMAPOST
  1

  9
$DIMALT
 70
     0
  9
$DIMALTD
 70
     3
  9
$DIMALTF
 40
0.0393700787
  9
$DIMLFAC
 40
1.0
  9
$DIMTOFL
 70
     1
  9
$DIMTVP
 40
0.0
  9
$DIMTIX
 70
     0
  9
$DIMSOXD
 70
     0
  9
$DIMSAH
 70
     0
  9
$DIMBLK1
  1

  9
$DIMBLK2
  1

  9
$DIMSTYLE
  2
ISO-25
  9
$DIMCLRD
 70
     0
  9
$DIMCLRE
 70
     0
  9
$DIMCLRT
 70
     0
  9
$DIMTFAC
 40
1.0
  9
$DIMGAP
 40
1.524
  9
$DIMJUST
 70
     0
  9
$DIMSD1
 70
     0
  9
$DIMSD2
 70
     0
  9
$DIMTOLJ
 70
     0
  9
$DIMTZIN
 70
     0
  9
$DIMALTZ
 70
     0
  9
$DIMALTTZ
 70
     0
  9
$DIMUPT
 70
     0
  9
$DIMDEC
 70
     2
  9
$DIMTDEC
 70
     2
  9
$DIMALTU
 70
     2
  9
$DIMALTTD
 70
     3
  9
$DIMTXSTY
  7
Standard
  9
$DIMAUNIT
 70
     0
  9
$DIMADEC
 70
     2
  9
$DIMALTRND
 40
0.0
  9
$DIMAZIN
 70
     0
  9
$DIMDSEP
 70
    44
  9
$DIMATFIT
 70
     3
  9
$DIMFRAC
 70
     0
  9
$DIMLDRBLK
  1

  9
$DIMLUNIT
 70
     2
  9
$DIMLWD
 70
    -2
  9
$DIMLWE
 70
    -2
  9
$DIMTMOVE
 70
     0
  9
$LUNITS
 70
     2
  9
$LUPREC
 70
     3
  9
$SKETCHINC
 40
1.0
  9
$FILLETRAD
 40
0.0
  9
$AUNITS
 70
     0
  9
$AUPREC
 70
     2
  9
$MENU
  1
.
  9
$ELEVATION
 40
0.0
  9
$PELEVATION
 40
0.0
  9
$THICKNESS
 40
0.0
  9
$LIMCHECK
 70
     0
  9
$CHAMFERA
 40
0.0
  9
$CHAMFERB
 40
0.0
  9
$CHAMFERC
 40
0.0
  9
$CHAMFERD
 40
0.0
  9
$SKPOLY
 70
     0
  9
$TDCREATE
 40
2460383.634323959
  9
$TDUCREATE
 40
2460383.259323959
  9
$TDUPDATE
 40
2460383.634324259
  9
$TDUUPDATE
 40
2460383.259324259
  9
$TDINDWG
 40
0.0000000116
  9
$TDUSRTIMER
 40
0.0000000116
  9
$USRTIMER
 70
     1
  9
$ANGBASE
 50
0.0
  9
$ANGDIR
 70
     0
  9
$PDMODE
 70
     0
  9
$PDSIZE
 40
-1.0
  9
$PLINEWID
 40
0.0
  9
$SPLFRAME
 70
     0
  9
$SPLINETYPE
 70
     6
  9
$SPLINESEGS
 70
     8
  9
$HANDSEED
  5
2BB
  9
$SURFTAB1
 70
     6
  9
$SURFTAB2
 70
     6
  9
$SURFTYPE
 70
     6
  9
$SURFU
 70
     6
  9
$SURFV
 70
     6
  9
$UCSBASE
  2

  9
$UCSNAME
  2

  9
$UCSORG
 10
0.0
 20
0.0
 30
0.0
  9
$UCSXDIR
 10
1.0
 20
0.0
 30
0.0
  9
$UCSYDIR
 10
0.0
 20
1.0
 30
0.0
  9
$UCSORTHOREF
  2

  9
$UCSORTHOVIEW
 70
     0
  9
$UCSORGTOP
 10
0.0
 20
0.0
 30
0.0
  9
$UCSORGBOTTOM
 10
0.0
 20
0.0
 30
0.0
  9
$UCSORGLEFT
 10
0.0
 20
0.0
 30
0.0
  9
$UCSORGRIGHT
 10
0.0
 20
0.0
 30
0.0
  9
$UCSORGFRONT
 10
0.0
 20
0.0
 30
0.0
  9
$UCSORGBACK
 10
0.0
 20
0.0
 30
0.0
  9
$PUCSBASE
  2

  9
$PUCSNAME
  2

  9
$PUCSORG
 10
0.0
 20
0.0
 30
0.0
  9
$PUCSXDIR
 10
1.0
 20
0.0
 30
0.0
  9
$PUCSYDIR
 10
0.0
 20
1.0
 30
0.0
  9
$PUCSORTHOREF
  2

  9
$PUCSORTHOVIEW
 70
     0
  9
$PUCSORGTOP
 10
0.0
 20
0.0
 30
0.0
  9
$PUCSORGBOTTOM
 10
0.0
 20
0.0
 30
0.0
  9
$PUCSORGLEFT
 10
0.0
 20
0.0
 30
0.0
  9
$PUCSORGRIGHT
 10
0.0
 20
0.0
 30
0.0
  9
$PUCSORGFRONT
 10
0.0
 20
0.0
 30
0.0
  9
$PUCSORGBACK
 10
0.0
 20
0.0
 30
0.0
  9
$USERI1
 70
     0
  9
$USERI2
 70
     0
  9
$USERI3
 70
     0
  9
$USERI4
 70
     0
  9
$USERI5
 70
     0
  9
$USERR1
 40
0.0
  9
$USERR2
 40
0.0
  9
$USERR3
 40
0.0
  9
$USERR4
 40
0.0
  9
$USERR5
 40
0.0
  9
$WORLDVIEW
 70
     1
  9
$SHADEDGE
 70
     3
  9
$SHADEDIF
 70
    70
  9
$TILEMODE
 70
     1
  9
$MAXACTVP
 70
    64
  9
$PINSBASE
 10
0.0
 20
0.0
 30
0.0
  9
$PLIMCHECK
 70
     0
  9
$PEXTMIN
 10
1.0000000000E+20
 20
1.0000000000E+20
 30
1.0000000000E+20
  9
$PEXTMAX
 10
-1.0000000000E+20
 20
-1.0000000000E+20
 30
-1.0000000000E+20
  9
$PLIMMIN
 10
0.0
 20
0.0
  9
$PLIMMAX
 10
420.0
 20
297.0
  9
$UNITMODE
 70
     0
  9
$VISRETAIN
 70
     1
  9
$PLINEGEN
 70
     0
  9
$PSLTSCALE
 70
     1
  9
$TREEDEPTH
 70
  3020
  9
$CMLSTYLE
  2
Standard
  9
$CMLJUST
 70
     0
  9
$CMLSCALE
 40
20.0
  9
$PROXYGRAPHICS
 70
     1
  9
$MEASUREMENT
 70
     1
  9
$CELWEIGHT
370
    -1
  9
$ENDCAPS
280
     0
  9
$JOINSTYLE
280
     0
  9
$LWDISPLAY
290
     1
  9
$INSUNITS
 70
     4
  9
$HYPERLINKBASE
  1

  9
$STYLESHEET
  1

  9
$XEDIT
290
     1
  9
$CEPSNTYPE
380
     0
  9
$PSTYLEMODE
290
     1
  9
$FINGERPRINTGUID
  2
{9fd1bf6a-464f-45ee-9a68-c4080afac632}
  9
$VERSIONGUID
  2
{FAEB1C32-E019-11D5-929B-00C0DF256EC4}
  9
$EXTNAMES
290
     1
  9
$PSVPSCALE
 40
0.0
  9
$OLESTARTUP
290
     0
  0
ENDSEC
  0
SECTION
  2
CLASSES
  0
CLASS
  1
ACDBDICTIONARYWDFLT
  2
AcDbDictionaryWithDefault
  3
ObjectDBX Classes
 90
        0
280
     0
281
     0
  0
CLASS
  1
VISUALSTYLE
  2
AcDbVisualStyle
  3
ObjectDBX Classes
 90
     4095
280
     0
281
     0
  0
CLASS
  1
MATERIAL
  2
AcDbMaterial
  3
ObjectDBX Classes
 90
     1153
280
     0
281
     0
  0
CLASS
  1
SCALE
  2
AcDbScale
  3
ObjectDBX Classes
 90
     1153
280
     0
281
     0
  0
CLASS
  1
TABLESTYLE
  2
AcDbTableStyle
  3
ObjectDBX Classes
 90
     4095
280
     0
281
     0
  0
CLASS
  1
MLEADERSTYLE
  2
AcDbMLeaderStyle
  3
ACDB_MLEADERSTYLE_CLASS
 90
     4095
280
     0
281
     0
  0
CLASS
  1
SUN
  2
AcDbSun
  3
SCENEOE
 90
     1153
280
     0
281
     0
  0
CLASS
  1
ACDBPLACEHOLDER
  2
AcDbPlaceHolder
  3
ObjectDBX Classes
 90
        0
280
     0
281
     0
  0
CLASS
  1
LAYOUT
  2
AcDbLayout
  3
ObjectDBX Classes
 90
        0
280
     0
281
     0
  0
ENDSEC
  0
SECTION
  2
TABLES
  0
TABLE
  2
VPORT
  5
8
330
0
100
AcDbSymbolTable
 70
     1
  0
VPORT
  5
29
330
8
100
AcDbSymbolTableRecord
100
AcDbViewportTableRecord
  2
*Active
 70
     0
 10
0.0
 20
0.0
 11
1.0
 21
1.0
 12
2500.0
 22
1750.0
 13
0.0
 23
0.0
 14
10.0
 24
10.0
 15
10.0
 25
10.0
 16
0.0
 26
0.0
 36
1.0
 17
0.0
 27
0.0
 37
0.0
 40
3500.0
 41
1.4285714286
 42
50.0
 43
0.0
 44
0.0
 50
0.0
 51
0.0
 71
     0
 72
  2000
 73
     1
 74
     3
 75
     0
 76
     0
 77
     0
 78
     0
281
     0
 65
     1
110
0.0
120
0.0
130
0.0
111
1.0
121
0.0
131
0.0
112
0.0
122
1.0
132
0.0
 79
     0
146
0.0
  0
ENDTAB
  0
TABLE
  2
LTYPE
  5
5
330
0
100
AcDbSymbolTable
 70
     6
  0
LTYPE
  5
14
330
5
100
AcDbSymbolTableRecord
100
AcDbLinetypeTableRecord
  2
ByBlock
 70
     0
  3

 72
    65
 73
     0
 40
0.0
  0
LTYPE
  5
15
330
5
100
AcDbSymbolTableRecord
100
AcDbLinetypeTableRecord
  2
ByLayer
 70
     0
  3

 72
    65
 73
     0
 40
0.0
  0
LTYPE
  5
16
330
5
100
AcDbSymbolTableRecord
100
AcDbLinetypeTableRecord
  2
Continuous
 70
     0
  3
Solid line
 72
    65
 73
     0
 40
0.0
  0
LTYPE
  5
5E
330
5
100
AcDbSymbolTableRecord
100
AcDbLinetypeTableRecord
  2
HIDDEN
 70
     0
  3
Hidden __ __ __ __ __ __ __ __ __ __ __ __ __ __
 72
    65
 73
     2
 40
1.905
 49
1.27
 74
     0
 49
-0.635
 74
     0
  0
LTYPE
  5
5F
330
5
100
AcDbSymbolTableRecord
100
AcDbLinetypeTableRecord
  2
PHANTOM
 70
     0
  3
Phantom ______  __  __  ______  __  __  ______
 72
    65
 73
     6
 40
12.7
 49
6.35
 74
     0
 49
-1.27
 74
     0
 49
1.27
 74
     0
 49
-1.27
 74
     0
 49
1.27
 74
     0
 49
-1.27
 74
     0
  0
LTYPE
  5
60
330
5
100
AcDbSymbolTableRecord
100
AcDbLinetypeTableRecord
  2
CENTER
 70
     0
  3
Center ____ _ ____ _ ____ _ ____ _ ____ _ ____
 72
    65
 73
     4
 40
10.16
 49
6.35
 74
     0
 49
-1.27
 74
     0
 49
1.27
 74
     0
 49
-1.27
 74
     0
  0
LTYPE
  5
61
330
5
100
AcDbSymbolTableRecord
100
AcDbLinetypeTableRecord
  2
CENTERX2
 70
     0
  3
Center (2x) ________  __  ________  __  _____
 72
    65
 73
     4
 40
20.32
 49
12.7
 74
     0
 49
-2.54
 74
     0
 49
2.54
 74
     0
 49
-2.54
 74
     0
  0
LTYPE
  5
62
330
5
100
AcDbSymbolTableRecord
100
AcDbLinetypeTableRecord
  2
DOT2
 70
     0
  3
Dot (.5x) ........................................
 72
    65
 73
     2
 40
0.635
 49
0.0
 74
     0
 49
-0.635
 74
     0
  0
ENDTAB
  0
TABLE
  2
LAYER
  5
2
330
0
100
AcDbSymbolTable
 70
     3
  0
LAYER
  5
10
330
2
100
AcDbSymbolTableRecord
100
AcDbLayerTableRecord
  2
0
 70
     0
 62
     7
  6
Continuous
370
    -3
390
F
  0
LAYER
  5
63
330
2
100
AcDbSymbolTableRecord
100
AcDbLayerTableRecord
  2
SLD-0
 70
     0
 62
   179
  6
Continuous
370
    -3
390
F
  0
LAYER
  5
64
330
2
100
AcDbSymbolTableRecord
100
AcDbLayerTableRecord
  2
寸法
 70
     0
 62
   179
  6
Continuous
370
    -3
390
F
  0
ENDTAB
  0
TABLE
  2
STYLE
  5
3
330
0
100
AcDbSymbolTable
 70
     2
  0
STYLE
  5
11
330
3
100
AcDbSymbolTableRecord
100
AcDbTextStyleTableRecord
  2
Standard
 70
     0
 40
0.0
 41
1.0
 50
0.0
 71
     0
 42
3.5
  3
txt
  4
bigfont
  0
STYLE
  5
66
330
3
100
AcDbSymbolTableRecord
100
AcDbTextStyleTableRecord
  2
SLDTEXTSTYLE0
 70
     0
 40
0.0
 41
0.75
 50
0.0
 71
     0
 42
3.5
  3
TXT
  4
bigfont
  0
ENDTAB
  0
TABLE
  2
VIEW
  5
6
330
0
100
AcDbSymbolTable
 70
     0
  0
ENDTAB
  0
TABLE
  2
UCS
  5
7
330
0
100
AcDbSymbolTable
 70
     0
  0
ENDTAB
  0
TABLE
  2
APPID
  5
9
330
0
100
AcDbSymbolTable
 70
     1
  0
APPID
  5
12
330
9
100
AcDbSymbolTableRecord
100
AcDbRegAppTableRecord
  2
ACAD
 70
     0
  0
ENDTAB
  0
TABLE
  2
DIMSTYLE
  5
A
330
0
100
AcDbSymbolTable
 70
     1
100
AcDbDimStyleTable
  0
DIMSTYLE
105
27
330
A
100
AcDbSymbolTableRecord
100
AcDbDimStyleTableRecord
  2
ISO-25
 70
     0
 41
2.5
 42
0.625
 43
3.75
 44
1.25
 73
     0
 74
     0
 77
     1
 78
     8
140
2.5
141
2.5
143
0.0393700787
147
0.625
171
     3
172
     1
178
     0
271
     2
272
     2
274
     3
278
    44
283
     0
284
     8
340
11
  0
ENDTAB
  0
TABLE
  2
BLOCK_RECORD
  5
1
330
0
100
AcDbSymbolTable
 70
     1
  0
BLOCK_RECORD
  5
1F
330
1
100
AcDbSymbolTableRecord
100
AcDbBlockTableRecord
  2
*Model_Space
340
22
  0
BLOCK_RECORD
  5
1B
330
1
100
AcDbSymbolTableRecord
100
AcDbBlockTableRecord
  2
*Paper_Space
340
1E
  0
BLOCK_RECORD
  5
23
330
1
100
AcDbSymbolTableRecord
100
AcDbBlockTableRecord
  2
*Paper_Space0
340
26
  0
ENDTAB
  0
ENDSEC
  0
SECTION
  2
BLOCKS
  0
BLOCK
  5
20
330
1F
100
AcDbEntity
  8
0
100
AcDbBlockBegin
  2
*Model_Space
 70
     0
 10
0.0
 20
0.0
 30
0.0
  3
*Model_Space
  1

  0
ENDBLK
  5
21
330
1F
100
AcDbEntity
  8
0
100
AcDbBlockEnd
  0
BLOCK
  5
1C
330
1B
100
AcDbEntity
 67
     1
  8
0
100
AcDbBlockBegin
  2
*Paper_Space
 70
     0
 10
0.0
 20
0.0
 30
0.0
  3
*Paper_Space
  1

  0
ENDBLK
  5
1D
330
1B
100
AcDbEntity
 67
     1
  8
0
100
AcDbBlockEnd
  0
BLOCK
  5
24
330
23
100
AcDbEntity
  8
0
100
AcDbBlockBegin
  2
*Paper_Space0
 70
     0
 10
0.0
 20
0.0
 30
0.0
  3
*Paper_Space0
  1

  0
ENDBLK
  5
25
330
23
100
AcDbEntity
  8
0
100
AcDbBlockEnd
  0
ENDSEC
  0
SECTION
  2
ENTITIES
  0
LINE
  5
65
330
1F
100
AcDbEntity
  8
0
  6
Continuous
 62
     7
370
    18
100
AcDbLine
 10
4801.663086451
 20
279.1403827252
 30
0.0
 11
3345.9062220501
 21
279.1403827252
 31
0.0
  0
MTEXT
  5
67
330
1F
100
AcDbEntity
  8
0
  6
Continuous
 62
     7
370
     0
100
AcDbMText
 10
1882.8324799637
 20
1989.2846179971
 30
0.0
 40
52.9166666667
 41
0.0
 71
     1
 72
     1
  1
＜正面＞
  7
SLDTEXTSTYLE0
 73
     1
 44
1.0
  0
MTEXT
  5
68
330
1F
100
AcDbEntity
  8
0
  6
Continuous
 62
     7
370
     0
100
AcDbMText
 10
3377.8142431891
 20
379.4057208634
 30
0.0
 40
52.9166666667
 41
0.0
 71
     1
 72
     1
  1
品名：
  7
SLDTEXTSTYLE0
 73
     1
 44
1.0
  0
MTEXT
  5
69
330
1F
100
AcDbEntity
  8
0
  6
Continuous
 62
     7
370
     0
100
AcDbMText
 10
4446.6634374817
 20
385.2343854145
 30
0.0
 40
52.9166666667
 41
0.0
 71
     1
 72
     1
  1
Pamouna
  7
SLDTEXTSTYLE0
 73
     1
 44
1.0
  0
MTEXT
  5
6A
330
1F
100
AcDbEntity
  8
寸法
 62
     7
100
AcDbMText
 10
4688.0073048854
 20
218.6255182943
 30
0.0
 40
52.9166666667
 41
0.0
 71
     1
 72
     1
  1
1/1
  7
SLDTEXTSTYLE0
 73
     1
 44
1.0
  0
MTEXT
  5
6B
330
1F
100
AcDbEntity
  8
寸法
 62
     7
100
AcDbMText
 10
3611.2831293492
 20
398.3924235142
 30
0.0
 40
66.1458333333
 41
0.0
 71
     1
 72
     1
  1
MAG45R
  7
SLDTEXTSTYLE0
 73
     1
 44
1.0
  0
MTEXT
  5
6C
330
1F
100
AcDbEntity
  8
寸法
 62
     7
100
AcDbMText
 10
4198.7969392118
 20
218.6255210883
 30
0.0
 40
52.9166666667
 41
0.0
 71
     1
 72
     1
  1
2024/03/13
  7
SLDTEXTSTYLE0
 73
     1
 44
1.0
  0
MTEXT
  5
6D
330
1F
100
AcDbEntity
  8
寸法
 62
     7
100
AcDbMText
 10
3662.4665930518
 20
2002.9002064516
 30
0.0
 40
52.9166666667
 41
0.0
 71
     1
 72
     1
  1
＜右側面＞
  7
SLDTEXTSTYLE0
 73
     1
 44
1.0
  0
MTEXT
  5
6E
330
1F
100
AcDbEntity
  8
0
  6
Continuous
 62
     7
370
     0
100
AcDbMText
 10
669.5723251208
 20
1997.9509737295
 30
0.0
 40
52.9166666667
 41
0.0
 71
     1
 72
     1
  1
＜左側面＞
  7
SLDTEXTSTYLE0
 73
     1
 44
1.0
  0
MTEXT
  5
6F
330
1F
100
AcDbEntity
  8
0
  6
Continuous
 62
     7
370
     0
100
AcDbMText
 10
1921.8777540945
 20
2965.5678091759
 30
0.0
 40
52.9166666667
 41
0.0
 71
     1
 72
     1
  1
＜上面＞
  7
SLDTEXTSTYLE0
 73
     1
 44
1.0
  0
LINE
  5
70
330
1F
100
AcDbEntity
  8
0
  6
Continuous
 62
     7
370
    25
100
AcDbLine
 10
2168.4454585654
 20
1867.2543978663
 30
0.0
 11
2166.6454585654
 21
1867.2543978663
 31
0.0
  0
ARC
  5
71
330
1F
100
AcDbEntity
  8
0
  6
Continuous
 62
     7
370
    25
100
AcDbCircle
 10
2166.6454585654
 20
1867.0543978663
 30
0.0
 40
0.2000000000000455
100
AcDbArc
 50
90.0
 51
180.0
  0
LINE
  5
72
330
1F
100
AcDbEntity
  8
0
  6
Continuous
 62
     7
370
    25
100
AcDbLine
 10
2610.4454585654
 20
1867.2543978663
 30
0.0
 11
2168.4454585654
 21
1867.2543978663
 31
0.0
  0
ARC
  5
73
330
1F
100
AcDbEntity
  8
0
  6
Continuous
 62
     7
370
    25
100
AcDbCircle
 10
2612.2454585654
 20
1867.0543978663
 30
0.0
 40
0.2000000000000455
100
AcDbArc
 50
0.0
 51
90.0
  0
LINE
  5
74
330
1F
100
AcDbEntity
  8
0
  6
Continuous
 62
     7
370
    25
100
AcDbLine
 10
2612.2454585654
 20
1867.2543978663
 30
0.0
 11
2610.4454585654
 21
1867.2543978663
 31
0.0
  0
LINE
  5
75
330
1F
100
AcDbEntity
  8
0
  6
Continuous
 62
     7
370
    25
100
AcDbLine
 10
2166.4454585654
 20
986.7543978663
 30
0.0
 11
2612.4454585654
 21
986.7543978663
 31
0.0
  0
LINE
  5
76
330
1F
100
AcDbEntity
  8
0
  6
Continuous
 62
     7
370
    25
100
AcDbLine
 10
2612.4454585654
 20
1866.7543978663
 30
0.0
 11
2166.4454585654
 21
1866.7543978663
 31
0.0
  0
LINE
  5
77
330
1F
100
AcDbEntity
  8
0
  6
Continuous
 62
     7
370
    25
100
AcDbLine
 10
2612.4454585654
 20
986.7543978663
 30
0.0
 11
2612.4454585654
 21
1866.7543978663
 31
0.0
  0
LINE
  5
78
330
1F
100
AcDbEntity
  8
0
  6
Continuous
 62
     7
370
    25
100
AcDbLine
 10
2166.4454585654
 20
1866.7543978663
 30
0.0
 11
2166.4454585654
 21
986.7543978663
 31
0.0
  0
LINE
  5
79
330
1F
100
AcDbEntity
  8
0
  6
Continuous
 62
     7
370
    25
100
AcDbLine
 10
2166.4454585654
 20
1866.9543978663
 30
0.0
 11
2166.4454585654
 21
1867.0432491446
 31
0.0
  0
ARC
  5
7A
330
1F
100
AcDbEntity
  8
0
  6
Continuous
 62
     7
370
    25
100
AcDbCircle
 10
2166.6440746856
 20
1867.0418457066
 30
0.0
 40
0.1986210785923617
100
AcDbArc
 50
89.6007920653
 51
179.5951500237
  0
LINE
  5
7B
330
1F
100
AcDbEntity
  8
0
  6
Continuous
 62
     7
370
    25
100
AcDbLine
 10
2166.6454585654
 20
1867.2404619641
 30
0.0
 11
2166.6454585654
 21
1866.7543978663
 31
0.0
  0
SPLINE
  5
7C
330
1F
100
AcDbEntity
  8
0
  6
Continuous
 62
     7
370
    25
100
AcDbSpline
210
0.0
220
0.0
230
1.0
 70
     8
 71
     3
 72
    13
 73
     9
 74
     0
 42
0.00000001
 43
0.00000001
 40
0.0
 40
0.0
 40
0.0
 40
0.0
 40
0.0075029974113243
 40
0.3818974549655825
 40
0.6070018873266375
 40
0.7653769096339834
 40
0.8824605049806366
 40
1.0
 40
1.0
 40
1.0
 40
1.0
 10
2166.445458565364
 20
1866.954397866314
 30
0.0
 10
2166.445459520968
 20
1866.953959868419
 30
0.0
 10
2166.445508160583
 20
1866.931666074047
 30
0.0
 10
2166.451630265322
 20
1866.884781685835
 30
0.0
 10
2166.493646370796
 20
1866.818497248798
 30
0.0
 10
2166.542457172763
 20
1866.780235689626
 30
0.0
 10
2166.593187820078
 20
1866.75847991389
 30
0.0
 10
2166.628012427528
 20
1866.755760310341
 30
0.0
 10
2166.645458565364
 20
1866.754397866314
 30
0.0
  0
LINE
  5
7D
330
1F
100
AcDbEntity
  8
0
  6
Continuous
 62
     7
370
    25
100
AcDbLine
 10
2168.4454585654
 20
1867.2404619641
 30
0.0
 11
2166.6454585654
 21
1867.2404619641
 31
0.0
  0
LINE
  5
7E
330
1F
100
AcDbEntity
  8
0
  6
Continuous
 62
     7
370
    25
100
AcDbLine
 10
2168.4454585654
 20
1866.7543978663
 30
0.0
 11
2168.4454585654
 21
1867.2404619641
 31
0.0
  0
LINE
  5
7F
330
1F
100
AcDbEntity
  8
0
  6
Continuous
 62
     7
370
    25
100
AcDbLine
 10
2168.4454585654
 20
1867.2404619641
 30
0.0
 11
2168.4454585654
 21
1867.2543978663
 31
0.0
  0
LINE
  5
80
330
1F
100
AcDbEntity
  8
0
  6
Continuous
 62
     7
370
    25
100
AcDbLine
 10
2166.4454585654
 20
1867.0432491446
 30
0.0
 11
2166.4454585654
 21
1867.0543978663
 31
0.0
  0
LINE
  5
81
330
1F
100
AcDbEntity
  8
0
  6
Continuous
 62
     7
370
    25
100
AcDbLine
 10
2166.4454585654
 20
1866.7543978663
 30
0.0
 11
2166.4454585654
 21
1866.9543978663
 31
0.0
  0
LINE
  5
82
330
1F
100
AcDbEntity
  8
0
  6
Continuous
 62
     7
370
    25
100
AcDbLine
 10
2610.4454585654
 20
1867.2404619641
 30
0.0
 11
2168.4454585654
 21
1867.2404619641
 31
0.0
  0
LINE
  5
83
330
1F
100
AcDbEntity
  8
0
  6
Continuous
 62
     7
370
    25
100
AcDbLine
 10
2610.4454585654
 20
1867.2404619641
 30
0.0
 11
2610.4454585654
 21
1866.7543978663
 31
0.0
  0
LINE
  5
84
330
1F
100
AcDbEntity
  8
0
  6
Continuous
 62
     7
370
    25
100
AcDbLine
 10
2610.4454585654
 20
1867.2543978663
 30
0.0
 11
2610.4454585654
 21
1867.2404619641
 31
0.0
  0
LINE
  5
85
330
1F
100
AcDbEntity
  8
0
  6
Continuous
 62
     7
370
    25
100
AcDbLine
 10
2612.4454585654
 20
1867.0432491446
 30
0.0
 11
2612.4454585654
 21
1866.9543978663
 31
0.0
  0
SPLINE
  5
86
330
1F
100
AcDbEntity
  8
0
  6
Continuous
 62
     7
370
    25
100
AcDbSpline
210
0.0
220
0.0
230
1.0
 70
     8
 71
     3
 72
    13
 73
     9
 74
     0
 42
0.00000001
 43
0.00000001
 40
0.0
 40
0.0
 40
0.0
 40
0.0
 40
0.0075029974114405
 40
0.381897454966353
 40
0.6070018873272555
 40
0.7653769096343928
 40
0.8824605049809934
 40
1.0
 40
1.0
 40
1.0
 40
1.0
 10
2612.445458565364
 20
1866.954397866315
 30
0.0
 10
2612.44545760976
 20
1866.95395986842
 30
0.0
 10
2612.445408970145
 20
1866.931666074051
 30
0.0
 10
2612.439286865406
 20
1866.884781685835
 30
0.0
 10
2612.397270759931
 20
1866.818497248798
 30
0.0
 10
2612.348459957966
 20
1866.780235689626
 30
0.0
 10
2612.29772931065
 20
1866.758479913891
 30
0.0
 10
2612.2629047032
 20
1866.755760310341
 30
0.0
 10
2612.245458565364
 20
1866.754397866315
 30
0.0
  0
LINE
  5
87
330
1F
100
AcDbEntity
  8
0
  6
Continuous
 62
     7
370
    25
100
AcDbLine
 10
2612.2454585654
 20
1866.7543978663
 30
0.0
 11
2612.2454585654
 21
1867.2404619641
 31
0.0
  0
ARC
  5
88
330
1F
100
AcDbEntity
  8
0
  6
Continuous
 62
     7
370
    25
100
AcDbCircle
 10
2612.2468424451
 20
1867.0418457066
 30
0.0
 40
0.1986210785921764
100
AcDbArc
 50
0.4048499762
 51
90.3992079347
  0
LINE
  5
89
330
1F
100
AcDbEntity
  8
0
  6
Continuous
 62
     7
370
    25
100
AcDbLine
 10
2612.2454585654
 20
1867.2404619641
 30
0.0
 11
2610.4454585654
 21
1867.2404619641
 31
0.0
  0
LINE
  5
8A
330
1F
100
AcDbEntity
  8
0
  6
Continuous
 62
     7
370
    25
100
AcDbLine
 10
2612.4454585654
 20
1867.0543978663
 30
0.0
 11
2612.4454585654
 21
1867.0432491446
 31
0.0
  0
LINE
  5
8B
330
1F
100
AcDbEntity
  8
0
  6
Continuous
 62
     7
370
    25
100
AcDbLine
 10
2612.4454585654
 20
1866.9543978663
 30
0.0
 11
2612.4454585654
 21
1866.7543978663
 31
0.0
  0
LINE
  5
8C
330
1F
100
AcDbEntity
  8
0
  6
Continuous
 62
     7
370
    25
100
AcDbLine
 10
2596.4454585654
 20
977.7543978663
 30
0.0
 11
2182.9454585654
 21
977.7543978663
 31
0.0
  0
LINE
  5
8D
330
1F
100
AcDbEntity
  8
0
  6
Continuous
 62
     7
370
    25
100
AcDbLine
 10
2614.9454585654
 20
1848.2543978663
 30
0.0
 11
2612.4454585654
 21
1848.2543978663
 31
0.0
  0
LINE
  5
8E
330
1F
100
AcDbEntity
  8
0
  6
Continuous
 62
     7
370
    25
100
AcDbLine
 10
2166.4454585654
 20
1848.2543978663
 30
0.0
 11
2164.4454585654
 21
1848.2543978663
 31
0.0
  0
LINE
  5
8F
330
1F
100
AcDbEntity
  8
0
  6
Continuous
 62
     7
370
    25
100
AcDbLine
 10
2164.4454585654
 20
1876.7543978663
 30
0.0
 11
2164.4454585654
 21
1848.2543978663
 31
0.0
  0
LINE
  5
90
330
1F
100
AcDbEntity
  8
0
  6
Continuous
 62
     7
370
    25
100
AcDbLine
 10
2614.9454585654
 20
1876.7543978663
 30
0.0
 11
2614.9454585654
 21
1848.2543978663
 31
0.0
  0
LINE
  5
91
330
1F
100
AcDbEntity
  8
0
  6
Continuous
 62
     7
370
    25
100
AcDbLine
 10
2614.9454585654
 20
1876.7543978663
 30
0.0
 11
2164.4454585654
 21
1876.7543978663
 31
0.0
  0
LINE
  5
92
330
1F
100
AcDbEntity
  8
0
  6
Continuous
 62
     7
370
    25
100
AcDbLine
 10
2613.9454585654
 20
976.7543978663
 30
0.0
 11
2613.9454585654
 21
1848.2543978663
 31
0.0
  0
LINE
  5
93
330
1F
100
AcDbEntity
  8
0
  6
Continuous
 62
     7
370
    25
100
AcDbLine
 10
2596.4454585654
 20
976.7543978663
 30
0.0
 11
2613.9454585654
 21
976.7543978663
 31
0.0
  0
LINE
  5
94
330
1F
100
AcDbEntity
  8
0
  6
Continuous
 62
     7
370
    25
100
AcDbLine
 10
2596.4454585654
 20
986.7543978663
 30
0.0
 11
2596.4454585654
 21
976.7543978663
 31
0.0
  0
LINE
  5
95
330
1F
100
AcDbEntity
  8
0
  6
Continuous
 62
     7
370
    25
100
AcDbLine
 10
2165.4454585654
 20
976.7543978663
 30
0.0
 11
2182.9454585654
 21
976.7543978663
 31
0.0
  0
LINE
  5
96
330
1F
100
AcDbEntity
  8
0
  6
Continuous
 62
     7
370
    25
100
AcDbLine
 10
2165.4454585654
 20
1848.2543978663
 30
0.0
 11
2165.4454585654
 21
976.7543978663
 31
0.0
  0
LINE
  5
97
330
1F
100
AcDbEntity
  8
0
  6
Continuous
 62
     7
370
    25
100
AcDbLine
 10
2182.9454585654
 20
976.7543978663
 30
0.0
 11
2182.9454585654
 21
986.7543978663
 31
0.0
  0
LINE
  5
98
330
1F
100
AcDbEntity
  8
0
  6
Continuous
 62
     7
370
    25
100
AcDbLine
 10
2166.6454585654
 20
1867.2543978663
 30
0.0
 11
2166.6454585654
 21
1867.2404619641
 31
0.0
  0
LINE
  5
99
330
1F
100
AcDbEntity
  8
0
  6
Continuous
 62
     7
370
    25
100
AcDbLine
 10
2612.2454585654
 20
1867.2404619641
 30
0.0
 11
2612.2454585654
 21
1867.2543978663
 31
0.0
  0
LINE
  5
9A
330
1F
100
AcDbEntity
  8
0
  6
Continuous
 62
     7
370
    25
100
AcDbLine
 10
810.2056619993
 20
1779.2767567878
 30
0.0
 11
812.1833821614
 21
1779.2249683628
 31
0.0
  0
LINE
  5
9B
330
1F
100
AcDbEntity
  8
0
  6
Continuous
 62
     7
370
    25
100
AcDbLine
 10
812.1833821614
 20
1784.7268537215
 30
0.0
 11
810.349635215
 21
1784.7748720752
 31
0.0
  0
ARC
  5
9C
330
1F
100
AcDbEntity
  8
0
  6
Continuous
 62
     7
370
    25
100
AcDbCircle
 10
810.2135150838
 20
1779.5766539853
 30
0.0
 40
0.3000000000001092
100
AcDbArc
 50
178.5
 51
268.5
  0
ARC
  5
9D
330
1F
100
AcDbEntity
  8
0
  6
Continuous
 62
     7
370
    25
100
AcDbCircle
 10
810.3417821305
 20
1784.4749748777
 30
0.0
 40
0.2999999999998819
100
AcDbArc
 50
88.5
 51
178.5
  0
ARC
  5
9E
330
1F
100
AcDbEntity
  8
0
  6
Continuous
 62
     7
370
    25
100
AcDbCircle
 10
808.7033371087
 20
1807.8758832752
 30
0.0
 40
1.199999999999976
100
AcDbArc
 50
88.5000000001
 51
173.5000000033
  0
ARC
  5
9F
330
1F
100
AcDbEntity
  8
0
  6
Continuous
 62
     7
370
    25
100
AcDbCircle
 10
808.2426228185
 20
1790.2819143556
 30
0.0
 40
1.200000000000057
100
AcDbArc
 50
183.4999999968
 51
268.5000000001
  0
LINE
  5
A0
330
1F
100
AcDbEntity
  8
0
  6
Continuous
 62
     7
370
    25
100
AcDbLine
 10
809.484940224
 20
1809.0558276283
 30
0.0
 11
808.7347494467
 21
1809.0754720652
 31
0.0
  0
LINE
  5
A1
330
1F
100
AcDbEntity
  8
0
  6
Continuous
 62
     7
370
    25
100
AcDbLine
 10
808.2112104806
 20
1789.0823255657
 30
0.0
 11
808.9614012579
 21
1789.0626811288
 31
0.0
  0
ARC
  5
A2
330
1F
100
AcDbEntity
  8
0
  6
Continuous
 62
     7
370
    25
100
AcDbCircle
 10
809.4797048343
 20
1808.8558961633
 30
0.0
 40
0.1999999999999612
100
AcDbArc
 50
358.5
 51
88.5000000001
  0
ARC
  5
A3
330
1F
100
AcDbEntity
  8
0
  6
Continuous
 62
     7
370
    25
100
AcDbCircle
 10
808.9666366475
 20
1789.2626125938
 30
0.0
 40
0.2000000000000748
100
AcDbArc
 50
268.5
 51
358.5000000001
  0
LINE
  5
A4
330
1F
100
AcDbEntity
  8
0
  6
Continuous
 62
     7
370
    25
100
AcDbLine
 10
807.5110508819
 20
1808.0117271316
 30
0.0
 11
807.3292630874
 21
1806.4161961367
 31
0.0
  0
LINE
  5
A5
330
1F
100
AcDbEntity
  8
0
  6
Continuous
 62
     7
370
    25
100
AcDbLine
 10
806.9468260401
 20
1791.8115145215
 30
0.0
 11
807.0448610604
 21
1790.2086561082
 31
0.0
  0
ARC
  5
A6
330
1F
100
AcDbEntity
  8
0
  6
Continuous
 62
     7
370
    25
100
AcDbCircle
 10
837.1364187577
 20
1803.0200997237
 30
0.0
 40
30.0000000000021
100
AcDbArc
 50
173.5000000001
 51
178.5000000001
  0
ARC
  5
A7
330
1F
100
AcDbEntity
  8
0
  6
Continuous
 62
     7
370
    25
100
AcDbCircle
 10
836.8908699928
 20
1793.6429707076
 30
0.0
 40
30.00000000000222
100
AcDbArc
 50
178.5000000001
 51
183.5000000001
  0
SPLINE
  5
A8
330
1F
100
AcDbEntity
  8
0
  6
Continuous
 62
     7
370
    25
100
AcDbSpline
210
0.0
220
0.0
230
1.0
 70
     8
 71
     3
 72
    11
 73
     7
 74
     0
 42
0.00000001
 43
0.00000001
 40
0.0
 40
0.0
 40
0.0
 40
0.0
 40
0.2706712709043592
 40
0.5632120727999858
 40
0.7903891635245148
 40
1.0
 40
1.0
 40
1.0
 40
1.0
 10
810.040727135802
 20
1803.539388477128
 30
0.0
 10
809.96938588156
 20
1803.55026484241
 30
0.0
 10
809.8209391862623
 20
1803.572896354851
 30
0.0
 10
809.656046469183
 20
1803.715140595837
 30
0.0
 10
809.5639331507153
 20
1803.888327175569
 30
0.0
 10
809.5573373266802
 20
1804.00390799813
 30
0.0
 10
809.5541720464444
 20
1804.059374258503
 30
0.0
  0
SPLINE
  5
A9
330
1F
100
AcDbEntity
  8
0
  6
Continuous
 62
     7
370
    25
100
AcDbSpline
210
0.0
220
0.0
230
1.0
 70
     8
 71
     3
 72
    11
 73
     7
 74
     0
 42
0.00000001
 43
0.00000001
 40
0.0
 40
0.0
 40
0.0
 40
0.0
 40
0.2695105035985145
 40
0.561736440577534
 40
0.7894224931279473
 40
0.9999999999999999
 40
0.9999999999999999
 40
0.9999999999999999
 40
0.9999999999999999
 10
809.2920323654223
 20
1794.048663719286
 30
0.0
 10
809.3018369148033
 20
1794.119837570832
 30
0.0
 10
809.3222723805724
 20
1794.268184093495
 30
0.0
 10
809.4615937290044
 20
1794.435140957514
 30
0.0
 10
809.6335761906264
 20
1794.530232716837
 30
0.0
 10
809.7494563398687
 20
1794.538500186575
 30
0.0
 10
809.8051346010402
 20
1794.542472552354
 30
0.0
  0
LINE
  5
AA
330
1F
100
AcDbEntity
  8
0
  6
Continuous
 62
     7
370
    25
100
AcDbLine
 10
812.1833821614
 20
1803.4832810807
 30
0.0
 11
810.0407271358
 21
1803.5393884771
 31
0.0
  0
LINE
  5
AB
330
1F
100
AcDbEntity
  8
0
  6
Continuous
 62
     7
370
    25
100
AcDbLine
 10
809.805134601
 20
1794.5424725523
 30
0.0
 11
812.1833821614
 21
1794.4801959483
 31
0.0
  0
LINE
  5
AC
330
1F
100
AcDbEntity
  8
0
  6
Continuous
 62
     7
370
    25
100
AcDbLine
 10
1194.1833821614
 20
1853.7543978663
 30
0.0
 11
1194.1833821614
 21
1833.2543978663
 31
0.0
  0
LINE
  5
AD
330
1F
100
AcDbEntity
  8
0
  6
Continuous
 62
     7
370
    25
100
AcDbLine
 10
1206.6833821614
 20
1853.7543978663
 30
0.0
 11
1194.1833821614
 21
1853.7543978663
 31
0.0
  0
LINE
  5
AE
330
1F
100
AcDbEntity
  8
0
  6
Continuous
 62
     7
370
    25
100
AcDbLine
 10
1206.6833821614
 20
1866.7543978663
 30
0.0
 11
1206.6833821614
 21
1853.7543978663
 31
0.0
  0
LINE
  5
AF
330
1F
100
AcDbEntity
  8
0
  6
Continuous
 62
     7
370
    25
100
AcDbLine
 10
1210.6833821614
 20
1866.7543978663
 30
0.0
 11
1206.6833821614
 21
1866.7543978663
 31
0.0
  0
LINE
  5
B0
330
1F
100
AcDbEntity
  8
0
  6
Continuous
 62
     7
370
    25
100
AcDbLine
 10
1210.6833821614
 20
1866.7543978663
 30
0.0
 11
1210.6833821614
 21
986.7543978663
 31
0.0
  0
LINE
  5
B1
330
1F
100
AcDbEntity
  8
0
  6
Continuous
 62
     7
370
    25
100
AcDbLine
 10
1210.6833821614
 20
986.7543978663
 30
0.0
 11
1192.6833821614
 21
986.7543978663
 31
0.0
  0
LINE
  5
B2
330
1F
100
AcDbEntity
  8
0
  6
Continuous
 62
     7
370
    25
100
AcDbLine
 10
1192.6833821614
 20
1833.2543978663
 30
0.0
 11
1192.6833821614
 21
986.7543978663
 31
0.0
  0
LINE
  5
B3
330
1F
100
AcDbEntity
  8
0
  6
Continuous
 62
     7
370
    25
100
AcDbLine
 10
1194.1833821614
 20
1833.2543978663
 30
0.0
 11
1192.6833821614
 21
1833.2543978663
 31
0.0
  0
ARC
  5
B4
330
1F
100
AcDbEntity
  8
0
  6
Continuous
 62
     7
370
    25
100
AcDbCircle
 10
1193.3833821614
 20
1854.7543978663
 30
0.0
 40
0.8000000000001819
100
AcDbArc
 50
90.0
 51
180.0
  0
LINE
  5
B5
330
1F
100
AcDbEntity
  8
0
  6
Continuous
 62
     7
370
    25
100
AcDbLine
 10
1192.3833821614
 20
1854.7543978663
 30
0.0
 11
1192.5833821614
 21
1854.7543978663
 31
0.0
  0
ARC
  5
B6
330
1F
100
AcDbEntity
  8
0
  6
Continuous
 62
     7
370
    25
100
AcDbCircle
 10
1193.3833821614
 20
1854.7543978663
 30
0.0
 40
1.0
100
AcDbArc
 50
90.0
 51
180.0
  0
LINE
  5
B7
330
1F
100
AcDbEntity
  8
0
  6
Continuous
 62
     7
370
    25
100
AcDbLine
 10
1193.3833821614
 20
1855.5543978663
 30
0.0
 11
1193.3833821614
 21
1855.7543978663
 31
0.0
  0
LINE
  5
B8
330
1F
100
AcDbEntity
  8
0
  6
Continuous
 62
     7
370
    25
100
AcDbLine
 10
1192.3833821614
 20
1833.9543978663
 30
0.0
 11
1192.3833821614
 21
1854.7543978663
 31
0.0
  0
LINE
  5
B9
330
1F
100
AcDbEntity
  8
0
  6
Continuous
 62
     7
370
    25
100
AcDbLine
 10
1192.5833821614
 20
1854.7543978663
 30
0.0
 11
1192.5833821614
 21
1833.9543978663
 31
0.0
  0
LINE
  5
BA
330
1F
100
AcDbEntity
  8
0
  6
Continuous
 62
     7
370
    25
100
AcDbLine
 10
1192.3833821614
 20
1833.9543978663
 30
0.0
 11
1192.5833821614
 21
1833.9543978663
 31
0.0
  0
LINE
  5
BB
330
1F
100
AcDbEntity
  8
0
  6
Continuous
 62
     7
370
    25
100
AcDbLine
 10
1194.1833821614
 20
1853.7543978663
 30
0.0
 11
1193.9833821614
 21
1853.9543978663
 31
0.0
  0
LINE
  5
BC
330
1F
100
AcDbEntity
  8
0
  6
Continuous
 62
     7
370
    25
100
AcDbLine
 10
1193.9833821614
 20
1853.9543978663
 30
0.0
 11
1206.4833821614
 21
1853.9543978663
 31
0.0
  0
LINE
  5
BD
330
1F
100
AcDbEntity
  8
0
  6
Continuous
 62
     7
370
    25
100
AcDbLine
 10
1206.6833821614
 20
1853.7543978663
 30
0.0
 11
1206.4833821614
 21
1853.9543978663
 31
0.0
  0
LINE
  5
BE
330
1F
100
AcDbEntity
  8
0
  6
Continuous
 62
     7
370
    25
100
AcDbLine
 10
1194.1833821614
 20
1833.7543978663
 30
0.0
 11
1193.9833821614
 21
1833.9543978663
 31
0.0
  0
LINE
  5
BF
330
1F
100
AcDbEntity
  8
0
  6
Continuous
 62
     7
370
    25
100
AcDbLine
 10
1193.9833821614
 20
1833.9543978663
 30
0.0
 11
1193.9833821614
 21
1853.9543978663
 31
0.0
  0
LINE
  5
C0
330
1F
100
AcDbEntity
  8
0
  6
Continuous
 62
     7
370
    25
100
AcDbLine
 10
1192.5833821614
 20
1833.7543978663
 30
0.0
 11
1192.5833821614
 21
1833.9543978663
 31
0.0
  0
ARC
  5
C1
330
1F
100
AcDbEntity
  8
0
  6
Continuous
 62
     7
370
    25
100
AcDbCircle
 10
1192.5833821614
 20
1833.9543978663
 30
0.0
 40
0.1999999999998181
100
AcDbArc
 50
180.0
 51
270.0
  0
LINE
  5
C2
330
1F
100
AcDbEntity
  8
0
  6
Continuous
 62
     7
370
    25
100
AcDbLine
 10
1194.1833821614
 20
1833.7543978663
 30
0.0
 11
1192.5833821614
 21
1833.7543978663
 31
0.0
  0
LINE
  5
C3
330
1F
100
AcDbEntity
  8
0
  6
Continuous
 62
     7
370
    25
100
AcDbLine
 10
1192.5833821614
 20
1833.9543978663
 30
0.0
 11
1193.9833821614
 21
1833.9543978663
 31
0.0
  0
ARC
  5
C4
330
1F
100
AcDbEntity
  8
0
  6
Continuous
 62
     7
370
    25
100
AcDbCircle
 10
1203.7665683915
 20
1856.7543978663
 30
0.0
 40
1.200000000000187
100
AcDbArc
 50
270.0
 51
355.0300534053
  0
LINE
  5
C5
330
1F
100
AcDbEntity
  8
0
  6
Continuous
 62
     7
370
    25
100
AcDbLine
 10
1205.8032453424
 20
1866.323704423
 30
0.0
 11
1204.9620567238
 21
1856.6504380312
 31
0.0
  0
ARC
  5
C6
330
1F
100
AcDbEntity
  8
0
  6
Continuous
 62
     7
370
    25
100
AcDbCircle
 10
1206.6002375639
 20
1866.2543978663
 30
0.0
 40
0.8000000000003918
100
AcDbArc
 50
80.4234115189
 51
175.0300534053
  0
ARC
  5
C7
330
1F
100
AcDbEntity
  8
0
  6
Continuous
 62
     7
370
    25
100
AcDbCircle
 10
1206.6834204874
 20
1866.7474299152
 30
0.0
 40
0.3000000000000862
100
AcDbArc
 50
43.6216529673
 51
80.4234115189
  0
LINE
  5
C8
330
1F
100
AcDbEntity
  8
0
  6
Continuous
 62
     7
370
    25
100
AcDbLine
 10
1206.4833821614
 20
1866.9543978663
 30
0.0
 11
1206.9005938449
 21
1866.9543978663
 31
0.0
  0
LINE
  5
C9
330
1F
100
AcDbEntity
  8
0
  6
Continuous
 62
     7
370
    25
100
AcDbLine
 10
1206.4833821614
 20
1853.9543978663
 30
0.0
 11
1206.4833821614
 21
1866.9543978663
 31
0.0
  0
LINE
  5
CA
330
1F
100
AcDbEntity
  8
0
  6
Continuous
 62
     7
370
    25
100
AcDbLine
 10
1203.7665683915
 20
1855.5543978663
 30
0.0
 11
1193.3833821614
 21
1855.5543978663
 31
0.0
  0
LINE
  5
CB
330
1F
100
AcDbEntity
  8
0
  6
Continuous
 62
     7
370
    25
100
AcDbLine
 10
1193.3833821614
 20
1855.7543978663
 30
0.0
 11
1203.7665683915
 21
1855.7543978663
 31
0.0
  0
LINE
  5
CC
330
1F
100
AcDbEntity
  8
0
  6
Continuous
 62
     7
370
    25
100
AcDbLine
 10
1203.7665683915
 20
1855.5543978663
 30
0.0
 11
1203.7665683915
 21
1855.7543978663
 31
0.0
  0
LINE
  5
CD
330
1F
100
AcDbEntity
  8
0
  6
Continuous
 62
     7
370
    25
100
AcDbLine
 10
1206.6833821614
 20
1866.7543978663
 30
0.0
 11
1206.4833821614
 21
1866.9543978663
 31
0.0
  0
SPLINE
  5
CE
330
1F
100
AcDbEntity
  8
0
  6
Continuous
 62
     7
370
    25
100
AcDbSpline
210
0.0
220
0.0
230
1.0
 70
     8
 71
     3
 72
    13
 73
     9
 74
     0
 42
0.00000001
 43
0.00000001
 40
0.0
 40
0.0
 40
0.0
 40
0.0
 40
0.0075029974113243
 40
0.3818974549655825
 40
0.6070018873266375
 40
0.7653769096339834
 40
0.8824605049806366
 40
1.0
 40
1.0
 40
1.0
 40
1.0
 10
1206.900593844891
 20
1866.954397866314
 30
0.0
 10
1206.901611621507
 20
1866.953959868419
 30
0.0
 10
1206.953415757646
 20
1866.931666074047
 30
0.0
 10
1207.032001123013
 20
1866.884781685835
 30
0.0
 10
1207.114640587045
 20
1866.818497248798
 30
0.0
 10
1207.156736705144
 20
1866.780235689626
 30
0.0
 10
1207.179260131979
 20
1866.75847991389
 30
0.0
 10
1207.181999558093
 20
1866.755760310341
 30
0.0
 10
1207.183371932661
 20
1866.754397866314
 30
0.0
  0
LINE
  5
CF
330
1F
100
AcDbEntity
  8
0
  6
Continuous
 62
     7
370
    25
100
AcDbLine
 10
1206.7333302414
 20
1867.0432491446
 30
0.0
 11
1206.7666034108
 21
1867.2404619641
 31
0.0
  0
ARC
  5
D0
330
1F
100
AcDbEntity
  8
0
  6
Continuous
 62
     7
370
    25
100
AcDbCircle
 10
1206.6834204874
 20
1866.7474299152
 30
0.0
 40
0.4999999999999618
100
AcDbArc
 50
0.7984942261
 51
80.4234115189
  0
LINE
  5
D1
330
1F
100
AcDbEntity
  8
0
  6
Continuous
 62
     7
370
    25
100
AcDbLine
 10
1204.9620567238
 20
1856.6504380312
 30
0.0
 11
1204.7628086684
 21
1856.6677646704
 31
0.0
  0
LINE
  5
D2
330
1F
100
AcDbEntity
  8
0
  6
Continuous
 62
     7
370
    25
100
AcDbLine
 10
1204.7628086684
 20
1856.6677646704
 30
0.0
 11
1205.603997287
 21
1866.3410310622
 31
0.0
  0
LINE
  5
D3
330
1F
100
AcDbEntity
  8
0
  6
Continuous
 62
     7
370
    25
100
AcDbLine
 10
1205.8032453424
 20
1866.323704423
 30
0.0
 11
1205.603997287
 21
1866.3410310622
 31
0.0
  0
ARC
  5
D4
330
1F
100
AcDbEntity
  8
0
  6
Continuous
 62
     7
370
    25
100
AcDbCircle
 10
1203.7665683915
 20
1856.7543978663
 30
0.0
 40
1.000000000000197
100
AcDbArc
 50
270.0
 51
355.0300534053
  0
ARC
  5
D5
330
1F
100
AcDbEntity
  8
0
  6
Continuous
 62
     7
370
    25
100
AcDbCircle
 10
1206.6002375639
 20
1866.2543978663
 30
0.0
 40
1.000000000000163
100
AcDbArc
 50
80.4234115189
 51
175.0300534053
  0
LINE
  5
D6
330
1F
100
AcDbEntity
  8
0
  6
Continuous
 62
     7
370
    25
100
AcDbLine
 10
1191.1833821614
 20
1876.7543978663
 30
0.0
 11
1191.1833821614
 21
1848.2543978663
 31
0.0
  0
LINE
  5
D7
330
1F
100
AcDbEntity
  8
0
  6
Continuous
 62
     7
370
    25
100
AcDbLine
 10
812.1833821614
 20
1848.2543978663
 30
0.0
 11
812.1833821614
 21
1876.7543978663
 31
0.0
  0
LINE
  5
D8
330
1F
100
AcDbEntity
  8
0
  6
Continuous
 62
     7
370
    25
100
AcDbLine
 10
1191.1833821614
 20
1848.2543978663
 30
0.0
 11
812.1833821614
 21
1848.2543978663
 31
0.0
  0
LINE
  5
D9
330
1F
100
AcDbEntity
  8
0
  6
Continuous
 62
     7
370
    25
100
AcDbLine
 10
812.1833821614
 20
1876.7543978663
 30
0.0
 11
1191.1833821614
 21
1876.7543978663
 31
0.0
  0
LINE
  5
DA
330
1F
100
AcDbEntity
  8
0
  6
Continuous
 62
     7
370
    25
100
AcDbLine
 10
1190.6833821614
 20
1848.2543978663
 30
0.0
 11
1190.6833821614
 21
976.7543978663
 31
0.0
  0
LINE
  5
DB
330
1F
100
AcDbEntity
  8
0
  6
Continuous
 62
     7
370
    25
100
AcDbLine
 10
1190.6833821614
 20
976.7543978663
 30
0.0
 11
812.1833821614
 21
976.7543978663
 31
0.0
  0
LINE
  5
DC
330
1F
100
AcDbEntity
  8
0
  6
Continuous
 62
     7
370
    25
100
AcDbLine
 10
812.1833821614
 20
1848.2543978663
 30
0.0
 11
812.1833821614
 21
976.7543978663
 31
0.0
  0
SPLINE
  5
DD
330
1F
100
AcDbEntity
  8
0
  6
Continuous
 62
     7
370
    25
100
AcDbSpline
210
0.0
220
0.0
230
1.0
 70
     8
 71
     3
 72
    11
 73
     7
 74
     0
 42
0.00000001
 43
0.00000001
 40
0.0
 40
0.0
 40
0.0
 40
0.0
 40
0.2382247349852471
 40
0.4921376904596722
 40
0.7460575595480212
 40
0.9999999999999999
 40
0.9999999999999999
 40
0.9999999999999999
 40
0.9999999999999999
 10
809.9138916806132
 20
1779.594962851255
 30
0.0
 10
809.9145640648596
 20
1779.62064017077
 30
0.0
 10
809.915953113021
 20
1779.673685782194
 30
0.0
 10
809.9294907111838
 20
1780.190665780915
 30
0.0
 10
809.9495912989495
 20
1780.958276326873
 30
0.0
 10
809.9659749492279
 20
1781.583942518897
 30
0.0
 10
809.9741671384434
 20
1781.896789518421
 30
0.0
  0
LINE
  5
DE
330
1F
100
AcDbEntity
  8
0
  6
Continuous
 62
     7
370
    25
100
AcDbLine
 10
809.9741671384
 20
1781.8967895184
 30
0.0
 11
809.9777514097
 21
1782.033667516
 31
0.0
  0
SPLINE
  5
DF
330
1F
100
AcDbEntity
  8
0
  6
Continuous
 62
     7
370
    25
100
AcDbSpline
210
0.0
220
0.0
230
1.0
 70
    24
 71
     3
 72
    12
 73
     8
 74
     0
 42
0.00000001
 43
0.00000001
 40
0.0
 40
0.0
 40
0.0
 40
0.0
 40
0.2460973337390081
 40
0.49219556541952
 40
0.7383025770440201
 40
0.9844160040481612
 40
1.0
 40
1.0
 40
1.0
 40
1.0
 10
809.9777514096922
 20
1782.033667515998
 30
0.0
 10
809.985980886693
 20
1782.347938563496
 30
0.0
 10
810.0024398707219
 20
1782.97648180518
 30
0.0
 10
810.0237558738316
 20
1783.790507122342
 30
0.0
 10
810.0372961365772
 20
1784.30758889509
 30
0.0
 10
810.0432156136602
 20
1784.533644604744
 30
0.0
 10
810.0416953833216
 20
1784.475589350331
 30
0.0
 10
810.041604854102
 20
1784.472132178917
 30
0.0
  0
SPLINE
  5
E0
330
1F
100
AcDbEntity
  8
0
  6
Continuous
 62
     7
370
    25
100
AcDbSpline
210
0.0
220
0.0
230
1.0
 70
    24
 71
     3
 72
    13
 73
     9
 74
     0
 42
0.00000001
 43
0.00000001
 40
0.0
 40
0.0
 40
0.0
 40
0.0
 40
0.1538581583652743
 40
0.307967686245389
 40
0.453507780238646
 40
0.5878340078347417
 40
0.8177872163815765
 40
1.0
 40
1.0
 40
1.0
 40
1.0
 10
809.679402610894
 20
1808.841736571925
 30
0.0
 10
809.6780831342505
 20
1808.791347791833
 30
0.0
 10
809.6754420252365
 20
1808.690487907752
 30
0.0
 10
809.6532152398244
 20
1807.841681217697
 30
0.0
 10
809.621047229528
 20
1806.613234465781
 30
0.0
 10
809.57178429794
 20
1804.731959007908
 30
0.0
 10
809.5059649692004
 20
1802.218420251279
 30
0.0
 10
809.4512399060535
 20
1800.128554404691
 30
0.0
 10
809.4270467259289
 20
1799.204654130203
 30
0.0
  0
SPLINE
  5
E1
330
1F
100
AcDbEntity
  8
0
  6
Continuous
 62
     7
370
    25
100
AcDbSpline
210
0.0
220
0.0
230
1.0
 70
    24
 71
     3
 72
    13
 73
     9
 74
     0
 42
0.00000001
 43
0.00000001
 40
0.0
 40
0.0
 40
0.0
 40
0.0
 40
0.1813201537908822
 40
0.4101468448381232
 40
0.5438150184965622
 40
0.688642123887617
 40
0.8419966874127126
 40
0.9999999999999999
 40
0.9999999999999999
 40
0.9999999999999999
 40
0.9999999999999999
 10
809.4231022059331
 20
1799.054018988889
 30
0.0
 10
809.3988753322902
 20
1798.128832010848
 30
0.0
 10
809.3440740563308
 20
1796.036055714359
 30
0.0
 10
809.2777138253084
 20
1793.501860732923
 30
0.0
 10
809.2277428087554
 20
1791.59354460118
 30
0.0
 10
809.1948207200398
 20
1790.336300756249
 30
0.0
 10
809.1715385613134
 20
1789.447190985343
 30
0.0
 10
809.1682463679045
 20
1789.321467191345
 30
0.0
 10
809.166575694046
 20
1789.257666730695
 30
0.0
  0
LINE
  5
E2
330
1F
100
AcDbEntity
  8
0
  6
Continuous
 62
     7
370
    25
100
AcDbLine
 10
806.9011502435
 20
1794.4282791568
 30
0.0
 11
807.1466990085
 21
1803.8054081729
 31
0.0
  0
SPLINE
  5
E3
330
1F
100
AcDbEntity
  8
0
  6
Continuous
 62
     7
370
    25
100
AcDbSpline
210
0.0
220
0.0
230
1.0
 70
     8
 71
     3
 72
    11
 73
     7
 74
     0
 42
0.00000001
 43
0.00000001
 40
0.0
 40
0.0
 40
0.0
 40
0.0
 40
0.2702619356875419
 40
0.5624305486172633
 40
0.7897374073710794
 40
1.0
 40
1.0
 40
1.0
 40
1.0
 10
809.9190612506655
 20
1798.893155774585
 30
0.0
 10
809.8482240563781
 20
1798.894721041429
 30
0.0
 10
809.7008078027928
 20
1798.897978451272
 30
0.0
 10
809.5330365876365
 20
1798.897927095682
 30
0.0
 10
809.4353131575368
 20
1798.894958610163
 30
0.0
 10
809.4241613379756
 20
1798.891490841407
 30
0.0
 10
809.4188026218084
 20
1798.889824495534
 30
0.0
  0
LINE
  5
E4
330
1F
100
AcDbEntity
  8
0
  6
Continuous
 62
     7
370
    25
100
AcDbLine
 10
1191.4833821614
 20
1834.0543978663
 30
0.0
 11
1191.4833821614
 21
1835.2543978663
 31
0.0
  0
LINE
  5
E5
330
1F
100
AcDbEntity
  8
0
  6
Continuous
 62
     7
370
    25
100
AcDbLine
 10
1190.6833821614
 20
1835.2543978663
 30
0.0
 11
1191.4833821614
 21
1835.2543978663
 31
0.0
  0
LINE
  5
E6
330
1F
100
AcDbEntity
  8
0
  6
Continuous
 62
     7
370
    25
100
AcDbLine
 10
1190.6833821614
 20
1834.0543978663
 30
0.0
 11
1191.4833821614
 21
1834.0543978663
 31
0.0
  0
LINE
  5
E7
330
1F
100
AcDbEntity
  8
0
  6
Continuous
 62
     7
370
    25
100
AcDbLine
 10
1191.4833821614
 20
1835.2543978663
 30
0.0
 11
1192.3833821614
 21
1835.2543978663
 31
0.0
  0
LINE
  5
E8
330
1F
100
AcDbEntity
  8
0
  6
Continuous
 62
     7
370
    25
100
AcDbLine
 10
1191.4833821614
 20
1834.0543978663
 30
0.0
 11
1192.3833821614
 21
1834.0543978663
 31
0.0
  0
LINE
  5
E9
330
1F
100
AcDbEntity
  8
0
  6
Continuous
 62
     7
370
    25
100
AcDbLine
 10
1191.4833821614
 20
1816.2543978663
 30
0.0
 11
1192.6833821614
 21
1816.2543978663
 31
0.0
  0
LINE
  5
EA
330
1F
100
AcDbEntity
  8
0
  6
Continuous
 62
     7
370
    25
100
AcDbLine
 10
1192.6833821614
 20
1833.2543978663
 30
0.0
 11
1192.6833821614
 21
1833.7543978663
 31
0.0
  0
LINE
  5
EB
330
1F
100
AcDbEntity
  8
0
  6
Continuous
 62
     7
370
    25
100
AcDbLine
 10
1191.4833821614
 20
1816.2543978663
 30
0.0
 11
1191.4833821614
 21
1834.0543978663
 31
0.0
  0
LINE
  5
EC
330
1F
100
AcDbEntity
  8
0
  6
Continuous
 62
     7
370
    25
100
AcDbLine
 10
1192.6833821614
 20
1813.2543978663
 30
0.0
 11
1191.4833821614
 21
1813.2543978663
 31
0.0
  0
LINE
  5
ED
330
1F
100
AcDbEntity
  8
0
  6
Continuous
 62
     7
370
    25
100
AcDbLine
 10
1191.4833821614
 20
1813.2543978663
 30
0.0
 11
1191.4833821614
 21
1816.2543978663
 31
0.0
  0
SPLINE
  5
EE
330
1F
100
AcDbEntity
  8
0
  6
Continuous
 62
     7
370
    25
100
AcDbSpline
210
0.0
220
0.0
230
1.0
 70
    24
 71
     3
 72
    11
 73
     7
 74
     0
 42
0.00000001
 43
0.00000001
 40
0.0
 40
0.0
 40
0.0
 40
0.0
 40
0.2307910683555971
 40
0.5695709634358189
 40
0.9079062644119228
 40
1.0
 40
1.0
 40
1.0
 40
1.0
 10
1190.683382161432
 20
1815.254397866317
 30
0.0
 10
1190.723033891903
 20
1815.254397866317
 30
0.0
 10
1190.820890687173
 20
1815.254397866317
 30
0.0
 10
1191.06325310373
 20
1815.254397866317
 30
0.0
 10
1191.294897117039
 20
1815.254397866317
 30
0.0
 10
1191.450161998089
 20
1815.254397866317
 30
0.0
 10
1191.483382161431
 20
1815.254397866317
 30
0.0
  0
LINE
  5
EF
330
1F
100
AcDbEntity
  8
0
  6
Continuous
 62
     7
370
    25
100
AcDbLine
 10
1192.4833821614
 20
1758.2543978663
 30
0.0
 11
1192.4833821614
 21
1759.2543978663
 31
0.0
  0
SPLINE
  5
F0
330
1F
100
AcDbEntity
  8
0
  6
Continuous
 62
     7
370
    25
100
AcDbSpline
210
0.0
220
0.0
230
1.0
 70
    24
 71
     3
 72
    12
 73
     8
 74
     0
 42
0.00000001
 43
0.00000001
 40
0.0
 40
0.0
 40
0.0
 40
0.0
 40
0.3329369653773653
 40
0.5139656098183782
 40
0.6952322446498649
 40
0.876260996188726
 40
1.0
 40
1.0
 40
1.0
 40
1.0
 10
1192.483382161435
 20
1758.254397866318
 30
0.0
 10
1192.231984748292
 20
1758.254397866318
 30
0.0
 10
1191.843894394292
 20
1758.254397866318
 30
0.0
 10
1191.376965124617
 20
1758.254397866318
 30
0.0
 10
1191.061446235596
 20
1758.254397866318
 30
0.0
 10
1190.821322017085
 20
1758.254397866318
 30
0.0
 10
1190.723214766075
 20
1758.254397866318
 30
0.0
 10
1190.683382161432
 20
1758.254397866318
 30
0.0
  0
LINE
  5
F1
330
1F
100
AcDbEntity
  8
0
  6
Continuous
 62
     7
370
    25
100
AcDbLine
 10
1192.6833821614
 20
1759.2543978663
 30
0.0
 11
1192.4833821614
 21
1759.2543978663
 31
0.0
  0
LINE
  5
F2
330
1F
100
AcDbEntity
  8
0
  6
Continuous
 62
     7
370
    25
100
AcDbLine
 10
1192.4833821614
 20
1758.2543978663
 30
0.0
 11
1192.6833821614
 21
1758.2543978663
 31
0.0
  0
SPLINE
  5
F3
330
1F
100
AcDbEntity
  8
0
  6
Continuous
 62
     7
370
    25
100
AcDbSpline
210
0.0
220
0.0
230
1.0
 70
    24
 71
     3
 72
    12
 73
     8
 74
     0
 42
0.00000001
 43
0.00000001
 40
0.0
 40
0.0
 40
0.0
 40
0.0
 40
0.1234882189630173
 40
0.3047574776082863
 40
0.4857888495169989
 40
0.6670582153989236
 40
1.0
 40
1.0
 40
1.0
 40
1.0
 10
1190.683382161432
 20
1455.254397866319
 30
0.0
 10
1190.72312873047
 20
1455.254397866319
 30
0.0
 10
1190.821219578528
 20
1455.254397866319
 30
0.0
 10
1191.06119286689
 20
1455.254397866319
 30
0.0
 10
1191.376807055385
 20
1455.254397866319
 30
0.0
 10
1191.843717144486
 20
1455.254397866319
 30
0.0
 10
1192.231985744725
 20
1455.254397866319
 30
0.0
 10
1192.483382161443
 20
1455.254397866318
 30
0.0
  0
LINE
  5
F4
330
1F
100
AcDbEntity
  8
0
  6
Continuous
 62
     7
370
    25
100
AcDbLine
 10
1192.4833821614
 20
1454.2543978663
 30
0.0
 11
1192.4833821614
 21
1455.2543978663
 31
0.0
  0
LINE
  5
F5
330
1F
100
AcDbEntity
  8
0
  6
Continuous
 62
     7
370
    25
100
AcDbLine
 10
1192.4833821614
 20
1398.2543978663
 30
0.0
 11
1192.4833821614
 21
1399.2543978663
 31
0.0
  0
SPLINE
  5
F6
330
1F
100
AcDbEntity
  8
0
  6
Continuous
 62
     7
370
    25
100
AcDbSpline
210
0.0
220
0.0
230
1.0
 70
    24
 71
     3
 72
    12
 73
     8
 74
     0
 42
0.00000001
 43
0.00000001
 40
0.0
 40
0.0
 40
0.0
 40
0.0
 40
0.3329369653762197
 40
0.5139656098166097
 40
0.6952322446474726
 40
0.8762609961857107
 40
1.0
 40
1.0
 40
1.0
 40
1.0
 10
1192.483382161439
 20
1398.25439786632
 30
0.0
 10
1192.231984748295
 20
1398.25439786632
 30
0.0
 10
1191.843894394295
 20
1398.25439786632
 30
0.0
 10
1191.37696512462
 20
1398.25439786632
 30
0.0
 10
1191.0614462356
 20
1398.25439786632
 30
0.0
 10
1190.821322017087
 20
1398.25439786632
 30
0.0
 10
1190.723214766076
 20
1398.25439786632
 30
0.0
 10
1190.683382161432
 20
1398.25439786632
 30
0.0
  0
LINE
  5
F7
330
1F
100
AcDbEntity
  8
0
  6
Continuous
 62
     7
370
    25
100
AcDbLine
 10
1192.4833821614
 20
1454.2543978663
 30
0.0
 11
1192.4833821614
 21
1399.2543978663
 31
0.0
  0
LINE
  5
F8
330
1F
100
AcDbEntity
  8
0
  6
Continuous
 62
     7
370
    25
100
AcDbLine
 10
1192.6833821614
 20
1399.2543978663
 30
0.0
 11
1192.4833821614
 21
1399.2543978663
 31
0.0
  0
LINE
  5
F9
330
1F
100
AcDbEntity
  8
0
  6
Continuous
 62
     7
370
    25
100
AcDbLine
 10
1192.6833821614
 20
1454.2543978663
 30
0.0
 11
1192.4833821614
 21
1454.2543978663
 31
0.0
  0
LINE
  5
FA
330
1F
100
AcDbEntity
  8
0
  6
Continuous
 62
     7
370
    25
100
AcDbLine
 10
1192.6833821614
 20
1455.2543978663
 30
0.0
 11
1192.4833821614
 21
1455.2543978663
 31
0.0
  0
LINE
  5
FB
330
1F
100
AcDbEntity
  8
0
  6
Continuous
 62
     7
370
    25
100
AcDbLine
 10
1192.4833821614
 20
1398.2543978663
 30
0.0
 11
1192.6833821614
 21
1398.2543978663
 31
0.0
  0
SPLINE
  5
FC
330
1F
100
AcDbEntity
  8
0
  6
Continuous
 62
     7
370
    25
100
AcDbSpline
210
0.0
220
0.0
230
1.0
 70
    24
 71
     3
 72
    12
 73
     8
 74
     0
 42
0.00000001
 43
0.00000001
 40
0.0
 40
0.0
 40
0.0
 40
0.0
 40
0.1234882189615092
 40
0.30475747760709
 40
0.4857888495161141
 40
0.6670582153983508
 40
1.0
 40
1.0
 40
1.0
 40
1.0
 10
1190.683382161432
 20
1095.254397866317
 30
0.0
 10
1190.723128730469
 20
1095.254397866317
 30
0.0
 10
1190.821219578527
 20
1095.254397866317
 30
0.0
 10
1191.061192866889
 20
1095.254397866317
 30
0.0
 10
1191.376807055383
 20
1095.254397866317
 30
0.0
 10
1191.843717144484
 20
1095.254397866317
 30
0.0
 10
1192.231985744723
 20
1095.254397866316
 30
0.0
 10
1192.483382161441
 20
1095.254397866316
 30
0.0
  0
LINE
  5
FD
330
1F
100
AcDbEntity
  8
0
  6
Continuous
 62
     7
370
    25
100
AcDbLine
 10
1192.4833821614
 20
1094.2543978663
 30
0.0
 11
1192.4833821614
 21
1095.2543978663
 31
0.0
  0
LINE
  5
FE
330
1F
100
AcDbEntity
  8
0
  6
Continuous
 62
     7
370
    25
100
AcDbLine
 10
1192.4833821614
 20
1038.2543978663
 30
0.0
 11
1192.4833821614
 21
1039.2543978663
 31
0.0
  0
SPLINE
  5
FF
330
1F
100
AcDbEntity
  8
0
  6
Continuous
 62
     7
370
    25
100
AcDbSpline
210
0.0
220
0.0
230
1.0
 70
    24
 71
     3
 72
    12
 73
     8
 74
     0
 42
0.00000001
 43
0.00000001
 40
0.0
 40
0.0
 40
0.0
 40
0.0
 40
0.3329369653767926
 40
0.513965609817494
 40
0.6952322446486688
 40
0.8762609961872185
 40
1.0
 40
1.0
 40
1.0
 40
1.0
 10
1192.483382161437
 20
1038.254397866317
 30
0.0
 10
1192.231984748293
 20
1038.254397866318
 30
0.0
 10
1191.843894394293
 20
1038.254397866318
 30
0.0
 10
1191.376965124619
 20
1038.254397866318
 30
0.0
 10
1191.061446235598
 20
1038.254397866318
 30
0.0
 10
1190.821322017085
 20
1038.254397866318
 30
0.0
 10
1190.723214766075
 20
1038.254397866318
 30
0.0
 10
1190.683382161432
 20
1038.254397866318
 30
0.0
  0
LINE
  5
100
330
1F
100
AcDbEntity
  8
0
  6
Continuous
 62
     7
370
    25
100
AcDbLine
 10
1192.6833821614
 20
1095.2543978663
 30
0.0
 11
1192.4833821614
 21
1095.2543978663
 31
0.0
  0
LINE
  5
101
330
1F
100
AcDbEntity
  8
0
  6
Continuous
 62
     7
370
    25
100
AcDbLine
 10
1192.6833821614
 20
1094.2543978663
 30
0.0
 11
1192.4833821614
 21
1094.2543978663
 31
0.0
  0
LINE
  5
102
330
1F
100
AcDbEntity
  8
0
  6
Continuous
 62
     7
370
    25
100
AcDbLine
 10
1192.4833821614
 20
1094.2543978663
 30
0.0
 11
1192.4833821614
 21
1039.2543978663
 31
0.0
  0
LINE
  5
103
330
1F
100
AcDbEntity
  8
0
  6
Continuous
 62
     7
370
    25
100
AcDbLine
 10
1192.6833821614
 20
1039.2543978663
 30
0.0
 11
1192.4833821614
 21
1039.2543978663
 31
0.0
  0
LINE
  5
104
330
1F
100
AcDbEntity
  8
0
  6
Continuous
 62
     7
370
    25
100
AcDbLine
 10
1192.4833821614
 20
1038.2543978663
 30
0.0
 11
1192.6833821614
 21
1038.2543978663
 31
0.0
  0
LINE
  5
105
330
1F
100
AcDbEntity
  8
0
  6
Continuous
 62
     7
370
    25
100
AcDbLine
 10
810.349635215
 20
1784.7748720752
 30
0.0
 11
810.2056619993
 21
1779.2767567878
 31
0.0
  0
LINE
  5
106
330
1F
100
AcDbEntity
  8
0
  6
Continuous
 62
     7
370
    25
100
AcDbLine
 10
808.7347494467
 20
1809.0754720652
 30
0.0
 11
808.2112104806
 21
1789.0823255657
 31
0.0
  0
LINE
  5
107
330
1F
100
AcDbEntity
  8
0
  6
Continuous
 62
     7
370
    25
100
AcDbLine
 10
807.0448610604
 20
1790.2086561082
 30
0.0
 11
807.5110508819
 21
1808.0117271316
 31
0.0
  0
LINE
  5
108
330
1F
100
AcDbEntity
  8
0
  6
Continuous
 62
     7
370
    25
100
AcDbLine
 10
809.2306502992
 20
1799.3448871838
 30
0.0
 11
809.484940224
 21
1809.0558276283
 31
0.0
  0
LINE
  5
109
330
1F
100
AcDbEntity
  8
0
  6
Continuous
 62
     7
370
    25
100
AcDbLine
 10
807.3292630874
 20
1806.4161961367
 30
0.0
 11
806.9468260401
 21
1791.8115145215
 31
0.0
  0
LINE
  5
10A
330
1F
100
AcDbEntity
  8
0
  6
Continuous
 62
     7
370
    25
100
AcDbLine
 10
810.04072709
 20
1803.5393867276
 30
0.0
 11
809.9190612506
 21
1798.8931557708
 31
0.0
  0
LINE
  5
10B
330
1F
100
AcDbEntity
  8
0
  6
Continuous
 62
     7
370
    25
100
AcDbLine
 10
809.9190612506
 20
1798.8931557708
 30
0.0
 11
809.8051346388
 21
1794.5424739934
 31
0.0
  0
LINE
  5
10C
330
1F
100
AcDbEntity
  8
0
  6
Continuous
 62
     7
370
    25
100
AcDbLine
 10
1191.4833821614
 20
1814.2543978663
 30
0.0
 11
1190.6833821614
 21
1814.2543978663
 31
0.0
  0
LINE
  5
10D
330
1F
100
AcDbEntity
  8
0
  6
Continuous
 62
     7
370
    25
100
AcDbLine
 10
1190.6833821614
 20
1759.2543978663
 30
0.0
 11
1192.4833821614
 21
1759.2543978663
 31
0.0
  0
LINE
  5
10E
330
1F
100
AcDbEntity
  8
0
  6
Continuous
 62
     7
370
    25
100
AcDbLine
 10
1192.4833821614
 20
1813.2543978663
 30
0.0
 11
1192.4833821614
 21
1759.2543978663
 31
0.0
  0
LINE
  5
10F
330
1F
100
AcDbEntity
  8
0
  6
Continuous
 62
     7
370
    25
100
AcDbLine
 10
1192.4833821614
 20
1454.2543978663
 30
0.0
 11
1190.6833821614
 21
1454.2543978663
 31
0.0
  0
LINE
  5
110
330
1F
100
AcDbEntity
  8
0
  6
Continuous
 62
     7
370
    25
100
AcDbLine
 10
1190.6833821614
 20
1399.2543978663
 30
0.0
 11
1192.4833821614
 21
1399.2543978663
 31
0.0
  0
LINE
  5
111
330
1F
100
AcDbEntity
  8
0
  6
Continuous
 62
     7
370
    25
100
AcDbLine
 10
1192.4833821614
 20
1094.2543978663
 30
0.0
 11
1190.6833821614
 21
1094.2543978663
 31
0.0
  0
LINE
  5
112
330
1F
100
AcDbEntity
  8
0
  6
Continuous
 62
     7
370
    25
100
AcDbLine
 10
1190.6833821614
 20
1039.2543978663
 30
0.0
 11
1192.4833821614
 21
1039.2543978663
 31
0.0
  0
LINE
  5
113
330
1F
100
AcDbEntity
  8
0
  6
Continuous
 62
     7
370
    25
100
AcDbLine
 10
4142.3042067412
 20
1784.7748720752
 30
0.0
 11
4140.4704597948
 21
1784.7268537215
 31
0.0
  0
LINE
  5
114
330
1F
100
AcDbEntity
  8
0
  6
Continuous
 62
     7
370
    25
100
AcDbLine
 10
4140.4704597948
 20
1779.2249683628
 30
0.0
 11
4142.4481799569
 21
1779.2767567878
 31
0.0
  0
ARC
  5
115
330
1F
100
AcDbEntity
  8
0
  6
Continuous
 62
     7
370
    25
100
AcDbCircle
 10
4142.3120598257
 20
1784.4749748777
 30
0.0
 40
0.3000000000003366
100
AcDbArc
 50
1.5
 51
91.5
  0
ARC
  5
116
330
1F
100
AcDbEntity
  8
0
  6
Continuous
 62
     7
370
    25
100
AcDbCircle
 10
4142.4403268724
 20
1779.5766539853
 30
0.0
 40
0.2999999999998819
100
AcDbArc
 50
271.5
 51
1.5
  0
ARC
  5
117
330
1F
100
AcDbEntity
  8
0
  6
Continuous
 62
     7
370
    25
100
AcDbCircle
 10
4143.6872053087
 20
1789.2626125938
 30
0.0
 40
0.2000000000000808
100
AcDbArc
 50
181.5
 51
271.5
  0
ARC
  5
118
330
1F
100
AcDbEntity
  8
0
  6
Continuous
 62
     7
370
    25
100
AcDbCircle
 10
4143.1741371219
 20
1808.8558961633
 30
0.0
 40
0.200000000000057
100
AcDbArc
 50
91.4999999998
 51
181.4999999999
  0
LINE
  5
119
330
1F
100
AcDbEntity
  8
0
  6
Continuous
 62
     7
370
    25
100
AcDbLine
 10
4143.6924406984
 20
1789.0626811288
 30
0.0
 11
4144.4426314757
 21
1789.0823255657
 31
0.0
  0
LINE
  5
11A
330
1F
100
AcDbEntity
  8
0
  6
Continuous
 62
     7
370
    25
100
AcDbLine
 10
4143.9190925096
 20
1809.0754720652
 30
0.0
 11
4143.1689017322
 21
1809.0558276283
 31
0.0
  0
ARC
  5
11B
330
1F
100
AcDbEntity
  8
0
  6
Continuous
 62
     7
370
    25
100
AcDbCircle
 10
4144.4112191377
 20
1790.2819143556
 30
0.0
 40
1.200000000000284
100
AcDbArc
 50
271.5
 51
356.5000000032
  0
ARC
  5
11C
330
1F
100
AcDbEntity
  8
0
  6
Continuous
 62
     7
370
    25
100
AcDbCircle
 10
4143.9505048475
 20
1807.8758832752
 30
0.0
 40
1.200000000000529
100
AcDbArc
 50
6.4999999967
 51
91.5
  0
LINE
  5
11D
330
1F
100
AcDbEntity
  8
0
  6
Continuous
 62
     7
370
    25
100
AcDbLine
 10
4145.6089808958
 20
1790.2086561082
 30
0.0
 11
4145.7070159161
 21
1791.8115145215
 31
0.0
  0
LINE
  5
11E
330
1F
100
AcDbEntity
  8
0
  6
Continuous
 62
     7
370
    25
100
AcDbLine
 10
4145.3245788688
 20
1806.4161961367
 30
0.0
 11
4145.1427910743
 21
1808.0117271316
 31
0.0
  0
ARC
  5
11F
330
1F
100
AcDbEntity
  8
0
  6
Continuous
 62
     7
370
    25
100
AcDbCircle
 10
4115.7629719635
 20
1793.6429707076
 30
0.0
 40
30.00000000000287
100
AcDbArc
 50
356.4999999999
 51
1.4999999999
  0
ARC
  5
120
330
1F
100
AcDbEntity
  8
0
  6
Continuous
 62
     7
370
    25
100
AcDbCircle
 10
4115.5174231985
 20
1803.0200997237
 30
0.0
 40
30.00000000000258
100
AcDbArc
 50
1.4999999999
 51
6.4999999999
  0
LINE
  5
121
330
1F
100
AcDbEntity
  8
0
  6
Continuous
 62
     7
370
    25
100
AcDbLine
 10
4145.6323908212
 20
1799.0223848583
 30
0.0
 11
4145.6299173303
 21
1799.1168436648
 31
0.0
  0
SPLINE
  5
122
330
1F
100
AcDbEntity
  8
0
  6
Continuous
 62
     7
370
    25
100
AcDbSpline
210
0.0
220
0.0
230
1.0
 70
     8
 71
     3
 72
    11
 73
     7
 74
     0
 42
0.00000001
 43
0.00000001
 40
0.0
 40
0.0
 40
0.0
 40
0.0
 40
0.2706712709044296
 40
0.5632120728000667
 40
0.790389163524506
 40
1.0
 40
1.0
 40
1.0
 40
1.0
 10
4142.848707355206
 20
1794.542472552354
 30
0.0
 10
4142.920520063716
 20
1794.535344805513
 30
0.0
 10
4143.069947759822
 20
1794.520513408522
 30
0.0
 10
4143.242058985536
 20
1794.38709392635
 30
0.0
 10
4143.343109951159
 20
1794.218965531411
 30
0.0
 10
4143.355745768719
 20
1794.103888307108
 30
0.0
 10
4143.361809590824
 20
1794.048663719286
 30
0.0
  0
SPLINE
  5
123
330
1F
100
AcDbEntity
  8
0
  6
Continuous
 62
     7
370
    25
100
AcDbSpline
210
0.0
220
0.0
230
1.0
 70
     8
 71
     3
 72
    11
 73
     7
 74
     0
 42
0.00000001
 43
0.00000001
 40
0.0
 40
0.0
 40
0.0
 40
0.0
 40
0.2695105035985372
 40
0.5617364405776607
 40
0.7894224931279853
 40
1.0
 40
1.0
 40
1.0
 40
1.0
 10
4143.099669909802
 20
1804.059374258503
 30
0.0
 10
4143.093603748796
 20
1803.987784817779
 30
0.0
 10
4143.080960146241
 20
1803.838572089228
 30
0.0
 10
4142.950567580004
 20
1803.664552517794
 30
0.0
 10
4142.783797532523
 20
1803.560590211836
 30
0.0
 10
4142.668508878933
 20
1803.546269373958
 30
0.0
 10
4142.613114820445
 20
1803.539388477128
 30
0.0
  0
LINE
  5
124
330
1F
100
AcDbEntity
  8
0
  6
Continuous
 62
     7
370
    25
100
AcDbLine
 10
4140.4704597948
 20
1794.4801959483
 30
0.0
 11
4142.8487073552
 21
1794.5424725523
 31
0.0
  0
LINE
  5
125
330
1F
100
AcDbEntity
  8
0
  6
Continuous
 62
     7
370
    25
100
AcDbLine
 10
4142.6131148204
 20
1803.5393884771
 30
0.0
 11
4140.4704597948
 21
1803.4832810807
 31
0.0
  0
LINE
  5
126
330
1F
100
AcDbEntity
  8
0
  6
Continuous
 62
     7
370
    25
100
AcDbLine
 10
3759.9704597948
 20
986.7543978663
 30
0.0
 11
3759.9704597948
 21
1833.2543978663
 31
0.0
  0
LINE
  5
127
330
1F
100
AcDbEntity
  8
0
  6
Continuous
 62
     7
370
    25
100
AcDbLine
 10
3741.9704597948
 20
986.7543978663
 30
0.0
 11
3741.9704597948
 21
1866.7543978663
 31
0.0
  0
LINE
  5
128
330
1F
100
AcDbEntity
  8
0
  6
Continuous
 62
     7
370
    25
100
AcDbLine
 10
3741.9704597948
 20
1866.7543978663
 30
0.0
 11
3745.9704597948
 21
1866.7543978663
 31
0.0
  0
LINE
  5
129
330
1F
100
AcDbEntity
  8
0
  6
Continuous
 62
     7
370
    25
100
AcDbLine
 10
3745.9704597948
 20
1853.7543978663
 30
0.0
 11
3745.9704597948
 21
1866.7543978663
 31
0.0
  0
LINE
  5
12A
330
1F
100
AcDbEntity
  8
0
  6
Continuous
 62
     7
370
    25
100
AcDbLine
 10
3758.4704597948
 20
1833.2543978663
 30
0.0
 11
3758.4704597948
 21
1853.7543978663
 31
0.0
  0
LINE
  5
12B
330
1F
100
AcDbEntity
  8
0
  6
Continuous
 62
     7
370
    25
100
AcDbLine
 10
3758.4704597948
 20
1853.7543978663
 30
0.0
 11
3745.9704597948
 21
1853.7543978663
 31
0.0
  0
LINE
  5
12C
330
1F
100
AcDbEntity
  8
0
  6
Continuous
 62
     7
370
    25
100
AcDbLine
 10
3741.9704597948
 20
986.7543978663
 30
0.0
 11
3759.9704597948
 21
986.7543978663
 31
0.0
  0
LINE
  5
12D
330
1F
100
AcDbEntity
  8
0
  6
Continuous
 62
     7
370
    25
100
AcDbLine
 10
3759.9704597948
 20
1833.2543978663
 30
0.0
 11
3758.4704597948
 21
1833.2543978663
 31
0.0
  0
LINE
  5
12E
330
1F
100
AcDbEntity
  8
0
  6
Continuous
 62
     7
370
    25
100
AcDbLine
 10
3760.0704597948
 20
1833.7543978663
 30
0.0
 11
3760.0704597948
 21
1833.9543978663
 31
0.0
  0
LINE
  5
12F
330
1F
100
AcDbEntity
  8
0
  6
Continuous
 62
     7
370
    25
100
AcDbLine
 10
3760.2704597948
 20
1833.9543978663
 30
0.0
 11
3760.0704597948
 21
1833.9543978663
 31
0.0
  0
ARC
  5
130
330
1F
100
AcDbEntity
  8
0
  6
Continuous
 62
     7
370
    25
100
AcDbCircle
 10
3760.0704597948
 20
1833.9543978663
 30
0.0
 40
0.2000000000002728
100
AcDbArc
 50
270.0
 51
0.0
  0
LINE
  5
131
330
1F
100
AcDbEntity
  8
0
  6
Continuous
 62
     7
370
    25
100
AcDbLine
 10
3760.0704597948
 20
1833.7543978663
 30
0.0
 11
3758.4704597948
 21
1833.7543978663
 31
0.0
  0
LINE
  5
132
330
1F
100
AcDbEntity
  8
0
  6
Continuous
 62
     7
370
    25
100
AcDbLine
 10
3758.4704597948
 20
1833.7543978663
 30
0.0
 11
3758.6704597948
 21
1833.9543978663
 31
0.0
  0
LINE
  5
133
330
1F
100
AcDbEntity
  8
0
  6
Continuous
 62
     7
370
    25
100
AcDbLine
 10
3758.6704597948
 20
1833.9543978663
 30
0.0
 11
3760.0704597948
 21
1833.9543978663
 31
0.0
  0
LINE
  5
134
330
1F
100
AcDbEntity
  8
0
  6
Continuous
 62
     7
370
    25
100
AcDbLine
 10
3758.6704597948
 20
1853.9543978663
 30
0.0
 11
3758.6704597948
 21
1833.9543978663
 31
0.0
  0
LINE
  5
135
330
1F
100
AcDbEntity
  8
0
  6
Continuous
 62
     7
370
    25
100
AcDbLine
 10
3758.6704597948
 20
1853.9543978663
 30
0.0
 11
3758.4704597948
 21
1853.7543978663
 31
0.0
  0
LINE
  5
136
330
1F
100
AcDbEntity
  8
0
  6
Continuous
 62
     7
370
    25
100
AcDbLine
 10
3746.1704597948
 20
1866.9543978663
 30
0.0
 11
3746.1704597948
 21
1853.9543978663
 31
0.0
  0
LINE
  5
137
330
1F
100
AcDbEntity
  8
0
  6
Continuous
 62
     7
370
    25
100
AcDbLine
 10
3745.7532481114
 20
1866.9543978663
 30
0.0
 11
3746.1704597948
 21
1866.9543978663
 31
0.0
  0
ARC
  5
138
330
1F
100
AcDbEntity
  8
0
  6
Continuous
 62
     7
370
    25
100
AcDbCircle
 10
3745.9704214689
 20
1866.7474299152
 30
0.0
 40
0.3000000000006011
100
AcDbArc
 50
99.5765884811
 51
136.3783470328
  0
ARC
  5
139
330
1F
100
AcDbEntity
  8
0
  6
Continuous
 62
     7
370
    25
100
AcDbCircle
 10
3746.0536043923
 20
1866.2543978663
 30
0.0
 40
0.7999999999999607
100
AcDbArc
 50
4.9699465947
 51
99.576588481
  0
LINE
  5
13A
330
1F
100
AcDbEntity
  8
0
  6
Continuous
 62
     7
370
    25
100
AcDbLine
 10
3747.6917852325
 20
1856.6504380312
 30
0.0
 11
3746.8505966139
 21
1866.323704423
 31
0.0
  0
ARC
  5
13B
330
1F
100
AcDbEntity
  8
0
  6
Continuous
 62
     7
370
    25
100
AcDbCircle
 10
3748.8872735648
 20
1856.7543978663
 30
0.0
 40
1.199999999999961
100
AcDbArc
 50
184.9699465947
 51
270.0
  0
LINE
  5
13C
330
1F
100
AcDbEntity
  8
0
  6
Continuous
 62
     7
370
    25
100
AcDbLine
 10
3759.2704597948
 20
1855.5543978663
 30
0.0
 11
3748.8872735648
 21
1855.5543978663
 31
0.0
  0
ARC
  5
13D
330
1F
100
AcDbEntity
  8
0
  6
Continuous
 62
     7
370
    25
100
AcDbCircle
 10
3759.2704597948
 20
1854.7543978663
 30
0.0
 40
0.7999999999999545
100
AcDbArc
 50
0.0
 51
90.0
  0
LINE
  5
13E
330
1F
100
AcDbEntity
  8
0
  6
Continuous
 62
     7
370
    25
100
AcDbLine
 10
3760.0704597948
 20
1833.9543978663
 30
0.0
 11
3760.0704597948
 21
1854.7543978663
 31
0.0
  0
LINE
  5
13F
330
1F
100
AcDbEntity
  8
0
  6
Continuous
 62
     7
370
    25
100
AcDbLine
 10
3746.1704597948
 20
1853.9543978663
 30
0.0
 11
3758.6704597948
 21
1853.9543978663
 31
0.0
  0
LINE
  5
140
330
1F
100
AcDbEntity
  8
0
  6
Continuous
 62
     7
370
    25
100
AcDbLine
 10
3760.2704597948
 20
1854.7543978663
 30
0.0
 11
3760.2704597948
 21
1833.9543978663
 31
0.0
  0
LINE
  5
141
330
1F
100
AcDbEntity
  8
0
  6
Continuous
 62
     7
370
    25
100
AcDbLine
 10
3760.2704597948
 20
1854.7543978663
 30
0.0
 11
3760.0704597948
 21
1854.7543978663
 31
0.0
  0
LINE
  5
142
330
1F
100
AcDbEntity
  8
0
  6
Continuous
 62
     7
370
    25
100
AcDbLine
 10
3745.9205117148
 20
1867.0432491446
 30
0.0
 11
3745.8872385455
 21
1867.2404619641
 31
0.0
  0
ARC
  5
143
330
1F
100
AcDbEntity
  8
0
  6
Continuous
 62
     7
370
    25
100
AcDbCircle
 10
3746.0536043923
 20
1866.2543978663
 30
0.0
 40
0.9999999999999706
100
AcDbArc
 50
4.9699465947
 51
99.576588481
  0
LINE
  5
144
330
1F
100
AcDbEntity
  8
0
  6
Continuous
 62
     7
370
    25
100
AcDbLine
 10
3746.8505966139
 20
1866.323704423
 30
0.0
 11
3747.0498446692
 21
1866.3410310622
 31
0.0
  0
LINE
  5
145
330
1F
100
AcDbEntity
  8
0
  6
Continuous
 62
     7
370
    25
100
AcDbLine
 10
3747.0498446692
 20
1866.3410310622
 30
0.0
 11
3747.8910332879
 21
1856.6677646704
 31
0.0
  0
LINE
  5
146
330
1F
100
AcDbEntity
  8
0
  6
Continuous
 62
     7
370
    25
100
AcDbLine
 10
3747.8910332879
 20
1856.6677646704
 30
0.0
 11
3747.6917852325
 21
1856.6504380312
 31
0.0
  0
LINE
  5
147
330
1F
100
AcDbEntity
  8
0
  6
Continuous
 62
     7
370
    25
100
AcDbLine
 10
3746.1704597948
 20
1853.9543978663
 30
0.0
 11
3745.9704597948
 21
1853.7543978663
 31
0.0
  0
ARC
  5
148
330
1F
100
AcDbEntity
  8
0
  6
Continuous
 62
     7
370
    25
100
AcDbCircle
 10
3759.2704597948
 20
1854.7543978663
 30
0.0
 40
1.0
100
AcDbArc
 50
0.0
 51
90.0
  0
LINE
  5
149
330
1F
100
AcDbEntity
  8
0
  6
Continuous
 62
     7
370
    25
100
AcDbLine
 10
3759.2704597948
 20
1855.7543978663
 30
0.0
 11
3759.2704597948
 21
1855.5543978663
 31
0.0
  0
LINE
  5
14A
330
1F
100
AcDbEntity
  8
0
  6
Continuous
 62
     7
370
    25
100
AcDbLine
 10
3746.1704597948
 20
1866.9543978663
 30
0.0
 11
3745.9704597948
 21
1866.7543978663
 31
0.0
  0
LINE
  5
14B
330
1F
100
AcDbEntity
  8
0
  6
Continuous
 62
     7
370
    25
100
AcDbLine
 10
3748.8872735648
 20
1855.7543978663
 30
0.0
 11
3759.2704597948
 21
1855.7543978663
 31
0.0
  0
LINE
  5
14C
330
1F
100
AcDbEntity
  8
0
  6
Continuous
 62
     7
370
    25
100
AcDbLine
 10
3748.8872735648
 20
1855.7543978663
 30
0.0
 11
3748.8872735648
 21
1855.5543978663
 31
0.0
  0
SPLINE
  5
14D
330
1F
100
AcDbEntity
  8
0
  6
Continuous
 62
     7
370
    25
100
AcDbSpline
210
0.0
220
0.0
230
1.0
 70
     8
 71
     3
 72
    13
 73
     9
 74
     0
 42
0.00000001
 43
0.00000001
 40
0.0
 40
0.0
 40
0.0
 40
0.0
 40
0.0075029974114405
 40
0.381897454966353
 40
0.6070018873272555
 40
0.7653769096343928
 40
0.8824605049809934
 40
1.0
 40
1.0
 40
1.0
 40
1.0
 10
3745.753248111359
 20
1866.954397866315
 30
0.0
 10
3745.752230334743
 20
1866.95395986842
 30
0.0
 10
3745.700426198604
 20
1866.931666074051
 30
0.0
 10
3745.621840833236
 20
1866.884781685835
 30
0.0
 10
3745.539201369205
 20
1866.818497248798
 30
0.0
 10
3745.497105251106
 20
1866.780235689626
 30
0.0
 10
3745.474581824271
 20
1866.758479913891
 30
0.0
 10
3745.471842398156
 20
1866.755760310341
 30
0.0
 10
3745.470470023589
 20
1866.754397866315
 30
0.0
  0
ARC
  5
14E
330
1F
100
AcDbEntity
  8
0
  6
Continuous
 62
     7
370
    25
100
AcDbCircle
 10
3745.9704214689
 20
1866.7474299152
 30
0.0
 40
0.5000000000006438
100
AcDbArc
 50
99.5765884811
 51
179.2015057739
  0
ARC
  5
14F
330
1F
100
AcDbEntity
  8
0
  6
Continuous
 62
     7
370
    25
100
AcDbCircle
 10
3748.8872735648
 20
1856.7543978663
 30
0.0
 40
0.9999999999999509
100
AcDbArc
 50
184.9699465947
 51
270.0
  0
LINE
  5
150
330
1F
100
AcDbEntity
  8
0
  6
Continuous
 62
     7
370
    25
100
AcDbLine
 10
3761.4704597948
 20
1876.7543978663
 30
0.0
 11
3761.4704597948
 21
1848.2543978663
 31
0.0
  0
LINE
  5
151
330
1F
100
AcDbEntity
  8
0
  6
Continuous
 62
     7
370
    25
100
AcDbLine
 10
4140.4704597948
 20
1848.2543978663
 30
0.0
 11
4140.4704597948
 21
1876.7543978663
 31
0.0
  0
LINE
  5
152
330
1F
100
AcDbEntity
  8
0
  6
Continuous
 62
     7
370
    25
100
AcDbLine
 10
3761.4704597948
 20
1848.2543978663
 30
0.0
 11
4140.4704597948
 21
1848.2543978663
 31
0.0
  0
LINE
  5
153
330
1F
100
AcDbEntity
  8
0
  6
Continuous
 62
     7
370
    25
100
AcDbLine
 10
4140.4704597948
 20
1876.7543978663
 30
0.0
 11
3761.4704597948
 21
1876.7543978663
 31
0.0
  0
LINE
  5
154
330
1F
100
AcDbEntity
  8
0
  6
Continuous
 62
     7
370
    25
100
AcDbLine
 10
3761.9704597948
 20
976.7543978663
 30
0.0
 11
3761.9704597948
 21
1848.2543978663
 31
0.0
  0
LINE
  5
155
330
1F
100
AcDbEntity
  8
0
  6
Continuous
 62
     7
370
    25
100
AcDbLine
 10
3761.9704597948
 20
976.7543978663
 30
0.0
 11
4140.4704597948
 21
976.7543978663
 31
0.0
  0
LINE
  5
156
330
1F
100
AcDbEntity
  8
0
  6
Continuous
 62
     7
370
    25
100
AcDbLine
 10
4140.4704597948
 20
976.7543978663
 30
0.0
 11
4140.4704597948
 21
1848.2543978663
 31
0.0
  0
SPLINE
  5
157
330
1F
100
AcDbEntity
  8
0
  6
Continuous
 62
     7
370
    25
100
AcDbSpline
210
0.0
220
0.0
230
1.0
 70
    24
 71
     3
 72
    12
 73
     8
 74
     0
 42
0.00000001
 43
0.00000001
 40
0.0
 40
0.0
 40
0.0
 40
0.0
 40
0.2460973337390466
 40
0.4921955654195898
 40
0.7383025770441249
 40
0.9844160040482759
 40
1.0
 40
1.0
 40
1.0
 40
1.0
 10
4142.676090546555
 20
1782.033667515998
 30
0.0
 10
4142.684320023556
 20
1781.719396468499
 30
0.0
 10
4142.700779007584
 20
1781.090853226815
 30
0.0
 10
4142.722095010694
 20
1780.276827909654
 30
0.0
 10
4142.73563527344
 20
1779.759746136905
 30
0.0
 10
4142.741554750522
 20
1779.533690427252
 30
0.0
 10
4142.740034520184
 20
1779.591745681664
 30
0.0
 10
4142.739943990964
 20
1779.595202853078
 30
0.0
  0
SPLINE
  5
158
330
1F
100
AcDbEntity
  8
0
  6
Continuous
 62
     7
370
    25
100
AcDbSpline
210
0.0
220
0.0
230
1.0
 70
     8
 71
     3
 72
    11
 73
     7
 74
     0
 42
0.00000001
 43
0.00000001
 40
0.0
 40
0.0
 40
0.0
 40
0.0
 40
0.2382247349852558
 40
0.4921376904596806
 40
0.7460575595479095
 40
1.0
 40
1.0
 40
1.0
 40
1.0
 10
4142.612230817476
 20
1784.472372180741
 30
0.0
 10
4142.612903201779
 20
1784.446694861226
 30
0.0
 10
4142.614292250058
 20
1784.393649249806
 30
0.0
 10
4142.627829847294
 20
1783.87666925106
 30
0.0
 10
4142.647930438628
 20
1783.109058705195
 30
0.0
 10
4142.66431408002
 20
1782.483392512939
 30
0.0
 10
4142.672506264792
 20
1782.170545513298
 30
0.0
  0
LINE
  5
159
330
1F
100
AcDbEntity
  8
0
  6
Continuous
 62
     7
370
    25
100
AcDbLine
 10
4142.6725062648
 20
1782.1705455133
 30
0.0
 11
4142.6760905466
 21
1782.033667516
 31
0.0
  0
SPLINE
  5
15A
330
1F
100
AcDbEntity
  8
0
  6
Continuous
 62
     7
370
    25
100
AcDbSpline
210
0.0
220
0.0
230
1.0
 70
    24
 71
     3
 72
    13
 73
     9
 74
     0
 42
0.00000001
 43
0.00000001
 40
0.0
 40
0.0
 40
0.0
 40
0.0
 40
0.1813201537907939
 40
0.4101468448380602
 40
0.5438150184965125
 40
0.6886421238875787
 40
0.841996687412693
 40
1.0
 40
1.0
 40
1.0
 40
1.0
 10
4143.230739750314
 20
1799.054018988888
 30
0.0
 10
4143.20651287667
 20
1799.979205966929
 30
0.0
 10
4143.151711600711
 20
1802.071982263416
 30
0.0
 10
4143.085351369689
 20
1804.606177244853
 30
0.0
 10
4143.035380353135
 20
1806.514493376595
 30
0.0
 10
4143.00245826442
 20
1807.771737221527
 30
0.0
 10
4142.979176105693
 20
1808.660846992433
 30
0.0
 10
4142.975883912284
 20
1808.786570786431
 30
0.0
 10
4142.974213238426
 20
1808.85037124708
 30
0.0
  0
SPLINE
  5
15B
330
1F
100
AcDbEntity
  8
0
  6
Continuous
 62
     7
370
    25
100
AcDbSpline
210
0.0
220
0.0
230
1.0
 70
    24
 71
     3
 72
    13
 73
     9
 74
     0
 42
0.00000001
 43
0.00000001
 40
0.0
 40
0.0
 40
0.0
 40
0.0
 40
0.1538581583652087
 40
0.307967686245285
 40
0.4535077802385084
 40
0.5878340078345657
 40
0.817787216381353
 40
1.0
 40
1.0
 40
1.0
 40
1.0
 10
4143.487040155275
 20
1789.26630140585
 30
0.0
 10
4143.485720678631
 20
1789.316690185942
 30
0.0
 10
4143.483079569616
 20
1789.417550070024
 30
0.0
 10
4143.460852784205
 20
1790.266356760079
 30
0.0
 10
4143.428684773908
 20
1791.494803511994
 30
0.0
 10
4143.37942184232
 20
1793.376078969867
 30
0.0
 10
4143.31360251358
 20
1795.889617726497
 30
0.0
 10
4143.258877450434
 20
1797.979483573087
 30
0.0
 10
4143.234684270309
 20
1798.903383847577
 30
0.0
  0
LINE
  5
15C
330
1F
100
AcDbEntity
  8
0
  6
Continuous
 62
     7
370
    25
100
AcDbLine
 10
4145.6323908212
 20
1799.0223848582
 30
0.0
 11
4145.7526917127
 21
1794.4282791568
 31
0.0
  0
LINE
  5
15D
330
1F
100
AcDbEntity
  8
0
  6
Continuous
 62
     7
370
    25
100
AcDbLine
 10
4145.5071429478
 20
1803.8054081729
 30
0.0
 11
4145.6299173303
 21
1799.1168436648
 31
0.0
  0
SPLINE
  5
15E
330
1F
100
AcDbEntity
  8
0
  6
Continuous
 62
     7
370
    25
100
AcDbSpline
210
0.0
220
0.0
230
1.0
 70
     8
 71
     3
 72
    11
 73
     7
 74
     0
 42
0.00000001
 43
0.00000001
 40
0.0
 40
0.0
 40
0.0
 40
0.0
 40
0.2702602051692163
 40
0.5624283659902211
 40
0.7897359586727662
 40
0.9999999999999999
 40
0.9999999999999999
 40
0.9999999999999999
 40
0.9999999999999999
 10
4143.226440166189
 20
1799.218213482243
 30
0.0
 10
4143.217690758476
 20
1799.215656025559
 30
0.0
 10
4143.199482694585
 20
1799.210333798472
 30
0.0
 10
4143.06442442218
 20
1799.201285824091
 30
0.0
 10
4142.896362232647
 20
1799.193677152426
 30
0.0
 10
4142.781996868754
 20
1799.190318953097
 30
0.0
 10
4142.72704147007
 20
1799.188705254887
 30
0.0
  0
SPLINE
  5
15F
330
1F
100
AcDbEntity
  8
0
  6
Continuous
 62
     7
370
    25
100
AcDbSpline
210
0.0
220
0.0
230
1.0
 70
     8
 71
     3
 72
    10
 73
     6
 74
     0
 42
0.00000001
 43
0.00000001
 40
0.0
 40
0.0
 40
0.0
 40
0.0
 40
0.3698682463933519
 40
0.7394183665248724
 40
1.0
 40
1.0
 40
1.0
 40
1.0
 10
4142.95432011756
 20
1798.531609380492
 30
0.0
 10
4142.951100394592
 20
1798.655185441903
 30
0.0
 10
4142.94466371796
 20
1798.902231276093
 30
0.0
 10
4142.935171166059
 20
1799.268343236765
 30
0.0
 10
4142.929643867109
 20
1799.475556144414
 30
0.0
 10
4142.927358134671
 20
1799.561245966651
 30
0.0
  0
LINE
  5
160
330
1F
100
AcDbEntity
  8
0
  6
Continuous
 62
     7
370
    25
100
AcDbLine
 10
3761.1704597948
 20
1834.0543978663
 30
0.0
 11
3761.1704597948
 21
1835.2543978663
 31
0.0
  0
LINE
  5
161
330
1F
100
AcDbEntity
  8
0
  6
Continuous
 62
     7
370
    25
100
AcDbLine
 10
3761.1704597948
 20
1834.0543978663
 30
0.0
 11
3761.9704597948
 21
1834.0543978663
 31
0.0
  0
LINE
  5
162
330
1F
100
AcDbEntity
  8
0
  6
Continuous
 62
     7
370
    25
100
AcDbLine
 10
3761.1704597948
 20
1835.2543978663
 30
0.0
 11
3761.9704597948
 21
1835.2543978663
 31
0.0
  0
LINE
  5
163
330
1F
100
AcDbEntity
  8
0
  6
Continuous
 62
     7
370
    25
100
AcDbLine
 10
3760.2704597948
 20
1834.0543978663
 30
0.0
 11
3761.1704597948
 21
1834.0543978663
 31
0.0
  0
LINE
  5
164
330
1F
100
AcDbEntity
  8
0
  6
Continuous
 62
     7
370
    25
100
AcDbLine
 10
3760.2704597948
 20
1835.2543978663
 30
0.0
 11
3761.1704597948
 21
1835.2543978663
 31
0.0
  0
LINE
  5
165
330
1F
100
AcDbEntity
  8
0
  6
Continuous
 62
     7
370
    25
100
AcDbLine
 10
3761.1704597948
 20
1816.2543978663
 30
0.0
 11
3761.1704597948
 21
1834.0543978663
 31
0.0
  0
LINE
  5
166
330
1F
100
AcDbEntity
  8
0
  6
Continuous
 62
     7
370
    25
100
AcDbLine
 10
3759.9704597948
 20
1816.2543978663
 30
0.0
 11
3761.1704597948
 21
1816.2543978663
 31
0.0
  0
LINE
  5
167
330
1F
100
AcDbEntity
  8
0
  6
Continuous
 62
     7
370
    25
100
AcDbLine
 10
3759.9704597948
 20
1833.2543978663
 30
0.0
 11
3759.9704597948
 21
1833.7543978663
 31
0.0
  0
LINE
  5
168
330
1F
100
AcDbEntity
  8
0
  6
Continuous
 62
     7
370
    25
100
AcDbLine
 10
3761.1704597948
 20
1816.2543978663
 30
0.0
 11
3761.1704597948
 21
1815.2470896858
 31
0.0
  0
LINE
  5
169
330
1F
100
AcDbEntity
  8
0
  6
Continuous
 62
     7
370
    25
100
AcDbLine
 10
3760.4704597948
 20
1777.7984397273
 30
0.0
 11
3759.9704597948
 21
1777.7984397273
 31
0.0
  0
LINE
  5
16A
330
1F
100
AcDbEntity
  8
0
  6
Continuous
 62
     7
370
    25
100
AcDbLine
 10
3760.4704597948
 20
1779.3543978665
 30
0.0
 11
3759.9704597948
 21
1779.3543978665
 31
0.0
  0
LINE
  5
16B
330
1F
100
AcDbEntity
  8
0
  6
Continuous
 62
     7
370
    25
100
AcDbLine
 10
3760.4704597948
 20
1779.3543978665
 30
0.0
 11
3760.4704597948
 21
1777.7984397273
 31
0.0
  0
LINE
  5
16C
330
1F
100
AcDbEntity
  8
0
  6
Continuous
 62
     7
370
    25
100
AcDbLine
 10
3759.9704597948
 20
1795.7103560054
 30
0.0
 11
3760.4704597948
 21
1795.7103560054
 31
0.0
  0
LINE
  5
16D
330
1F
100
AcDbEntity
  8
0
  6
Continuous
 62
     7
370
    25
100
AcDbLine
 10
3760.4704597948
 20
1795.7103560054
 30
0.0
 11
3760.4704597948
 21
1794.1543978661
 31
0.0
  0
LINE
  5
16E
330
1F
100
AcDbEntity
  8
0
  6
Continuous
 62
     7
370
    25
100
AcDbLine
 10
3759.9704597948
 20
1794.1543978661
 30
0.0
 11
3760.4704597948
 21
1794.1543978661
 31
0.0
  0
LINE
  5
16F
330
1F
100
AcDbEntity
  8
0
  6
Continuous
 62
     7
370
    25
100
AcDbLine
 10
3760.1704597948
 20
1768.3628237086
 30
0.0
 11
3760.4704597948
 21
1768.3628237086
 31
0.0
  0
LINE
  5
170
330
1F
100
AcDbEntity
  8
0
  6
Continuous
 62
     7
370
    25
100
AcDbLine
 10
3759.9704597948
 20
1768.3628237086
 30
0.0
 11
3760.1704597948
 21
1768.3628237086
 31
0.0
  0
LINE
  5
171
330
1F
100
AcDbEntity
  8
0
  6
Continuous
 62
     7
370
    25
100
AcDbLine
 10
3760.4704597948
 20
1768.3628237086
 30
0.0
 11
3760.4704597948
 21
1777.7984397273
 31
0.0
  0
LINE
  5
172
330
1F
100
AcDbEntity
  8
0
  6
Continuous
 62
     7
370
    25
100
AcDbLine
 10
3760.1704597948
 20
1805.1459720241
 30
0.0
 11
3759.9704597948
 21
1805.1459720241
 31
0.0
  0
LINE
  5
173
330
1F
100
AcDbEntity
  8
0
  6
Continuous
 62
     7
370
    25
100
AcDbLine
 10
3760.4704597948
 20
1805.1459720241
 30
0.0
 11
3760.1704597948
 21
1805.1459720241
 31
0.0
  0
LINE
  5
174
330
1F
100
AcDbEntity
  8
0
  6
Continuous
 62
     7
370
    25
100
AcDbLine
 10
3760.4704597948
 20
1795.7103560054
 30
0.0
 11
3760.4704597948
 21
1805.1459720241
 31
0.0
  0
SPLINE
  5
175
330
1F
100
AcDbEntity
  8
0
  6
Continuous
 62
     7
370
    25
100
AcDbSpline
210
0.0
220
0.0
230
1.0
 70
    24
 71
     3
 72
    12
 73
     8
 74
     0
 42
0.00000001
 43
0.00000001
 40
0.0
 40
0.0
 40
0.0
 40
0.0
 40
0.1234882189585784
 40
0.3047574776050663
 40
0.4857888495145988
 40
0.6670582153987181
 40
1.0
 40
1.0
 40
1.0
 40
1.0
 10
3761.970459794817
 20
1758.254397866318
 30
0.0
 10
3761.930713225782
 20
1758.254397866318
 30
0.0
 10
3761.832622377725
 20
1758.254397866318
 30
0.0
 10
3761.592649089366
 20
1758.254397866318
 30
0.0
 10
3761.277034900872
 20
1758.254397866317
 30
0.0
 10
3760.810124811772
 20
1758.254397866318
 30
0.0
 10
3760.421856211535
 20
1758.254397866316
 30
0.0
 10
3760.170459794819
 20
1758.254397866315
 30
0.0
  0
LINE
  5
176
330
1F
100
AcDbEntity
  8
0
  6
Continuous
 62
     7
370
    25
100
AcDbLine
 10
3760.1704597948
 20
1759.2543978663
 30
0.0
 11
3760.1704597948
 21
1758.2543978663
 31
0.0
  0
SPLINE
  5
177
330
1F
100
AcDbEntity
  8
0
  6
Continuous
 62
     7
370
    25
100
AcDbSpline
210
0.0
220
0.0
230
1.0
 70
    24
 71
     3
 72
    12
 73
     8
 74
     0
 42
0.00000001
 43
0.00000001
 40
0.0
 40
0.0
 40
0.0
 40
0.0
 40
0.3329369653751522
 40
0.5139656098142555
 40
0.6952322446463816
 40
0.8762609961874631
 40
1.0
 40
1.0
 40
1.0
 40
1.0
 10
3760.170459794813
 20
1815.254397866314
 30
0.0
 10
3760.421857207955
 20
1815.254397866315
 30
0.0
 10
3760.809947561953
 20
1815.254397866317
 30
0.0
 10
3761.276876831628
 20
1815.254397866317
 30
0.0
 10
3761.592395720649
 20
1815.254397866317
 30
0.0
 10
3761.832519939165
 20
1815.254397866317
 30
0.0
 10
3761.930627190175
 20
1815.254397866317
 30
0.0
 10
3761.970459794817
 20
1815.254397866317
 30
0.0
  0
LINE
  5
178
330
1F
100
AcDbEntity
  8
0
  6
Continuous
 62
     7
370
    25
100
AcDbLine
 10
3760.1704597948
 20
1814.2543978663
 30
0.0
 11
3760.1704597948
 21
1815.2543978663
 31
0.0
  0
LINE
  5
179
330
1F
100
AcDbEntity
  8
0
  6
Continuous
 62
     7
370
    25
100
AcDbLine
 10
3759.9704597948
 20
1759.2543978663
 30
0.0
 11
3760.1704597948
 21
1759.2543978663
 31
0.0
  0
LINE
  5
17A
330
1F
100
AcDbEntity
  8
0
  6
Continuous
 62
     7
370
    25
100
AcDbLine
 10
3760.1704597948
 20
1759.2543978663
 30
0.0
 11
3760.1704597948
 21
1768.3628237086
 31
0.0
  0
SPLINE
  5
17B
330
1F
100
AcDbEntity
  8
0
  6
Continuous
 62
     7
370
    25
100
AcDbSpline
210
0.0
220
0.0
230
1.0
 70
     8
 71
     3
 72
    10
 73
     6
 74
     0
 42
0.00000001
 43
0.00000001
 40
0.0
 40
0.0
 40
0.0
 40
0.0
 40
0.0371311943321998
 40
0.5486628195540122
 40
1.0
 40
1.0
 40
1.0
 40
1.0
 10
3761.970459794817
 20
1776.508633526149
 30
0.0
 10
3761.964836942606
 20
1776.515351873573
 30
0.0
 10
3761.881751816901
 20
1776.614624399192
 30
0.0
 10
3761.660195844316
 20
1776.715053312386
 30
0.0
 10
3761.428884955071
 20
1776.741841237216
 30
0.0
 10
3761.320459794816
 20
1776.754397866314
 30
0.0
  0
LINE
  5
17C
330
1F
100
AcDbEntity
  8
0
  6
Continuous
 62
     7
370
    25
100
AcDbLine
 10
3760.4704597948
 20
1776.7543978663
 30
0.0
 11
3761.3204597948
 21
1776.7543978663
 31
0.0
  0
SPLINE
  5
17D
330
1F
100
AcDbEntity
  8
0
  6
Continuous
 62
     7
370
    25
100
AcDbSpline
210
0.0
220
0.0
230
1.0
 70
     8
 71
     3
 72
     9
 73
     5
 74
     0
 42
0.00000001
 43
0.00000001
 40
0.0
 40
0.0
 40
0.0
 40
0.0
 40
0.505008126896374
 40
1.0
 40
1.0
 40
1.0
 40
1.0
 10
3761.320459794815
 20
1796.754397866315
 30
0.0
 10
3761.443756066682
 20
1796.766617725699
 30
0.0
 10
3761.687903171057
 20
1796.790815077648
 30
0.0
 10
3761.876905284609
 20
1796.92789115091
 30
0.0
 10
3761.970459794817
 20
1796.995742693171
 30
0.0
  0
LINE
  5
17E
330
1F
100
AcDbEntity
  8
0
  6
Continuous
 62
     7
370
    25
100
AcDbLine
 10
3760.1704597948
 20
1805.1459720241
 30
0.0
 11
3760.1704597948
 21
1814.2543978663
 31
0.0
  0
LINE
  5
17F
330
1F
100
AcDbEntity
  8
0
  6
Continuous
 62
     7
370
    25
100
AcDbLine
 10
3761.3204597948
 20
1796.7543978663
 30
0.0
 11
3760.4704597948
 21
1796.7543978663
 31
0.0
  0
LINE
  5
180
330
1F
100
AcDbEntity
  8
0
  6
Continuous
 62
     7
370
    25
100
AcDbLine
 10
3759.9704597948
 20
1814.2543978663
 30
0.0
 11
3760.1704597948
 21
1814.2543978663
 31
0.0
  0
LINE
  5
181
330
1F
100
AcDbEntity
  8
0
  6
Continuous
 62
     7
370
    25
100
AcDbLine
 10
3759.9704597948
 20
1758.2543978663
 30
0.0
 11
3760.1704597948
 21
1758.2543978663
 31
0.0
  0
LINE
  5
182
330
1F
100
AcDbEntity
  8
0
  6
Continuous
 62
     7
370
    25
100
AcDbLine
 10
3759.9704597948
 20
1815.2543978663
 30
0.0
 11
3760.1704597948
 21
1815.2543978663
 31
0.0
  0
LINE
  5
183
330
1F
100
AcDbEntity
  8
0
  6
Continuous
 62
     7
370
    25
100
AcDbLine
 10
3760.4704597948
 20
1417.7984397273
 30
0.0
 11
3759.9704597948
 21
1417.7984397273
 31
0.0
  0
LINE
  5
184
330
1F
100
AcDbEntity
  8
0
  6
Continuous
 62
     7
370
    25
100
AcDbLine
 10
3760.4704597948
 20
1419.3543978665
 30
0.0
 11
3759.9704597948
 21
1419.3543978665
 31
0.0
  0
LINE
  5
185
330
1F
100
AcDbEntity
  8
0
  6
Continuous
 62
     7
370
    25
100
AcDbLine
 10
3760.4704597948
 20
1419.3543978665
 30
0.0
 11
3760.4704597948
 21
1417.7984397273
 31
0.0
  0
LINE
  5
186
330
1F
100
AcDbEntity
  8
0
  6
Continuous
 62
     7
370
    25
100
AcDbLine
 10
3759.9704597948
 20
1435.7103560054
 30
0.0
 11
3760.4704597948
 21
1435.7103560054
 31
0.0
  0
LINE
  5
187
330
1F
100
AcDbEntity
  8
0
  6
Continuous
 62
     7
370
    25
100
AcDbLine
 10
3760.4704597948
 20
1435.7103560054
 30
0.0
 11
3760.4704597948
 21
1434.1543978661
 31
0.0
  0
LINE
  5
188
330
1F
100
AcDbEntity
  8
0
  6
Continuous
 62
     7
370
    25
100
AcDbLine
 10
3759.9704597948
 20
1434.1543978661
 30
0.0
 11
3760.4704597948
 21
1434.1543978661
 31
0.0
  0
LINE
  5
189
330
1F
100
AcDbEntity
  8
0
  6
Continuous
 62
     7
370
    25
100
AcDbLine
 10
3760.1704597948
 20
1408.3628237086
 30
0.0
 11
3760.4704597948
 21
1408.3628237086
 31
0.0
  0
LINE
  5
18A
330
1F
100
AcDbEntity
  8
0
  6
Continuous
 62
     7
370
    25
100
AcDbLine
 10
3759.9704597948
 20
1408.3628237086
 30
0.0
 11
3760.1704597948
 21
1408.3628237086
 31
0.0
  0
LINE
  5
18B
330
1F
100
AcDbEntity
  8
0
  6
Continuous
 62
     7
370
    25
100
AcDbLine
 10
3760.4704597948
 20
1408.3628237086
 30
0.0
 11
3760.4704597948
 21
1417.7984397273
 31
0.0
  0
LINE
  5
18C
330
1F
100
AcDbEntity
  8
0
  6
Continuous
 62
     7
370
    25
100
AcDbLine
 10
3760.1704597948
 20
1445.1459720241
 30
0.0
 11
3759.9704597948
 21
1445.1459720241
 31
0.0
  0
LINE
  5
18D
330
1F
100
AcDbEntity
  8
0
  6
Continuous
 62
     7
370
    25
100
AcDbLine
 10
3760.4704597948
 20
1445.1459720241
 30
0.0
 11
3760.1704597948
 21
1445.1459720241
 31
0.0
  0
LINE
  5
18E
330
1F
100
AcDbEntity
  8
0
  6
Continuous
 62
     7
370
    25
100
AcDbLine
 10
3760.4704597948
 20
1435.7103560054
 30
0.0
 11
3760.4704597948
 21
1445.1459720241
 31
0.0
  0
SPLINE
  5
18F
330
1F
100
AcDbEntity
  8
0
  6
Continuous
 62
     7
370
    25
100
AcDbSpline
210
0.0
220
0.0
230
1.0
 70
    24
 71
     3
 72
    12
 73
     8
 74
     0
 42
0.00000001
 43
0.00000001
 40
0.0
 40
0.0
 40
0.0
 40
0.0
 40
0.1234882189615946
 40
0.3047574776074589
 40
0.4857888495163684
 40
0.667058215399864
 40
1.0
 40
1.0
 40
1.0
 40
1.0
 10
3761.970459794817
 20
1398.25439786632
 30
0.0
 10
3761.930713225781
 20
1398.25439786632
 30
0.0
 10
3761.832622377723
 20
1398.25439786632
 30
0.0
 10
3761.592649089362
 20
1398.25439786632
 30
0.0
 10
3761.277034900868
 20
1398.25439786632
 30
0.0
 10
3760.810124811768
 20
1398.25439786632
 30
0.0
 10
3760.421856211531
 20
1398.254397866318
 30
0.0
 10
3760.170459794815
 20
1398.254397866316
 30
0.0
  0
LINE
  5
190
330
1F
100
AcDbEntity
  8
0
  6
Continuous
 62
     7
370
    25
100
AcDbLine
 10
3760.1704597948
 20
1399.2543978663
 30
0.0
 11
3760.1704597948
 21
1398.2543978663
 31
0.0
  0
SPLINE
  5
191
330
1F
100
AcDbEntity
  8
0
  6
Continuous
 62
     7
370
    25
100
AcDbSpline
210
0.0
220
0.0
230
1.0
 70
    24
 71
     3
 72
    12
 73
     8
 74
     0
 42
0.00000001
 43
0.00000001
 40
0.0
 40
0.0
 40
0.0
 40
0.0
 40
0.3329369653740138
 40
0.5139656098124982
 40
0.6952322446440043
 40
0.876260996184467
 40
1.0
 40
1.0
 40
1.0
 40
1.0
 10
3760.170459794809
 20
1455.254397866316
 30
0.0
 10
3760.421857207951
 20
1455.254397866317
 30
0.0
 10
3760.809947561949
 20
1455.254397866319
 30
0.0
 10
3761.276876831624
 20
1455.254397866319
 30
0.0
 10
3761.592395720646
 20
1455.254397866319
 30
0.0
 10
3761.832519939163
 20
1455.254397866319
 30
0.0
 10
3761.930627190174
 20
1455.254397866319
 30
0.0
 10
3761.970459794817
 20
1455.254397866319
 30
0.0
  0
LINE
  5
192
330
1F
100
AcDbEntity
  8
0
  6
Continuous
 62
     7
370
    25
100
AcDbLine
 10
3760.1704597948
 20
1454.2543978663
 30
0.0
 11
3760.1704597948
 21
1455.2543978663
 31
0.0
  0
LINE
  5
193
330
1F
100
AcDbEntity
  8
0
  6
Continuous
 62
     7
370
    25
100
AcDbLine
 10
3759.9704597948
 20
1399.2543978663
 30
0.0
 11
3760.1704597948
 21
1399.2543978663
 31
0.0
  0
LINE
  5
194
330
1F
100
AcDbEntity
  8
0
  6
Continuous
 62
     7
370
    25
100
AcDbLine
 10
3760.1704597948
 20
1399.2543978663
 30
0.0
 11
3760.1704597948
 21
1408.3628237086
 31
0.0
  0
SPLINE
  5
195
330
1F
100
AcDbEntity
  8
0
  6
Continuous
 62
     7
370
    25
100
AcDbSpline
210
0.0
220
0.0
230
1.0
 70
     8
 71
     3
 72
    10
 73
     6
 74
     0
 42
0.00000001
 43
0.00000001
 40
0.0
 40
0.0
 40
0.0
 40
0.0
 40
0.0371311943396741
 40
0.5486628195575157
 40
1.0
 40
1.0
 40
1.0
 40
1.0
 10
3761.970459794817
 20
1416.508633526146
 30
0.0
 10
3761.964836942604
 20
1416.515351873572
 30
0.0
 10
3761.881751816898
 20
1416.614624399194
 30
0.0
 10
3761.660195844314
 20
1416.715053312388
 30
0.0
 10
3761.428884955067
 20
1416.741841237218
 30
0.0
 10
3761.320459794813
 20
1416.754397866316
 30
0.0
  0
LINE
  5
196
330
1F
100
AcDbEntity
  8
0
  6
Continuous
 62
     7
370
    25
100
AcDbLine
 10
3760.4704597948
 20
1416.7543978663
 30
0.0
 11
3761.3204597948
 21
1416.7543978663
 31
0.0
  0
LINE
  5
197
330
1F
100
AcDbEntity
  8
0
  6
Continuous
 62
     7
370
    25
100
AcDbLine
 10
3759.9704597948
 20
1454.2543978663
 30
0.0
 11
3760.1704597948
 21
1454.2543978663
 31
0.0
  0
LINE
  5
198
330
1F
100
AcDbEntity
  8
0
  6
Continuous
 62
     7
370
    25
100
AcDbLine
 10
3760.1704597948
 20
1445.1459720241
 30
0.0
 11
3760.1704597948
 21
1454.2543978663
 31
0.0
  0
SPLINE
  5
199
330
1F
100
AcDbEntity
  8
0
  6
Continuous
 62
     7
370
    25
100
AcDbSpline
210
0.0
220
0.0
230
1.0
 70
     8
 71
     3
 72
     9
 73
     5
 74
     0
 42
0.00000001
 43
0.00000001
 40
0.0
 40
0.0
 40
0.0
 40
0.0
 40
0.5050081268933672
 40
1.0
 40
1.0
 40
1.0
 40
1.0
 10
3761.320459794811
 20
1436.754397866316
 30
0.0
 10
3761.443756066679
 20
1436.7666177257
 30
0.0
 10
3761.687903171054
 20
1436.79081507765
 30
0.0
 10
3761.876905284609
 20
1436.927891150913
 30
0.0
 10
3761.970459794817
 20
1436.995742693175
 30
0.0
  0
LINE
  5
19A
330
1F
100
AcDbEntity
  8
0
  6
Continuous
 62
     7
370
    25
100
AcDbLine
 10
3761.3204597948
 20
1436.7543978663
 30
0.0
 11
3760.4704597948
 21
1436.7543978663
 31
0.0
  0
LINE
  5
19B
330
1F
100
AcDbEntity
  8
0
  6
Continuous
 62
     7
370
    25
100
AcDbLine
 10
3759.9704597948
 20
1398.2543978663
 30
0.0
 11
3760.1704597948
 21
1398.2543978663
 31
0.0
  0
LINE
  5
19C
330
1F
100
AcDbEntity
  8
0
  6
Continuous
 62
     7
370
    25
100
AcDbLine
 10
3759.9704597948
 20
1455.2543978663
 30
0.0
 11
3760.1704597948
 21
1455.2543978663
 31
0.0
  0
LINE
  5
19D
330
1F
100
AcDbEntity
  8
0
  6
Continuous
 62
     7
370
    25
100
AcDbLine
 10
3760.4704597948
 20
1057.7984397273
 30
0.0
 11
3759.9704597948
 21
1057.7984397273
 31
0.0
  0
LINE
  5
19E
330
1F
100
AcDbEntity
  8
0
  6
Continuous
 62
     7
370
    25
100
AcDbLine
 10
3760.4704597948
 20
1059.3543978665
 30
0.0
 11
3759.9704597948
 21
1059.3543978665
 31
0.0
  0
LINE
  5
19F
330
1F
100
AcDbEntity
  8
0
  6
Continuous
 62
     7
370
    25
100
AcDbLine
 10
3760.4704597948
 20
1059.3543978665
 30
0.0
 11
3760.4704597948
 21
1057.7984397273
 31
0.0
  0
LINE
  5
1A0
330
1F
100
AcDbEntity
  8
0
  6
Continuous
 62
     7
370
    25
100
AcDbLine
 10
3759.9704597948
 20
1075.7103560054
 30
0.0
 11
3760.4704597948
 21
1075.7103560054
 31
0.0
  0
LINE
  5
1A1
330
1F
100
AcDbEntity
  8
0
  6
Continuous
 62
     7
370
    25
100
AcDbLine
 10
3760.4704597948
 20
1075.7103560054
 30
0.0
 11
3760.4704597948
 21
1074.1543978661
 31
0.0
  0
LINE
  5
1A2
330
1F
100
AcDbEntity
  8
0
  6
Continuous
 62
     7
370
    25
100
AcDbLine
 10
3759.9704597948
 20
1074.1543978661
 30
0.0
 11
3760.4704597948
 21
1074.1543978661
 31
0.0
  0
LINE
  5
1A3
330
1F
100
AcDbEntity
  8
0
  6
Continuous
 62
     7
370
    25
100
AcDbLine
 10
3760.1704597948
 20
1048.3628237086
 30
0.0
 11
3760.4704597948
 21
1048.3628237086
 31
0.0
  0
LINE
  5
1A4
330
1F
100
AcDbEntity
  8
0
  6
Continuous
 62
     7
370
    25
100
AcDbLine
 10
3759.9704597948
 20
1048.3628237086
 30
0.0
 11
3760.1704597948
 21
1048.3628237086
 31
0.0
  0
LINE
  5
1A5
330
1F
100
AcDbEntity
  8
0
  6
Continuous
 62
     7
370
    25
100
AcDbLine
 10
3760.4704597948
 20
1048.3628237086
 30
0.0
 11
3760.4704597948
 21
1057.7984397273
 31
0.0
  0
LINE
  5
1A6
330
1F
100
AcDbEntity
  8
0
  6
Continuous
 62
     7
370
    25
100
AcDbLine
 10
3760.1704597948
 20
1085.1459720241
 30
0.0
 11
3759.9704597948
 21
1085.1459720241
 31
0.0
  0
LINE
  5
1A7
330
1F
100
AcDbEntity
  8
0
  6
Continuous
 62
     7
370
    25
100
AcDbLine
 10
3760.4704597948
 20
1085.1459720241
 30
0.0
 11
3760.1704597948
 21
1085.1459720241
 31
0.0
  0
LINE
  5
1A8
330
1F
100
AcDbEntity
  8
0
  6
Continuous
 62
     7
370
    25
100
AcDbLine
 10
3760.4704597948
 20
1075.7103560054
 30
0.0
 11
3760.4704597948
 21
1085.1459720241
 31
0.0
  0
SPLINE
  5
1A9
330
1F
100
AcDbEntity
  8
0
  6
Continuous
 62
     7
370
    25
100
AcDbSpline
210
0.0
220
0.0
230
1.0
 70
    24
 71
     3
 72
    12
 73
     8
 74
     0
 42
0.00000001
 43
0.00000001
 40
0.0
 40
0.0
 40
0.0
 40
0.0
 40
0.1234882189600865
 40
0.3047574776062627
 40
0.4857888495154837
 40
0.6670582153992911
 40
1.0
 40
1.0
 40
1.0
 40
1.0
 10
3761.970459794817
 20
1038.254397866318
 30
0.0
 10
3761.930713225781
 20
1038.254397866318
 30
0.0
 10
3761.832622377724
 20
1038.254397866318
 30
0.0
 10
3761.592649089364
 20
1038.254397866318
 30
0.0
 10
3761.27703490087
 20
1038.254397866318
 30
0.0
 10
3760.81012481177
 20
1038.254397866318
 30
0.0
 10
3760.421856211533
 20
1038.254397866316
 30
0.0
 10
3760.170459794817
 20
1038.254397866314
 30
0.0
  0
LINE
  5
1AA
330
1F
100
AcDbEntity
  8
0
  6
Continuous
 62
     7
370
    25
100
AcDbLine
 10
3760.1704597948
 20
1039.2543978663
 30
0.0
 11
3760.1704597948
 21
1038.2543978663
 31
0.0
  0
SPLINE
  5
1AB
330
1F
100
AcDbEntity
  8
0
  6
Continuous
 62
     7
370
    25
100
AcDbSpline
210
0.0
220
0.0
230
1.0
 70
    24
 71
     3
 72
    12
 73
     8
 74
     0
 42
0.00000001
 43
0.00000001
 40
0.0
 40
0.0
 40
0.0
 40
0.0
 40
0.3329369653745793
 40
0.5139656098133712
 40
0.6952322446451853
 40
0.8762609961859554
 40
1.0
 40
1.0
 40
1.0
 40
1.0
 10
3760.170459794811
 20
1095.254397866313
 30
0.0
 10
3760.421857207953
 20
1095.254397866315
 30
0.0
 10
3760.809947561951
 20
1095.254397866317
 30
0.0
 10
3761.276876831626
 20
1095.254397866317
 30
0.0
 10
3761.592395720648
 20
1095.254397866317
 30
0.0
 10
3761.832519939164
 20
1095.254397866317
 30
0.0
 10
3761.930627190175
 20
1095.254397866317
 30
0.0
 10
3761.970459794817
 20
1095.254397866317
 30
0.0
  0
LINE
  5
1AC
330
1F
100
AcDbEntity
  8
0
  6
Continuous
 62
     7
370
    25
100
AcDbLine
 10
3760.1704597948
 20
1094.2543978663
 30
0.0
 11
3760.1704597948
 21
1095.2543978663
 31
0.0
  0
LINE
  5
1AD
330
1F
100
AcDbEntity
  8
0
  6
Continuous
 62
     7
370
    25
100
AcDbLine
 10
3759.9704597948
 20
1039.2543978663
 30
0.0
 11
3760.1704597948
 21
1039.2543978663
 31
0.0
  0
LINE
  5
1AE
330
1F
100
AcDbEntity
  8
0
  6
Continuous
 62
     7
370
    25
100
AcDbLine
 10
3760.1704597948
 20
1039.2543978663
 30
0.0
 11
3760.1704597948
 21
1048.3628237086
 31
0.0
  0
SPLINE
  5
1AF
330
1F
100
AcDbEntity
  8
0
  6
Continuous
 62
     7
370
    25
100
AcDbSpline
210
0.0
220
0.0
230
1.0
 70
     8
 71
     3
 72
    10
 73
     6
 74
     0
 42
0.00000001
 43
0.00000001
 40
0.0
 40
0.0
 40
0.0
 40
0.0
 40
0.0371311943359527
 40
0.5486628195557713
 40
1.0
 40
1.0
 40
1.0
 40
1.0
 10
3761.970459794817
 20
1056.508633526146
 30
0.0
 10
3761.964836942605
 20
1056.515351873571
 30
0.0
 10
3761.881751816899
 20
1056.614624399192
 30
0.0
 10
3761.660195844315
 20
1056.715053312386
 30
0.0
 10
3761.428884955069
 20
1056.741841237216
 30
0.0
 10
3761.320459794815
 20
1056.754397866314
 30
0.0
  0
LINE
  5
1B0
330
1F
100
AcDbEntity
  8
0
  6
Continuous
 62
     7
370
    25
100
AcDbLine
 10
3760.4704597948
 20
1056.7543978663
 30
0.0
 11
3761.3204597948
 21
1056.7543978663
 31
0.0
  0
LINE
  5
1B1
330
1F
100
AcDbEntity
  8
0
  6
Continuous
 62
     7
370
    25
100
AcDbLine
 10
3759.9704597948
 20
1094.2543978663
 30
0.0
 11
3760.1704597948
 21
1094.2543978663
 31
0.0
  0
LINE
  5
1B2
330
1F
100
AcDbEntity
  8
0
  6
Continuous
 62
     7
370
    25
100
AcDbLine
 10
3760.1704597948
 20
1085.1459720241
 30
0.0
 11
3760.1704597948
 21
1094.2543978663
 31
0.0
  0
SPLINE
  5
1B3
330
1F
100
AcDbEntity
  8
0
  6
Continuous
 62
     7
370
    25
100
AcDbSpline
210
0.0
220
0.0
230
1.0
 70
     8
 71
     3
 72
     9
 73
     5
 74
     0
 42
0.00000001
 43
0.00000001
 40
0.0
 40
0.0
 40
0.0
 40
0.0
 40
0.5050081268948745
 40
1.0
 40
1.0
 40
1.0
 40
1.0
 10
3761.320459794813
 20
1076.754397866314
 30
0.0
 10
3761.44375606668
 20
1076.766617725698
 30
0.0
 10
3761.687903171056
 20
1076.790815077648
 30
0.0
 10
3761.876905284609
 20
1076.92789115091
 30
0.0
 10
3761.970459794817
 20
1076.995742693172
 30
0.0
  0
LINE
  5
1B4
330
1F
100
AcDbEntity
  8
0
  6
Continuous
 62
     7
370
    25
100
AcDbLine
 10
3761.3204597948
 20
1076.7543978663
 30
0.0
 11
3760.4704597948
 21
1076.7543978663
 31
0.0
  0
LINE
  5
1B5
330
1F
100
AcDbEntity
  8
0
  6
Continuous
 62
     7
370
    25
100
AcDbLine
 10
3759.9704597948
 20
1038.2543978663
 30
0.0
 11
3760.1704597948
 21
1038.2543978663
 31
0.0
  0
LINE
  5
1B6
330
1F
100
AcDbEntity
  8
0
  6
Continuous
 62
     7
370
    25
100
AcDbLine
 10
3759.9704597948
 20
1095.2543978663
 30
0.0
 11
3760.1704597948
 21
1095.2543978663
 31
0.0
  0
LINE
  5
1B7
330
1F
100
AcDbEntity
  8
0
  6
Continuous
 62
     7
370
    25
100
AcDbLine
 10
3761.8356447199
 20
1778.3793978663
 30
0.0
 11
3761.8356447199
 21
1779.3043978663
 31
0.0
  0
LINE
  5
1B8
330
1F
100
AcDbEntity
  8
0
  6
Continuous
 62
     7
370
    25
100
AcDbLine
 10
3761.8356447199
 20
1794.2043978663
 30
0.0
 11
3761.8356447199
 21
1795.1293978663
 31
0.0
  0
LINE
  5
1B9
330
1F
100
AcDbEntity
  8
0
  6
Continuous
 62
     7
370
    25
100
AcDbLine
 10
3761.8356447199
 20
1795.1293978663
 30
0.0
 11
3761.9704597948
 21
1795.1293978663
 31
0.0
  0
LINE
  5
1BA
330
1F
100
AcDbEntity
  8
0
  6
Continuous
 62
     7
370
    25
100
AcDbLine
 10
3761.9704597948
 20
1778.3793978663
 30
0.0
 11
3761.8356447199
 21
1778.3793978663
 31
0.0
  0
LINE
  5
1BB
330
1F
100
AcDbEntity
  8
0
  6
Continuous
 62
     7
370
    25
100
AcDbLine
 10
3760.4704597948
 20
1795.1293978663
 30
0.0
 11
3761.8356447199
 21
1795.1293978663
 31
0.0
  0
LINE
  5
1BC
330
1F
100
AcDbEntity
  8
0
  6
Continuous
 62
     7
370
    25
100
AcDbLine
 10
3761.8356447199
 20
1778.3793978663
 30
0.0
 11
3760.4704597948
 21
1778.3793978663
 31
0.0
  0
LINE
  5
1BD
330
1F
100
AcDbEntity
  8
0
  6
Continuous
 62
     7
370
    25
100
AcDbLine
 10
3761.8356447199
 20
1058.3793978663
 30
0.0
 11
3761.8356447199
 21
1059.3043978663
 31
0.0
  0
LINE
  5
1BE
330
1F
100
AcDbEntity
  8
0
  6
Continuous
 62
     7
370
    25
100
AcDbLine
 10
3761.8356447199
 20
1074.2043978663
 30
0.0
 11
3761.8356447199
 21
1075.1293978663
 31
0.0
  0
LINE
  5
1BF
330
1F
100
AcDbEntity
  8
0
  6
Continuous
 62
     7
370
    25
100
AcDbLine
 10
3761.8356447199
 20
1075.1293978663
 30
0.0
 11
3761.9704597948
 21
1075.1293978663
 31
0.0
  0
LINE
  5
1C0
330
1F
100
AcDbEntity
  8
0
  6
Continuous
 62
     7
370
    25
100
AcDbLine
 10
3761.9704597948
 20
1058.3793978663
 30
0.0
 11
3761.8356447199
 21
1058.3793978663
 31
0.0
  0
LINE
  5
1C1
330
1F
100
AcDbEntity
  8
0
  6
Continuous
 62
     7
370
    25
100
AcDbLine
 10
3760.4704597948
 20
1075.1293978663
 30
0.0
 11
3761.8356447199
 21
1075.1293978663
 31
0.0
  0
LINE
  5
1C2
330
1F
100
AcDbEntity
  8
0
  6
Continuous
 62
     7
370
    25
100
AcDbLine
 10
3761.8356447199
 20
1058.3793978663
 30
0.0
 11
3760.4704597948
 21
1058.3793978663
 31
0.0
  0
LINE
  5
1C3
330
1F
100
AcDbEntity
  8
0
  6
Continuous
 62
     7
370
    25
100
AcDbLine
 10
3761.8356447199
 20
1418.3793978663
 30
0.0
 11
3761.8356447199
 21
1419.3043978663
 31
0.0
  0
LINE
  5
1C4
330
1F
100
AcDbEntity
  8
0
  6
Continuous
 62
     7
370
    25
100
AcDbLine
 10
3761.8356447199
 20
1434.2043978663
 30
0.0
 11
3761.8356447199
 21
1435.1293978663
 31
0.0
  0
LINE
  5
1C5
330
1F
100
AcDbEntity
  8
0
  6
Continuous
 62
     7
370
    25
100
AcDbLine
 10
3761.8356447199
 20
1435.1293978663
 30
0.0
 11
3761.9704597948
 21
1435.1293978663
 31
0.0
  0
LINE
  5
1C6
330
1F
100
AcDbEntity
  8
0
  6
Continuous
 62
     7
370
    25
100
AcDbLine
 10
3761.9704597948
 20
1418.3793978663
 30
0.0
 11
3761.8356447199
 21
1418.3793978663
 31
0.0
  0
LINE
  5
1C7
330
1F
100
AcDbEntity
  8
0
  6
Continuous
 62
     7
370
    25
100
AcDbLine
 10
3760.4704597948
 20
1435.1293978663
 30
0.0
 11
3761.8356447199
 21
1435.1293978663
 31
0.0
  0
LINE
  5
1C8
330
1F
100
AcDbEntity
  8
0
  6
Continuous
 62
     7
370
    25
100
AcDbLine
 10
3761.8356447199
 20
1418.3793978663
 30
0.0
 11
3760.4704597948
 21
1418.3793978663
 31
0.0
  0
LINE
  5
1C9
330
1F
100
AcDbEntity
  8
0
  6
Continuous
 62
     7
370
    25
100
AcDbLine
 10
3761.9704597948
 20
1420.2543978663
 30
0.0
 11
3759.9704597948
 21
1420.2543978663
 31
0.0
  0
LINE
  5
1CA
330
1F
100
AcDbEntity
  8
0
  6
Continuous
 62
     7
370
    25
100
AcDbLine
 10
3759.9704597948
 20
1433.2543978663
 30
0.0
 11
3761.9704597948
 21
1433.2543978663
 31
0.0
  0
LINE
  5
1CB
330
1F
100
AcDbEntity
  8
0
  6
Continuous
 62
     7
370
    25
100
AcDbLine
 10
3761.24174234
 20
1434.2043978663
 30
0.0
 11
3761.24174234
 21
1433.2543978663
 31
0.0
  0
LINE
  5
1CC
330
1F
100
AcDbEntity
  8
0
  6
Continuous
 62
     7
370
    25
100
AcDbLine
 10
3761.24174234
 20
1420.2543978663
 30
0.0
 11
3761.24174234
 21
1419.3043978663
 31
0.0
  0
LINE
  5
1CD
330
1F
100
AcDbEntity
  8
0
  6
Continuous
 62
     7
370
    25
100
AcDbLine
 10
3761.24174234
 20
1434.2043978663
 30
0.0
 11
3761.9704597948
 21
1434.2043978663
 31
0.0
  0
LINE
  5
1CE
330
1F
100
AcDbEntity
  8
0
  6
Continuous
 62
     7
370
    25
100
AcDbLine
 10
3761.24174234
 20
1419.3043978663
 30
0.0
 11
3761.9704597948
 21
1419.3043978663
 31
0.0
  0
LINE
  5
1CF
330
1F
100
AcDbEntity
  8
0
  6
Continuous
 62
     7
370
    25
100
AcDbLine
 10
3761.1803728444
 20
1434.2043978663
 30
0.0
 11
3761.1803728444
 21
1433.2543978663
 31
0.0
  0
LINE
  5
1D0
330
1F
100
AcDbEntity
  8
0
  6
Continuous
 62
     7
370
    25
100
AcDbLine
 10
3761.1803728444
 20
1420.2543978663
 30
0.0
 11
3761.1803728444
 21
1419.3043978663
 31
0.0
  0
LINE
  5
1D1
330
1F
100
AcDbEntity
  8
0
  6
Continuous
 62
     7
370
    25
100
AcDbLine
 10
3761.1803728444
 20
1434.2043978663
 30
0.0
 11
3761.24174234
 21
1434.2043978663
 31
0.0
  0
LINE
  5
1D2
330
1F
100
AcDbEntity
  8
0
  6
Continuous
 62
     7
370
    25
100
AcDbLine
 10
3761.1803728444
 20
1419.3043978663
 30
0.0
 11
3761.24174234
 21
1419.3043978663
 31
0.0
  0
LINE
  5
1D3
330
1F
100
AcDbEntity
  8
0
  6
Continuous
 62
     7
370
    25
100
AcDbLine
 10
3761.9704597948
 20
1060.2543978663
 30
0.0
 11
3759.9704597948
 21
1060.2543978663
 31
0.0
  0
LINE
  5
1D4
330
1F
100
AcDbEntity
  8
0
  6
Continuous
 62
     7
370
    25
100
AcDbLine
 10
3759.9704597948
 20
1073.2543978663
 30
0.0
 11
3761.9704597948
 21
1073.2543978663
 31
0.0
  0
LINE
  5
1D5
330
1F
100
AcDbEntity
  8
0
  6
Continuous
 62
     7
370
    25
100
AcDbLine
 10
3761.24174234
 20
1074.2043978663
 30
0.0
 11
3761.24174234
 21
1073.2543978663
 31
0.0
  0
LINE
  5
1D6
330
1F
100
AcDbEntity
  8
0
  6
Continuous
 62
     7
370
    25
100
AcDbLine
 10
3761.24174234
 20
1060.2543978663
 30
0.0
 11
3761.24174234
 21
1059.3043978663
 31
0.0
  0
LINE
  5
1D7
330
1F
100
AcDbEntity
  8
0
  6
Continuous
 62
     7
370
    25
100
AcDbLine
 10
3761.24174234
 20
1074.2043978663
 30
0.0
 11
3761.9704597948
 21
1074.2043978663
 31
0.0
  0
LINE
  5
1D8
330
1F
100
AcDbEntity
  8
0
  6
Continuous
 62
     7
370
    25
100
AcDbLine
 10
3761.24174234
 20
1059.3043978663
 30
0.0
 11
3761.9704597948
 21
1059.3043978663
 31
0.0
  0
LINE
  5
1D9
330
1F
100
AcDbEntity
  8
0
  6
Continuous
 62
     7
370
    25
100
AcDbLine
 10
3761.1803728444
 20
1074.2043978663
 30
0.0
 11
3761.1803728444
 21
1073.2543978663
 31
0.0
  0
LINE
  5
1DA
330
1F
100
AcDbEntity
  8
0
  6
Continuous
 62
     7
370
    25
100
AcDbLine
 10
3761.1803728444
 20
1060.2543978663
 30
0.0
 11
3761.1803728444
 21
1059.3043978663
 31
0.0
  0
LINE
  5
1DB
330
1F
100
AcDbEntity
  8
0
  6
Continuous
 62
     7
370
    25
100
AcDbLine
 10
3761.1803728444
 20
1074.2043978663
 30
0.0
 11
3761.24174234
 21
1074.2043978663
 31
0.0
  0
LINE
  5
1DC
330
1F
100
AcDbEntity
  8
0
  6
Continuous
 62
     7
370
    25
100
AcDbLine
 10
3761.1803728444
 20
1059.3043978663
 30
0.0
 11
3761.24174234
 21
1059.3043978663
 31
0.0
  0
LINE
  5
1DD
330
1F
100
AcDbEntity
  8
0
  6
Continuous
 62
     7
370
    25
100
AcDbLine
 10
3761.9704597948
 20
1780.2543978663
 30
0.0
 11
3759.9704597948
 21
1780.2543978663
 31
0.0
  0
LINE
  5
1DE
330
1F
100
AcDbEntity
  8
0
  6
Continuous
 62
     7
370
    25
100
AcDbLine
 10
3759.9704597948
 20
1793.2543978663
 30
0.0
 11
3761.9704597948
 21
1793.2543978663
 31
0.0
  0
LINE
  5
1DF
330
1F
100
AcDbEntity
  8
0
  6
Continuous
 62
     7
370
    25
100
AcDbLine
 10
3761.24174234
 20
1794.2043978663
 30
0.0
 11
3761.24174234
 21
1793.2543978663
 31
0.0
  0
LINE
  5
1E0
330
1F
100
AcDbEntity
  8
0
  6
Continuous
 62
     7
370
    25
100
AcDbLine
 10
3761.24174234
 20
1780.2543978663
 30
0.0
 11
3761.24174234
 21
1779.3043978663
 31
0.0
  0
LINE
  5
1E1
330
1F
100
AcDbEntity
  8
0
  6
Continuous
 62
     7
370
    25
100
AcDbLine
 10
3761.24174234
 20
1794.2043978663
 30
0.0
 11
3761.9704597948
 21
1794.2043978663
 31
0.0
  0
LINE
  5
1E2
330
1F
100
AcDbEntity
  8
0
  6
Continuous
 62
     7
370
    25
100
AcDbLine
 10
3761.24174234
 20
1779.3043978663
 30
0.0
 11
3761.9704597948
 21
1779.3043978663
 31
0.0
  0
LINE
  5
1E3
330
1F
100
AcDbEntity
  8
0
  6
Continuous
 62
     7
370
    25
100
AcDbLine
 10
3761.1803728444
 20
1794.2043978663
 30
0.0
 11
3761.1803728444
 21
1793.2543978663
 31
0.0
  0
LINE
  5
1E4
330
1F
100
AcDbEntity
  8
0
  6
Continuous
 62
     7
370
    25
100
AcDbLine
 10
3761.1803728444
 20
1780.2543978663
 30
0.0
 11
3761.1803728444
 21
1779.3043978663
 31
0.0
  0
LINE
  5
1E5
330
1F
100
AcDbEntity
  8
0
  6
Continuous
 62
     7
370
    25
100
AcDbLine
 10
3761.1803728444
 20
1794.2043978663
 30
0.0
 11
3761.24174234
 21
1794.2043978663
 31
0.0
  0
LINE
  5
1E6
330
1F
100
AcDbEntity
  8
0
  6
Continuous
 62
     7
370
    25
100
AcDbLine
 10
3761.1803728444
 20
1779.3043978663
 30
0.0
 11
3761.24174234
 21
1779.3043978663
 31
0.0
  0
LINE
  5
1E7
330
1F
100
AcDbEntity
  8
0
  6
Continuous
 62
     7
370
    25
100
AcDbLine
 10
3760.4704597948
 20
1434.2293978663
 30
0.0
 11
3760.7820255976
 21
1434.2293978663
 31
0.0
  0
LINE
  5
1E8
330
1F
100
AcDbEntity
  8
0
  6
Continuous
 62
     7
370
    25
100
AcDbLine
 10
3760.7820255976
 20
1419.2793978663
 30
0.0
 11
3760.7820255976
 21
1420.2543978663
 31
0.0
  0
LINE
  5
1E9
330
1F
100
AcDbEntity
  8
0
  6
Continuous
 62
     7
370
    25
100
AcDbLine
 10
3760.7820255976
 20
1433.2543978663
 30
0.0
 11
3760.7820255976
 21
1434.2293978663
 31
0.0
  0
LINE
  5
1EA
330
1F
100
AcDbEntity
  8
0
  6
Continuous
 62
     7
370
    25
100
AcDbLine
 10
3760.4704597948
 20
1419.2793978663
 30
0.0
 11
3760.7820255976
 21
1419.2793978663
 31
0.0
  0
LINE
  5
1EB
330
1F
100
AcDbEntity
  8
0
  6
Continuous
 62
     7
370
    25
100
AcDbLine
 10
3760.7820255976
 20
1434.2293978663
 30
0.0
 11
3760.8211681921
 21
1434.2293978663
 31
0.0
  0
LINE
  5
1EC
330
1F
100
AcDbEntity
  8
0
  6
Continuous
 62
     7
370
    25
100
AcDbLine
 10
3760.7820255976
 20
1419.2793978663
 30
0.0
 11
3760.8211681921
 21
1419.2793978663
 31
0.0
  0
LINE
  5
1ED
330
1F
100
AcDbEntity
  8
0
  6
Continuous
 62
     7
370
    25
100
AcDbLine
 10
3760.4704597948
 20
1794.2293978663
 30
0.0
 11
3760.7820255976
 21
1794.2293978663
 31
0.0
  0
LINE
  5
1EE
330
1F
100
AcDbEntity
  8
0
  6
Continuous
 62
     7
370
    25
100
AcDbLine
 10
3760.7820255976
 20
1779.2793978663
 30
0.0
 11
3760.7820255976
 21
1780.2543978663
 31
0.0
  0
LINE
  5
1EF
330
1F
100
AcDbEntity
  8
0
  6
Continuous
 62
     7
370
    25
100
AcDbLine
 10
3760.7820255976
 20
1793.2543978663
 30
0.0
 11
3760.7820255976
 21
1794.2293978663
 31
0.0
  0
LINE
  5
1F0
330
1F
100
AcDbEntity
  8
0
  6
Continuous
 62
     7
370
    25
100
AcDbLine
 10
3760.4704597948
 20
1779.2793978663
 30
0.0
 11
3760.7820255976
 21
1779.2793978663
 31
0.0
  0
LINE
  5
1F1
330
1F
100
AcDbEntity
  8
0
  6
Continuous
 62
     7
370
    25
100
AcDbLine
 10
3760.7820255976
 20
1794.2293978663
 30
0.0
 11
3760.8211681921
 21
1794.2293978663
 31
0.0
  0
LINE
  5
1F2
330
1F
100
AcDbEntity
  8
0
  6
Continuous
 62
     7
370
    25
100
AcDbLine
 10
3760.7820255976
 20
1779.2793978663
 30
0.0
 11
3760.8211681921
 21
1779.2793978663
 31
0.0
  0
LINE
  5
1F3
330
1F
100
AcDbEntity
  8
0
  6
Continuous
 62
     7
370
    25
100
AcDbLine
 10
3760.4704597948
 20
1074.2293978663
 30
0.0
 11
3760.7820255976
 21
1074.2293978663
 31
0.0
  0
LINE
  5
1F4
330
1F
100
AcDbEntity
  8
0
  6
Continuous
 62
     7
370
    25
100
AcDbLine
 10
3760.7820255976
 20
1059.2793978663
 30
0.0
 11
3760.7820255976
 21
1060.2543978663
 31
0.0
  0
LINE
  5
1F5
330
1F
100
AcDbEntity
  8
0
  6
Continuous
 62
     7
370
    25
100
AcDbLine
 10
3760.7820255976
 20
1073.2543978663
 30
0.0
 11
3760.7820255976
 21
1074.2293978663
 31
0.0
  0
LINE
  5
1F6
330
1F
100
AcDbEntity
  8
0
  6
Continuous
 62
     7
370
    25
100
AcDbLine
 10
3760.4704597948
 20
1059.2793978663
 30
0.0
 11
3760.7820255976
 21
1059.2793978663
 31
0.0
  0
LINE
  5
1F7
330
1F
100
AcDbEntity
  8
0
  6
Continuous
 62
     7
370
    25
100
AcDbLine
 10
3760.7820255976
 20
1074.2293978663
 30
0.0
 11
3760.8211681921
 21
1074.2293978663
 31
0.0
  0
LINE
  5
1F8
330
1F
100
AcDbEntity
  8
0
  6
Continuous
 62
     7
370
    25
100
AcDbLine
 10
3760.7820255976
 20
1059.2793978663
 30
0.0
 11
3760.8211681921
 21
1059.2793978663
 31
0.0
  0
LINE
  5
1F9
330
1F
100
AcDbEntity
  8
0
  6
Continuous
 62
     7
370
    25
100
AcDbLine
 10
4142.4481799569
 20
1779.2767567878
 30
0.0
 11
4142.3042067412
 21
1784.7748720752
 31
0.0
  0
LINE
  5
1FA
330
1F
100
AcDbEntity
  8
0
  6
Continuous
 62
     7
370
    25
100
AcDbLine
 10
4143.4385049984
 20
1798.7600942736
 30
0.0
 11
4143.6924406984
 21
1789.0626811288
 31
0.0
  0
LINE
  5
1FB
330
1F
100
AcDbEntity
  8
0
  6
Continuous
 62
     7
370
    25
100
AcDbLine
 10
4144.4426314757
 20
1789.0823255657
 30
0.0
 11
4143.9190925096
 21
1809.0754720652
 31
0.0
  0
LINE
  5
1FC
330
1F
100
AcDbEntity
  8
0
  6
Continuous
 62
     7
370
    25
100
AcDbLine
 10
4145.1427910743
 20
1808.0117271316
 30
0.0
 11
4145.6089808958
 21
1790.2086561082
 31
0.0
  0
LINE
  5
1FD
330
1F
100
AcDbEntity
  8
0
  6
Continuous
 62
     7
370
    25
100
AcDbLine
 10
4145.7070159161
 20
1791.8115145215
 30
0.0
 11
4145.3245788688
 21
1806.4161961367
 31
0.0
  0
LINE
  5
1FE
330
1F
100
AcDbEntity
  8
0
  6
Continuous
 62
     7
370
    25
100
AcDbLine
 10
4142.8487073094
 20
1794.5424743019
 30
0.0
 11
4142.72704147
 21
1799.1887052587
 31
0.0
  0
LINE
  5
1FF
330
1F
100
AcDbEntity
  8
0
  6
Continuous
 62
     7
370
    25
100
AcDbLine
 10
4142.72704147
 20
1799.1887052587
 30
0.0
 11
4142.6131148582
 21
1803.539387036
 31
0.0
  0
LINE
  5
200
330
1F
100
AcDbEntity
  8
0
  6
Continuous
 62
     7
370
    25
100
AcDbLine
 10
3760.1704597948
 20
1759.2543978663
 30
0.0
 11
3761.9704597948
 21
1759.2543978663
 31
0.0
  0
LINE
  5
201
330
1F
100
AcDbEntity
  8
0
  6
Continuous
 62
     7
370
    25
100
AcDbLine
 10
3760.1704597948
 20
1814.2543978663
 30
0.0
 11
3761.9704597948
 21
1814.2543978663
 31
0.0
  0
LINE
  5
202
330
1F
100
AcDbEntity
  8
0
  6
Continuous
 62
     7
370
    25
100
AcDbLine
 10
3761.3204597948
 20
1778.3793978663
 30
0.0
 11
3761.3204597948
 21
1776.7543978663
 31
0.0
  0
LINE
  5
203
330
1F
100
AcDbEntity
  8
0
  6
Continuous
 62
     7
370
    25
100
AcDbLine
 10
3761.3204597948
 20
1796.7543978663
 30
0.0
 11
3761.3204597948
 21
1795.1293978663
 31
0.0
  0
LINE
  5
204
330
1F
100
AcDbEntity
  8
0
  6
Continuous
 62
     7
370
    25
100
AcDbLine
 10
3760.1704597948
 20
1399.2543978663
 30
0.0
 11
3761.9704597948
 21
1399.2543978663
 31
0.0
  0
LINE
  5
205
330
1F
100
AcDbEntity
  8
0
  6
Continuous
 62
     7
370
    25
100
AcDbLine
 10
3760.1704597948
 20
1454.2543978663
 30
0.0
 11
3761.9704597948
 21
1454.2543978663
 31
0.0
  0
LINE
  5
206
330
1F
100
AcDbEntity
  8
0
  6
Continuous
 62
     7
370
    25
100
AcDbLine
 10
3761.3204597948
 20
1418.3793978663
 30
0.0
 11
3761.3204597948
 21
1416.7543978663
 31
0.0
  0
LINE
  5
207
330
1F
100
AcDbEntity
  8
0
  6
Continuous
 62
     7
370
    25
100
AcDbLine
 10
3761.3204597948
 20
1436.7543978663
 30
0.0
 11
3761.3204597948
 21
1435.1293978663
 31
0.0
  0
LINE
  5
208
330
1F
100
AcDbEntity
  8
0
  6
Continuous
 62
     7
370
    25
100
AcDbLine
 10
3760.1704597948
 20
1039.2543978663
 30
0.0
 11
3761.9704597948
 21
1039.2543978663
 31
0.0
  0
LINE
  5
209
330
1F
100
AcDbEntity
  8
0
  6
Continuous
 62
     7
370
    25
100
AcDbLine
 10
3760.1704597948
 20
1094.2543978663
 30
0.0
 11
3761.9704597948
 21
1094.2543978663
 31
0.0
  0
LINE
  5
20A
330
1F
100
AcDbEntity
  8
0
  6
Continuous
 62
     7
370
    25
100
AcDbLine
 10
3761.3204597948
 20
1058.3793978663
 30
0.0
 11
3761.3204597948
 21
1056.7543978663
 31
0.0
  0
LINE
  5
20B
330
1F
100
AcDbEntity
  8
0
  6
Continuous
 62
     7
370
    25
100
AcDbLine
 10
3761.3204597948
 20
1076.7543978663
 30
0.0
 11
3761.3204597948
 21
1075.1293978663
 31
0.0
  0
SPLINE
  5
20C
330
1F
100
AcDbEntity
  8
0
  6
Continuous
 62
     7
370
    25
100
AcDbSpline
210
0.0
220
0.0
230
1.0
 70
     8
 71
     3
 72
    16
 73
    12
 74
     0
 42
0.00000001
 43
0.00000001
 40
0.0
 40
0.0
 40
0.0
 40
0.0
 40
0.0490847390187414
 40
0.1518473045647046
 40
0.2358684990992587
 40
0.3090519161655125
 40
0.373478614211095
 40
0.43703281803284
 40
0.5258016248251254
 40
0.7068629655468539
 40
1.0
 40
1.0
 40
1.0
 40
1.0
 10
2211.425074168675
 20
2737.982522916331
 30
0.0
 10
2211.42976576541
 20
2738.048713308551
 30
0.0
 10
2211.444279570158
 20
2738.253478228315
 30
0.0
 10
2211.317101818787
 20
2738.557694887962
 30
0.0
 10
2211.112885409261
 20
2738.833758526983
 30
0.0
 10
2210.891873803395
 20
2739.007097001622
 30
0.0
 10
2210.700107235653
 20
2739.104101014125
 30
0.0
 10
2210.54289334747
 20
2739.158174379482
 30
0.0
 10
2210.377542172416
 20
2739.196807200854
 30
0.0
 10
2210.181828237491
 20
2739.226544086374
 30
0.0
 10
2209.954213845384
 20
2739.243759755645
 30
0.0
 10
2209.81350858068
 20
2739.254402032171
 30
0.0
  0
SPLINE
  5
20D
330
1F
100
AcDbEntity
  8
0
  6
Continuous
 62
     7
370
    25
100
AcDbSpline
210
0.0
220
0.0
230
1.0
 70
     8
 71
     3
 72
    14
 73
    10
 74
     0
 42
0.00000001
 43
0.00000001
 40
0.0
 40
0.0
 40
0.0
 40
0.0
 40
0.4380448777707711
 40
0.5889072021156241
 40
0.6648524542794926
 40
0.7505291071917551
 40
0.8517030556681092
 40
0.962026731475612
 40
1.0
 40
1.0
 40
1.0
 40
1.0
 10
2193.029691039085
 20
2739.253278350244
 30
0.0
 10
2192.857587419205
 20
2739.238587326925
 30
0.0
 10
2192.626211442906
 20
2739.218836726296
 30
0.0
 10
2192.326901395453
 20
2739.158689060105
 30
0.0
 10
2192.05338214691
 20
2739.042171355414
 30
0.0
 10
2191.789180317125
 20
2738.852245027238
 30
0.0
 10
2191.560956382532
 20
2738.53974889296
 30
0.0
 10
2191.436910392502
 20
2738.217783907781
 30
0.0
 10
2191.45838989054
 20
2738.022470086408
 30
0.0
 10
2191.463889981931
 20
2737.972457564445
 30
0.0
  0
LINE
  5
20E
330
1F
100
AcDbEntity
  8
0
  6
Continuous
 62
     7
370
    25
100
AcDbLine
 10
2211.4454585654
 20
2737.2318663251
 30
0.0
 11
2211.4454585654
 21
2737.9820571024
 31
0.0
  0
LINE
  5
20F
330
1F
100
AcDbEntity
  8
0
  6
Continuous
 62
     7
370
    25
100
AcDbLine
 10
2191.4454585654
 20
2737.9820571024
 30
0.0
 11
2191.4454585654
 21
2737.2318663251
 31
0.0
  0
LINE
  5
210
330
1F
100
AcDbEntity
  8
0
  6
Continuous
 62
     7
370
    25
100
AcDbLine
 10
2209.9418327899
 20
2739.2468479058
 30
0.0
 11
2208.4154268517
 21
2739.3742254403
 31
0.0
  0
LINE
  5
211
330
1F
100
AcDbEntity
  8
0
  6
Continuous
 62
     7
370
    25
100
AcDbLine
 10
2194.475490279
 20
2739.3742254403
 30
0.0
 11
2192.9490843408
 21
2739.2468479058
 31
0.0
  0
SPLINE
  5
212
330
1F
100
AcDbEntity
  8
0
  6
Continuous
 62
     7
370
    25
100
AcDbSpline
210
0.0
220
0.0
230
1.0
 70
     8
 71
     3
 72
    14
 73
    10
 74
     0
 42
0.00000001
 43
0.00000001
 40
0.0
 40
0.0
 40
0.0
 40
0.0
 40
0.0907475556427892
 40
0.2288563839002141
 40
0.4128530542464915
 40
0.6071420004331811
 40
0.7878282318391633
 40
0.9626611221742005
 40
1.0
 40
1.0
 40
1.0
 40
1.0
 10
2208.325460923732
 20
2739.379327213119
 30
0.0
 10
2208.113909756883
 20
2739.396159746668
 30
0.0
 10
2207.580398581714
 20
2739.438609735899
 30
0.0
 10
2206.719912941165
 20
2739.480570026111
 30
0.0
 10
2205.670112580982
 20
2739.517502171328
 30
0.0
 10
2204.43549606346
 20
2739.54322773795
 30
0.0
 10
2203.098989846257
 20
2739.559073656584
 30
0.0
 10
2202.088959722669
 20
2739.563885326823
 30
0.0
 10
2201.541757506834
 20
2739.56412491032
 30
0.0
 10
2201.445458565366
 20
2739.564167073229
 30
0.0
  0
SPLINE
  5
213
330
1F
100
AcDbEntity
  8
0
  6
Continuous
 62
     7
370
    25
100
AcDbSpline
210
0.0
220
0.0
230
1.0
 70
     8
 71
     3
 72
    13
 73
     9
 74
     0
 42
0.00000001
 43
0.00000001
 40
0.0
 40
0.0
 40
0.0
 40
0.0
 40
0.097179005642393
 40
0.2845710337029592
 40
0.4775192778487867
 40
0.6890792027696984
 40
0.8771625243238423
 40
0.9999999999999999
 40
0.9999999999999999
 40
0.9999999999999999
 40
0.9999999999999999
 10
2201.445458565366
 20
2739.564167073229
 30
0.0
 10
2201.198437493657
 20
2739.563905304352
 30
0.0
 10
2200.475081237251
 20
2739.563138761833
 30
0.0
 10
2199.282482825123
 20
2739.554264289769
 30
0.0
 10
2197.912409207468
 20
2739.5340249455
 30
0.0
 10
2196.678104082209
 20
2739.500007999576
 30
0.0
 10
2195.648335398516
 20
2739.460504786331
 30
0.0
 10
2194.94193209442
 20
2739.406884625926
 30
0.0
 10
2194.662848805501
 20
2739.385700564879
 30
0.0
  0
LINE
  5
214
330
1F
100
AcDbEntity
  8
0
  6
Continuous
 62
     7
370
    25
100
AcDbLine
 10
2205.9454585654
 20
2734.2716549046
 30
0.0
 11
2205.9454585654
 21
2736.5321061976
 31
0.0
  0
LINE
  5
215
330
1F
100
AcDbEntity
  8
0
  6
Continuous
 62
     7
370
    25
100
AcDbLine
 10
2196.9454585654
 20
2736.5321061976
 30
0.0
 11
2196.9454585654
 21
2734.2716549046
 31
0.0
  0
SPLINE
  5
216
330
1F
100
AcDbEntity
  8
0
  6
Continuous
 62
     7
370
    25
100
AcDbSpline
210
0.0
220
0.0
230
1.0
 70
     8
 71
     3
 72
    16
 73
    12
 74
     0
 42
0.00000001
 43
0.00000001
 40
0.0
 40
0.0
 40
0.0
 40
0.0
 40
0.0490847390187455
 40
0.1518473045647085
 40
0.2358684990992572
 40
0.3090519161655129
 40
0.373478614211095
 40
0.4370328180328391
 40
0.5258016248251263
 40
0.7068629655468531
 40
1.0
 40
1.0
 40
1.0
 40
1.0
 10
2587.925074168673
 20
2737.982522916328
 30
0.0
 10
2587.929765765408
 20
2738.048713308549
 30
0.0
 10
2587.944279570156
 20
2738.253478228313
 30
0.0
 10
2587.817101818786
 20
2738.55769488796
 30
0.0
 10
2587.61288540926
 20
2738.833758526981
 30
0.0
 10
2587.391873803394
 20
2739.00709700162
 30
0.0
 10
2587.200107235651
 20
2739.104101014123
 30
0.0
 10
2587.042893347468
 20
2739.15817437948
 30
0.0
 10
2586.877542172414
 20
2739.196807200852
 30
0.0
 10
2586.681828237488
 20
2739.226544086372
 30
0.0
 10
2586.454213845381
 20
2739.243759755643
 30
0.0
 10
2586.313508580678
 20
2739.254402032169
 30
0.0
  0
SPLINE
  5
217
330
1F
100
AcDbEntity
  8
0
  6
Continuous
 62
     7
370
    25
100
AcDbSpline
210
0.0
220
0.0
230
1.0
 70
     8
 71
     3
 72
    14
 73
    10
 74
     0
 42
0.00000001
 43
0.00000001
 40
0.0
 40
0.0
 40
0.0
 40
0.0
 40
0.4380448777707727
 40
0.5889072021156261
 40
0.6648524542794935
 40
0.7505291071917574
 40
0.8517030556681131
 40
0.962026731475614
 40
1.0
 40
1.0
 40
1.0
 40
1.0
 10
2569.529691039082
 20
2739.253278350242
 30
0.0
 10
2569.357587419204
 20
2739.238587326923
 30
0.0
 10
2569.126211442904
 20
2739.218836726294
 30
0.0
 10
2568.826901395452
 20
2739.158689060104
 30
0.0
 10
2568.553382146908
 20
2739.042171355413
 30
0.0
 10
2568.289180317124
 20
2738.852245027236
 30
0.0
 10
2568.060956382529
 20
2738.539748892959
 30
0.0
 10
2567.936910392499
 20
2738.217783907779
 30
0.0
 10
2567.958389890538
 20
2738.022470086407
 30
0.0
 10
2567.963889981929
 20
2737.972457564443
 30
0.0
  0
LINE
  5
218
330
1F
100
AcDbEntity
  8
0
  6
Continuous
 62
     7
370
    25
100
AcDbLine
 10
2587.9454585654
 20
2737.2318663251
 30
0.0
 11
2587.9454585654
 21
2737.9820571024
 31
0.0
  0
LINE
  5
219
330
1F
100
AcDbEntity
  8
0
  6
Continuous
 62
     7
370
    25
100
AcDbLine
 10
2567.9454585654
 20
2737.9820571024
 30
0.0
 11
2567.9454585654
 21
2737.2318663251
 31
0.0
  0
LINE
  5
21A
330
1F
100
AcDbEntity
  8
0
  6
Continuous
 62
     7
370
    25
100
AcDbLine
 10
2586.4418327899
 20
2739.2468479058
 30
0.0
 11
2584.9154268517
 21
2739.3742254403
 31
0.0
  0
LINE
  5
21B
330
1F
100
AcDbEntity
  8
0
  6
Continuous
 62
     7
370
    25
100
AcDbLine
 10
2570.975490279
 20
2739.3742254403
 30
0.0
 11
2569.4490843408
 21
2739.2468479058
 31
0.0
  0
SPLINE
  5
21C
330
1F
100
AcDbEntity
  8
0
  6
Continuous
 62
     7
370
    25
100
AcDbSpline
210
0.0
220
0.0
230
1.0
 70
     8
 71
     3
 72
    14
 73
    10
 74
     0
 42
0.00000001
 43
0.00000001
 40
0.0
 40
0.0
 40
0.0
 40
0.0
 40
0.0907475556427842
 40
0.2288563839001996
 40
0.4128530542464732
 40
0.6071420004331656
 40
0.787828231839148
 40
0.9626611221741815
 40
1.0
 40
1.0
 40
1.0
 40
1.0
 10
2584.825460923729
 20
2739.379327213117
 30
0.0
 10
2584.613909756881
 20
2739.396159746666
 30
0.0
 10
2584.080398581712
 20
2739.438609735897
 30
0.0
 10
2583.219912941162
 20
2739.480570026108
 30
0.0
 10
2582.17011258098
 20
2739.517502171326
 30
0.0
 10
2580.935496063458
 20
2739.543227737948
 30
0.0
 10
2579.598989846255
 20
2739.559073656582
 30
0.0
 10
2578.588959722667
 20
2739.563885326821
 30
0.0
 10
2578.041757506832
 20
2739.564124910318
 30
0.0
 10
2577.945458565364
 20
2739.564167073226
 30
0.0
  0
SPLINE
  5
21D
330
1F
100
AcDbEntity
  8
0
  6
Continuous
 62
     7
370
    25
100
AcDbSpline
210
0.0
220
0.0
230
1.0
 70
     8
 71
     3
 72
    13
 73
     9
 74
     0
 42
0.00000001
 43
0.00000001
 40
0.0
 40
0.0
 40
0.0
 40
0.0
 40
0.0971790056423965
 40
0.2845710337029604
 40
0.4775192778487875
 40
0.6890792027696978
 40
0.8771625243238415
 40
0.9999999999999999
 40
0.9999999999999999
 40
0.9999999999999999
 40
0.9999999999999999
 10
2577.945458565364
 20
2739.564167073226
 30
0.0
 10
2577.698437493655
 20
2739.56390530435
 30
0.0
 10
2576.975081237248
 20
2739.563138761831
 30
0.0
 10
2575.782482825121
 20
2739.554264289767
 30
0.0
 10
2574.412409207466
 20
2739.534024945498
 30
0.0
 10
2573.178104082206
 20
2739.500007999575
 30
0.0
 10
2572.148335398513
 20
2739.460504786329
 30
0.0
 10
2571.441932094418
 20
2739.406884625924
 30
0.0
 10
2571.162848805499
 20
2739.385700564877
 30
0.0
  0
LINE
  5
21E
330
1F
100
AcDbEntity
  8
0
  6
Continuous
 62
     7
370
    25
100
AcDbLine
 10
2582.4454585654
 20
2734.2716549046
 30
0.0
 11
2582.4454585654
 21
2736.5321061976
 31
0.0
  0
LINE
  5
21F
330
1F
100
AcDbEntity
  8
0
  6
Continuous
 62
     7
370
    25
100
AcDbLine
 10
2573.4454585654
 20
2736.5321061976
 30
0.0
 11
2573.4454585654
 21
2734.2716549046
 31
0.0
  0
LINE
  5
220
330
1F
100
AcDbEntity
  8
0
  6
Continuous
 62
     7
370
    25
100
AcDbLine
 10
2612.4454585654
 20
2335.7716549046
 30
0.0
 11
2612.4454585654
 21
2339.5544432211
 31
0.0
  0
LINE
  5
221
330
1F
100
AcDbEntity
  8
0
  6
Continuous
 62
     7
370
    25
100
AcDbLine
 10
2612.4454585654
 20
2335.7716549046
 30
0.0
 11
2166.4454585654
 21
2335.7716549046
 31
0.0
  0
LINE
  5
222
330
1F
100
AcDbEntity
  8
0
  6
Continuous
 62
     7
370
    25
100
AcDbLine
 10
2166.4454585654
 20
2335.7716549046
 30
0.0
 11
2166.4454585654
 21
2339.5544432211
 31
0.0
  0
LINE
  5
223
330
1F
100
AcDbEntity
  8
0
  6
Continuous
 62
     7
370
    25
100
AcDbLine
 10
2168.4454585654
 20
2339.6884336552
 30
0.0
 11
2168.4454585654
 21
2340.851039779
 31
0.0
  0
LINE
  5
224
330
1F
100
AcDbEntity
  8
0
  6
Continuous
 62
     7
370
    25
100
AcDbLine
 10
2168.4454585654
 20
2339.6884336552
 30
0.0
 11
2166.6454585654
 21
2339.6884336552
 31
0.0
  0
LINE
  5
225
330
1F
100
AcDbEntity
  8
0
  6
Continuous
 62
     7
370
    25
100
AcDbLine
 10
2166.6454585654
 20
2340.851039779
 30
0.0
 11
2166.6454585654
 21
2339.6884336552
 31
0.0
  0
LINE
  5
226
330
1F
100
AcDbEntity
  8
0
  6
Continuous
 62
     7
370
    25
100
AcDbLine
 10
2168.4454585654
 20
2340.851039779
 30
0.0
 11
2166.6454585654
 21
2340.851039779
 31
0.0
  0
LINE
  5
227
330
1F
100
AcDbEntity
  8
0
  6
Continuous
 62
     7
370
    25
100
AcDbLine
 10
2166.4454585654
 20
2339.7217068246
 30
0.0
 11
2166.4454585654
 21
2340.6517917236
 31
0.0
  0
ARC
  5
228
330
1F
100
AcDbEntity
  8
0
  6
Continuous
 62
     7
370
    25
100
AcDbCircle
 10
2166.6450832998
 20
2340.6514150419
 30
0.0
 40
0.1996250898580354
100
AcDbArc
 50
89.8922923776
 51
179.8918858979
  0
ARC
  5
229
330
1F
100
AcDbEntity
  8
0
  6
Continuous
 62
     7
370
    25
100
AcDbCircle
 10
2166.5968424451
 20
2340.013930987
 30
0.0
 40
0.3291079460492134
100
AcDbArc
 50
242.6140248799
 51
278.4948720914
  0
LINE
  5
22A
330
1F
100
AcDbEntity
  8
0
  6
Continuous
 62
     7
370
    25
100
AcDbLine
 10
2166.4454585654
 20
2339.5544432211
 30
0.0
 11
2166.4454585654
 21
2339.7217068246
 31
0.0
  0
LINE
  5
22B
330
1F
100
AcDbEntity
  8
0
  6
Continuous
 62
     7
370
    25
100
AcDbLine
 10
2166.6454585654
 20
2339.6884336552
 30
0.0
 11
2166.6454585654
 21
2339.2716651334
 31
0.0
  0
SPLINE
  5
22C
330
1F
100
AcDbEntity
  8
0
  6
Continuous
 62
     7
370
    25
100
AcDbSpline
210
0.0
220
0.0
230
1.0
 70
     8
 71
     3
 72
    13
 73
     9
 74
     0
 42
0.00000001
 43
0.00000001
 40
0.0
 40
0.0
 40
0.0
 40
0.0
 40
0.0075029974113243
 40
0.3818974549655825
 40
0.6070018873266375
 40
0.7653769096339834
 40
0.8824605049806366
 40
1.0
 40
1.0
 40
1.0
 40
1.0
 10
2166.445458565364
 20
2339.554443221123
 30
0.0
 10
2166.445459520968
 20
2339.553425444507
 30
0.0
 10
2166.445508160583
 20
2339.501621308368
 30
0.0
 10
2166.451630265322
 20
2339.423035943001
 30
0.0
 10
2166.493646370796
 20
2339.340396478969
 30
0.0
 10
2166.542457172763
 20
2339.29830036087
 30
0.0
 10
2166.593187820078
 20
2339.275776934034
 30
0.0
 10
2166.628012427528
 20
2339.273037507921
 30
0.0
 10
2166.645458565364
 20
2339.271665133353
 30
0.0
  0
LINE
  5
22D
330
1F
100
AcDbEntity
  8
0
  6
Continuous
 62
     7
370
    25
100
AcDbLine
 10
2168.4454585654
 20
2339.2716651334
 30
0.0
 11
2166.6454585654
 21
2339.2716651334
 31
0.0
  0
LINE
  5
22E
330
1F
100
AcDbEntity
  8
0
  6
Continuous
 62
     7
370
    25
100
AcDbLine
 10
2168.4454585654
 20
2339.2716651334
 30
0.0
 11
2168.4454585654
 21
2339.6884336552
 31
0.0
  0
ARC
  5
22F
330
1F
100
AcDbEntity
  8
0
  6
Continuous
 62
     7
370
    25
100
AcDbCircle
 10
2166.6450832998
 20
2341.4926036605
 30
0.0
 40
0.1996250898582723
100
AcDbArc
 50
89.8922923776
 51
179.8918858978
  0
LINE
  5
230
330
1F
100
AcDbEntity
  8
0
  6
Continuous
 62
     7
370
    25
100
AcDbLine
 10
2166.6454585654
 20
2341.6922283976
 30
0.0
 11
2166.6454585654
 21
2340.851039779
 31
0.0
  0
LINE
  5
231
330
1F
100
AcDbEntity
  8
0
  6
Continuous
 62
     7
370
    25
100
AcDbLine
 10
2166.4454585654
 20
2340.6517917236
 30
0.0
 11
2166.4454585654
 21
2341.4929803423
 31
0.0
  0
LINE
  5
232
330
1F
100
AcDbEntity
  8
0
  6
Continuous
 62
     7
370
    25
100
AcDbLine
 10
2168.4454585654
 20
2341.6922283976
 30
0.0
 11
2166.6454585654
 21
2341.6922283976
 31
0.0
  0
LINE
  5
233
330
1F
100
AcDbEntity
  8
0
  6
Continuous
 62
     7
370
    25
100
AcDbLine
 10
2168.4454585654
 20
2340.851039779
 30
0.0
 11
2168.4454585654
 21
2341.6922283976
 31
0.0
  0
LINE
  5
234
330
1F
100
AcDbEntity
  8
0
  6
Continuous
 62
     7
370
    25
100
AcDbLine
 10
2166.6454585654
 20
2342.6884686746
 30
0.0
 11
2166.6454585654
 21
2341.6922283976
 31
0.0
  0
LINE
  5
235
330
1F
100
AcDbEntity
  8
0
  6
Continuous
 62
     7
370
    25
100
AcDbLine
 10
2166.6454585654
 20
2342.6884686746
 30
0.0
 11
2168.4454585654
 21
2342.6884686746
 31
0.0
  0
LINE
  5
236
330
1F
100
AcDbEntity
  8
0
  6
Continuous
 62
     7
370
    25
100
AcDbLine
 10
2168.4454585654
 20
2341.6922283976
 30
0.0
 11
2168.4454585654
 21
2342.6884686746
 31
0.0
  0
LINE
  5
237
330
1F
100
AcDbEntity
  8
0
  6
Continuous
 62
     7
370
    25
100
AcDbLine
 10
2166.4454585654
 20
2342.6884686746
 30
0.0
 11
2166.6454585654
 21
2342.6884686746
 31
0.0
  0
LINE
  5
238
330
1F
100
AcDbEntity
  8
0
  6
Continuous
 62
     7
370
    25
100
AcDbLine
 10
2166.4454585654
 20
2341.4929803423
 30
0.0
 11
2166.4454585654
 21
2342.6884686746
 31
0.0
  0
ARC
  5
239
330
1F
100
AcDbEntity
  8
0
  6
Continuous
 62
     7
370
    25
100
AcDbCircle
 10
2166.6454585654
 20
2353.8716549046
 30
0.0
 40
0.1999999999998181
100
AcDbArc
 50
90.0
 51
180.0
  0
LINE
  5
23A
330
1F
100
AcDbEntity
  8
0
  6
Continuous
 62
     7
370
    25
100
AcDbLine
 10
2166.6454585654
 20
2354.0716549046
 30
0.0
 11
2166.6454585654
 21
2353.0716549046
 31
0.0
  0
LINE
  5
23B
330
1F
100
AcDbEntity
  8
0
  6
Continuous
 62
     7
370
    25
100
AcDbLine
 10
2166.4454585654
 20
2353.0716549046
 30
0.0
 11
2166.6454585654
 21
2353.0716549046
 31
0.0
  0
LINE
  5
23C
330
1F
100
AcDbEntity
  8
0
  6
Continuous
 62
     7
370
    25
100
AcDbLine
 10
2166.4454585654
 20
2353.0716549046
 30
0.0
 11
2166.4454585654
 21
2353.8716549046
 31
0.0
  0
LINE
  5
23D
330
1F
100
AcDbEntity
  8
0
  6
Continuous
 62
     7
370
    25
100
AcDbLine
 10
2166.6454585654
 20
2353.0716549046
 30
0.0
 11
2166.6454585654
 21
2342.6884686746
 31
0.0
  0
LINE
  5
23E
330
1F
100
AcDbEntity
  8
0
  6
Continuous
 62
     7
370
    25
100
AcDbLine
 10
2166.4454585654
 20
2342.6884686746
 30
0.0
 11
2166.4454585654
 21
2353.0716549046
 31
0.0
  0
LINE
  5
23F
330
1F
100
AcDbEntity
  8
0
  6
Continuous
 62
     7
370
    25
100
AcDbLine
 10
2168.4454585654
 20
2353.0716549046
 30
0.0
 11
2166.6454585654
 21
2353.0716549046
 31
0.0
  0
LINE
  5
240
330
1F
100
AcDbEntity
  8
0
  6
Continuous
 62
     7
370
    25
100
AcDbLine
 10
2168.4454585654
 20
2342.6884686746
 30
0.0
 11
2168.4454585654
 21
2353.0716549046
 31
0.0
  0
LINE
  5
241
330
1F
100
AcDbEntity
  8
0
  6
Continuous
 62
     7
370
    25
100
AcDbLine
 10
2166.6454585654
 20
2354.0716549046
 30
0.0
 11
2168.4454585654
 21
2354.0716549046
 31
0.0
  0
LINE
  5
242
330
1F
100
AcDbEntity
  8
0
  6
Continuous
 62
     7
370
    25
100
AcDbLine
 10
2168.4454585654
 20
2354.0716549046
 30
0.0
 11
2168.4454585654
 21
2353.0716549046
 31
0.0
  0
LINE
  5
243
330
1F
100
AcDbEntity
  8
0
  6
Continuous
 62
     7
370
    25
100
AcDbLine
 10
2610.4454585654
 20
2340.851039779
 30
0.0
 11
2168.4454585654
 21
2340.851039779
 31
0.0
  0
LINE
  5
244
330
1F
100
AcDbEntity
  8
0
  6
Continuous
 62
     7
370
    25
100
AcDbLine
 10
2610.4454585654
 20
2339.6884336552
 30
0.0
 11
2168.4454585654
 21
2339.6884336552
 31
0.0
  0
LINE
  5
245
330
1F
100
AcDbEntity
  8
0
  6
Continuous
 62
     7
370
    25
100
AcDbLine
 10
2610.4454585654
 20
2340.851039779
 30
0.0
 11
2610.4454585654
 21
2339.6884336552
 31
0.0
  0
LINE
  5
246
330
1F
100
AcDbEntity
  8
0
  6
Continuous
 62
     7
370
    25
100
AcDbLine
 10
2610.4454585654
 20
2339.2716651334
 30
0.0
 11
2168.4454585654
 21
2339.2716651334
 31
0.0
  0
LINE
  5
247
330
1F
100
AcDbEntity
  8
0
  6
Continuous
 62
     7
370
    25
100
AcDbLine
 10
2610.4454585654
 20
2339.6884336552
 30
0.0
 11
2610.4454585654
 21
2339.2716651334
 31
0.0
  0
LINE
  5
248
330
1F
100
AcDbEntity
  8
0
  6
Continuous
 62
     7
370
    25
100
AcDbLine
 10
2610.4454585654
 20
2341.6922283976
 30
0.0
 11
2168.4454585654
 21
2341.6922283976
 31
0.0
  0
LINE
  5
249
330
1F
100
AcDbEntity
  8
0
  6
Continuous
 62
     7
370
    25
100
AcDbLine
 10
2610.4454585654
 20
2341.6922283976
 30
0.0
 11
2610.4454585654
 21
2340.851039779
 31
0.0
  0
LINE
  5
24A
330
1F
100
AcDbEntity
  8
0
  6
Continuous
 62
     7
370
    25
100
AcDbLine
 10
2168.4454585654
 20
2342.6884686746
 30
0.0
 11
2610.4454585654
 21
2342.6884686746
 31
0.0
  0
LINE
  5
24B
330
1F
100
AcDbEntity
  8
0
  6
Continuous
 62
     7
370
    25
100
AcDbLine
 10
2610.4454585654
 20
2342.6884686746
 30
0.0
 11
2610.4454585654
 21
2341.6922283976
 31
0.0
  0
LINE
  5
24C
330
1F
100
AcDbEntity
  8
0
  6
Continuous
 62
     7
370
    25
100
AcDbLine
 10
2610.4454585654
 20
2353.0716549046
 30
0.0
 11
2168.4454585654
 21
2353.0716549046
 31
0.0
  0
LINE
  5
24D
330
1F
100
AcDbEntity
  8
0
  6
Continuous
 62
     7
370
    25
100
AcDbLine
 10
2610.4454585654
 20
2353.0716549046
 30
0.0
 11
2610.4454585654
 21
2342.6884686746
 31
0.0
  0
LINE
  5
24E
330
1F
100
AcDbEntity
  8
0
  6
Continuous
 62
     7
370
    25
100
AcDbLine
 10
2168.4454585654
 20
2354.0716549046
 30
0.0
 11
2610.4454585654
 21
2354.0716549046
 31
0.0
  0
LINE
  5
24F
330
1F
100
AcDbEntity
  8
0
  6
Continuous
 62
     7
370
    25
100
AcDbLine
 10
2610.4454585654
 20
2353.0716549046
 30
0.0
 11
2610.4454585654
 21
2354.0716549046
 31
0.0
  0
LINE
  5
250
330
1F
100
AcDbEntity
  8
0
  6
Continuous
 62
     7
370
    25
100
AcDbLine
 10
2612.4454585654
 20
2340.6517917236
 30
0.0
 11
2612.4454585654
 21
2339.7217068246
 31
0.0
  0
ARC
  5
251
330
1F
100
AcDbEntity
  8
0
  6
Continuous
 62
     7
370
    25
100
AcDbCircle
 10
2612.2940746856
 20
2340.013930987
 30
0.0
 40
0.3291079460473411
100
AcDbArc
 50
261.5051279085
 51
297.3859751201
  0
LINE
  5
252
330
1F
100
AcDbEntity
  8
0
  6
Continuous
 62
     7
370
    25
100
AcDbLine
 10
2612.2454585654
 20
2339.6884336552
 30
0.0
 11
2612.2454585654
 21
2340.851039779
 31
0.0
  0
ARC
  5
253
330
1F
100
AcDbEntity
  8
0
  6
Continuous
 62
     7
370
    25
100
AcDbCircle
 10
2612.2458338309
 20
2340.6514150419
 30
0.0
 40
0.1996250898580354
100
AcDbArc
 50
0.1081141021
 51
90.1077076224
  0
LINE
  5
254
330
1F
100
AcDbEntity
  8
0
  6
Continuous
 62
     7
370
    25
100
AcDbLine
 10
2612.2454585654
 20
2340.851039779
 30
0.0
 11
2610.4454585654
 21
2340.851039779
 31
0.0
  0
LINE
  5
255
330
1F
100
AcDbEntity
  8
0
  6
Continuous
 62
     7
370
    25
100
AcDbLine
 10
2612.2454585654
 20
2339.6884336552
 30
0.0
 11
2610.4454585654
 21
2339.6884336552
 31
0.0
  0
LINE
  5
256
330
1F
100
AcDbEntity
  8
0
  6
Continuous
 62
     7
370
    25
100
AcDbLine
 10
2612.2454585654
 20
2339.2716651334
 30
0.0
 11
2612.2454585654
 21
2339.6884336552
 31
0.0
  0
LINE
  5
257
330
1F
100
AcDbEntity
  8
0
  6
Continuous
 62
     7
370
    25
100
AcDbLine
 10
2612.2454585654
 20
2339.2716651334
 30
0.0
 11
2610.4454585654
 21
2339.2716651334
 31
0.0
  0
LINE
  5
258
330
1F
100
AcDbEntity
  8
0
  6
Continuous
 62
     7
370
    25
100
AcDbLine
 10
2612.4454585654
 20
2339.7217068246
 30
0.0
 11
2612.4454585654
 21
2339.5544432211
 31
0.0
  0
SPLINE
  5
259
330
1F
100
AcDbEntity
  8
0
  6
Continuous
 62
     7
370
    25
100
AcDbSpline
210
0.0
220
0.0
230
1.0
 70
     8
 71
     3
 72
    13
 73
     9
 74
     0
 42
0.00000001
 43
0.00000001
 40
0.0
 40
0.0
 40
0.0
 40
0.0
 40
0.0075029974114405
 40
0.381897454966353
 40
0.6070018873272555
 40
0.7653769096343928
 40
0.8824605049809934
 40
1.0
 40
1.0
 40
1.0
 40
1.0
 10
2612.445458565364
 20
2339.554443221124
 30
0.0
 10
2612.44545760976
 20
2339.553425444508
 30
0.0
 10
2612.445408970145
 20
2339.501621308369
 30
0.0
 10
2612.439286865406
 20
2339.423035943002
 30
0.0
 10
2612.397270759931
 20
2339.34039647897
 30
0.0
 10
2612.348459957966
 20
2339.298300360871
 30
0.0
 10
2612.29772931065
 20
2339.275776934036
 30
0.0
 10
2612.2629047032
 20
2339.273037507922
 30
0.0
 10
2612.245458565364
 20
2339.271665133354
 30
0.0
  0
LINE
  5
25A
330
1F
100
AcDbEntity
  8
0
  6
Continuous
 62
     7
370
    25
100
AcDbLine
 10
2612.2454585654
 20
2340.851039779
 30
0.0
 11
2612.2454585654
 21
2341.6922283976
 31
0.0
  0
ARC
  5
25B
330
1F
100
AcDbEntity
  8
0
  6
Continuous
 62
     7
370
    25
100
AcDbCircle
 10
2612.2458338309
 20
2341.4926036605
 30
0.0
 40
0.1996250898582732
100
AcDbArc
 50
0.1081141022
 51
90.1077076225
  0
LINE
  5
25C
330
1F
100
AcDbEntity
  8
0
  6
Continuous
 62
     7
370
    25
100
AcDbLine
 10
2612.4454585654
 20
2341.4929803423
 30
0.0
 11
2612.4454585654
 21
2340.6517917236
 31
0.0
  0
LINE
  5
25D
330
1F
100
AcDbEntity
  8
0
  6
Continuous
 62
     7
370
    25
100
AcDbLine
 10
2612.2454585654
 20
2341.6922283976
 30
0.0
 11
2610.4454585654
 21
2341.6922283976
 31
0.0
  0
LINE
  5
25E
330
1F
100
AcDbEntity
  8
0
  6
Continuous
 62
     7
370
    25
100
AcDbLine
 10
2610.4454585654
 20
2342.6884686746
 30
0.0
 11
2612.2454585654
 21
2342.6884686746
 31
0.0
  0
LINE
  5
25F
330
1F
100
AcDbEntity
  8
0
  6
Continuous
 62
     7
370
    25
100
AcDbLine
 10
2612.2454585654
 20
2341.6922283976
 30
0.0
 11
2612.2454585654
 21
2342.6884686746
 31
0.0
  0
LINE
  5
260
330
1F
100
AcDbEntity
  8
0
  6
Continuous
 62
     7
370
    25
100
AcDbLine
 10
2612.2454585654
 20
2342.6884686746
 30
0.0
 11
2612.4454585654
 21
2342.6884686746
 31
0.0
  0
LINE
  5
261
330
1F
100
AcDbEntity
  8
0
  6
Continuous
 62
     7
370
    25
100
AcDbLine
 10
2612.4454585654
 20
2342.6884686746
 30
0.0
 11
2612.4454585654
 21
2341.4929803423
 31
0.0
  0
LINE
  5
262
330
1F
100
AcDbEntity
  8
0
  6
Continuous
 62
     7
370
    25
100
AcDbLine
 10
2612.2454585654
 20
2353.0716549046
 30
0.0
 11
2612.2454585654
 21
2354.0716549046
 31
0.0
  0
ARC
  5
263
330
1F
100
AcDbEntity
  8
0
  6
Continuous
 62
     7
370
    25
100
AcDbCircle
 10
2612.2454585654
 20
2353.8716549046
 30
0.0
 40
0.1999999999998181
100
AcDbArc
 50
0.0
 51
90.0
  0
LINE
  5
264
330
1F
100
AcDbEntity
  8
0
  6
Continuous
 62
     7
370
    25
100
AcDbLine
 10
2612.2454585654
 20
2353.0716549046
 30
0.0
 11
2612.4454585654
 21
2353.0716549046
 31
0.0
  0
LINE
  5
265
330
1F
100
AcDbEntity
  8
0
  6
Continuous
 62
     7
370
    25
100
AcDbLine
 10
2612.4454585654
 20
2353.8716549046
 30
0.0
 11
2612.4454585654
 21
2353.0716549046
 31
0.0
  0
LINE
  5
266
330
1F
100
AcDbEntity
  8
0
  6
Continuous
 62
     7
370
    25
100
AcDbLine
 10
2612.2454585654
 20
2353.0716549046
 30
0.0
 11
2610.4454585654
 21
2353.0716549046
 31
0.0
  0
LINE
  5
267
330
1F
100
AcDbEntity
  8
0
  6
Continuous
 62
     7
370
    25
100
AcDbLine
 10
2612.2454585654
 20
2342.6884686746
 30
0.0
 11
2612.2454585654
 21
2353.0716549046
 31
0.0
  0
LINE
  5
268
330
1F
100
AcDbEntity
  8
0
  6
Continuous
 62
     7
370
    25
100
AcDbLine
 10
2610.4454585654
 20
2354.0716549046
 30
0.0
 11
2612.2454585654
 21
2354.0716549046
 31
0.0
  0
LINE
  5
269
330
1F
100
AcDbEntity
  8
0
  6
Continuous
 62
     7
370
    25
100
AcDbLine
 10
2612.4454585654
 20
2353.0716549046
 30
0.0
 11
2612.4454585654
 21
2342.6884686746
 31
0.0
  0
LINE
  5
26A
330
1F
100
AcDbEntity
  8
0
  6
Continuous
 62
     7
370
    25
100
AcDbLine
 10
2614.9454585654
 20
2734.2716549046
 30
0.0
 11
2614.9454585654
 21
2355.2716549046
 31
0.0
  0
LINE
  5
26B
330
1F
100
AcDbEntity
  8
0
  6
Continuous
 62
     7
370
    25
100
AcDbLine
 10
2614.9454585654
 20
2355.2716549046
 30
0.0
 11
2164.4454585654
 21
2355.2716549046
 31
0.0
  0
LINE
  5
26C
330
1F
100
AcDbEntity
  8
0
  6
Continuous
 62
     7
370
    25
100
AcDbLine
 10
2614.9454585654
 20
2734.2716549046
 30
0.0
 11
2164.4454585654
 21
2734.2716549046
 31
0.0
  0
LINE
  5
26D
330
1F
100
AcDbEntity
  8
0
  6
Continuous
 62
     7
370
    25
100
AcDbLine
 10
2164.4454585654
 20
2734.2716549046
 30
0.0
 11
2164.4454585654
 21
2355.2716549046
 31
0.0
  0
ARC
  5
26E
330
1F
100
AcDbEntity
  8
0
  6
Continuous
 62
     7
370
    25
100
AcDbCircle
 10
2202.4487994324
 20
2929.2477776174
 30
0.0
 40
190.3064363776896
100
AcDbArc
 50
269.697921602
 51
271.989829998
  0
ARC
  5
26F
330
1F
100
AcDbEntity
  8
0
  6
Continuous
 62
     7
370
    25
100
AcDbCircle
 10
2200.8807674913
 20
2973.5241370699
 30
0.0
 40
234.5808305586659
100
AcDbArc
 50
268.5008299501
 51
270.1379245118
  0
ARC
  5
270
330
1F
100
AcDbEntity
  8
0
  6
Continuous
 62
     7
370
    25
100
AcDbCircle
 10
2204.2883976532
 20
2819.5040519049
 30
0.0
 40
82.5829040479234
100
AcDbArc
 50
268.0271873052
 51
274.971785139
  0
ARC
  5
271
330
1F
100
AcDbEntity
  8
0
  6
Continuous
 62
     7
370
    25
100
AcDbCircle
 10
2198.8258447337
 20
2828.0354228507
 30
0.0
 40
91.10299653517241
100
AcDbArc
 50
265.3532935281
 51
271.6477340277
  0
SPLINE
  5
272
330
1F
100
AcDbEntity
  8
0
  6
Continuous
 62
     7
370
    25
100
AcDbSpline
210
0.0
220
0.0
230
1.0
 70
     8
 71
     3
 72
    19
 73
    15
 74
     0
 42
0.00000001
 43
0.00000001
 40
0.0
 40
0.0
 40
0.0
 40
0.0
 40
0.090660073128077
 40
0.2050734138973389
 40
0.2719074979493192
 40
0.3443210476357551
 40
0.4209983262120371
 40
0.4999999792228281
 40
0.5790016347260514
 40
0.6556789199260387
 40
0.7280924783131308
 40
0.7949265709542858
 40
0.9093399235674628
 40
1.0
 40
1.0
 40
1.0
 40
1.0
 10
2211.245458565366
 20
2737.031934860081
 30
0.0
 10
2211.168604520699
 20
2737.007709314844
 30
0.0
 10
2210.994760393201
 20
2736.952911043745
 30
0.0
 10
2209.674903170727
 20
2736.886527760365
 30
0.0
 10
2207.91898401053
 20
2736.836615149717
 30
0.0
 10
2206.095890405648
 20
2736.803484284439
 30
0.0
 10
2203.914524317424
 20
2736.781051426675
 30
0.0
 10
2201.521572113837
 20
2736.772789316643
 30
0.0
 10
2199.124049624954
 20
2736.780087282526
 30
0.0
 10
2196.929764294539
 20
2736.801639484268
 30
0.0
 10
2195.087425031515
 20
2736.8340326337
 30
0.0
 10
2193.302394606039
 20
2736.8832325819
 30
0.0
 10
2191.943699588439
 20
2736.949076769694
 30
0.0
 10
2191.737687244347
 20
2737.003798592478
 30
0.0
 10
2191.646612086789
 20
2737.027990340085
 30
0.0
  0
LINE
  5
273
330
1F
100
AcDbEntity
  8
0
  6
Continuous
 62
     7
370
    25
100
AcDbLine
 10
2194.475490279
 20
2739.3742254403
 30
0.0
 11
2194.5274519143
 21
2739.3783936567
 31
0.0
  0
LINE
  5
274
330
1F
100
AcDbEntity
  8
0
  6
Continuous
 62
     7
370
    25
100
AcDbLine
 10
2206.1356302781
 20
2739.43111244
 30
0.0
 11
2206.1346783417
 21
2739.4335859309
 31
0.0
  0
LWPOLYLINE
  5
275
330
1F
100
AcDbEntity
  8
0
  6
Continuous
 62
     7
370
    25
100
AcDbPolyline
 90
       23
 70
   128
 43
0.0
 10
2206.1346783417
 20
2739.4335859309
 10
2205.9194017973
 20
2739.4679610176
 10
2205.3439780752
 20
2739.499369837
 10
2204.4547281093
 20
2739.5252840161
 10
2203.3232354781
 20
2739.5436174939
 10
2202.04058401
 20
2739.5528944469
 10
2200.7100256422
 20
2739.5523680914
 10
2199.4386687613
 20
2739.5420807983
 10
2198.3288561037
 20
2739.5228606826
 10
2197.4699262854
 20
2739.4962549411
 10
2196.9310221483
 20
2739.4644053047
 10
2196.7555248428
 20
2739.4298756318
 10
2196.9575616959
 20
2739.3954455205
 10
2197.5208689783
 20
2739.3638865544
 10
2198.4001011149
 20
2739.3377391931
 10
2199.5244809511
 20
2739.3191082686
 10
2200.8034972299
 20
2739.3094935484
 10
2202.1341906426
 20
2739.3096690062
 10
2203.4094419316
 20
2739.3196205179
 10
2204.5265948654
 20
2739.3385469983
 10
2205.3957199443
 20
2739.3649248882
 10
2205.9468536198
 20
2739.3966307983
 10
2206.1356302781
 20
2739.43111244
  0
LINE
  5
276
330
1F
100
AcDbEntity
  8
0
  6
Continuous
 62
     7
370
    25
100
AcDbLine
 10
2198.9996091614
 20
2739.4176313116
 30
0.0
 11
2200.9304585654
 21
2739.4176313116
 31
0.0
  0
LINE
  5
277
330
1F
100
AcDbEntity
  8
0
  6
Continuous
 62
     7
370
    25
100
AcDbLine
 10
2200.9304585654
 20
2739.4176313116
 30
0.0
 11
2200.9304585654
 21
2739.3670875666
 31
0.0
  0
ARC
  5
278
330
1F
100
AcDbEntity
  8
0
  6
Continuous
 62
     7
370
    25
100
AcDbCircle
 10
2201.4454585654
 20
2833.6549486598
 30
0.0
 40
94.28926754688817
100
AcDbArc
 50
269.687053745
 51
270.312946255
  0
LINE
  5
279
330
1F
100
AcDbEntity
  8
0
  6
Continuous
 62
     7
370
    25
100
AcDbLine
 10
2201.9604585654
 20
2739.3670875666
 30
0.0
 11
2201.9604585654
 21
2739.4176313116
 31
0.0
  0
LINE
  5
27A
330
1F
100
AcDbEntity
  8
0
  6
Continuous
 62
     7
370
    25
100
AcDbLine
 10
2201.9604585654
 20
2739.4176313116
 30
0.0
 11
2203.8913079693
 21
2739.4176313116
 31
0.0
  0
LWPOLYLINE
  5
27B
330
1F
100
AcDbEntity
  8
0
  6
Continuous
 62
     7
370
    25
100
AcDbPolyline
 90
        9
 70
   128
 43
0.0
 10
2203.8913079693
 20
2739.4445935684
 10
2203.9147242752
 20
2739.44125516
 10
2203.9314953662
 20
2739.4378894559
 10
2203.9415761084
 20
2739.4345055136
 10
2203.9449393728
 20
2739.43111244
 10
2203.9415761084
 20
2739.4277193664
 10
2203.9314953662
 20
2739.4243354242
 10
2203.9147242752
 20
2739.42096972
 10
2203.8913079693
 20
2739.4176313116
  0
LINE
  5
27C
330
1F
100
AcDbEntity
  8
0
  6
Continuous
 62
     7
370
    25
100
AcDbLine
 10
2203.8913079693
 20
2739.4445935684
 30
0.0
 11
2201.9604585654
 21
2739.4445935684
 31
0.0
  0
LINE
  5
27D
330
1F
100
AcDbEntity
  8
0
  6
Continuous
 62
     7
370
    25
100
AcDbLine
 10
2201.9604585654
 20
2739.4445935684
 30
0.0
 11
2201.9604585654
 21
2739.4951373134
 31
0.0
  0
ARC
  5
27E
330
1F
100
AcDbEntity
  8
0
  6
Continuous
 62
     7
370
    25
100
AcDbCircle
 10
2201.4454585654
 20
2645.2072761693
 30
0.0
 40
94.28926759780819
100
AcDbArc
 50
89.6870537452
 51
90.3129462548
  0
LINE
  5
27F
330
1F
100
AcDbEntity
  8
0
  6
Continuous
 62
     7
370
    25
100
AcDbLine
 10
2200.9304585654
 20
2739.4951373134
 30
0.0
 11
2200.9304585654
 21
2739.4445935684
 31
0.0
  0
LINE
  5
280
330
1F
100
AcDbEntity
  8
0
  6
Continuous
 62
     7
370
    25
100
AcDbLine
 10
2200.9304585654
 20
2739.4445935684
 30
0.0
 11
2198.9996091614
 21
2739.4445935684
 31
0.0
  0
LWPOLYLINE
  5
281
330
1F
100
AcDbEntity
  8
0
  6
Continuous
 62
     7
370
    25
100
AcDbPolyline
 90
        9
 70
   128
 43
0.0
 10
2198.9996091614
 20
2739.4176313116
 10
2198.9761928556
 20
2739.42096972
 10
2198.9594217646
 20
2739.4243354242
 10
2198.9493410224
 20
2739.4277193664
 10
2198.9459777579
 20
2739.43111244
 10
2198.9493410224
 20
2739.4345055136
 10
2198.9594217646
 20
2739.4378894559
 10
2198.9761928556
 20
2739.44125516
 10
2198.9996091614
 20
2739.4445935684
  0
LINE
  5
282
330
1F
100
AcDbEntity
  8
0
  6
Continuous
 62
     7
370
    25
100
AcDbLine
 10
2199.0133329309
 20
2739.4176313116
 30
0.0
 11
2198.9996091614
 21
2739.4445935684
 31
0.0
  0
LINE
  5
283
330
1F
100
AcDbEntity
  8
0
  6
Continuous
 62
     7
370
    25
100
AcDbLine
 10
2201.9604585654
 20
2739.4445935684
 30
0.0
 11
2201.9604585654
 21
2739.4176313116
 31
0.0
  0
LINE
  5
284
330
1F
100
AcDbEntity
  8
0
  6
Continuous
 62
     7
370
    25
100
AcDbLine
 10
2200.9304585654
 20
2739.4445935684
 30
0.0
 11
2200.9304585654
 21
2739.4176313116
 31
0.0
  0
ARC
  5
285
330
1F
100
AcDbEntity
  8
0
  6
Continuous
 62
     7
370
    25
100
AcDbCircle
 10
2578.9487994324
 20
2929.2477776174
 30
0.0
 40
190.306436377716
100
AcDbArc
 50
269.697921602
 51
271.989829998
  0
ARC
  5
286
330
1F
100
AcDbEntity
  8
0
  6
Continuous
 62
     7
370
    25
100
AcDbCircle
 10
2577.3807674914
 20
2973.5241370799
 30
0.0
 40
234.5808305687501
100
AcDbArc
 50
268.5008299501
 51
270.1379245117
  0
ARC
  5
287
330
1F
100
AcDbEntity
  8
0
  6
Continuous
 62
     7
370
    25
100
AcDbCircle
 10
2580.7883976532
 20
2819.5040519046
 30
0.0
 40
82.58290404758662
100
AcDbArc
 50
268.0271873052
 51
274.9717851391
  0
ARC
  5
288
330
1F
100
AcDbEntity
  8
0
  6
Continuous
 62
     7
370
    25
100
AcDbCircle
 10
2575.3258447337
 20
2828.0354228502
 30
0.0
 40
91.10299653473646
100
AcDbArc
 50
265.3532935281
 51
271.6477340277
  0
SPLINE
  5
289
330
1F
100
AcDbEntity
  8
0
  6
Continuous
 62
     7
370
    25
100
AcDbSpline
210
0.0
220
0.0
230
1.0
 70
     8
 71
     3
 72
    19
 73
    15
 74
     0
 42
0.00000001
 43
0.00000001
 40
0.0
 40
0.0
 40
0.0
 40
0.0
 40
0.0906600731280771
 40
0.2050734138973389
 40
0.2719074979493185
 40
0.3443210476357541
 40
0.4209983262120372
 40
0.4999999792228288
 40
0.579001634726051
 40
0.6556789199260391
 40
0.7280924783131304
 40
0.794926570954286
 40
0.9093399235674626
 40
0.9999999999999999
 40
0.9999999999999999
 40
0.9999999999999999
 40
0.9999999999999999
 10
2587.745458565364
 20
2737.031934860079
 30
0.0
 10
2587.668604520696
 20
2737.007709314842
 30
0.0
 10
2587.494760393199
 20
2736.952911043743
 30
0.0
 10
2586.174903170725
 20
2736.886527760362
 30
0.0
 10
2584.418984010528
 20
2736.836615149715
 30
0.0
 10
2582.595890405645
 20
2736.803484284437
 30
0.0
 10
2580.414524317422
 20
2736.781051426673
 30
0.0
 10
2578.021572113835
 20
2736.772789316641
 30
0.0
 10
2575.624049624952
 20
2736.780087282524
 30
0.0
 10
2573.429764294537
 20
2736.801639484266
 30
0.0
 10
2571.587425031513
 20
2736.834032633698
 30
0.0
 10
2569.802394606038
 20
2736.883232581898
 30
0.0
 10
2568.443699588436
 20
2736.949076769691
 30
0.0
 10
2568.237687244345
 20
2737.003798592477
 30
0.0
 10
2568.146612086787
 20
2737.027990340083
 30
0.0
  0
LINE
  5
28A
330
1F
100
AcDbEntity
  8
0
  6
Continuous
 62
     7
370
    25
100
AcDbLine
 10
2570.975490279
 20
2739.3742254403
 30
0.0
 11
2571.0274519143
 21
2739.3783936567
 31
0.0
  0
LINE
  5
28B
330
1F
100
AcDbEntity
  8
0
  6
Continuous
 62
     7
370
    25
100
AcDbLine
 10
2582.6356302781
 20
2739.43111244
 30
0.0
 11
2582.6346783417
 21
2739.4335859309
 31
0.0
  0
LWPOLYLINE
  5
28C
330
1F
100
AcDbEntity
  8
0
  6
Continuous
 62
     7
370
    25
100
AcDbPolyline
 90
       23
 70
   128
 43
0.0
 10
2582.6346783417
 20
2739.4335859309
 10
2582.4194017973
 20
2739.4679610176
 10
2581.8439780752
 20
2739.499369837
 10
2580.9547281093
 20
2739.5252840161
 10
2579.8232354781
 20
2739.5436174939
 10
2578.54058401
 20
2739.5528944469
 10
2577.2100256422
 20
2739.5523680914
 10
2575.9386687613
 20
2739.5420807983
 10
2574.8288561037
 20
2739.5228606826
 10
2573.9699262854
 20
2739.4962549411
 10
2573.4310221483
 20
2739.4644053047
 10
2573.2555248428
 20
2739.4298756318
 10
2573.4575616959
 20
2739.3954455205
 10
2574.0208689783
 20
2739.3638865544
 10
2574.9001011149
 20
2739.3377391931
 10
2576.0244809511
 20
2739.3191082686
 10
2577.3034972299
 20
2739.3094935484
 10
2578.6341906426
 20
2739.3096690062
 10
2579.9094419316
 20
2739.3196205179
 10
2581.0265948654
 20
2739.3385469983
 10
2581.8957199443
 20
2739.3649248882
 10
2582.4468536198
 20
2739.3966307983
 10
2582.6356302781
 20
2739.43111244
  0
LINE
  5
28D
330
1F
100
AcDbEntity
  8
0
  6
Continuous
 62
     7
370
    25
100
AcDbLine
 10
2575.4996091614
 20
2739.4176313116
 30
0.0
 11
2577.4304585654
 21
2739.4176313116
 31
0.0
  0
LINE
  5
28E
330
1F
100
AcDbEntity
  8
0
  6
Continuous
 62
     7
370
    25
100
AcDbLine
 10
2577.4304585654
 20
2739.4176313116
 30
0.0
 11
2577.4304585654
 21
2739.3670875666
 31
0.0
  0
ARC
  5
28F
330
1F
100
AcDbEntity
  8
0
  6
Continuous
 62
     7
370
    25
100
AcDbCircle
 10
2577.9454585654
 20
2833.6549486327
 30
0.0
 40
94.28926751976834
100
AcDbArc
 50
269.6870537449
 51
270.3129462551
  0
LINE
  5
290
330
1F
100
AcDbEntity
  8
0
  6
Continuous
 62
     7
370
    25
100
AcDbLine
 10
2578.4604585654
 20
2739.3670875666
 30
0.0
 11
2578.4604585654
 21
2739.4176313116
 31
0.0
  0
LINE
  5
291
330
1F
100
AcDbEntity
  8
0
  6
Continuous
 62
     7
370
    25
100
AcDbLine
 10
2578.4604585654
 20
2739.4176313116
 30
0.0
 11
2580.3913079693
 21
2739.4176313116
 31
0.0
  0
LWPOLYLINE
  5
292
330
1F
100
AcDbEntity
  8
0
  6
Continuous
 62
     7
370
    25
100
AcDbPolyline
 90
        9
 70
   128
 43
0.0
 10
2580.3913079693
 20
2739.4445935684
 10
2580.4147242752
 20
2739.44125516
 10
2580.4314953661
 20
2739.4378894559
 10
2580.4415761084
 20
2739.4345055136
 10
2580.4449393728
 20
2739.43111244
 10
2580.4415761084
 20
2739.4277193664
 10
2580.4314953661
 20
2739.4243354241
 10
2580.4147242752
 20
2739.42096972
 10
2580.3913079693
 20
2739.4176313116
  0
LINE
  5
293
330
1F
100
AcDbEntity
  8
0
  6
Continuous
 62
     7
370
    25
100
AcDbLine
 10
2580.3913079693
 20
2739.4445935684
 30
0.0
 11
2578.4604585654
 21
2739.4445935684
 31
0.0
  0
LINE
  5
294
330
1F
100
AcDbEntity
  8
0
  6
Continuous
 62
     7
370
    25
100
AcDbLine
 10
2578.4604585654
 20
2739.4445935684
 30
0.0
 11
2578.4604585654
 21
2739.4951373134
 31
0.0
  0
ARC
  5
295
330
1F
100
AcDbEntity
  8
0
  6
Continuous
 62
     7
370
    25
100
AcDbCircle
 10
2577.9454585654
 20
2645.2072761862
 30
0.0
 40
94.28926758088775
100
AcDbArc
 50
89.6870537451
 51
90.3129462549
  0
LINE
  5
296
330
1F
100
AcDbEntity
  8
0
  6
Continuous
 62
     7
370
    25
100
AcDbLine
 10
2577.4304585654
 20
2739.4951373134
 30
0.0
 11
2577.4304585654
 21
2739.4445935684
 31
0.0
  0
LINE
  5
297
330
1F
100
AcDbEntity
  8
0
  6
Continuous
 62
     7
370
    25
100
AcDbLine
 10
2577.4304585654
 20
2739.4445935684
 30
0.0
 11
2575.4996091614
 21
2739.4445935684
 31
0.0
  0
LWPOLYLINE
  5
298
330
1F
100
AcDbEntity
  8
0
  6
Continuous
 62
     7
370
    25
100
AcDbPolyline
 90
        9
 70
   128
 43
0.0
 10
2575.4996091614
 20
2739.4176313116
 10
2575.4761928556
 20
2739.42096972
 10
2575.4594217646
 20
2739.4243354241
 10
2575.4493410224
 20
2739.4277193664
 10
2575.4459777579
 20
2739.43111244
 10
2575.4493410224
 20
2739.4345055136
 10
2575.4594217646
 20
2739.4378894559
 10
2575.4761928556
 20
2739.44125516
 10
2575.4996091614
 20
2739.4445935684
  0
LINE
  5
299
330
1F
100
AcDbEntity
  8
0
  6
Continuous
 62
     7
370
    25
100
AcDbLine
 10
2575.5133329309
 20
2739.4176313116
 30
0.0
 11
2575.4996091614
 21
2739.4445935684
 31
0.0
  0
LINE
  5
29A
330
1F
100
AcDbEntity
  8
0
  6
Continuous
 62
     7
370
    25
100
AcDbLine
 10
2578.4604585654
 20
2739.4445935684
 30
0.0
 11
2578.4604585654
 21
2739.4176313116
 31
0.0
  0
LINE
  5
29B
330
1F
100
AcDbEntity
  8
0
  6
Continuous
 62
     7
370
    25
100
AcDbLine
 10
2577.4304585654
 20
2739.4445935684
 30
0.0
 11
2577.4304585654
 21
2739.4176313116
 31
0.0
  0
LINE
  5
29C
330
1F
100
AcDbEntity
  8
0
  6
Continuous
 62
     7
370
    25
100
AcDbLine
 10
2404.4454585654
 20
2354.9716549046
 30
0.0
 11
2404.4245088447
 21
2355.2716549046
 31
0.0
  0
LINE
  5
29D
330
1F
100
AcDbEntity
  8
0
  6
Continuous
 62
     7
370
    25
100
AcDbLine
 10
2404.4454585654
 20
2354.0716549046
 30
0.0
 11
2404.4454585654
 21
2354.9716549046
 31
0.0
  0
LINE
  5
29E
330
1F
100
AcDbEntity
  8
0
  6
Continuous
 62
     7
370
    25
100
AcDbLine
 10
2374.4454585654
 20
2354.9716549046
 30
0.0
 11
2374.4454585654
 21
2354.0716549046
 31
0.0
  0
LINE
  5
29F
330
1F
100
AcDbEntity
  8
0
  6
Continuous
 62
     7
370
    25
100
AcDbLine
 10
2374.466408286
 20
2355.2716549046
 30
0.0
 11
2374.4454585654
 21
2354.9716549046
 31
0.0
  0
LINE
  5
2A0
330
1F
100
AcDbEntity
  8
0
  6
Continuous
 62
     7
370
    25
100
AcDbLine
 10
2379.0468228464
 20
2354.9716549046
 30
0.0
 11
2399.8440942843
 21
2354.9716549046
 31
0.0
  0
LINE
  5
2A1
330
1F
100
AcDbEntity
  8
0
  6
Continuous
 62
     7
370
    25
100
AcDbLine
 10
2379.0670931167
 20
2355.2716549046
 30
0.0
 11
2379.0468228464
 21
2354.9716549046
 31
0.0
  0
LINE
  5
2A2
330
1F
100
AcDbEntity
  8
0
  6
Continuous
 62
     7
370
    25
100
AcDbLine
 10
2399.8440942843
 20
2354.9716549046
 30
0.0
 11
2399.823824014
 21
2355.2716549046
 31
0.0
  0
ARC
  5
2A3
330
1F
100
AcDbEntity
  8
0
  6
Continuous
 62
     7
370
    25
100
AcDbCircle
 10
2574.945458561
 20
2353.9716549046
 30
0.0
 40
2.999999999999664
100
AcDbArc
 50
154.3207113804
 51
178.0897868282
  0
ARC
  5
2A4
330
1F
100
AcDbEntity
  8
0
  6
Continuous
 62
     7
370
    25
100
AcDbCircle
 10
2590.945458561
 20
2353.9716549046
 30
0.0
 40
2.999999999999994
100
AcDbArc
 50
1.9102131718
 51
25.6792886196
  0
LINE
  5
2A5
330
1F
100
AcDbEntity
  8
0
  6
Continuous
 62
     7
370
    25
100
AcDbLine
 10
2593.945458561
 20
2354.2716549046
 30
0.0
 11
2593.945458561
 21
2354.0716549046
 31
0.0
  0
LINE
  5
2A6
330
1F
100
AcDbEntity
  8
0
  6
Continuous
 62
     7
370
    25
100
AcDbLine
 10
2608.1331333148
 20
2354.2716549046
 30
0.0
 11
2593.945458561
 21
2354.2716549046
 31
0.0
  0
LINE
  5
2A7
330
1F
100
AcDbEntity
  8
0
  6
Continuous
 62
     7
370
    25
100
AcDbLine
 10
2608.1331333148
 20
2354.0716549046
 30
0.0
 11
2608.1331333148
 21
2354.2716549046
 31
0.0
  0
LINE
  5
2A8
330
1F
100
AcDbEntity
  8
0
  6
Continuous
 62
     7
370
    25
100
AcDbLine
 10
2594.7046611463
 20
2355.2716549046
 30
0.0
 11
2594.7277135023
 21
2354.2716549046
 31
0.0
  0
LINE
  5
2A9
330
1F
100
AcDbEntity
  8
0
  6
Continuous
 62
     7
370
    25
100
AcDbLine
 10
2596.0280588736
 20
2354.2716549046
 30
0.0
 11
2596.0050065176
 21
2355.2716549046
 31
0.0
  0
ARC
  5
2AA
330
1F
100
AcDbEntity
  8
0
  6
Continuous
 62
     7
370
    25
100
AcDbCircle
 10
2201.4448257767
 20
2884.649799617
 30
0.0
 40
147.0082502474073
100
AcDbArc
 50
266.0997819289
 51
273.9007124515
  0
LWPOLYLINE
  5
2AB
330
1F
100
AcDbEntity
  8
0
  6
Continuous
 62
     7
370
    25
100
AcDbPolyline
 90
        6
 70
   128
 43
0.0
 10
2209.056639358
 20
2739.056094891
 10
2209.7957539085
 20
2739.0961260079
 10
2210.2473606486
 20
2739.1417840506
 10
2210.3386164832
 20
2739.1888871583
 10
2210.0657853877
 20
2739.2355069245
 10
2209.9418327899
 20
2739.2468479058
  0
LWPOLYLINE
  5
2AC
330
1F
100
AcDbEntity
  8
0
  6
Continuous
 62
     7
370
    25
100
AcDbPolyline
 90
        7
 70
   128
 43
0.0
 10
2192.9490843408
 20
2739.2468479058
 10
2192.825131743
 20
2739.2355069245
 10
2192.5523006476
 20
2739.1888871583
 10
2192.6435564822
 20
2739.1417840506
 10
2193.0951632222
 20
2739.0961260079
 10
2193.8886320348
 20
2739.0537822761
 10
2194.7435540402
 20
2739.0236025787
  0
LWPOLYLINE
  5
2AD
330
1F
100
AcDbEntity
  8
0
  6
Continuous
 62
     7
370
    25
100
AcDbPolyline
 90
       19
 70
   128
 43
0.0
 10
2208.4154268517
 20
2739.3742254403
 10
2208.5671548704
 20
2739.3595426267
 10
2208.7503025605
 20
2739.3169925022
 10
2208.5671548704
 20
2739.2744423778
 10
2208.0268955899
 20
2739.2340258942
 10
2207.1566155753
 20
2739.1977697028
 10
2205.9999543005
 20
2739.1674918404
 10
2204.6149115917
 20
2739.1447105655
 10
2203.0709392736
 20
2739.1305682262
 10
2201.4454585654
 20
2739.1257739786
 10
2199.8199778572
 20
2739.1305682262
 10
2198.2760055391
 20
2739.1447105655
 10
2196.8909628302
 20
2739.1674918404
 10
2195.7343015554
 20
2739.1977697028
 10
2194.8640215408
 20
2739.2340258942
 10
2194.3237622603
 20
2739.2744423778
 10
2194.1406145702
 20
2739.3169925022
 10
2194.3237622603
 20
2739.3595426267
 10
2194.475490279
 20
2739.3742254403
  0
SPLINE
  5
2AE
330
1F
100
AcDbEntity
  8
0
  6
Continuous
 62
     7
370
    25
100
AcDbSpline
210
0.0
220
0.0
230
1.0
 70
     8
 71
     3
 72
    10
 73
     6
 74
     0
 42
0.00000001
 43
0.00000001
 40
0.0
 40
0.0
 40
0.0
 40
0.0
 40
0.0219459922126486
 40
0.5300207501360212
 40
1.0
 40
1.0
 40
1.0
 40
1.0
 10
2206.06217296918
 20
2736.849442565993
 30
0.0
 10
2206.060135481754
 20
2736.847904260407
 30
0.0
 10
2206.010927835859
 20
2736.810752425466
 30
0.0
 10
2205.962555166668
 20
2736.693681089496
 30
0.0
 10
2205.949367076369
 20
2736.581933886949
 30
0.0
 10
2205.943029871331
 20
2736.528236579838
 30
0.0
  0
ARC
  5
2AF
330
1F
100
AcDbEntity
  8
0
  6
Continuous
 62
     7
370
    25
100
AcDbCircle
 10
2201.4727661044
 20
2802.8487882409
 30
0.0
 40
66.47103753354833
100
AcDbArc
 50
266.0945910318
 51
273.8561261672
  0
LINE
  5
2B0
330
1F
100
AcDbEntity
  8
0
  6
Continuous
 62
     7
370
    25
100
AcDbLine
 10
2205.9454585654
 20
2736.5321061976
 30
0.0
 11
2205.9430298712
 21
2736.5282365797
 31
0.0
  0
ARC
  5
2B1
330
1F
100
AcDbEntity
  8
0
  6
Continuous
 62
     7
370
    25
100
AcDbCircle
 10
2577.9448257767
 20
2884.649799617
 30
0.0
 40
147.00825024739
100
AcDbArc
 50
266.0997819288
 51
273.9007124515
  0
LWPOLYLINE
  5
2B2
330
1F
100
AcDbEntity
  8
0
  6
Continuous
 62
     7
370
    25
100
AcDbPolyline
 90
        6
 70
   128
 43
0.0
 10
2585.556639358
 20
2739.056094891
 10
2586.2957539085
 20
2739.0961260079
 10
2586.7473606486
 20
2739.1417840506
 10
2586.8386164832
 20
2739.1888871583
 10
2586.5657853877
 20
2739.2355069245
 10
2586.4418327899
 20
2739.2468479058
  0
LWPOLYLINE
  5
2B3
330
1F
100
AcDbEntity
  8
0
  6
Continuous
 62
     7
370
    25
100
AcDbPolyline
 90
        7
 70
   128
 43
0.0
 10
2569.4490843408
 20
2739.2468479058
 10
2569.325131743
 20
2739.2355069245
 10
2569.0523006476
 20
2739.1888871583
 10
2569.1435564822
 20
2739.1417840506
 10
2569.5951632222
 20
2739.0961260079
 10
2570.3886320348
 20
2739.0537822761
 10
2571.2435540402
 20
2739.0236025787
  0
LWPOLYLINE
  5
2B4
330
1F
100
AcDbEntity
  8
0
  6
Continuous
 62
     7
370
    25
100
AcDbPolyline
 90
       19
 70
   128
 43
0.0
 10
2584.9154268517
 20
2739.3742254403
 10
2585.0671548704
 20
2739.3595426267
 10
2585.2503025605
 20
2739.3169925022
 10
2585.0671548704
 20
2739.2744423778
 10
2584.5268955899
 20
2739.2340258942
 10
2583.6566155753
 20
2739.1977697028
 10
2582.4999543005
 20
2739.1674918404
 10
2581.1149115917
 20
2739.1447105655
 10
2579.5709392736
 20
2739.1305682262
 10
2577.9454585654
 20
2739.1257739786
 10
2576.3199778572
 20
2739.1305682262
 10
2574.7760055391
 20
2739.1447105655
 10
2573.3909628302
 20
2739.1674918404
 10
2572.2343015554
 20
2739.1977697028
 10
2571.3640215408
 20
2739.2340258942
 10
2570.8237622603
 20
2739.2744423778
 10
2570.6406145702
 20
2739.3169925022
 10
2570.8237622603
 20
2739.3595426267
 10
2570.975490279
 20
2739.3742254403
  0
SPLINE
  5
2B5
330
1F
100
AcDbEntity
  8
0
  6
Continuous
 62
     7
370
    25
100
AcDbSpline
210
0.0
220
0.0
230
1.0
 70
     8
 71
     3
 72
    10
 73
     6
 74
     0
 42
0.00000001
 43
0.00000001
 40
0.0
 40
0.0
 40
0.0
 40
0.0
 40
0.0219459922123375
 40
0.5300207501358835
 40
1.0
 40
1.0
 40
1.0
 40
1.0
 10
2582.562172969177
 20
2736.84944256599
 30
0.0
 10
2582.560135481752
 20
2736.847904260405
 30
0.0
 10
2582.510927835857
 20
2736.810752425464
 30
0.0
 10
2582.462555166666
 20
2736.693681089494
 30
0.0
 10
2582.449367076367
 20
2736.581933886947
 30
0.0
 10
2582.443029871328
 20
2736.528236579836
 30
0.0
  0
ARC
  5
2B6
330
1F
100
AcDbEntity
  8
0
  6
Continuous
 62
     7
370
    25
100
AcDbCircle
 10
2577.9727661044
 20
2802.8487882409
 30
0.0
 40
66.47103753356696
100
AcDbArc
 50
266.0945910318
 51
273.8561261672
  0
LINE
  5
2B7
330
1F
100
AcDbEntity
  8
0
  6
Continuous
 62
     7
370
    25
100
AcDbLine
 10
2582.4454585654
 20
2736.5321061976
 30
0.0
 11
2582.4430298712
 21
2736.5282365797
 31
0.0
  0
SPLINE
  5
2B8
330
1F
100
AcDbEntity
  8
0
  6
Continuous
 62
     7
370
    25
100
AcDbSpline
210
0.0
220
0.0
230
1.0
 70
     8
 71
     3
 72
    10
 73
     6
 74
     0
 42
0.00000001
 43
0.00000001
 40
0.0
 40
0.0
 40
0.0
 40
0.0
 40
0.5286786081615343
 40
0.8161383429842906
 40
1.0
 40
1.0
 40
1.0
 40
1.0
 10
2592.945458561025
 20
2353.971654904578
 30
0.0
 10
2592.91746792518
 20
2354.222169411554
 30
0.0
 10
2592.874257871273
 20
2354.60889679462
 30
0.0
 10
2592.656475964292
 20
2355.037913361009
 30
0.0
 10
2592.509989972185
 20
2355.206060857864
 30
0.0
 10
2592.452846040879
 20
2355.271654904581
 30
0.0
  0
SPLINE
  5
2B9
330
1F
100
AcDbEntity
  8
0
  6
Continuous
 62
     7
370
    25
100
AcDbSpline
210
0.0
220
0.0
230
1.0
 70
     8
 71
     3
 72
    10
 73
     6
 74
     0
 42
0.00000001
 43
0.00000001
 40
0.0
 40
0.0
 40
0.0
 40
0.0
 40
0.1834740337149243
 40
0.4713152133462759
 40
1.0
 40
1.0
 40
1.0
 40
1.0
 10
2573.43804411186
 20
2355.271654904581
 30
0.0
 10
2573.381017368608
 20
2355.206204370569
 30
0.0
 10
2573.234524858914
 20
2355.038072500479
 30
0.0
 10
2573.016685224798
 20
2354.609072556936
 30
0.0
 10
2572.973451537931
 20
2354.222168078672
 30
0.0
 10
2572.945458561024
 20
2353.971654904575
 30
0.0
  0
ENDSEC
  0
SECTION
  2
OBJECTS
  0
DICTIONARY
  5
C
330
0
100
AcDbDictionary
281
     1
  3
ACAD_GROUP
350
D
  3
ACAD_LAYOUT
350
1A
  3
ACAD_MLINESTYLE
350
17
  3
ACAD_PLOTSETTINGS
350
19
  3
ACAD_PLOTSTYLENAME
350
E
  3
ACAD_SCALELIST
350
47
  3
DWGPROPS
350
2BA
  0
DICTIONARY
  5
D
102
{ACAD_REACTORS
330
C
102
}
330
C
100
AcDbDictionary
281
     1
  0
DICTIONARY
  5
1A
102
{ACAD_REACTORS
330
C
102
}
330
C
100
AcDbDictionary
281
     1
  3
Layout1
350
1E
  3
Layout2
350
26
  3
Model
350
22
  0
DICTIONARY
  5
17
102
{ACAD_REACTORS
330
C
102
}
330
C
100
AcDbDictionary
281
     1
  3
Standard
350
18
  0
DICTIONARY
  5
19
102
{ACAD_REACTORS
330
C
102
}
330
C
100
AcDbDictionary
281
     1
  0
ACDBDICTIONARYWDFLT
  5
E
102
{ACAD_REACTORS
330
C
102
}
330
C
100
AcDbDictionary
281
     1
  3
Normal
350
F
100
AcDbDictionaryWithDefault
340
F
  0
DICTIONARY
  5
47
102
{ACAD_REACTORS
330
C
102
}
330
C
100
AcDbDictionary
281
     1
  3
A0
350
48
  3
A1
350
49
  3
A2
350
4A
  3
A3
350
4B
  3
A4
350
4C
  3
A5
350
4D
  3
A6
350
4E
  3
A7
350
4F
  3
A8
350
50
  3
A9
350
51
  3
B0
350
52
  3
B1
350
53
  3
B2
350
54
  3
B3
350
55
  3
B4
350
56
  3
B5
350
57
  3
B6
350
58
  0
XRECORD
  5
2BA
102
{ACAD_REACTORS
330
C
102
}
330
C
100
AcDbXrecord
280
     1
  1
DWGPROPS COOKIE
  2

  3

  4

  6

  7

  8
b
  9

300
=
301
=
302
=
303
=
304
=
305
=
306
=
307
=
308
=
309
=
 40
0.0
 41
2460383.259323959
 42
2460383.259324259
  1

 90
        0
  0
LAYOUT
  5
1E
102
{ACAD_REACTORS
330
1A
102
}
330
1A
100
AcDbPlotSettings
  1

  2
none_device
  4

  6

 40
0.0
 41
0.0
 42
0.0
 43
0.0
 44
0.0
 45
0.0
 46
0.0
 47
0.0
 48
0.0
 49
0.0
140
0.0
141
0.0
142
1.0
143
1.0
 70
   688
 72
     1
 73
     0
 74
     5
  7

 75
    16
147
1.0
148
0.0
149
0.0
100
AcDbLayout
  1
Layout1
 70
     1
 71
     1
 10
0.0
 20
0.0
 11
420.0
 21
297.0
 12
0.0
 22
0.0
 32
0.0
 14
1.0000000000E+20
 24
1.0000000000E+20
 34
1.0000000000E+20
 15
-1.0000000000E+20
 25
-1.0000000000E+20
 35
-1.0000000000E+20
146
0.0
 13
0.0
 23
0.0
 33
0.0
 16
1.0
 26
0.0
 36
0.0
 17
0.0
 27
1.0
 37
0.0
 76
     0
330
1B
  0
LAYOUT
  5
26
102
{ACAD_REACTORS
330
1A
102
}
330
1A
100
AcDbPlotSettings
  1

  2
none_device
  4

  6

 40
0.0
 41
0.0
 42
0.0
 43
0.0
 44
0.0
 45
0.0
 46
0.0
 47
0.0
 48
0.0
 49
0.0
140
0.0
141
0.0
142
1.0
143
1.0
 70
   688
 72
     1
 73
     0
 74
     5
  7

 75
    16
147
1.0
148
0.0
149
0.0
100
AcDbLayout
  1
Layout2
 70
     1
 71
     2
 10
0.0
 20
0.0
 11
0.0
 21
0.0
 12
0.0
 22
0.0
 32
0.0
 14
0.0
 24
0.0
 34
0.0
 15
0.0
 25
0.0
 35
0.0
146
0.0
 13
0.0
 23
0.0
 33
0.0
 16
1.0
 26
0.0
 36
0.0
 17
0.0
 27
1.0
 37
0.0
 76
     0
330
23
  0
LAYOUT
  5
22
102
{ACAD_REACTORS
330
1A
102
}
330
1A
100
AcDbPlotSettings
  1

  2
none_device
  4
Letter_(8.50_x_11.00_Inches)
  6

 40
6.35
 41
6.35
 42
6.35000508
 43
6.35000508
 44
215.9
 45
279.4
 46
0.0
 47
0.0
 48
0.0
 49
0.0
140
0.0
141
0.0
142
1.0
143
1.0
 70
  1712
 72
     1
 73
     0
 74
     0
  7

 75
     0
147
1.0
148
0.0
149
0.0
100
AcDbLayout
  1
Model
 70
     1
 71
     0
 10
0.0
 20
0.0
 11
5000.0
 21
3500.0
 12
0.0
 22
0.0
 32
0.0
 14
0.0
 24
0.0
 34
0.0
 15
5000.0
 25
3500.0
 35
0.0
146
0.0
 13
0.0
 23
0.0
 33
0.0
 16
1.0
 26
0.0
 36
0.0
 17
0.0
 27
1.0
 37
0.0
 76
     0
330
1F
331
29
  0
MLINESTYLE
  5
18
102
{ACAD_REACTORS
330
17
102
}
330
17
100
AcDbMlineStyle
  2
Standard
 70
     0
  3

 62
   256
 51
90.0
 52
90.0
 71
     2
 49
0.5
 62
   256
  6
BYLAYER
 49
-0.5
 62
   256
  6
BYLAYER
  0
ACDBPLACEHOLDER
  5
F
102
{ACAD_REACTORS
330
E
102
}
330
E
  0
SCALE
  5
48
102
{ACAD_REACTORS
330
47
102
}
330
47
100
AcDbScale
 70
     0
300
1:1
140
1.0
141
1.0
290
     1
  0
SCALE
  5
49
102
{ACAD_REACTORS
330
47
102
}
330
47
100
AcDbScale
 70
     0
300
1:2
140
1.0
141
2.0
290
     0
  0
SCALE
  5
4A
102
{ACAD_REACTORS
330
47
102
}
330
47
100
AcDbScale
 70
     0
300
1:4
140
1.0
141
4.0
290
     0
  0
SCALE
  5
4B
102
{ACAD_REACTORS
330
47
102
}
330
47
100
AcDbScale
 70
     0
300
1:5
140
1.0
141
5.0
290
     0
  0
SCALE
  5
4C
102
{ACAD_REACTORS
330
47
102
}
330
47
100
AcDbScale
 70
     0
300
1:8
140
1.0
141
8.0
290
     0
  0
SCALE
  5
4D
102
{ACAD_REACTORS
330
47
102
}
330
47
100
AcDbScale
 70
     0
300
1:10
140
1.0
141
10.0
290
     0
  0
SCALE
  5
4E
102
{ACAD_REACTORS
330
47
102
}
330
47
100
AcDbScale
 70
     0
300
1:16
140
1.0
141
16.0
290
     0
  0
SCALE
  5
4F
102
{ACAD_REACTORS
330
47
102
}
330
47
100
AcDbScale
 70
     0
300
1:20
140
1.0
141
20.0
290
     0
  0
SCALE
  5
50
102
{ACAD_REACTORS
330
47
102
}
330
47
100
AcDbScale
 70
     0
300
1:30
140
1.0
141
30.0
290
     0
  0
SCALE
  5
51
102
{ACAD_REACTORS
330
47
102
}
330
47
100
AcDbScale
 70
     0
300
1:40
140
1.0
141
40.0
290
     0
  0
SCALE
  5
52
102
{ACAD_REACTORS
330
47
102
}
330
47
100
AcDbScale
 70
     0
300
1:50
140
1.0
141
50.0
290
     0
  0
SCALE
  5
53
102
{ACAD_REACTORS
330
47
102
}
330
47
100
AcDbScale
 70
     0
300
1:100
140
1.0
141
100.0
290
     0
  0
SCALE
  5
54
102
{ACAD_REACTORS
330
47
102
}
330
47
100
AcDbScale
 70
     0
300
2:1
140
2.0
141
1.0
290
     0
  0
SCALE
  5
55
102
{ACAD_REACTORS
330
47
102
}
330
47
100
AcDbScale
 70
     0
300
4:1
140
4.0
141
1.0
290
     0
  0
SCALE
  5
56
102
{ACAD_REACTORS
330
47
102
}
330
47
100
AcDbScale
 70
     0
300
8:1
140
8.0
141
1.0
290
     0
  0
SCALE
  5
57
102
{ACAD_REACTORS
330
47
102
}
330
47
100
AcDbScale
 70
     0
300
10:1
140
10.0
141
1.0
290
     0
  0
SCALE
  5
58
102
{ACAD_REACTORS
330
47
102
}
330
47
100
AcDbScale
 70
     0
300
100:1
140
100.0
141
1.0
290
     0
  0
ENDSEC
  0
EOF
