  0
SECTION
  2
HEADER
  9
$ACADVER
  1
AC1032
  9
$ACADMAINTVER
 90
      327
  9
$DWGCODEPAGE
  3
ANSI_932
  9
$LASTSAVEDBY
  1
HUSR196
  9
$REQUIREDVERSIONS
160
                 0
  9
$INSBASE
 10
0.0
 20
0.0
 30
0.0
  9
$EXTMIN
 10
472.3367112099978
 20
165.7088516276
 30
-0.00000001
  9
$EXTMAX
 10
5166.53609103816
 20
2965.5678091759
 30
0.00000001
  9
$LIMMIN
 10
0.0
 20
0.0
  9
$LIMMAX
 10
5000.0
 20
3500.0
  9
$ORTHOMODE
 70
     0
  9
$REGENMODE
 70
     1
  9
$FILLMODE
 70
     1
  9
$QTEXTMODE
 70
     0
  9
$MIRRTEXT
 70
     1
  9
$LTSCALE
 40
1.0
  9
$ATTMODE
 70
     1
  9
$TEXTSIZE
 40
3.5
  9
$TRACEWID
 40
1.0
  9
$TEXTSTYLE
  7
Standard
  9
$CLAYER
  8
0
  9
$CELTYPE
  6
ByLayer
  9
$CECOLOR
 62
   256
  9
$CELTSCALE
 40
1.0
  9
$DISPSILH
 70
     0
  9
$DIMSCALE
 40
1.0
  9
$DIMASZ
 40
3.302
  9
$DIMEXO
 40
1.0
  9
$DIMDLI
 40
3.75
  9
$DIMRND
 40
0.0
  9
$DIMDLE
 40
0.0
  9
$DIMEXE
 40
1.0
  9
$DIMTP
 40
0.0
  9
$DIMTM
 40
0.0
  9
$DIMTXT
 40
3.5
  9
$DIMCEN
 40
2.5
  9
$DIMTSZ
 40
0.0
  9
$DIMTOL
 70
     0
  9
$DIMLIM
 70
     0
  9
$DIMTIH
 70
     1
  9
$DIMTOH
 70
     1
  9
$DIMSE1
 70
     0
  9
$DIMSE2
 70
     0
  9
$DIMTAD
 70
     1
  9
$DIMZIN
 70
     0
  9
$DIMBLK
  1

  9
$DIMASO
 70
     1
  9
$DIMSHO
 70
     1
  9
$DIMPOST
  1

  9
$DIMAPOST
  1

  9
$DIMALT
 70
     0
  9
$DIMALTD
 70
     3
  9
$DIMALTF
 40
0.0393700787
  9
$DIMLFAC
 40
1.0
  9
$DIMTOFL
 70
     1
  9
$DIMTVP
 40
0.0
  9
$DIMTIX
 70
     0
  9
$DIMSOXD
 70
     0
  9
$DIMSAH
 70
     0
  9
$DIMBLK1
  1

  9
$DIMBLK2
  1

  9
$DIMSTYLE
  2
ISO-25
  9
$DIMCLRD
 70
     0
  9
$DIMCLRE
 70
     0
  9
$DIMCLRT
 70
     0
  9
$DIMTFAC
 40
1.0
  9
$DIMGAP
 40
1.524
  9
$DIMJUST
 70
     0
  9
$DIMSD1
 70
     0
  9
$DIMSD2
 70
     0
  9
$DIMTOLJ
 70
     0
  9
$DIMTZIN
 70
     0
  9
$DIMALTZ
 70
     0
  9
$DIMALTTZ
 70
     0
  9
$DIMUPT
 70
     0
  9
$DIMDEC
 70
     2
  9
$DIMTDEC
 70
     2
  9
$DIMALTU
 70
     2
  9
$DIMALTTD
 70
     3
  9
$DIMTXSTY
  7
Standard
  9
$DIMAUNIT
 70
     0
  9
$DIMADEC
 70
     2
  9
$DIMALTRND
 40
0.0
  9
$DIMAZIN
 70
     0
  9
$DIMDSEP
 70
    44
  9
$DIMATFIT
 70
     3
  9
$DIMFRAC
 70
     0
  9
$DIMLDRBLK
  1

  9
$DIMLUNIT
 70
     2
  9
$DIMLWD
 70
    -2
  9
$DIMLWE
 70
    -2
  9
$DIMTMOVE
 70
     0
  9
$DIMFXL
 40
1.0
  9
$DIMFXLON
 70
     0
  9
$DIMJOGANG
 40
0.7853981633974483
  9
$DIMTFILL
 70
     0
  9
$DIMTFILLCLR
 70
     0
  9
$DIMARCSYM
 70
     0
  9
$DIMLTYPE
  6

  9
$DIMLTEX1
  6

  9
$DIMLTEX2
  6

  9
$DIMTXTDIRECTION
 70
     0
  9
$LUNITS
 70
     2
  9
$LUPREC
 70
     3
  9
$SKETCHINC
 40
1.0
  9
$FILLETRAD
 40
0.0
  9
$AUNITS
 70
     0
  9
$AUPREC
 70
     2
  9
$MENU
  1
.
  9
$ELEVATION
 40
0.0
  9
$PELEVATION
 40
0.0
  9
$THICKNESS
 40
0.0
  9
$LIMCHECK
 70
     0
  9
$CHAMFERA
 40
0.0
  9
$CHAMFERB
 40
0.0
  9
$CHAMFERC
 40
0.0
  9
$CHAMFERD
 40
0.0
  9
$SKPOLY
 70
     0
  9
$TDCREATE
 40
2460383.688680556
  9
$TDUCREATE
 40
2460383.313686563
  9
$TDUPDATE
 40
2460444.381238426
  9
$TDUUPDATE
 40
2460444.006238426
  9
$TDINDWG
 40
0.0022338079
  9
$TDUSRTIMER
 40
0.0022338079
  9
$USRTIMER
 70
     1
  9
$ANGBASE
 50
0.0
  9
$ANGDIR
 70
     0
  9
$PDMODE
 70
     0
  9
$PDSIZE
 40
-1.0
  9
$PLINEWID
 40
0.0
  9
$SPLFRAME
 70
     0
  9
$SPLINETYPE
 70
     6
  9
$SPLINESEGS
 70
     8
  9
$HANDSEED
  5
52C
  9
$SURFTAB1
 70
     6
  9
$SURFTAB2
 70
     6
  9
$SURFTYPE
 70
     6
  9
$SURFU
 70
     6
  9
$SURFV
 70
     6
  9
$UCSBASE
  2

  9
$UCSNAME
  2

  9
$UCSORG
 10
0.0
 20
0.0
 30
0.0
  9
$UCSXDIR
 10
1.0
 20
0.0
 30
0.0
  9
$UCSYDIR
 10
0.0
 20
1.0
 30
0.0
  9
$UCSORTHOREF
  2

  9
$UCSORTHOVIEW
 70
     0
  9
$UCSORGTOP
 10
0.0
 20
0.0
 30
0.0
  9
$UCSORGBOTTOM
 10
0.0
 20
0.0
 30
0.0
  9
$UCSORGLEFT
 10
0.0
 20
0.0
 30
0.0
  9
$UCSORGRIGHT
 10
0.0
 20
0.0
 30
0.0
  9
$UCSORGFRONT
 10
0.0
 20
0.0
 30
0.0
  9
$UCSORGBACK
 10
0.0
 20
0.0
 30
0.0
  9
$PUCSBASE
  2

  9
$PUCSNAME
  2

  9
$PUCSORG
 10
0.0
 20
0.0
 30
0.0
  9
$PUCSXDIR
 10
1.0
 20
0.0
 30
0.0
  9
$PUCSYDIR
 10
0.0
 20
1.0
 30
0.0
  9
$PUCSORTHOREF
  2

  9
$PUCSORTHOVIEW
 70
     0
  9
$PUCSORGTOP
 10
0.0
 20
0.0
 30
0.0
  9
$PUCSORGBOTTOM
 10
0.0
 20
0.0
 30
0.0
  9
$PUCSORGLEFT
 10
0.0
 20
0.0
 30
0.0
  9
$PUCSORGRIGHT
 10
0.0
 20
0.0
 30
0.0
  9
$PUCSORGFRONT
 10
0.0
 20
0.0
 30
0.0
  9
$PUCSORGBACK
 10
0.0
 20
0.0
 30
0.0
  9
$USERI1
 70
     0
  9
$USERI2
 70
     0
  9
$USERI3
 70
     0
  9
$USERI4
 70
     0
  9
$USERI5
 70
     0
  9
$USERR1
 40
0.0
  9
$USERR2
 40
0.0
  9
$USERR3
 40
0.0
  9
$USERR4
 40
0.0
  9
$USERR5
 40
0.0
  9
$WORLDVIEW
 70
     1
  9
$SHADEDGE
 70
     3
  9
$SHADEDIF
 70
    70
  9
$TILEMODE
 70
     1
  9
$MAXACTVP
 70
    64
  9
$PINSBASE
 10
0.0
 20
0.0
 30
0.0
  9
$PLIMCHECK
 70
     0
  9
$PEXTMIN
 10
1.000000000000000E+20
 20
1.000000000000000E+20
 30
1.000000000000000E+20
  9
$PEXTMAX
 10
-1.000000000000000E+20
 20
-1.000000000000000E+20
 30
-1.000000000000000E+20
  9
$PLIMMIN
 10
0.0
 20
0.0
  9
$PLIMMAX
 10
420.0
 20
297.0
  9
$UNITMODE
 70
     0
  9
$VISRETAIN
 70
     1
  9
$PLINEGEN
 70
     0
  9
$PSLTSCALE
 70
     1
  9
$TREEDEPTH
 70
  3020
  9
$CMLSTYLE
  2
Standard
  9
$CMLJUST
 70
     0
  9
$CMLSCALE
 40
20.0
  9
$PROXYGRAPHICS
 70
     1
  9
$MEASUREMENT
 70
     1
  9
$CELWEIGHT
370
    -1
  9
$ENDCAPS
280
     0
  9
$JOINSTYLE
280
     0
  9
$LWDISPLAY
290
     1
  9
$INSUNITS
 70
     4
  9
$HYPERLINKBASE
  1

  9
$STYLESHEET
  1

  9
$XEDIT
290
     1
  9
$CEPSNTYPE
380
     0
  9
$PSTYLEMODE
290
     1
  9
$FINGERPRINTGUID
  2
{324D7E87-2F3A-4EC2-AABF-08019988F972}
  9
$VERSIONGUID
  2
{90C00173-3D06-7A4C-8DA4-62FBD2B0D090}
  9
$EXTNAMES
290
     1
  9
$PSVPSCALE
 40
0.0
  9
$OLESTARTUP
290
     0
  9
$SORTENTS
280
   127
  9
$INDEXCTL
280
     0
  9
$HIDETEXT
280
     0
  9
$XCLIPFRAME
280
     2
  9
$HALOGAP
280
     0
  9
$OBSCOLOR
 70
   257
  9
$OBSLTYPE
280
     0
  9
$INTERSECTIONDISPLAY
280
     0
  9
$INTERSECTIONCOLOR
 70
   257
  9
$DIMASSOC
280
     1
  9
$PROJECTNAME
  1

  9
$CAMERADISPLAY
290
     0
  9
$LENSLENGTH
 40
50.0
  9
$CAMERAHEIGHT
 40
0.0
  9
$STEPSPERSEC
 40
2.0
  9
$STEPSIZE
 40
6.0
  9
$3DDWFPREC
 40
2.0
  9
$PSOLWIDTH
 40
0.25
  9
$PSOLHEIGHT
 40
4.0
  9
$LOFTANG1
 40
1.570796326794896
  9
$LOFTANG2
 40
1.570796326794896
  9
$LOFTMAG1
 40
0.0
  9
$LOFTMAG2
 40
0.0
  9
$LOFTPARAM
 70
     7
  9
$LOFTNORMALS
280
     1
  9
$LATITUDE
 40
37.795
  9
$LONGITUDE
 40
-122.394
  9
$NORTHDIRECTION
 40
0.0
  9
$TIMEZONE
 70
 -8000
  9
$LIGHTGLYPHDISPLAY
280
     1
  9
$TILEMODELIGHTSYNCH
280
     1
  9
$CMATERIAL
347
27F
  9
$SOLIDHIST
280
     0
  9
$SHOWHIST
280
     1
  9
$DWFFRAME
280
     2
  9
$DGNFRAME
280
     0
  9
$REALWORLDSCALE
290
     1
  9
$INTERFERECOLOR
 62
     1
  9
$INTERFEREOBJVS
345
2A1
  9
$INTERFEREVPVS
346
29E
  9
$CSHADOW
280
     0
  9
$SHADOWPLANELOCATION
 40
0.0
  0
ENDSEC
  0
SECTION
  2
CLASSES
  0
CLASS
  1
ACDBDICTIONARYWDFLT
  2
AcDbDictionaryWithDefault
  3
ObjectDBX Classes
 90
        0
 91
        1
280
     0
281
     0
  0
CLASS
  1
VISUALSTYLE
  2
AcDbVisualStyle
  3
ObjectDBX Classes
 90
     4095
 91
       24
280
     0
281
     0
  0
CLASS
  1
MATERIAL
  2
AcDbMaterial
  3
ObjectDBX Classes
 90
     1153
 91
        3
280
     0
281
     0
  0
CLASS
  1
SCALE
  2
AcDbScale
  3
ObjectDBX Classes
 90
     1153
 91
       17
280
     0
281
     0
  0
CLASS
  1
TABLESTYLE
  2
AcDbTableStyle
  3
ObjectDBX Classes
 90
     4095
 91
        1
280
     0
281
     0
  0
CLASS
  1
MLEADERSTYLE
  2
AcDbMLeaderStyle
  3
ACDB_MLEADERSTYLE_CLASS
 90
     4095
 91
        1
280
     0
281
     0
  0
CLASS
  1
SUN
  2
AcDbSun
  3
SCENEOE
 90
     1153
 91
        0
280
     0
281
     0
  0
CLASS
  1
ACDBSECTIONVIEWSTYLE
  2
AcDbSectionViewStyle
  3
ObjectDBX Classes
 90
     1025
 91
        1
280
     0
281
     0
  0
CLASS
  1
ACDBDETAILVIEWSTYLE
  2
AcDbDetailViewStyle
  3
ObjectDBX Classes
 90
     1025
 91
        1
280
     0
281
     0
  0
CLASS
  1
DICTIONARYVAR
  2
AcDbDictionaryVar
  3
ObjectDBX Classes
 90
        0
 91
        9
280
     0
281
     0
  0
CLASS
  1
CELLSTYLEMAP
  2
AcDbCellStyleMap
  3
ObjectDBX Classes
 90
     1152
 91
        1
280
     0
281
     0
  0
ENDSEC
  0
SECTION
  2
TABLES
  0
TABLE
  2
VPORT
  5
8
330
0
100
AcDbSymbolTable
 70
     1
  0
VPORT
  5
29
330
8
100
AcDbSymbolTableRecord
100
AcDbViewportTableRecord
  2
*Active
 70
     0
 10
0.0
 20
0.0
 11
1.0
 21
1.0
 12
3164.25923177727
 22
1528.260061581932
 13
0.0
 23
0.0
 14
10.0
 24
10.0
 15
10.0
 25
10.0
 16
0.0
 26
0.0
 36
1.0
 17
0.0
 27
0.0
 37
0.0
 40
3550.388917107316
 41
2.337009803921568
 42
50.0
 43
0.0
 44
0.0
 50
0.0
 51
0.0
 71
     0
 72
  2000
 73
     1
 74
     3
 75
     0
 76
     0
 77
     0
 78
     0
281
     0
 65
     1
110
0.0
120
0.0
130
0.0
111
1.0
121
0.0
131
0.0
112
0.0
122
1.0
132
0.0
 79
     0
146
0.0
348
29D
 60
     3
 61
     5
292
     1
282
     1
141
0.0
142
0.0
 63
   250
421
  3355443
1001
ACAD_NAV_VCDISPLAY
1070
     3
  0
ENDTAB
  0
TABLE
  2
LTYPE
  5
5
330
0
100
AcDbSymbolTable
 70
     8
  0
LTYPE
  5
14
330
5
100
AcDbSymbolTableRecord
100
AcDbLinetypeTableRecord
  2
ByBlock
 70
     0
  3

 72
    65
 73
     0
 40
0.0
  0
LTYPE
  5
15
330
5
100
AcDbSymbolTableRecord
100
AcDbLinetypeTableRecord
  2
ByLayer
 70
     0
  3

 72
    65
 73
     0
 40
0.0
  0
LTYPE
  5
16
330
5
100
AcDbSymbolTableRecord
100
AcDbLinetypeTableRecord
  2
Continuous
 70
     0
  3
Solid line
 72
    65
 73
     0
 40
0.0
  0
LTYPE
  5
5E
330
5
100
AcDbSymbolTableRecord
100
AcDbLinetypeTableRecord
  2
HIDDEN
 70
     0
  3
Hidden __ __ __ __ __ __ __ __ __ __ __ __ __ __
 72
    65
 73
     2
 40
1.905
 49
1.27
 74
     0
 49
-0.635
 74
     0
  0
LTYPE
  5
5F
330
5
100
AcDbSymbolTableRecord
100
AcDbLinetypeTableRecord
  2
PHANTOM
 70
     0
  3
Phantom ______  __  __  ______  __  __  ______
 72
    65
 73
     6
 40
12.7
 49
6.349999999999999
 74
     0
 49
-1.27
 74
     0
 49
1.27
 74
     0
 49
-1.27
 74
     0
 49
1.27
 74
     0
 49
-1.27
 74
     0
  0
LTYPE
  5
60
330
5
100
AcDbSymbolTableRecord
100
AcDbLinetypeTableRecord
  2
CENTER
 70
     0
  3
Center ____ _ ____ _ ____ _ ____ _ ____ _ ____
 72
    65
 73
     4
 40
10.16
 49
6.349999999999999
 74
     0
 49
-1.27
 74
     0
 49
1.27
 74
     0
 49
-1.27
 74
     0
  0
LTYPE
  5
61
330
5
100
AcDbSymbolTableRecord
100
AcDbLinetypeTableRecord
  2
CENTERX2
 70
     0
  3
Center (2x) ________  __  ________  __  _____
 72
    65
 73
     4
 40
20.32
 49
12.7
 74
     0
 49
-2.54
 74
     0
 49
2.54
 74
     0
 49
-2.54
 74
     0
  0
LTYPE
  5
62
330
5
100
AcDbSymbolTableRecord
100
AcDbLinetypeTableRecord
  2
DOT2
 70
     0
  3
Dot (.5x) ........................................
 72
    65
 73
     2
 40
0.635
 49
0.0
 74
     0
 49
-0.635
 74
     0
  0
ENDTAB
  0
TABLE
  2
LAYER
  5
2
330
0
100
AcDbSymbolTable
 70
     3
  0
LAYER
  5
10
102
{ACAD_XDICTIONARY
360
519
102
}
330
2
100
AcDbSymbolTableRecord
100
AcDbLayerTableRecord
  2
0
 70
     0
 62
     7
  6
Continuous
370
    -3
390
F
347
28F
348
0
  0
LAYER
  5
63
102
{ACAD_XDICTIONARY
360
51B
102
}
330
2
100
AcDbSymbolTableRecord
100
AcDbLayerTableRecord
  2
SLD-0
 70
     0
 62
   179
  6
Continuous
370
    -3
390
F
347
28F
348
0
  0
LAYER
  5
64
102
{ACAD_XDICTIONARY
360
51D
102
}
330
2
100
AcDbSymbolTableRecord
100
AcDbLayerTableRecord
  2
寸法
 70
     0
 62
   179
  6
Continuous
370
    -3
390
F
347
28F
348
0
  0
ENDTAB
  0
TABLE
  2
STYLE
  5
3
330
0
100
AcDbSymbolTable
 70
     2
  0
STYLE
  5
11
330
3
100
AcDbSymbolTableRecord
100
AcDbTextStyleTableRecord
  2
Standard
 70
     0
 40
0.0
 41
1.0
 50
0.0
 71
     0
 42
3.5
  3
txt
  4
bigfont
  0
STYLE
  5
66
330
3
100
AcDbSymbolTableRecord
100
AcDbTextStyleTableRecord
  2
SLDTEXTSTYLE0
 70
     0
 40
0.0
 41
0.75
 50
0.0
 71
     0
 42
3.5
  3
TXT
  4
bigfont
  0
ENDTAB
  0
TABLE
  2
VIEW
  5
6
330
0
100
AcDbSymbolTable
 70
     0
  0
ENDTAB
  0
TABLE
  2
UCS
  5
7
330
0
100
AcDbSymbolTable
 70
     0
  0
ENDTAB
  0
TABLE
  2
APPID
  5
9
330
0
100
AcDbSymbolTable
 70
     3
  0
APPID
  5
12
330
9
100
AcDbSymbolTableRecord
100
AcDbRegAppTableRecord
  2
ACAD
 70
     0
  0
APPID
  5
2BD
330
9
100
AcDbSymbolTableRecord
100
AcDbRegAppTableRecord
  2
ACAD_EXEMPT_FROM_CAD_STANDARDS
 70
     0
  0
APPID
  5
2C5
330
9
100
AcDbSymbolTableRecord
100
AcDbRegAppTableRecord
  2
ACAD_NAV_VCDISPLAY
 70
     0
  0
ENDTAB
  0
TABLE
  2
DIMSTYLE
  5
A
330
0
100
AcDbSymbolTable
 70
     2
100
AcDbDimStyleTable
 71
     1
340
27
  0
DIMSTYLE
105
27
330
A
100
AcDbSymbolTableRecord
100
AcDbDimStyleTableRecord
  2
ISO-25
 70
     0
 41
2.5
 42
0.625
 43
3.75
 44
1.25
 73
     0
 74
     0
 77
     1
 78
     8
140
2.5
141
2.5
143
0.0393700787
147
0.625
171
     3
172
     1
271
     2
272
     2
274
     3
278
    44
283
     0
284
     8
340
11
  0
ENDTAB
  0
TABLE
  2
BLOCK_RECORD
  5
1
330
0
100
AcDbSymbolTable
 70
     3
  0
BLOCK_RECORD
  5
1F
330
1
100
AcDbSymbolTableRecord
100
AcDbBlockTableRecord
  2
*Model_Space
340
22
 70
     0
280
     1
281
     0
  0
BLOCK_RECORD
  5
1B
330
1
100
AcDbSymbolTableRecord
100
AcDbBlockTableRecord
  2
*Paper_Space
340
1E
 70
     0
280
     1
281
     0
  0
BLOCK_RECORD
  5
23
330
1
100
AcDbSymbolTableRecord
100
AcDbBlockTableRecord
  2
*Paper_Space0
340
26
 70
     0
280
     1
281
     0
  0
ENDTAB
  0
ENDSEC
  0
SECTION
  2
BLOCKS
  0
BLOCK
  5
20
330
1F
100
AcDbEntity
  8
0
100
AcDbBlockBegin
  2
*Model_Space
 70
     0
 10
0.0
 20
0.0
 30
0.0
  3
*Model_Space
  1

  0
ENDBLK
  5
21
330
1F
100
AcDbEntity
  8
0
100
AcDbBlockEnd
  0
BLOCK
  5
1C
330
1B
100
AcDbEntity
 67
     1
  8
0
100
AcDbBlockBegin
  2
*Paper_Space
 70
     0
 10
0.0
 20
0.0
 30
0.0
  3
*Paper_Space
  1

  0
ENDBLK
  5
1D
330
1B
100
AcDbEntity
 67
     1
  8
0
100
AcDbBlockEnd
  0
BLOCK
  5
24
330
23
100
AcDbEntity
 67
     1
  8
0
100
AcDbBlockBegin
  2
*Paper_Space0
 70
     0
 10
0.0
 20
0.0
 30
0.0
  3
*Paper_Space0
  1

  0
ENDBLK
  5
25
330
23
100
AcDbEntity
 67
     1
  8
0
100
AcDbBlockEnd
  0
ENDSEC
  0
SECTION
  2
ENTITIES
  0
LINE
  5
65
330
1F
100
AcDbEntity
  8
0
  6
Continuous
 62
     7
370
    18
100
AcDbLine
 10
4801.663086451
 20
279.1403827252
 30
0.0
 11
3345.9062220501
 21
279.1403827252
 31
0.0
  0
MTEXT
  5
67
330
1F
100
AcDbEntity
  8
0
  6
Continuous
 62
     7
370
     0
100
AcDbMText
 10
1762.8324799637
 20
1989.2846179971
 30
0.0
 40
52.9166666667
 41
0.0
 46
0.0
 71
     1
 72
     1
  1
＜正面＞
  7
SLDTEXTSTYLE0
 73
     1
 44
1.0
  0
MTEXT
  5
68
330
1F
100
AcDbEntity
  8
0
  6
Continuous
 62
     7
370
     0
100
AcDbMText
 10
3377.8142431891
 20
379.4057208633999
 30
0.0
 40
52.9166666667
 41
0.0
 46
0.0
 71
     1
 72
     1
  1
品名：
  7
SLDTEXTSTYLE0
 73
     1
 44
1.0
  0
MTEXT
  5
69
330
1F
100
AcDbEntity
  8
0
  6
Continuous
 62
     7
370
     0
100
AcDbMText
 10
4446.663437481699
 20
385.2343854145
 30
0.0
 40
52.9166666667
 41
0.0
 46
0.0
 71
     1
 72
     1
  1
Pamouna
  7
SLDTEXTSTYLE0
 73
     1
 44
1.0
  0
MTEXT
  5
6A
330
1F
100
AcDbEntity
  8
寸法
 62
     7
100
AcDbMText
 10
4688.0073048854
 20
218.6255182943
 30
0.0
 40
52.9166666667
 41
0.0
 46
0.0
 71
     1
 72
     1
  1
1/1
  7
SLDTEXTSTYLE0
 73
     1
 44
1.0
  0
MTEXT
  5
6B
330
1F
100
AcDbEntity
  8
寸法
 62
     7
100
AcDbMText
 10
3611.2831293492
 20
398.3924235142
 30
0.0
 40
66.1458333333
 41
0.0
 46
0.0
 71
     1
 72
     1
  1
MAG43UL
  7
SLDTEXTSTYLE0
 73
     1
 44
1.0
  0
MTEXT
  5
6C
330
1F
100
AcDbEntity
  8
寸法
 62
     7
100
AcDbMText
 10
4198.7969392118
 20
218.6255210883
 30
0.0
 40
52.9166666667
 41
0.0
 46
0.0
 71
     1
 72
     1
  1
2024/03/13
  7
SLDTEXTSTYLE0
 73
     1
 44
1.0
  0
MTEXT
  5
6D
330
1F
100
AcDbEntity
  8
寸法
 62
     7
100
AcDbMText
 10
3972.4665930518
 20
2002.9002064516
 30
0.0
 40
52.9166666667
 41
0.0
 46
0.0
 71
     1
 72
     1
  1
＜右側面＞
  7
SLDTEXTSTYLE0
 73
     1
 44
1.0
  0
MTEXT
  5
6E
330
1F
100
AcDbEntity
  8
0
  6
Continuous
 62
     7
370
     0
100
AcDbMText
 10
669.5723251208
 20
1997.9509737295
 30
0.0
 40
52.9166666667
 41
0.0
 46
0.0
 71
     1
 72
     1
  1
＜左側面＞
  7
SLDTEXTSTYLE0
 73
     1
 44
1.0
  0
MTEXT
  5
6F
330
1F
100
AcDbEntity
  8
0
  6
Continuous
 62
     7
370
     0
100
AcDbMText
 10
1765.2858929776
 20
2965.567809175901
 30
0.0
 40
52.9166666667
 41
0.0
 46
0.0
 71
     1
 72
     1
  1
＜上面＞
  7
SLDTEXTSTYLE0
 73
     1
 44
1.0
  0
ARC
  5
70
330
1F
100
AcDbEntity
  8
0
  6
Continuous
 62
     7
370
    25
100
AcDbCircle
 10
2582.7454585654
 20
1417.0543978663
 30
0.0
 40
0.2000000000000455
100
AcDbArc
 50
0.0
 51
90.0
  0
LINE
  5
71
330
1F
100
AcDbEntity
  8
0
  6
Continuous
 62
     7
370
    25
100
AcDbLine
 10
2582.7454585654
 20
1417.2543978663
 30
0.0
 11
2580.945458565401
 21
1417.2543978663
 31
0.0
  0
LINE
  5
72
330
1F
100
AcDbEntity
  8
0
  6
Continuous
 62
     7
370
    25
100
AcDbLine
 10
2580.945458565401
 20
1417.2543978663
 30
0.0
 11
2188.9454585653
 21
1417.2543978663
 31
0.0
  0
ARC
  5
73
330
1F
100
AcDbEntity
  8
0
  6
Continuous
 62
     7
370
    25
100
AcDbCircle
 10
2187.1454585654
 20
1417.0543978663
 30
0.0
 40
0.2000000000002728
100
AcDbArc
 50
90.0
 51
180.0
  0
LINE
  5
74
330
1F
100
AcDbEntity
  8
0
  6
Continuous
 62
     7
370
    25
100
AcDbLine
 10
2188.9454585653
 20
1417.2543978663
 30
0.0
 11
2187.1454585653
 21
1417.2543978663
 31
0.0
  0
LINE
  5
75
330
1F
100
AcDbEntity
  8
0
  6
Continuous
 62
     7
370
    25
100
AcDbLine
 10
2186.9454585654
 20
986.7543978663
 30
0.0
 11
2582.9454585654
 21
986.7543978663
 31
0.0
  0
LINE
  5
76
330
1F
100
AcDbEntity
  8
0
  6
Continuous
 62
     7
370
    25
100
AcDbLine
 10
2582.9454585654
 20
1416.7543978663
 30
0.0
 11
2186.9454585654
 21
1416.7543978663
 31
0.0
  0
LINE
  5
77
330
1F
100
AcDbEntity
  8
0
  6
Continuous
 62
     7
370
    25
100
AcDbLine
 10
2582.9454585654
 20
986.7543978663
 30
0.0
 11
2582.9454585654
 21
1416.7543978663
 31
0.0
  0
LINE
  5
78
330
1F
100
AcDbEntity
  8
0
  6
Continuous
 62
     7
370
    25
100
AcDbLine
 10
2186.9454585654
 20
1416.7543978663
 30
0.0
 11
2186.9454585654
 21
986.7543978663
 31
0.0
  0
LINE
  5
79
330
1F
100
AcDbEntity
  8
0
  6
Continuous
 62
     7
370
    25
100
AcDbLine
 10
2566.445458565401
 20
977.7543978663
 30
0.0
 11
2202.9454585654
 21
977.7543978663
 31
0.0
  0
LINE
  5
7A
330
1F
100
AcDbEntity
  8
0
  6
Continuous
 62
     7
370
    25
100
AcDbLine
 10
2584.9454585654
 20
1398.2543978663
 30
0.0
 11
2582.9454585654
 21
1398.2543978663
 31
0.0
  0
LINE
  5
7B
330
1F
100
AcDbEntity
  8
0
  6
Continuous
 62
     7
370
    25
100
AcDbLine
 10
2186.9454585654
 20
1398.2543978663
 30
0.0
 11
2184.4454585654
 21
1398.2543978663
 31
0.0
  0
LINE
  5
7C
330
1F
100
AcDbEntity
  8
0
  6
Continuous
 62
     7
370
    25
100
AcDbLine
 10
2584.9454585654
 20
1426.7543978663
 30
0.0
 11
2584.9454585654
 21
1398.2543978663
 31
0.0
  0
LINE
  5
7D
330
1F
100
AcDbEntity
  8
0
  6
Continuous
 62
     7
370
    25
100
AcDbLine
 10
2184.4454585654
 20
1426.7543978663
 30
0.0
 11
2184.4454585654
 21
1398.2543978663
 31
0.0
  0
LINE
  5
7E
330
1F
100
AcDbEntity
  8
0
  6
Continuous
 62
     7
370
    25
100
AcDbLine
 10
2584.9454585654
 20
1426.7543978663
 30
0.0
 11
2184.4454585654
 21
1426.7543978663
 31
0.0
  0
LINE
  5
7F
330
1F
100
AcDbEntity
  8
0
  6
Continuous
 62
     7
370
    25
100
AcDbLine
 10
2566.445458565401
 20
986.7543978663
 30
0.0
 11
2566.445458565401
 21
976.7543978662999
 31
0.0
  0
LINE
  5
80
330
1F
100
AcDbEntity
  8
0
  6
Continuous
 62
     7
370
    25
100
AcDbLine
 10
2566.445458565401
 20
976.7543978662999
 30
0.0
 11
2583.945458565401
 21
976.7543978662999
 31
0.0
  0
LINE
  5
81
330
1F
100
AcDbEntity
  8
0
  6
Continuous
 62
     7
370
    25
100
AcDbLine
 10
2583.945458565401
 20
976.7543978662999
 30
0.0
 11
2583.945458565401
 21
1398.2543978663
 31
0.0
  0
LINE
  5
82
330
1F
100
AcDbEntity
  8
0
  6
Continuous
 62
     7
370
    25
100
AcDbLine
 10
2202.9454585654
 20
976.7543978662999
 30
0.0
 11
2202.9454585654
 21
986.7543978663
 31
0.0
  0
LINE
  5
83
330
1F
100
AcDbEntity
  8
0
  6
Continuous
 62
     7
370
    25
100
AcDbLine
 10
2185.4454585654
 20
1398.2543978663
 30
0.0
 11
2185.4454585654
 21
976.7543978662999
 31
0.0
  0
LINE
  5
84
330
1F
100
AcDbEntity
  8
0
  6
Continuous
 62
     7
370
    25
100
AcDbLine
 10
2185.4454585654
 20
976.7543978662999
 30
0.0
 11
2202.9454585654
 21
976.7543978662999
 31
0.0
  0
LINE
  5
85
330
1F
100
AcDbEntity
  8
0
  6
Continuous
 62
     7
370
    25
100
AcDbLine
 10
2582.9454585654
 20
1417.0432491446
 30
0.0
 11
2582.9454585654
 21
1416.9543978663
 31
0.0
  0
SPLINE
  5
86
330
1F
100
AcDbEntity
  8
0
  6
Continuous
 62
     7
370
    25
100
AcDbSpline
210
0.0
220
0.0
230
1.0
 70
     8
 71
     3
 72
    13
 73
     9
 74
     0
 42
0.00000001
 43
0.0000000001
 40
0.0
 40
0.0
 40
0.0
 40
0.0
 40
0.0075029974113272
 40
0.3818974549663208
 40
0.6070018873270802
 40
0.7653769096342315
 40
0.8824605049809679
 40
1.0
 40
1.0
 40
1.0
 40
1.0
 10
2582.945458565365
 20
1416.954397866314
 30
0.0
 10
2582.945457609762
 20
1416.953959868419
 30
0.0
 10
2582.945408970145
 20
1416.931666074048
 30
0.0
 10
2582.939286865407
 20
1416.884781685835
 30
0.0
 10
2582.897270759933
 20
1416.818497248798
 30
0.0
 10
2582.848459957967
 20
1416.780235689625
 30
0.0
 10
2582.797729310652
 20
1416.75847991389
 30
0.0
 10
2582.762904703201
 20
1416.75576031034
 30
0.0
 10
2582.745458565366
 20
1416.754397866314
 30
0.0
  0
LINE
  5
87
330
1F
100
AcDbEntity
  8
0
  6
Continuous
 62
     7
370
    25
100
AcDbLine
 10
2582.7454585654
 20
1416.7543978663
 30
0.0
 11
2582.7454585654
 21
1417.2404619641
 31
0.0
  0
ARC
  5
88
330
1F
100
AcDbEntity
  8
0
  6
Continuous
 62
     7
370
    25
100
AcDbCircle
 10
2582.7468424451
 20
1417.0418457066
 30
0.0
 40
0.1986210785917168
100
AcDbArc
 50
0.4048499760000001
 51
90.39920793479998
  0
LINE
  5
89
330
1F
100
AcDbEntity
  8
0
  6
Continuous
 62
     7
370
    25
100
AcDbLine
 10
2580.945458565401
 20
1417.2404619641
 30
0.0
 11
2580.945458565401
 21
1416.7543978663
 31
0.0
  0
LINE
  5
8A
330
1F
100
AcDbEntity
  8
0
  6
Continuous
 62
     7
370
    25
100
AcDbLine
 10
2582.7454585654
 20
1417.2404619641
 30
0.0
 11
2580.945458565401
 21
1417.2404619641
 31
0.0
  0
LINE
  5
8B
330
1F
100
AcDbEntity
  8
0
  6
Continuous
 62
     7
370
    25
100
AcDbLine
 10
2582.9454585654
 20
1417.0543978663
 30
0.0
 11
2582.9454585654
 21
1417.0432491446
 31
0.0
  0
LINE
  5
8C
330
1F
100
AcDbEntity
  8
0
  6
Continuous
 62
     7
370
    25
100
AcDbLine
 10
2580.945458565401
 20
1417.2543978663
 30
0.0
 11
2580.945458565401
 21
1417.2404619641
 31
0.0
  0
LINE
  5
8D
330
1F
100
AcDbEntity
  8
0
  6
Continuous
 62
     7
370
    25
100
AcDbLine
 10
2582.9454585654
 20
1416.9543978663
 30
0.0
 11
2582.9454585654
 21
1416.7543978663
 31
0.0
  0
LINE
  5
8E
330
1F
100
AcDbEntity
  8
0
  6
Continuous
 62
     7
370
    25
100
AcDbLine
 10
2580.945458565401
 20
1417.2404619641
 30
0.0
 11
2188.945458565401
 21
1417.2404619641
 31
0.0
  0
LINE
  5
8F
330
1F
100
AcDbEntity
  8
0
  6
Continuous
 62
     7
370
    25
100
AcDbLine
 10
2188.945458565401
 20
1416.7543978663
 30
0.0
 11
2188.945458565401
 21
1417.2404619641
 31
0.0
  0
LINE
  5
90
330
1F
100
AcDbEntity
  8
0
  6
Continuous
 62
     7
370
    25
100
AcDbLine
 10
2188.945458565401
 20
1417.2404619641
 30
0.0
 11
2188.945458565401
 21
1417.2543978663
 31
0.0
  0
LINE
  5
91
330
1F
100
AcDbEntity
  8
0
  6
Continuous
 62
     7
370
    25
100
AcDbLine
 10
2186.9454585654
 20
1416.9543978663
 30
0.0
 11
2186.9454585654
 21
1417.0432491446
 31
0.0
  0
ARC
  5
92
330
1F
100
AcDbEntity
  8
0
  6
Continuous
 62
     7
370
    25
100
AcDbCircle
 10
2187.1440746856
 20
1417.0418457066
 30
0.0
 40
0.1986210785917168
100
AcDbArc
 50
89.60079206520001
 51
179.595150024
  0
LINE
  5
93
330
1F
100
AcDbEntity
  8
0
  6
Continuous
 62
     7
370
    25
100
AcDbLine
 10
2187.1454585654
 20
1417.2404619641
 30
0.0
 11
2187.1454585654
 21
1416.7543978663
 31
0.0
  0
SPLINE
  5
94
330
1F
100
AcDbEntity
  8
0
  6
Continuous
 62
     7
370
    25
100
AcDbSpline
210
0.0
220
0.0
230
1.0
 70
     8
 71
     3
 72
    13
 73
     9
 74
     0
 42
0.00000001
 43
0.0000000001
 40
0.0
 40
0.0
 40
0.0
 40
0.0
 40
0.0075029974113244
 40
0.3818974549657635
 40
0.6070018873267113
 40
0.7653769096342122
 40
0.8824605049805246
 40
1.0
 40
1.0
 40
1.0
 40
1.0
 10
2186.945458565359
 20
1416.954397866314
 30
0.0
 10
2186.945459520963
 20
1416.953959868419
 30
0.0
 10
2186.945508160575
 20
1416.931666074048
 30
0.0
 10
2186.951630265318
 20
1416.884781685835
 30
0.0
 10
2186.993646370791
 20
1416.818497248798
 30
0.0
 10
2187.042457172757
 20
1416.780235689625
 30
0.0
 10
2187.093187820072
 20
1416.75847991389
 30
0.0
 10
2187.128012427523
 20
1416.755760310341
 30
0.0
 10
2187.145458565359
 20
1416.754397866314
 30
0.0
  0
LINE
  5
95
330
1F
100
AcDbEntity
  8
0
  6
Continuous
 62
     7
370
    25
100
AcDbLine
 10
2188.945458565401
 20
1417.2404619641
 30
0.0
 11
2187.1454585654
 21
1417.2404619641
 31
0.0
  0
LINE
  5
96
330
1F
100
AcDbEntity
  8
0
  6
Continuous
 62
     7
370
    25
100
AcDbLine
 10
2186.9454585654
 20
1417.0432491446
 30
0.0
 11
2186.9454585654
 21
1417.0543978663
 31
0.0
  0
LINE
  5
97
330
1F
100
AcDbEntity
  8
0
  6
Continuous
 62
     7
370
    25
100
AcDbLine
 10
2186.9454585654
 20
1416.7543978663
 30
0.0
 11
2186.9454585654
 21
1416.9543978663
 31
0.0
  0
LINE
  5
98
330
1F
100
AcDbEntity
  8
0
  6
Continuous
 62
     7
370
    25
100
AcDbLine
 10
2582.7454585654
 20
1417.2404619641
 30
0.0
 11
2582.7454585654
 21
1417.2543978663
 31
0.0
  0
LINE
  5
99
330
1F
100
AcDbEntity
  8
0
  6
Continuous
 62
     7
370
    25
100
AcDbLine
 10
2187.1454585654
 20
1417.2543978663
 30
0.0
 11
2187.1454585654
 21
1417.2404619641
 31
0.0
  0
SPLINE
  5
1CD
330
1F
100
AcDbEntity
  8
0
  6
Continuous
 62
     7
370
    25
100
AcDbSpline
210
0.0
220
0.0
230
1.0
 70
     8
 71
     3
 72
    16
 73
    12
 74
     0
 42
0.00000001
 43
0.0000000001
 40
0.0
 40
0.0
 40
0.0
 40
0.0
 40
0.0490847390187415
 40
0.1518473045647022
 40
0.2358684990992584
 40
0.3090519161655172
 40
0.3734786142110905
 40
0.4370328180328247
 40
0.5258016248251351
 40
0.7068629655468506
 40
1.0
 40
1.0
 40
1.0
 40
1.0
 10
2231.425074168674
 20
2753.66474910927
 30
0.0
 10
2231.429765765407
 20
2753.730939501491
 30
0.0
 10
2231.444279570157
 20
2753.935704421254
 30
0.0
 10
2231.317101818785
 20
2754.239921080901
 30
0.0
 10
2231.112885409261
 20
2754.515984719922
 30
0.0
 10
2230.891873803394
 20
2754.689323194562
 30
0.0
 10
2230.700107235651
 20
2754.786327207064
 30
0.0
 10
2230.542893347467
 20
2754.840400572422
 30
0.0
 10
2230.377542172414
 20
2754.879033393793
 30
0.0
 10
2230.181828237488
 20
2754.908770279313
 30
0.0
 10
2229.954213845381
 20
2754.925985948585
 30
0.0
 10
2229.813508580678
 20
2754.93662822511
 30
0.0
  0
SPLINE
  5
1CE
330
1F
100
AcDbEntity
  8
0
  6
Continuous
 62
     7
370
    25
100
AcDbSpline
210
0.0
220
0.0
230
1.0
 70
     8
 71
     3
 72
    14
 73
    10
 74
     0
 42
0.00000001
 43
0.0000000001
 40
0.0
 40
0.0
 40
0.0
 40
0.0
 40
0.4380448777707909
 40
0.5889072021156289
 40
0.6648524542794869
 40
0.750529107191756
 40
0.851703055668114
 40
0.9620267314756159
 40
1.0
 40
1.0
 40
1.0
 40
1.0
 10
2213.029691039082
 20
2754.935504543183
 30
0.0
 10
2212.857587419203
 20
2754.920813519865
 30
0.0
 10
2212.626211442904
 20
2754.901062919235
 30
0.0
 10
2212.326901395451
 20
2754.840915253045
 30
0.0
 10
2212.053382146907
 20
2754.724397548354
 30
0.0
 10
2211.789180317122
 20
2754.534471220178
 30
0.0
 10
2211.560956382529
 20
2754.221975085901
 30
0.0
 10
2211.4369103925
 20
2753.90001010072
 30
0.0
 10
2211.458389890538
 20
2753.704696279348
 30
0.0
 10
2211.463889981928
 20
2753.654683757384
 30
0.0
  0
LINE
  5
1CF
330
1F
100
AcDbEntity
  8
0
  6
Continuous
 62
     7
370
    25
100
AcDbLine
 10
2231.4454585654
 20
2752.914092518
 30
0.0
 11
2231.4454585654
 21
2753.664283295301
 31
0.0
  0
LINE
  5
1D0
330
1F
100
AcDbEntity
  8
0
  6
Continuous
 62
     7
370
    25
100
AcDbLine
 10
2211.4454585654
 20
2753.664283295301
 30
0.0
 11
2211.4454585654
 21
2752.914092518
 31
0.0
  0
LINE
  5
1D1
330
1F
100
AcDbEntity
  8
0
  6
Continuous
 62
     7
370
    25
100
AcDbLine
 10
2229.9418327899
 20
2754.9290740988
 30
0.0
 11
2228.4154268517
 21
2755.0564516333
 31
0.0
  0
LINE
  5
1D2
330
1F
100
AcDbEntity
  8
0
  6
Continuous
 62
     7
370
    25
100
AcDbLine
 10
2214.475490279
 20
2755.0564516333
 30
0.0
 11
2212.9490843408
 21
2754.9290740988
 31
0.0
  0
SPLINE
  5
1D3
330
1F
100
AcDbEntity
  8
0
  6
Continuous
 62
     7
370
    25
100
AcDbSpline
210
0.0
220
0.0
230
1.0
 70
     8
 71
     3
 72
    14
 73
    10
 74
     0
 42
0.00000001
 43
0.0000000001
 40
0.0
 40
0.0
 40
0.0
 40
0.0
 40
0.0907475556428554
 40
0.2288563839002812
 40
0.4128530542465853
 40
0.607142000433267
 40
0.7878282318392423
 40
0.9626611221742768
 40
1.0
 40
1.0
 40
1.0
 40
1.0
 10
2228.325460923729
 20
2755.061553406059
 30
0.0
 10
2228.113909756881
 20
2755.078385939607
 30
0.0
 10
2227.580398581712
 20
2755.120835928838
 30
0.0
 10
2226.719912941162
 20
2755.162796219049
 30
0.0
 10
2225.670112580979
 20
2755.199728364267
 30
0.0
 10
2224.435496063457
 20
2755.22545393089
 30
0.0
 10
2223.098989846254
 20
2755.241299849524
 30
0.0
 10
2222.088959722666
 20
2755.246111519762
 30
0.0
 10
2221.541757506831
 20
2755.246351103259
 30
0.0
 10
2221.445458565364
 20
2755.246393266168
 30
0.0
  0
SPLINE
  5
1D4
330
1F
100
AcDbEntity
  8
0
  6
Continuous
 62
     7
370
    25
100
AcDbSpline
210
0.0
220
0.0
230
1.0
 70
     8
 71
     3
 72
    13
 73
     9
 74
     0
 42
0.00000001
 43
0.0000000001
 40
0.0
 40
0.0
 40
0.0
 40
0.0
 40
0.0971790056423943
 40
0.2845710337029654
 40
0.4775192778488019
 40
0.6890792027697126
 40
0.8771625243238599
 40
1.0
 40
1.0
 40
1.0
 40
1.0
 10
2221.445458565364
 20
2755.246393266168
 30
0.0
 10
2221.198437493654
 20
2755.246131497291
 30
0.0
 10
2220.475081237248
 20
2755.245364954772
 30
0.0
 10
2219.282482825121
 20
2755.236490482709
 30
0.0
 10
2217.912409207465
 20
2755.216251138439
 30
0.0
 10
2216.678104082206
 20
2755.182234192516
 30
0.0
 10
2215.648335398513
 20
2755.142730979271
 30
0.0
 10
2214.941932094418
 20
2755.089110818866
 30
0.0
 10
2214.662848805499
 20
2755.067926757818
 30
0.0
  0
LINE
  5
1D5
330
1F
100
AcDbEntity
  8
0
  6
Continuous
 62
     7
370
    25
100
AcDbLine
 10
2225.9454585654
 20
2749.9538810975
 30
0.0
 11
2225.9454585654
 21
2752.2143323905
 31
0.0
  0
LINE
  5
1D6
330
1F
100
AcDbEntity
  8
0
  6
Continuous
 62
     7
370
    25
100
AcDbLine
 10
2216.9454585654
 20
2752.2143323905
 30
0.0
 11
2216.9454585654
 21
2749.9538810975
 31
0.0
  0
SPLINE
  5
1D7
330
1F
100
AcDbEntity
  8
0
  6
Continuous
 62
     7
370
    25
100
AcDbSpline
210
0.0
220
0.0
230
1.0
 70
     8
 71
     3
 72
    16
 73
    12
 74
     0
 42
0.00000001
 43
0.0000000001
 40
0.0
 40
0.0
 40
0.0
 40
0.0
 40
0.0490847390187451
 40
0.1518473045647063
 40
0.2358684990992659
 40
0.3090519161655109
 40
0.3734786142110832
 40
0.4370328180328157
 40
0.5258016248251268
 40
0.7068629655468389
 40
1.0
 40
1.0
 40
1.0
 40
1.0
 10
2557.925074168672
 20
2753.66474910927
 30
0.0
 10
2557.929765765407
 20
2753.730939501491
 30
0.0
 10
2557.944279570156
 20
2753.935704421254
 30
0.0
 10
2557.817101818785
 20
2754.239921080901
 30
0.0
 10
2557.612885409259
 20
2754.515984719922
 30
0.0
 10
2557.391873803393
 20
2754.689323194562
 30
0.0
 10
2557.200107235651
 20
2754.786327207064
 30
0.0
 10
2557.042893347468
 20
2754.840400572422
 30
0.0
 10
2556.877542172414
 20
2754.879033393793
 30
0.0
 10
2556.681828237488
 20
2754.908770279313
 30
0.0
 10
2556.454213845381
 20
2754.925985948585
 30
0.0
 10
2556.313508580678
 20
2754.93662822511
 30
0.0
  0
SPLINE
  5
1D8
330
1F
100
AcDbEntity
  8
0
  6
Continuous
 62
     7
370
    25
100
AcDbSpline
210
0.0
220
0.0
230
1.0
 70
     8
 71
     3
 72
    14
 73
    10
 74
     0
 42
0.00000001
 43
0.0000000001
 40
0.0
 40
0.0
 40
0.0
 40
0.0
 40
0.4380448777707893
 40
0.5889072021156265
 40
0.6648524542794822
 40
0.750529107191758
 40
0.8517030556681167
 40
0.9620267314756175
 40
1.0
 40
1.0
 40
1.0
 40
1.0
 10
2539.529691039082
 20
2754.935504543183
 30
0.0
 10
2539.357587419203
 20
2754.920813519865
 30
0.0
 10
2539.126211442904
 20
2754.901062919235
 30
0.0
 10
2538.826901395451
 20
2754.840915253045
 30
0.0
 10
2538.553382146907
 20
2754.724397548354
 30
0.0
 10
2538.289180317124
 20
2754.534471220177
 30
0.0
 10
2538.060956382529
 20
2754.221975085901
 30
0.0
 10
2537.936910392498
 20
2753.90001010072
 30
0.0
 10
2537.958389890538
 20
2753.704696279347
 30
0.0
 10
2537.963889981929
 20
2753.654683757384
 30
0.0
  0
LINE
  5
1D9
330
1F
100
AcDbEntity
  8
0
  6
Continuous
 62
     7
370
    25
100
AcDbLine
 10
2557.9454585654
 20
2752.914092518
 30
0.0
 11
2557.9454585654
 21
2753.664283295301
 31
0.0
  0
LINE
  5
1DA
330
1F
100
AcDbEntity
  8
0
  6
Continuous
 62
     7
370
    25
100
AcDbLine
 10
2537.9454585654
 20
2753.664283295301
 30
0.0
 11
2537.9454585654
 21
2752.914092518
 31
0.0
  0
LINE
  5
1DB
330
1F
100
AcDbEntity
  8
0
  6
Continuous
 62
     7
370
    25
100
AcDbLine
 10
2556.4418327899
 20
2754.9290740988
 30
0.0
 11
2554.9154268517
 21
2755.0564516333
 31
0.0
  0
LINE
  5
1DC
330
1F
100
AcDbEntity
  8
0
  6
Continuous
 62
     7
370
    25
100
AcDbLine
 10
2540.975490279
 20
2755.0564516333
 30
0.0
 11
2539.4490843408
 21
2754.9290740988
 31
0.0
  0
SPLINE
  5
1DD
330
1F
100
AcDbEntity
  8
0
  6
Continuous
 62
     7
370
    25
100
AcDbSpline
210
0.0
220
0.0
230
1.0
 70
     8
 71
     3
 72
    14
 73
    10
 74
     0
 42
0.00000001
 43
0.0000000001
 40
0.0
 40
0.0
 40
0.0
 40
0.0
 40
0.0907475556428302
 40
0.2288563839002564
 40
0.4128530542465473
 40
0.6071420004332251
 40
0.7878282318392076
 40
0.9626611221742395
 40
1.0
 40
1.0
 40
1.0
 40
1.0
 10
2554.825460923729
 20
2755.061553406059
 30
0.0
 10
2554.613909756881
 20
2755.078385939607
 30
0.0
 10
2554.080398581711
 20
2755.120835928838
 30
0.0
 10
2553.219912941161
 20
2755.162796219049
 30
0.0
 10
2552.17011258098
 20
2755.199728364267
 30
0.0
 10
2550.935496063457
 20
2755.22545393089
 30
0.0
 10
2549.598989846255
 20
2755.241299849524
 30
0.0
 10
2548.588959722666
 20
2755.246111519762
 30
0.0
 10
2548.041757506831
 20
2755.246351103259
 30
0.0
 10
2547.945458565364
 20
2755.246393266168
 30
0.0
  0
SPLINE
  5
1DE
330
1F
100
AcDbEntity
  8
0
  6
Continuous
 62
     7
370
    25
100
AcDbSpline
210
0.0
220
0.0
230
1.0
 70
     8
 71
     3
 72
    13
 73
     9
 74
     0
 42
0.00000001
 43
0.0000000001
 40
0.0
 40
0.0
 40
0.0
 40
0.0
 40
0.0971790056423907
 40
0.2845710337029607
 40
0.4775192778487954
 40
0.6890792027697028
 40
0.8771625243238549
 40
1.0
 40
1.0
 40
1.0
 40
1.0
 10
2547.945458565364
 20
2755.246393266168
 30
0.0
 10
2547.698437493654
 20
2755.246131497291
 30
0.0
 10
2546.975081237248
 20
2755.245364954772
 30
0.0
 10
2545.782482825121
 20
2755.236490482709
 30
0.0
 10
2544.412409207466
 20
2755.216251138439
 30
0.0
 10
2543.178104082207
 20
2755.182234192516
 30
0.0
 10
2542.148335398513
 20
2755.142730979271
 30
0.0
 10
2541.441932094418
 20
2755.089110818866
 30
0.0
 10
2541.162848805499
 20
2755.067926757818
 30
0.0
  0
LINE
  5
1DF
330
1F
100
AcDbEntity
  8
0
  6
Continuous
 62
     7
370
    25
100
AcDbLine
 10
2552.4454585654
 20
2749.9538810975
 30
0.0
 11
2552.4454585654
 21
2752.2143323905
 31
0.0
  0
LINE
  5
1E0
330
1F
100
AcDbEntity
  8
0
  6
Continuous
 62
     7
370
    25
100
AcDbLine
 10
2543.4454585654
 20
2752.2143323905
 30
0.0
 11
2543.4454585654
 21
2749.9538810975
 31
0.0
  0
LINE
  5
1E1
330
1F
100
AcDbEntity
  8
0
  6
Continuous
 62
     7
370
    25
100
AcDbLine
 10
2582.9454585654
 20
2351.4538810975
 30
0.0
 11
2186.9454585654
 21
2351.4538810975
 31
0.0
  0
LINE
  5
1E2
330
1F
100
AcDbEntity
  8
0
  6
Continuous
 62
     7
370
    25
100
AcDbLine
 10
2186.9454585654
 20
2351.4538810975
 30
0.0
 11
2186.9454585654
 21
2355.2366694107
 31
0.0
  0
LINE
  5
1E3
330
1F
100
AcDbEntity
  8
0
  6
Continuous
 62
     7
370
    25
100
AcDbLine
 10
2582.9454585654
 20
2351.4538810975
 30
0.0
 11
2582.9454585654
 21
2355.2366694129
 31
0.0
  0
LINE
  5
1E4
330
1F
100
AcDbEntity
  8
0
  6
Continuous
 62
     7
370
    25
100
AcDbLine
 10
2584.9454585654
 20
2749.9538810975
 30
0.0
 11
2184.4454585654
 21
2749.9538810975
 31
0.0
  0
LINE
  5
1E5
330
1F
100
AcDbEntity
  8
0
  6
Continuous
 62
     7
370
    25
100
AcDbLine
 10
2584.9454585654
 20
2749.9538810975
 30
0.0
 11
2584.9454585654
 21
2370.9538810975
 31
0.0
  0
LINE
  5
1E6
330
1F
100
AcDbEntity
  8
0
  6
Continuous
 62
     7
370
    25
100
AcDbLine
 10
2584.9454585654
 20
2370.9538810975
 30
0.0
 11
2184.4454585654
 21
2370.9538810975
 31
0.0
  0
LINE
  5
1E7
330
1F
100
AcDbEntity
  8
0
  6
Continuous
 62
     7
370
    25
100
AcDbLine
 10
2184.4454585654
 20
2749.9538810975
 30
0.0
 11
2184.4454585654
 21
2370.9538810975
 31
0.0
  0
ARC
  5
1E8
330
1F
100
AcDbEntity
  8
0
  6
Continuous
 62
     7
370
    25
100
AcDbCircle
 10
2222.4487994324
 20
2944.9300038106
 30
0.0
 40
190.3064363780121
100
AcDbArc
 50
269.697921602
 51
271.989829998
  0
ARC
  5
1E9
330
1F
100
AcDbEntity
  8
0
  6
Continuous
 62
     7
370
    25
100
AcDbCircle
 10
2220.8807674915
 20
2989.2063632794
 30
0.0
 40
234.5808305753037
100
AcDbArc
 50
268.5008299502
 51
270.1379245117
  0
ARC
  5
1EA
330
1F
100
AcDbEntity
  8
0
  6
Continuous
 62
     7
370
    25
100
AcDbCircle
 10
2224.2883976532
 20
2835.1862780978
 30
0.0
 40
82.58290404787405
100
AcDbArc
 50
268.0271873052
 51
274.971785139
  0
ARC
  5
1EB
330
1F
100
AcDbEntity
  8
0
  6
Continuous
 62
     7
370
    25
100
AcDbCircle
 10
2218.8258447337
 20
2843.7176490437
 30
0.0
 40
91.10299653526476
100
AcDbArc
 50
265.3532935281
 51
271.6477340277
  0
SPLINE
  5
1EC
330
1F
100
AcDbEntity
  8
0
  6
Continuous
 62
     7
370
    25
100
AcDbSpline
210
0.0
220
0.0
230
1.0
 70
     8
 71
     3
 72
    19
 73
    15
 74
     0
 42
0.00000001
 43
0.0000000001
 40
0.0
 40
0.0
 40
0.0
 40
0.0
 40
0.0906600731280737
 40
0.205073413897336
 40
0.2719074979493165
 40
0.3443210476357526
 40
0.4209983262120359
 40
0.499999979222827
 40
0.5790016347260505
 40
0.6556789199260378
 40
0.7280924783131315
 40
0.7949265709542841
 40
0.9093399235674629
 40
1.0
 40
1.0
 40
1.0
 40
1.0
 10
2231.245458565364
 20
2752.714161053021
 30
0.0
 10
2231.168604520696
 20
2752.689935507784
 30
0.0
 10
2230.994760393198
 20
2752.635137236684
 30
0.0
 10
2229.674903170724
 20
2752.568753953304
 30
0.0
 10
2227.918984010527
 20
2752.518841342657
 30
0.0
 10
2226.095890405645
 20
2752.485710477378
 30
0.0
 10
2223.914524317422
 20
2752.463277619615
 30
0.0
 10
2221.521572113834
 20
2752.455015509582
 30
0.0
 10
2219.124049624951
 20
2752.462313475465
 30
0.0
 10
2216.929764294537
 20
2752.483865677207
 30
0.0
 10
2215.087425031514
 20
2752.51625882664
 30
0.0
 10
2213.302394606037
 20
2752.565458774839
 30
0.0
 10
2211.943699588436
 20
2752.631302962632
 30
0.0
 10
2211.737687244344
 20
2752.686024785418
 30
0.0
 10
2211.646612086786
 20
2752.710216533025
 30
0.0
  0
LINE
  5
1ED
330
1F
100
AcDbEntity
  8
0
  6
Continuous
 62
     7
370
    25
100
AcDbLine
 10
2214.475490279
 20
2755.0564516333
 30
0.0
 11
2214.5274519143
 21
2755.0606198496
 31
0.0
  0
LINE
  5
1EE
330
1F
100
AcDbEntity
  8
0
  6
Continuous
 62
     7
370
    25
100
AcDbLine
 10
2226.1356302781
 20
2755.113338633
 30
0.0
 11
2226.134678341701
 21
2755.1158121239
 31
0.0
  0
LWPOLYLINE
  5
1EF
330
1F
100
AcDbEntity
  8
0
  6
Continuous
 62
     7
370
    25
100
AcDbPolyline
 90
       23
 70
   128
 43
0.0
 10
2226.134678341701
 20
2755.1158121239
 10
2225.9194017973
 20
2755.1501872105
 10
2225.3439780752
 20
2755.18159603
 10
2224.4547281093
 20
2755.2075102091
 10
2223.3232354781
 20
2755.225843686901
 10
2222.040584010001
 20
2755.2351206399
 10
2220.7100256422
 20
2755.2345942843
 10
2219.4386687613
 20
2755.224306991201
 10
2218.3288561037
 20
2755.2050868755
 10
2217.4699262854
 20
2755.178481134
 10
2216.9310221483
 20
2755.1466314976
 10
2216.7555248428
 20
2755.1121018248
 10
2216.9575616959
 20
2755.0776717135
 10
2217.5208689783
 20
2755.0461127473
 10
2218.4001011149
 20
2755.0199653861
 10
2219.5244809511
 20
2755.0013344616
 10
2220.8034972299
 20
2754.991719741401
 10
2222.1341906426
 20
2754.9918951992
 10
2223.4094419316
 20
2755.001846710801
 10
2224.5265948654
 20
2755.0207731913
 10
2225.3957199443
 20
2755.0471510811
 10
2225.9468536198
 20
2755.0788569912
 10
2226.1356302781
 20
2755.113338633
  0
LINE
  5
1F0
330
1F
100
AcDbEntity
  8
0
  6
Continuous
 62
     7
370
    25
100
AcDbLine
 10
2218.9996091614
 20
2755.0998575046
 30
0.0
 11
2220.9304585654
 21
2755.0998575046
 31
0.0
  0
LINE
  5
1F1
330
1F
100
AcDbEntity
  8
0
  6
Continuous
 62
     7
370
    25
100
AcDbLine
 10
2220.9304585654
 20
2755.0998575046
 30
0.0
 11
2220.9304585654
 21
2755.0493137595
 31
0.0
  0
ARC
  5
1F2
330
1F
100
AcDbEntity
  8
0
  6
Continuous
 62
     7
370
    25
100
AcDbCircle
 10
2221.4454585654
 20
2849.3371748901
 30
0.0
 40
94.28926758422509
100
AcDbArc
 50
269.6870537451
 51
270.3129462549
  0
LINE
  5
1F3
330
1F
100
AcDbEntity
  8
0
  6
Continuous
 62
     7
370
    25
100
AcDbLine
 10
2221.9604585654
 20
2755.0493137595
 30
0.0
 11
2221.9604585654
 21
2755.0998575046
 31
0.0
  0
LINE
  5
1F4
330
1F
100
AcDbEntity
  8
0
  6
Continuous
 62
     7
370
    25
100
AcDbLine
 10
2221.9604585654
 20
2755.0998575046
 30
0.0
 11
2223.8913079693
 21
2755.0998575046
 31
0.0
  0
LWPOLYLINE
  5
1F5
330
1F
100
AcDbEntity
  8
0
  6
Continuous
 62
     7
370
    25
100
AcDbPolyline
 90
        9
 70
   128
 43
0.0
 10
2223.8913079693
 20
2755.1268197613
 10
2223.9147242752
 20
2755.123481353
 10
2223.9314953661
 20
2755.1201156488
 10
2223.9415761084
 20
2755.1167317065
 10
2223.9449393728
 20
2755.1133386329
 10
2223.9415761084
 20
2755.1099455593
 10
2223.9314953661
 20
2755.106561617101
 10
2223.9147242752
 20
2755.1031959129
 10
2223.8913079693
 20
2755.0998575046
  0
LINE
  5
1F6
330
1F
100
AcDbEntity
  8
0
  6
Continuous
 62
     7
370
    25
100
AcDbLine
 10
2223.8913079693
 20
2755.1268197613
 30
0.0
 11
2221.9604585654
 21
2755.1268197613
 31
0.0
  0
LINE
  5
1F7
330
1F
100
AcDbEntity
  8
0
  6
Continuous
 62
     7
370
    25
100
AcDbLine
 10
2221.9604585654
 20
2755.1268197613
 30
0.0
 11
2221.9604585654
 21
2755.1773635064
 31
0.0
  0
ARC
  5
1F8
330
1F
100
AcDbEntity
  8
0
  6
Continuous
 62
     7
370
    25
100
AcDbCircle
 10
2221.4454585654
 20
2660.8895023521
 30
0.0
 40
94.28926760799848
100
AcDbArc
 50
89.6870537452
 51
90.31294625479999
  0
LINE
  5
1F9
330
1F
100
AcDbEntity
  8
0
  6
Continuous
 62
     7
370
    25
100
AcDbLine
 10
2220.9304585654
 20
2755.1773635064
 30
0.0
 11
2220.9304585654
 21
2755.1268197613
 31
0.0
  0
LINE
  5
1FA
330
1F
100
AcDbEntity
  8
0
  6
Continuous
 62
     7
370
    25
100
AcDbLine
 10
2220.9304585654
 20
2755.1268197613
 30
0.0
 11
2218.9996091614
 21
2755.1268197613
 31
0.0
  0
LWPOLYLINE
  5
1FB
330
1F
100
AcDbEntity
  8
0
  6
Continuous
 62
     7
370
    25
100
AcDbPolyline
 90
        9
 70
   128
 43
0.0
 10
2218.9996091614
 20
2755.0998575046
 10
2218.9761928556
 20
2755.1031959129
 10
2218.9594217646
 20
2755.106561617101
 10
2218.9493410224
 20
2755.1099455593
 10
2218.9459777579
 20
2755.1133386329
 10
2218.9493410224
 20
2755.1167317065
 10
2218.9594217646
 20
2755.1201156488
 10
2218.9761928556
 20
2755.123481353
 10
2218.9996091614
 20
2755.1268197613
  0
LINE
  5
1FC
330
1F
100
AcDbEntity
  8
0
  6
Continuous
 62
     7
370
    25
100
AcDbLine
 10
2219.0133329309
 20
2755.0998575046
 30
0.0
 11
2218.9996091614
 21
2755.1268197613
 31
0.0
  0
LINE
  5
1FD
330
1F
100
AcDbEntity
  8
0
  6
Continuous
 62
     7
370
    25
100
AcDbLine
 10
2221.9604585654
 20
2755.1268197613
 30
0.0
 11
2221.9604585654
 21
2755.0998575046
 31
0.0
  0
LINE
  5
1FE
330
1F
100
AcDbEntity
  8
0
  6
Continuous
 62
     7
370
    25
100
AcDbLine
 10
2220.9304585654
 20
2755.1268197613
 30
0.0
 11
2220.9304585654
 21
2755.0998575046
 31
0.0
  0
ARC
  5
1FF
330
1F
100
AcDbEntity
  8
0
  6
Continuous
 62
     7
370
    25
100
AcDbCircle
 10
2548.9487994324
 20
2944.9300038135
 30
0.0
 40
190.3064363808939
100
AcDbArc
 50
269.6979216021
 51
271.989829998
  0
ARC
  5
200
330
1F
100
AcDbEntity
  8
0
  6
Continuous
 62
     7
370
    25
100
AcDbCircle
 10
2547.3807674915
 20
2989.206363282299
 30
0.0
 40
234.5808305781594
100
AcDbArc
 50
268.5008299502
 51
270.1379245117
  0
ARC
  5
201
330
1F
100
AcDbEntity
  8
0
  6
Continuous
 62
     7
370
    25
100
AcDbCircle
 10
2550.7883976532
 20
2835.1862780978
 30
0.0
 40
82.58290404784181
100
AcDbArc
 50
268.0271873052
 51
274.971785139
  0
ARC
  5
202
330
1F
100
AcDbEntity
  8
0
  6
Continuous
 62
     7
370
    25
100
AcDbCircle
 10
2545.3258447337
 20
2843.7176490436
 30
0.0
 40
91.10299653521749
100
AcDbArc
 50
265.3532935281
 51
271.6477340277
  0
SPLINE
  5
203
330
1F
100
AcDbEntity
  8
0
  6
Continuous
 62
     7
370
    25
100
AcDbSpline
210
0.0
220
0.0
230
1.0
 70
     8
 71
     3
 72
    19
 73
    15
 74
     0
 42
0.00000001
 43
0.0000000001
 40
0.0
 40
0.0
 40
0.0
 40
0.0
 40
0.0906600731280739
 40
0.2050734138973362
 40
0.2719074979493161
 40
0.3443210476357521
 40
0.4209983262120362
 40
0.4999999792228261
 40
0.5790016347260504
 40
0.6556789199260371
 40
0.7280924783131314
 40
0.7949265709542859
 40
0.9093399235674628
 40
1.0
 40
1.0
 40
1.0
 40
1.0
 10
2557.745458565364
 20
2752.714161053021
 30
0.0
 10
2557.668604520696
 20
2752.689935507784
 30
0.0
 10
2557.494760393198
 20
2752.635137236684
 30
0.0
 10
2556.174903170724
 20
2752.568753953304
 30
0.0
 10
2554.418984010528
 20
2752.518841342657
 30
0.0
 10
2552.595890405645
 20
2752.485710477378
 30
0.0
 10
2550.414524317422
 20
2752.463277619615
 30
0.0
 10
2548.021572113834
 20
2752.455015509582
 30
0.0
 10
2545.624049624952
 20
2752.462313475465
 30
0.0
 10
2543.429764294537
 20
2752.483865677207
 30
0.0
 10
2541.587425031514
 20
2752.51625882664
 30
0.0
 10
2539.802394606037
 20
2752.565458774839
 30
0.0
 10
2538.443699588436
 20
2752.631302962632
 30
0.0
 10
2538.237687244344
 20
2752.686024785418
 30
0.0
 10
2538.146612086786
 20
2752.710216533025
 30
0.0
  0
LINE
  5
204
330
1F
100
AcDbEntity
  8
0
  6
Continuous
 62
     7
370
    25
100
AcDbLine
 10
2540.975490279
 20
2755.0564516333
 30
0.0
 11
2541.0274519143
 21
2755.0606198496
 31
0.0
  0
LINE
  5
205
330
1F
100
AcDbEntity
  8
0
  6
Continuous
 62
     7
370
    25
100
AcDbLine
 10
2552.6356302781
 20
2755.113338633
 30
0.0
 11
2552.6346783417
 21
2755.1158121239
 31
0.0
  0
LWPOLYLINE
  5
206
330
1F
100
AcDbEntity
  8
0
  6
Continuous
 62
     7
370
    25
100
AcDbPolyline
 90
       23
 70
   128
 43
0.0
 10
2552.6346783417
 20
2755.1158121239
 10
2552.4194017973
 20
2755.1501872105
 10
2551.8439780752
 20
2755.18159603
 10
2550.9547281093
 20
2755.2075102091
 10
2549.8232354781
 20
2755.225843686901
 10
2548.54058401
 20
2755.2351206399
 10
2547.2100256422
 20
2755.2345942843
 10
2545.9386687613
 20
2755.224306991201
 10
2544.8288561037
 20
2755.2050868755
 10
2543.9699262854
 20
2755.178481134
 10
2543.4310221483
 20
2755.1466314976
 10
2543.2555248428
 20
2755.1121018248
 10
2543.4575616959
 20
2755.0776717135
 10
2544.0208689783
 20
2755.0461127473
 10
2544.9001011149
 20
2755.0199653861
 10
2546.0244809511
 20
2755.0013344616
 10
2547.3034972299
 20
2754.991719741401
 10
2548.6341906426
 20
2754.9918951992
 10
2549.9094419316
 20
2755.001846710801
 10
2551.0265948654
 20
2755.0207731913
 10
2551.8957199443
 20
2755.0471510811
 10
2552.4468536198
 20
2755.0788569912
 10
2552.6356302781
 20
2755.113338633
  0
LINE
  5
207
330
1F
100
AcDbEntity
  8
0
  6
Continuous
 62
     7
370
    25
100
AcDbLine
 10
2545.4996091614
 20
2755.0998575046
 30
0.0
 11
2547.4304585654
 21
2755.0998575046
 31
0.0
  0
LINE
  5
208
330
1F
100
AcDbEntity
  8
0
  6
Continuous
 62
     7
370
    25
100
AcDbLine
 10
2547.4304585654
 20
2755.0998575046
 30
0.0
 11
2547.4304585654
 21
2755.0493137595
 31
0.0
  0
ARC
  5
209
330
1F
100
AcDbEntity
  8
0
  6
Continuous
 62
     7
370
    25
100
AcDbCircle
 10
2547.945458565401
 20
2849.3371748629
 30
0.0
 40
94.28926755705068
100
AcDbArc
 50
269.687053745
 51
270.312946255
  0
LINE
  5
20A
330
1F
100
AcDbEntity
  8
0
  6
Continuous
 62
     7
370
    25
100
AcDbLine
 10
2548.4604585654
 20
2755.0493137595
 30
0.0
 11
2548.4604585654
 21
2755.0998575046
 31
0.0
  0
LINE
  5
20B
330
1F
100
AcDbEntity
  8
0
  6
Continuous
 62
     7
370
    25
100
AcDbLine
 10
2548.4604585654
 20
2755.0998575046
 30
0.0
 11
2550.3913079693
 21
2755.0998575046
 31
0.0
  0
LWPOLYLINE
  5
20C
330
1F
100
AcDbEntity
  8
0
  6
Continuous
 62
     7
370
    25
100
AcDbPolyline
 90
        9
 70
   128
 43
0.0
 10
2550.3913079693
 20
2755.1268197613
 10
2550.4147242752
 20
2755.123481353
 10
2550.4314953661
 20
2755.1201156488
 10
2550.4415761084
 20
2755.1167317065
 10
2550.444939372801
 20
2755.1133386329
 10
2550.4415761084
 20
2755.1099455593
 10
2550.4314953661
 20
2755.106561617101
 10
2550.4147242752
 20
2755.1031959129
 10
2550.3913079693
 20
2755.0998575046
  0
LINE
  5
20D
330
1F
100
AcDbEntity
  8
0
  6
Continuous
 62
     7
370
    25
100
AcDbLine
 10
2550.3913079693
 20
2755.1268197613
 30
0.0
 11
2548.4604585654
 21
2755.1268197613
 31
0.0
  0
LINE
  5
20E
330
1F
100
AcDbEntity
  8
0
  6
Continuous
 62
     7
370
    25
100
AcDbLine
 10
2548.4604585654
 20
2755.1268197613
 30
0.0
 11
2548.4604585654
 21
2755.1773635064
 31
0.0
  0
ARC
  5
20F
330
1F
100
AcDbEntity
  8
0
  6
Continuous
 62
     7
370
    25
100
AcDbCircle
 10
2547.945458565401
 20
2660.8895023521
 30
0.0
 40
94.28926760797027
100
AcDbArc
 50
89.6870537452
 51
90.31294625479999
  0
LINE
  5
210
330
1F
100
AcDbEntity
  8
0
  6
Continuous
 62
     7
370
    25
100
AcDbLine
 10
2547.4304585654
 20
2755.1773635064
 30
0.0
 11
2547.4304585654
 21
2755.1268197613
 31
0.0
  0
LINE
  5
211
330
1F
100
AcDbEntity
  8
0
  6
Continuous
 62
     7
370
    25
100
AcDbLine
 10
2547.4304585654
 20
2755.1268197613
 30
0.0
 11
2545.4996091614
 21
2755.1268197613
 31
0.0
  0
LWPOLYLINE
  5
212
330
1F
100
AcDbEntity
  8
0
  6
Continuous
 62
     7
370
    25
100
AcDbPolyline
 90
        9
 70
   128
 43
0.0
 10
2545.4996091614
 20
2755.0998575046
 10
2545.4761928556
 20
2755.1031959129
 10
2545.4594217646
 20
2755.106561617101
 10
2545.4493410224
 20
2755.1099455593
 10
2545.4459777579
 20
2755.1133386329
 10
2545.4493410224
 20
2755.1167317065
 10
2545.4594217646
 20
2755.1201156488
 10
2545.4761928556
 20
2755.123481353
 10
2545.4996091614
 20
2755.1268197613
  0
LINE
  5
213
330
1F
100
AcDbEntity
  8
0
  6
Continuous
 62
     7
370
    25
100
AcDbLine
 10
2545.5133329309
 20
2755.0998575046
 30
0.0
 11
2545.4996091614
 21
2755.1268197613
 31
0.0
  0
LINE
  5
214
330
1F
100
AcDbEntity
  8
0
  6
Continuous
 62
     7
370
    25
100
AcDbLine
 10
2548.4604585654
 20
2755.1268197613
 30
0.0
 11
2548.4604585654
 21
2755.0998575046
 31
0.0
  0
LINE
  5
215
330
1F
100
AcDbEntity
  8
0
  6
Continuous
 62
     7
370
    25
100
AcDbLine
 10
2547.4304585654
 20
2755.1268197613
 30
0.0
 11
2547.4304585654
 21
2755.0998575046
 31
0.0
  0
LINE
  5
216
330
1F
100
AcDbEntity
  8
0
  6
Continuous
 62
     7
370
    25
100
AcDbLine
 10
2582.9454585654
 20
2356.3340179166
 30
0.0
 11
2582.9454585654
 21
2355.4039330175
 31
0.0
  0
ARC
  5
217
330
1F
100
AcDbEntity
  8
0
  6
Continuous
 62
     7
370
    25
100
AcDbCircle
 10
2582.7940746856
 20
2355.69615718
 30
0.0
 40
0.3291079460460651
100
AcDbArc
 50
261.5051279085
 51
297.3859751204
  0
LINE
  5
218
330
1F
100
AcDbEntity
  8
0
  6
Continuous
 62
     7
370
    25
100
AcDbLine
 10
2582.7454585654
 20
2355.3706598482
 30
0.0
 11
2582.7454585654
 21
2356.5332659719
 31
0.0
  0
ARC
  5
219
330
1F
100
AcDbEntity
  8
0
  6
Continuous
 62
     7
370
    25
100
AcDbCircle
 10
2582.7458338309
 20
2356.333641234801
 30
0.0
 40
0.1996250898573654
100
AcDbArc
 50
0.108114102
 51
90.10770762280001
  0
LINE
  5
21A
330
1F
100
AcDbEntity
  8
0
  6
Continuous
 62
     7
370
    25
100
AcDbLine
 10
2582.7454585654
 20
2356.5332659719
 30
0.0
 11
2580.945458565401
 21
2356.5332659719
 31
0.0
  0
LINE
  5
21B
330
1F
100
AcDbEntity
  8
0
  6
Continuous
 62
     7
370
    25
100
AcDbLine
 10
2582.7454585654
 20
2355.3706598482
 30
0.0
 11
2580.945458565401
 21
2355.3706598482
 31
0.0
  0
LINE
  5
21C
330
1F
100
AcDbEntity
  8
0
  6
Continuous
 62
     7
370
    25
100
AcDbLine
 10
2580.945458565401
 20
2356.5332659719
 30
0.0
 11
2580.945458565401
 21
2355.3706598482
 31
0.0
  0
LINE
  5
21D
330
1F
100
AcDbEntity
  8
0
  6
Continuous
 62
     7
370
    25
100
AcDbLine
 10
2582.7454585654
 20
2354.9538913263
 30
0.0
 11
2582.7454585654
 21
2355.3706598482
 31
0.0
  0
LINE
  5
21E
330
1F
100
AcDbEntity
  8
0
  6
Continuous
 62
     7
370
    25
100
AcDbLine
 10
2582.7454585654
 20
2354.9538913263
 30
0.0
 11
2580.945458565401
 21
2354.9538913263
 31
0.0
  0
LINE
  5
21F
330
1F
100
AcDbEntity
  8
0
  6
Continuous
 62
     7
370
    25
100
AcDbLine
 10
2580.945458565401
 20
2355.3706598482
 30
0.0
 11
2580.945458565401
 21
2354.9538913263
 31
0.0
  0
LINE
  5
220
330
1F
100
AcDbEntity
  8
0
  6
Continuous
 62
     7
370
    25
100
AcDbLine
 10
2582.9454585654
 20
2355.4039330175
 30
0.0
 11
2582.9454585654
 21
2355.2366694141
 31
0.0
  0
SPLINE
  5
221
330
1F
100
AcDbEntity
  8
0
  6
Continuous
 62
     7
370
    25
100
AcDbSpline
210
0.0
220
0.0
230
1.0
 70
     8
 71
     3
 72
    13
 73
     9
 74
     0
 42
0.00000001
 43
0.0000000001
 40
0.0
 40
0.0
 40
0.0
 40
0.0
 40
0.0075029974113272
 40
0.3818974549663208
 40
0.6070018873270802
 40
0.7653769096342315
 40
0.8824605049809679
 40
1.0
 40
1.0
 40
1.0
 40
1.0
 10
2582.945458565365
 20
2355.236669414065
 30
0.0
 10
2582.945457609762
 20
2355.235651637449
 30
0.0
 10
2582.945408970145
 20
2355.183847501309
 30
0.0
 10
2582.939286865407
 20
2355.105262135942
 30
0.0
 10
2582.897270759933
 20
2355.02262267191
 30
0.0
 10
2582.848459957967
 20
2354.980526553812
 30
0.0
 10
2582.797729310652
 20
2354.958003126976
 30
0.0
 10
2582.762904703201
 20
2354.955263700862
 30
0.0
 10
2582.745458565366
 20
2354.953891326295
 30
0.0
  0
LINE
  5
222
330
1F
100
AcDbEntity
  8
0
  6
Continuous
 62
     7
370
    25
100
AcDbLine
 10
2582.7454585654
 20
2357.3744545906
 30
0.0
 11
2580.945458565401
 21
2357.3744545906
 31
0.0
  0
LINE
  5
223
330
1F
100
AcDbEntity
  8
0
  6
Continuous
 62
     7
370
    25
100
AcDbLine
 10
2582.7454585654
 20
2356.5332659719
 30
0.0
 11
2582.7454585654
 21
2357.3744545906
 31
0.0
  0
LINE
  5
224
330
1F
100
AcDbEntity
  8
0
  6
Continuous
 62
     7
370
    25
100
AcDbLine
 10
2580.945458565401
 20
2357.3744545906
 30
0.0
 11
2580.945458565401
 21
2356.5332659719
 31
0.0
  0
ARC
  5
225
330
1F
100
AcDbEntity
  8
0
  6
Continuous
 62
     7
370
    25
100
AcDbCircle
 10
2582.7458338309
 20
2357.1748298534
 30
0.0
 40
0.1996250898578202
100
AcDbArc
 50
0.1081141019
 51
90.10770762280001
  0
LINE
  5
226
330
1F
100
AcDbEntity
  8
0
  6
Continuous
 62
     7
370
    25
100
AcDbLine
 10
2582.9454585654
 20
2357.1752065352
 30
0.0
 11
2582.9454585654
 21
2356.3340179166
 31
0.0
  0
LINE
  5
227
330
1F
100
AcDbEntity
  8
0
  6
Continuous
 62
     7
370
    25
100
AcDbLine
 10
2580.945458565401
 20
2358.3706948675
 30
0.0
 11
2582.7454585654
 21
2358.3706948675
 31
0.0
  0
LINE
  5
228
330
1F
100
AcDbEntity
  8
0
  6
Continuous
 62
     7
370
    25
100
AcDbLine
 10
2582.7454585654
 20
2357.3744545906
 30
0.0
 11
2582.7454585654
 21
2358.3706948675
 31
0.0
  0
LINE
  5
229
330
1F
100
AcDbEntity
  8
0
  6
Continuous
 62
     7
370
    25
100
AcDbLine
 10
2580.945458565401
 20
2358.3706948675
 30
0.0
 11
2580.945458565401
 21
2357.3744545906
 31
0.0
  0
LINE
  5
22A
330
1F
100
AcDbEntity
  8
0
  6
Continuous
 62
     7
370
    25
100
AcDbLine
 10
2582.7454585654
 20
2358.3706948675
 30
0.0
 11
2582.9454585654
 21
2358.3706948675
 31
0.0
  0
LINE
  5
22B
330
1F
100
AcDbEntity
  8
0
  6
Continuous
 62
     7
370
    25
100
AcDbLine
 10
2582.9454585654
 20
2358.3706948675
 30
0.0
 11
2582.9454585654
 21
2357.1752065352
 31
0.0
  0
LINE
  5
22C
330
1F
100
AcDbEntity
  8
0
  6
Continuous
 62
     7
370
    25
100
AcDbLine
 10
2582.7454585654
 20
2358.3706948675
 30
0.0
 11
2582.7454585654
 21
2368.7538810975
 31
0.0
  0
LINE
  5
22D
330
1F
100
AcDbEntity
  8
0
  6
Continuous
 62
     7
370
    25
100
AcDbLine
 10
2582.7454585654
 20
2368.7538810975
 30
0.0
 11
2582.9454585654
 21
2368.7538810975
 31
0.0
  0
LINE
  5
22E
330
1F
100
AcDbEntity
  8
0
  6
Continuous
 62
     7
370
    25
100
AcDbLine
 10
2582.9454585654
 20
2368.7538810975
 30
0.0
 11
2582.9454585654
 21
2358.3706948675
 31
0.0
  0
LINE
  5
22F
330
1F
100
AcDbEntity
  8
0
  6
Continuous
 62
     7
370
    25
100
AcDbLine
 10
2582.7454585654
 20
2368.7538810975
 30
0.0
 11
2582.7454585654
 21
2369.7538810975
 31
0.0
  0
ARC
  5
230
330
1F
100
AcDbEntity
  8
0
  6
Continuous
 62
     7
370
    25
100
AcDbCircle
 10
2582.7454585654
 20
2369.5538810975
 30
0.0
 40
0.2000000000002728
100
AcDbArc
 50
0.0
 51
90.0
  0
LINE
  5
231
330
1F
100
AcDbEntity
  8
0
  6
Continuous
 62
     7
370
    25
100
AcDbLine
 10
2582.9454585654
 20
2369.5538810975
 30
0.0
 11
2582.9454585654
 21
2368.7538810975
 31
0.0
  0
LINE
  5
232
330
1F
100
AcDbEntity
  8
0
  6
Continuous
 62
     7
370
    25
100
AcDbLine
 10
2582.7454585654
 20
2368.7538810975
 30
0.0
 11
2580.945458565401
 21
2368.7538810975
 31
0.0
  0
LINE
  5
233
330
1F
100
AcDbEntity
  8
0
  6
Continuous
 62
     7
370
    25
100
AcDbLine
 10
2580.945458565401
 20
2368.7538810975
 30
0.0
 11
2580.945458565401
 21
2358.3706948675
 31
0.0
  0
LINE
  5
234
330
1F
100
AcDbEntity
  8
0
  6
Continuous
 62
     7
370
    25
100
AcDbLine
 10
2580.945458565401
 20
2369.7538810975
 30
0.0
 11
2582.7454585654
 21
2369.7538810975
 31
0.0
  0
LINE
  5
235
330
1F
100
AcDbEntity
  8
0
  6
Continuous
 62
     7
370
    25
100
AcDbLine
 10
2580.945458565401
 20
2368.7538810975
 30
0.0
 11
2580.945458565401
 21
2369.7538810975
 31
0.0
  0
LINE
  5
236
330
1F
100
AcDbEntity
  8
0
  6
Continuous
 62
     7
370
    25
100
AcDbLine
 10
2580.945458565401
 20
2356.5332659719
 30
0.0
 11
2188.945458565401
 21
2356.5332659719
 31
0.0
  0
LINE
  5
237
330
1F
100
AcDbEntity
  8
0
  6
Continuous
 62
     7
370
    25
100
AcDbLine
 10
2580.945458565401
 20
2355.3706598482
 30
0.0
 11
2188.945458565401
 21
2355.3706598482
 31
0.0
  0
LINE
  5
238
330
1F
100
AcDbEntity
  8
0
  6
Continuous
 62
     7
370
    25
100
AcDbLine
 10
2188.945458565401
 20
2355.3706598482
 30
0.0
 11
2188.945458565401
 21
2356.5332659719
 31
0.0
  0
LINE
  5
239
330
1F
100
AcDbEntity
  8
0
  6
Continuous
 62
     7
370
    25
100
AcDbLine
 10
2580.945458565401
 20
2354.9538913263
 30
0.0
 11
2188.945458565401
 21
2354.9538913263
 31
0.0
  0
LINE
  5
23A
330
1F
100
AcDbEntity
  8
0
  6
Continuous
 62
     7
370
    25
100
AcDbLine
 10
2188.945458565401
 20
2354.9538913263
 30
0.0
 11
2188.945458565401
 21
2355.3706598482
 31
0.0
  0
LINE
  5
23B
330
1F
100
AcDbEntity
  8
0
  6
Continuous
 62
     7
370
    25
100
AcDbLine
 10
2580.945458565401
 20
2357.3744545906
 30
0.0
 11
2188.945458565401
 21
2357.3744545906
 31
0.0
  0
LINE
  5
23C
330
1F
100
AcDbEntity
  8
0
  6
Continuous
 62
     7
370
    25
100
AcDbLine
 10
2188.945458565401
 20
2356.5332659719
 30
0.0
 11
2188.945458565401
 21
2357.3744545906
 31
0.0
  0
LINE
  5
23D
330
1F
100
AcDbEntity
  8
0
  6
Continuous
 62
     7
370
    25
100
AcDbLine
 10
2188.945458565401
 20
2358.3706948675
 30
0.0
 11
2580.945458565401
 21
2358.3706948675
 31
0.0
  0
LINE
  5
23E
330
1F
100
AcDbEntity
  8
0
  6
Continuous
 62
     7
370
    25
100
AcDbLine
 10
2188.945458565401
 20
2357.3744545906
 30
0.0
 11
2188.945458565401
 21
2358.3706948675
 31
0.0
  0
LINE
  5
23F
330
1F
100
AcDbEntity
  8
0
  6
Continuous
 62
     7
370
    25
100
AcDbLine
 10
2580.945458565401
 20
2368.7538810975
 30
0.0
 11
2188.945458565401
 21
2368.7538810975
 31
0.0
  0
LINE
  5
240
330
1F
100
AcDbEntity
  8
0
  6
Continuous
 62
     7
370
    25
100
AcDbLine
 10
2188.945458565401
 20
2358.3706948675
 30
0.0
 11
2188.945458565401
 21
2368.7538810975
 31
0.0
  0
LINE
  5
241
330
1F
100
AcDbEntity
  8
0
  6
Continuous
 62
     7
370
    25
100
AcDbLine
 10
2188.945458565401
 20
2369.7538810975
 30
0.0
 11
2580.945458565401
 21
2369.7538810975
 31
0.0
  0
LINE
  5
242
330
1F
100
AcDbEntity
  8
0
  6
Continuous
 62
     7
370
    25
100
AcDbLine
 10
2188.945458565401
 20
2369.7538810975
 30
0.0
 11
2188.945458565401
 21
2368.7538810975
 31
0.0
  0
LINE
  5
243
330
1F
100
AcDbEntity
  8
0
  6
Continuous
 62
     7
370
    25
100
AcDbLine
 10
2186.9454585654
 20
2355.4039330175
 30
0.0
 11
2186.9454585654
 21
2356.3340179166
 31
0.0
  0
ARC
  5
244
330
1F
100
AcDbEntity
  8
0
  6
Continuous
 62
     7
370
    25
100
AcDbCircle
 10
2187.1450832998
 20
2356.333641234801
 30
0.0
 40
0.1996250898573645
100
AcDbArc
 50
89.8922923774
 51
179.891885898
  0
LINE
  5
245
330
1F
100
AcDbEntity
  8
0
  6
Continuous
 62
     7
370
    25
100
AcDbLine
 10
2187.1454585654
 20
2356.5332659719
 30
0.0
 11
2187.1454585654
 21
2355.3706598482
 31
0.0
  0
ARC
  5
246
330
1F
100
AcDbEntity
  8
0
  6
Continuous
 62
     7
370
    25
100
AcDbCircle
 10
2187.0968424451
 20
2355.6961571799
 30
0.0
 40
0.3291079460338749
100
AcDbArc
 50
242.6140248791
 51
278.4948720923
  0
LINE
  5
247
330
1F
100
AcDbEntity
  8
0
  6
Continuous
 62
     7
370
    25
100
AcDbLine
 10
2188.945458565401
 20
2355.3706598482
 30
0.0
 11
2187.1454585654
 21
2355.3706598482
 31
0.0
  0
LINE
  5
248
330
1F
100
AcDbEntity
  8
0
  6
Continuous
 62
     7
370
    25
100
AcDbLine
 10
2188.945458565401
 20
2356.5332659719
 30
0.0
 11
2187.1454585654
 21
2356.5332659719
 31
0.0
  0
LINE
  5
249
330
1F
100
AcDbEntity
  8
0
  6
Continuous
 62
     7
370
    25
100
AcDbLine
 10
2188.945458565401
 20
2354.9538913263
 30
0.0
 11
2187.1454585654
 21
2354.9538913263
 31
0.0
  0
LINE
  5
24A
330
1F
100
AcDbEntity
  8
0
  6
Continuous
 62
     7
370
    25
100
AcDbLine
 10
2187.1454585654
 20
2355.3706598482
 30
0.0
 11
2187.1454585654
 21
2354.9538913263
 31
0.0
  0
LINE
  5
24B
330
1F
100
AcDbEntity
  8
0
  6
Continuous
 62
     7
370
    25
100
AcDbLine
 10
2186.9454585654
 20
2355.2366694141
 30
0.0
 11
2186.9454585654
 21
2355.4039330175
 31
0.0
  0
SPLINE
  5
24C
330
1F
100
AcDbEntity
  8
0
  6
Continuous
 62
     7
370
    25
100
AcDbSpline
210
0.0
220
0.0
230
1.0
 70
     8
 71
     3
 72
    13
 73
     9
 74
     0
 42
0.00000001
 43
0.0000000001
 40
0.0
 40
0.0
 40
0.0
 40
0.0
 40
0.0075029974113244
 40
0.3818974549657635
 40
0.6070018873267113
 40
0.7653769096342122
 40
0.8824605049805246
 40
1.0
 40
1.0
 40
1.0
 40
1.0
 10
2186.945458565359
 20
2355.236669414064
 30
0.0
 10
2186.945459520963
 20
2355.235651637448
 30
0.0
 10
2186.945508160575
 20
2355.183847501309
 30
0.0
 10
2186.951630265318
 20
2355.105262135941
 30
0.0
 10
2186.993646370791
 20
2355.022622671909
 30
0.0
 10
2187.042457172757
 20
2354.980526553811
 30
0.0
 10
2187.093187820072
 20
2354.958003126975
 30
0.0
 10
2187.128012427523
 20
2354.955263700861
 30
0.0
 10
2187.145458565359
 20
2354.953891326293
 30
0.0
  0
LINE
  5
24D
330
1F
100
AcDbEntity
  8
0
  6
Continuous
 62
     7
370
    25
100
AcDbLine
 10
2187.1454585654
 20
2357.3744545906
 30
0.0
 11
2187.1454585654
 21
2356.5332659719
 31
0.0
  0
LINE
  5
24E
330
1F
100
AcDbEntity
  8
0
  6
Continuous
 62
     7
370
    25
100
AcDbLine
 10
2188.945458565401
 20
2357.3744545906
 30
0.0
 11
2187.1454585654
 21
2357.3744545906
 31
0.0
  0
ARC
  5
24F
330
1F
100
AcDbEntity
  8
0
  6
Continuous
 62
     7
370
    25
100
AcDbCircle
 10
2187.1450832998
 20
2357.1748298534
 30
0.0
 40
0.1996250898582732
100
AcDbArc
 50
89.8922923775
 51
179.8918858979
  0
LINE
  5
250
330
1F
100
AcDbEntity
  8
0
  6
Continuous
 62
     7
370
    25
100
AcDbLine
 10
2186.9454585654
 20
2356.3340179166
 30
0.0
 11
2186.9454585654
 21
2357.1752065352
 31
0.0
  0
LINE
  5
251
330
1F
100
AcDbEntity
  8
0
  6
Continuous
 62
     7
370
    25
100
AcDbLine
 10
2187.1454585654
 20
2358.3706948675
 30
0.0
 11
2187.1454585654
 21
2357.3744545906
 31
0.0
  0
LINE
  5
252
330
1F
100
AcDbEntity
  8
0
  6
Continuous
 62
     7
370
    25
100
AcDbLine
 10
2187.1454585654
 20
2358.3706948675
 30
0.0
 11
2188.945458565401
 21
2358.3706948675
 31
0.0
  0
LINE
  5
253
330
1F
100
AcDbEntity
  8
0
  6
Continuous
 62
     7
370
    25
100
AcDbLine
 10
2186.9454585654
 20
2358.3706948675
 30
0.0
 11
2187.1454585654
 21
2358.3706948675
 31
0.0
  0
LINE
  5
254
330
1F
100
AcDbEntity
  8
0
  6
Continuous
 62
     7
370
    25
100
AcDbLine
 10
2186.9454585654
 20
2357.1752065352
 30
0.0
 11
2186.9454585654
 21
2358.3706948675
 31
0.0
  0
LINE
  5
255
330
1F
100
AcDbEntity
  8
0
  6
Continuous
 62
     7
370
    25
100
AcDbLine
 10
2186.9454585654
 20
2368.7538810975
 30
0.0
 11
2187.1454585654
 21
2368.7538810975
 31
0.0
  0
LINE
  5
256
330
1F
100
AcDbEntity
  8
0
  6
Continuous
 62
     7
370
    25
100
AcDbLine
 10
2187.1454585654
 20
2368.7538810975
 30
0.0
 11
2187.1454585654
 21
2358.3706948675
 31
0.0
  0
LINE
  5
257
330
1F
100
AcDbEntity
  8
0
  6
Continuous
 62
     7
370
    25
100
AcDbLine
 10
2186.9454585654
 20
2358.3706948675
 30
0.0
 11
2186.9454585654
 21
2368.7538810975
 31
0.0
  0
LINE
  5
258
330
1F
100
AcDbEntity
  8
0
  6
Continuous
 62
     7
370
    25
100
AcDbLine
 10
2188.945458565401
 20
2368.7538810975
 30
0.0
 11
2187.1454585654
 21
2368.7538810975
 31
0.0
  0
LINE
  5
259
330
1F
100
AcDbEntity
  8
0
  6
Continuous
 62
     7
370
    25
100
AcDbLine
 10
2187.1454585654
 20
2369.7538810975
 30
0.0
 11
2187.1454585654
 21
2368.7538810975
 31
0.0
  0
LINE
  5
25A
330
1F
100
AcDbEntity
  8
0
  6
Continuous
 62
     7
370
    25
100
AcDbLine
 10
2187.1454585654
 20
2369.7538810975
 30
0.0
 11
2188.945458565401
 21
2369.7538810975
 31
0.0
  0
ARC
  5
25B
330
1F
100
AcDbEntity
  8
0
  6
Continuous
 62
     7
370
    25
100
AcDbCircle
 10
2187.1454585654
 20
2369.5538810975
 30
0.0
 40
0.2000000000002728
100
AcDbArc
 50
90.0
 51
180.0
  0
LINE
  5
25C
330
1F
100
AcDbEntity
  8
0
  6
Continuous
 62
     7
370
    25
100
AcDbLine
 10
2186.9454585654
 20
2368.7538810975
 30
0.0
 11
2186.9454585654
 21
2369.5538810975
 31
0.0
  0
LINE
  5
25D
330
1F
100
AcDbEntity
  8
0
  6
Continuous
 62
     7
370
    25
100
AcDbLine
 10
2399.9454585654
 20
2369.7538810975
 30
0.0
 11
2399.9454585654
 21
2370.6538810975
 31
0.0
  0
LINE
  5
25E
330
1F
100
AcDbEntity
  8
0
  6
Continuous
 62
     7
370
    25
100
AcDbLine
 10
2369.9454585654
 20
2370.6538810975
 30
0.0
 11
2369.9454585654
 21
2369.7538810975
 31
0.0
  0
LINE
  5
25F
330
1F
100
AcDbEntity
  8
0
  6
Continuous
 62
     7
370
    25
100
AcDbLine
 10
2369.966408286
 20
2370.9538810975
 30
0.0
 11
2369.9454585654
 21
2370.6538810975
 31
0.0
  0
LINE
  5
260
330
1F
100
AcDbEntity
  8
0
  6
Continuous
 62
     7
370
    25
100
AcDbLine
 10
2374.5468228464
 20
2370.6538810975
 30
0.0
 11
2395.3440942843
 21
2370.6538810975
 31
0.0
  0
LINE
  5
261
330
1F
100
AcDbEntity
  8
0
  6
Continuous
 62
     7
370
    25
100
AcDbLine
 10
2374.5670931167
 20
2370.9538810975
 30
0.0
 11
2374.5468228464
 21
2370.6538810975
 31
0.0
  0
LINE
  5
262
330
1F
100
AcDbEntity
  8
0
  6
Continuous
 62
     7
370
    25
100
AcDbLine
 10
2395.3440942843
 20
2370.6538810975
 30
0.0
 11
2395.323824014
 21
2370.9538810975
 31
0.0
  0
LINE
  5
263
330
1F
100
AcDbEntity
  8
0
  6
Continuous
 62
     7
370
    25
100
AcDbLine
 10
2399.9454585654
 20
2370.6538810975
 30
0.0
 11
2399.9245088447
 21
2370.9538810975
 31
0.0
  0
ARC
  5
264
330
1F
100
AcDbEntity
  8
0
  6
Continuous
 62
     7
370
    25
100
AcDbCircle
 10
2208.4454585697
 20
2369.6538810975
 30
0.0
 40
3.000000000000547
100
AcDbArc
 50
154.3207113805
 51
178.0897868283
  0
ARC
  5
265
330
1F
100
AcDbEntity
  8
0
  6
Continuous
 62
     7
370
    25
100
AcDbCircle
 10
2224.4454585697
 20
2369.6538810975
 30
0.0
 40
3.000000000000088
100
AcDbArc
 50
1.9102131718
 51
25.6792886195
  0
LINE
  5
266
330
1F
100
AcDbEntity
  8
0
  6
Continuous
 62
     7
370
    25
100
AcDbLine
 10
2205.4454585697
 20
2369.9538810975
 30
0.0
 11
2191.2577838159
 21
2369.9538810975
 31
0.0
  0
LINE
  5
267
330
1F
100
AcDbEntity
  8
0
  6
Continuous
 62
     7
370
    25
100
AcDbLine
 10
2205.4454585697
 20
2369.7538810975
 30
0.0
 11
2205.4454585697
 21
2369.9538810975
 31
0.0
  0
LINE
  5
268
330
1F
100
AcDbEntity
  8
0
  6
Continuous
 62
     7
370
    25
100
AcDbLine
 10
2191.2577838159
 20
2369.9538810975
 30
0.0
 11
2191.2577838159
 21
2369.7538810975
 31
0.0
  0
LINE
  5
269
330
1F
100
AcDbEntity
  8
0
  6
Continuous
 62
     7
370
    25
100
AcDbLine
 10
2203.3859106131
 20
2370.9538810975
 30
0.0
 11
2203.3628582571
 21
2369.9538810975
 31
0.0
  0
LINE
  5
26A
330
1F
100
AcDbEntity
  8
0
  6
Continuous
 62
     7
370
    25
100
AcDbLine
 10
2204.6632036285
 20
2369.9538810975
 30
0.0
 11
2204.6862559845
 21
2370.9538810975
 31
0.0
  0
ARC
  5
26B
330
1F
100
AcDbEntity
  8
0
  6
Continuous
 62
     7
370
    25
100
AcDbCircle
 10
2221.4448257767
 20
2900.3320258099
 30
0.0
 40
147.0082502473463
100
AcDbArc
 50
266.0997819289
 51
273.9007124515
  0
LWPOLYLINE
  5
26C
330
1F
100
AcDbEntity
  8
0
  6
Continuous
 62
     7
370
    25
100
AcDbPolyline
 90
        6
 70
   128
 43
0.0
 10
2229.056639358
 20
2754.7383210839
 10
2229.7957539085
 20
2754.778352200901
 10
2230.2473606486
 20
2754.8240102435
 10
2230.3386164832
 20
2754.8711133513
 10
2230.0657853877
 20
2754.9177331174
 10
2229.9418327899
 20
2754.9290740988
  0
LWPOLYLINE
  5
26D
330
1F
100
AcDbEntity
  8
0
  6
Continuous
 62
     7
370
    25
100
AcDbPolyline
 90
        7
 70
   128
 43
0.0
 10
2212.9490843408
 20
2754.9290740988
 10
2212.825131743
 20
2754.9177331174
 10
2212.5523006476
 20
2754.8711133513
 10
2212.6435564822
 20
2754.8240102435
 10
2213.0951632222
 20
2754.778352200901
 10
2213.8886320348
 20
2754.736008469001
 10
2214.7435540402
 20
2754.7058287716
  0
LWPOLYLINE
  5
26E
330
1F
100
AcDbEntity
  8
0
  6
Continuous
 62
     7
370
    25
100
AcDbPolyline
 90
       19
 70
   128
 43
0.0
 10
2228.4154268517
 20
2755.0564516333
 10
2228.5671548704
 20
2755.0417688196
 10
2228.7503025605
 20
2754.9992186952
 10
2228.5671548704
 20
2754.9566685707
 10
2228.0268955899
 20
2754.9162520871
 10
2227.1566155753
 20
2754.8799958958
 10
2225.9999543005
 20
2754.8497180334
 10
2224.6149115917
 20
2754.8269367584
 10
2223.0709392736
 20
2754.8127944191
 10
2221.4454585654
 20
2754.808000171501
 10
2219.8199778572
 20
2754.8127944191
 10
2218.2760055391
 20
2754.8269367584
 10
2216.8909628302
 20
2754.8497180334
 10
2215.7343015554
 20
2754.8799958958
 10
2214.8640215408
 20
2754.9162520871
 10
2214.3237622603
 20
2754.9566685707
 10
2214.1406145702
 20
2754.9992186952
 10
2214.3237622603
 20
2755.0417688196
 10
2214.475490279
 20
2755.0564516333
  0
SPLINE
  5
26F
330
1F
100
AcDbEntity
  8
0
  6
Continuous
 62
     7
370
    25
100
AcDbSpline
210
0.0
220
0.0
230
1.0
 70
     8
 71
     3
 72
    10
 73
     6
 74
     0
 42
0.00000001
 43
0.0000000001
 40
0.0
 40
0.0
 40
0.0
 40
0.0
 40
0.0219459922087544
 40
0.5300207501342351
 40
1.0
 40
1.0
 40
1.0
 40
1.0
 10
2226.062172969176
 20
2752.531668758931
 30
0.0
 10
2226.060135481751
 20
2752.530130453346
 30
0.0
 10
2226.010927835856
 20
2752.492978618406
 30
0.0
 10
2225.962555166665
 20
2752.375907282436
 30
0.0
 10
2225.949367076366
 20
2752.264160079888
 30
0.0
 10
2225.943029871328
 20
2752.210462772777
 30
0.0
  0
ARC
  5
270
330
1F
100
AcDbEntity
  8
0
  6
Continuous
 62
     7
370
    25
100
AcDbCircle
 10
2221.4727661044
 20
2818.5310144338
 30
0.0
 40
66.47103753347643
100
AcDbArc
 50
266.0945910318
 51
273.8561261672
  0
LINE
  5
271
330
1F
100
AcDbEntity
  8
0
  6
Continuous
 62
     7
370
    25
100
AcDbLine
 10
2225.9454585654
 20
2752.2143323905
 30
0.0
 11
2225.9430298712
 21
2752.2104627727
 31
0.0
  0
ARC
  5
272
330
1F
100
AcDbEntity
  8
0
  6
Continuous
 62
     7
370
    25
100
AcDbCircle
 10
2547.944825776701
 20
2900.33202581
 30
0.0
 40
147.0082502474939
100
AcDbArc
 50
266.0997819289
 51
273.9007124515
  0
LWPOLYLINE
  5
273
330
1F
100
AcDbEntity
  8
0
  6
Continuous
 62
     7
370
    25
100
AcDbPolyline
 90
        6
 70
   128
 43
0.0
 10
2555.556639358
 20
2754.7383210839
 10
2556.2957539085
 20
2754.778352200901
 10
2556.7473606486
 20
2754.8240102435
 10
2556.8386164832
 20
2754.8711133513
 10
2556.565785387701
 20
2754.9177331174
 10
2556.4418327899
 20
2754.9290740988
  0
LWPOLYLINE
  5
274
330
1F
100
AcDbEntity
  8
0
  6
Continuous
 62
     7
370
    25
100
AcDbPolyline
 90
        7
 70
   128
 43
0.0
 10
2539.4490843408
 20
2754.9290740988
 10
2539.325131743
 20
2754.9177331174
 10
2539.0523006476
 20
2754.8711133513
 10
2539.1435564822
 20
2754.8240102435
 10
2539.5951632222
 20
2754.778352200901
 10
2540.3886320348
 20
2754.736008469001
 10
2541.2435540402
 20
2754.7058287716
  0
LWPOLYLINE
  5
275
330
1F
100
AcDbEntity
  8
0
  6
Continuous
 62
     7
370
    25
100
AcDbPolyline
 90
       19
 70
   128
 43
0.0
 10
2554.9154268517
 20
2755.0564516333
 10
2555.0671548704
 20
2755.0417688196
 10
2555.2503025605
 20
2754.9992186952
 10
2555.0671548704
 20
2754.9566685707
 10
2554.5268955899
 20
2754.9162520871
 10
2553.6566155753
 20
2754.8799958958
 10
2552.4999543005
 20
2754.8497180334
 10
2551.1149115917
 20
2754.8269367584
 10
2549.5709392736
 20
2754.8127944191
 10
2547.945458565401
 20
2754.808000171501
 10
2546.3199778572
 20
2754.8127944191
 10
2544.7760055391
 20
2754.8269367584
 10
2543.3909628302
 20
2754.8497180334
 10
2542.2343015554
 20
2754.8799958958
 10
2541.3640215408
 20
2754.9162520871
 10
2540.8237622603
 20
2754.9566685707
 10
2540.6406145702
 20
2754.9992186952
 10
2540.8237622603
 20
2755.0417688196
 10
2540.975490279
 20
2755.0564516333
  0
SPLINE
  5
276
330
1F
100
AcDbEntity
  8
0
  6
Continuous
 62
     7
370
    25
100
AcDbSpline
210
0.0
220
0.0
230
1.0
 70
     8
 71
     3
 72
    10
 73
     6
 74
     0
 42
0.00000001
 43
0.0000000001
 40
0.0
 40
0.0
 40
0.0
 40
0.0
 40
0.0219459922091179
 40
0.5300207501343826
 40
1.0
 40
1.0
 40
1.0
 40
1.0
 10
2552.562172969176
 20
2752.531668758931
 30
0.0
 10
2552.560135481751
 20
2752.530130453346
 30
0.0
 10
2552.510927835856
 20
2752.492978618406
 30
0.0
 10
2552.462555166666
 20
2752.375907282436
 30
0.0
 10
2552.449367076367
 20
2752.264160079888
 30
0.0
 10
2552.443029871329
 20
2752.210462772777
 30
0.0
  0
ARC
  5
277
330
1F
100
AcDbEntity
  8
0
  6
Continuous
 62
     7
370
    25
100
AcDbCircle
 10
2547.9727661044
 20
2818.5310144338
 30
0.0
 40
66.47103753348686
100
AcDbArc
 50
266.0945910318
 51
273.8561261672
  0
LINE
  5
278
330
1F
100
AcDbEntity
  8
0
  6
Continuous
 62
     7
370
    25
100
AcDbLine
 10
2552.4454585654
 20
2752.2143323905
 30
0.0
 11
2552.4430298712
 21
2752.2104627727
 31
0.0
  0
SPLINE
  5
279
330
1F
100
AcDbEntity
  8
0
  6
Continuous
 62
     7
370
    25
100
AcDbSpline
210
0.0
220
0.0
230
1.0
 70
     8
 71
     3
 72
    10
 73
     6
 74
     0
 42
0.00000001
 43
0.0000000001
 40
0.0
 40
0.0
 40
0.0
 40
0.0
 40
0.1834740337129735
 40
0.4713152133471695
 40
1.0
 40
1.0
 40
1.0
 40
1.0
 10
2206.938044120536
 20
2370.953881097523
 30
0.0
 10
2206.881017377284
 20
2370.888430563512
 30
0.0
 10
2206.734524867591
 20
2370.720298693422
 30
0.0
 10
2206.516685233477
 20
2370.291298749881
 30
0.0
 10
2206.473451546609
 20
2369.904394271619
 30
0.0
 10
2206.445458569703
 20
2369.653881097524
 30
0.0
  0
SPLINE
  5
27A
330
1F
100
AcDbEntity
  8
0
  6
Continuous
 62
     7
370
    25
100
AcDbSpline
210
0.0
220
0.0
230
1.0
 70
     8
 71
     3
 72
    10
 73
     6
 74
     0
 42
0.00000001
 43
0.0000000001
 40
0.0
 40
0.0
 40
0.0
 40
0.0
 40
0.5286786081633505
 40
0.8161383429881624
 40
1.0
 40
1.0
 40
1.0
 40
1.0
 10
2226.445458569704
 20
2369.653881097518
 30
0.0
 10
2226.41746793386
 20
2369.904395604495
 30
0.0
 10
2226.374257879955
 20
2370.291122987563
 30
0.0
 10
2226.156475972971
 20
2370.720139553952
 30
0.0
 10
2226.009989980866
 20
2370.888287050807
 30
0.0
 10
2225.952846049561
 20
2370.953881097523
 30
0.0
  0
LINE
  5
38E
330
1F
100
AcDbEntity
  8
0
  6
Continuous
 62
     7
370
    25
100
AcDbLine
 10
4517.750047958499
 20
1334.7748720752
 30
0.0
 11
4515.9163010121
 21
1334.7268537215
 31
0.0
  0
LINE
  5
38F
330
1F
100
AcDbEntity
  8
0
  6
Continuous
 62
     7
370
    25
100
AcDbLine
 10
4515.9163010121
 20
1329.2249683628
 30
0.0
 11
4517.894021174099
 21
1329.2767567878
 31
0.0
  0
ARC
  5
390
330
1F
100
AcDbEntity
  8
0
  6
Continuous
 62
     7
370
    25
100
AcDbCircle
 10
4517.757901043
 20
1334.4749748777
 30
0.0
 40
0.3000000000003306
100
AcDbArc
 50
1.499999999898671
 51
91.49999999998968
  0
ARC
  5
391
330
1F
100
AcDbEntity
  8
0
  6
Continuous
 62
     7
370
    25
100
AcDbCircle
 10
4517.8861680897
 20
1329.5766539853
 30
0.0
 40
0.3000000000003366
100
AcDbArc
 50
271.4999999999896
 51
1.499999999898671
  0
ARC
  5
392
330
1F
100
AcDbEntity
  8
0
  6
Continuous
 62
     7
370
    25
100
AcDbCircle
 10
4519.857060355
 20
1340.2819143556
 30
0.0
 40
1.200000000000284
100
AcDbArc
 50
271.4999999999896
 51
356.5000000032
  0
ARC
  5
393
330
1F
100
AcDbEntity
  8
0
  6
Continuous
 62
     7
370
    25
100
AcDbCircle
 10
4519.3963460648
 20
1357.8758832752
 30
0.0
 40
1.200000000000529
100
AcDbArc
 50
6.499999996697415
 51
91.49999999998968
  0
LINE
  5
394
330
1F
100
AcDbEntity
  8
0
  6
Continuous
 62
     7
370
    25
100
AcDbLine
 10
4519.1382819156
 20
1339.0626811288
 30
0.0
 11
4519.8884726929
 21
1339.0823255656
 31
0.0
  0
LINE
  5
395
330
1F
100
AcDbEntity
  8
0
  6
Continuous
 62
     7
370
    25
100
AcDbLine
 10
4519.3649337268
 20
1359.0754720652
 30
0.0
 11
4518.6147429495
 21
1359.0558276283
 31
0.0
  0
ARC
  5
396
330
1F
100
AcDbEntity
  8
0
  6
Continuous
 62
     7
370
    25
100
AcDbCircle
 10
4519.133046526
 20
1339.2626125938
 30
0.0
 40
0.1999999999998535
100
AcDbArc
 50
181.5000000000026
 51
271.4999999999896
  0
ARC
  5
397
330
1F
100
AcDbEntity
  8
0
  6
Continuous
 62
     7
370
    25
100
AcDbCircle
 10
4518.619978339099
 20
1358.8558961633
 30
0.0
 40
0.200000000000057
100
AcDbArc
 50
91.49999999978117
 51
181.5000000000026
  0
LINE
  5
398
330
1F
100
AcDbEntity
  8
0
  6
Continuous
 62
     7
370
    25
100
AcDbLine
 10
4521.0548221131
 20
1340.2086561082
 30
0.0
 11
4521.1528571334
 21
1341.8115145215
 31
0.0
  0
LINE
  5
399
330
1F
100
AcDbEntity
  8
0
  6
Continuous
 62
     7
370
    25
100
AcDbLine
 10
4520.7704200861
 20
1356.4161961367
 30
0.0
 11
4520.588632291599
 21
1358.0117271316
 31
0.0
  0
ARC
  5
39A
330
1F
100
AcDbEntity
  8
0
  6
Continuous
 62
     7
370
    25
100
AcDbCircle
 10
4491.2088131807
 20
1343.6429707076
 30
0.0
 40
30.00000000000198
100
AcDbArc
 50
356.4999999999007
 51
1.499999999898671
  0
ARC
  5
39B
330
1F
100
AcDbEntity
  8
0
  6
Continuous
 62
     7
370
    25
100
AcDbCircle
 10
4490.9632644158
 20
1353.0200997237
 30
0.0
 40
30.00000000000258
100
AcDbArc
 50
1.499999999898671
 51
6.499999999896663
  0
LINE
  5
39C
330
1F
100
AcDbEntity
  8
0
  6
Continuous
 62
     7
370
    25
100
AcDbLine
 10
4521.078232038401
 20
1349.0223848583
 30
0.0
 11
4521.0757585475
 21
1349.1168436648
 31
0.0
  0
SPLINE
  5
39D
330
1F
100
AcDbEntity
  8
0
  6
Continuous
 62
     7
370
    25
100
AcDbSpline
210
0.0
220
0.0
230
1.0
 70
     8
 71
     3
 72
    11
 73
     7
 74
     0
 42
0.00000001
 43
0.0000000001
 40
0.0
 40
0.0
 40
0.0
 40
0.0
 40
0.2706712709044488
 40
0.5632120728001543
 40
0.7903891635245555
 40
1.0
 40
1.0
 40
1.0
 40
1.0
 10
4518.294548572447
 20
1344.542472552353
 30
0.0
 10
4518.366361280956
 20
1344.535344805512
 30
0.0
 10
4518.515788977063
 20
1344.520513408521
 30
0.0
 10
4518.687900202777
 20
1344.387093926349
 30
0.0
 10
4518.7889511684
 20
1344.21896553141
 30
0.0
 10
4518.801586985959
 20
1344.103888307107
 30
0.0
 10
4518.807650808065
 20
1344.048663719285
 30
0.0
  0
SPLINE
  5
39E
330
1F
100
AcDbEntity
  8
0
  6
Continuous
 62
     7
370
    25
100
AcDbSpline
210
0.0
220
0.0
230
1.0
 70
     8
 71
     3
 72
    11
 73
     7
 74
     0
 42
0.00000001
 43
0.0000000001
 40
0.0
 40
0.0
 40
0.0
 40
0.0
 40
0.2695105035985372
 40
0.5617364405776624
 40
0.7894224931279864
 40
1.0
 40
1.0
 40
1.0
 40
1.0
 10
4518.545511127042
 20
1354.059374258502
 30
0.0
 10
4518.539444966036
 20
1353.987784817778
 30
0.0
 10
4518.52680136348
 20
1353.838572089226
 30
0.0
 10
4518.396408797245
 20
1353.664552517792
 30
0.0
 10
4518.229638749764
 20
1353.560590211834
 30
0.0
 10
4518.114350096174
 20
1353.546269373957
 30
0.0
 10
4518.058956037687
 20
1353.539388477127
 30
0.0
  0
LINE
  5
39F
330
1F
100
AcDbEntity
  8
0
  6
Continuous
 62
     7
370
    25
100
AcDbLine
 10
4515.9163010121
 20
1344.4801959483
 30
0.0
 11
4518.2945485724
 21
1344.5424725523
 31
0.0
  0
LINE
  5
3A0
330
1F
100
AcDbEntity
  8
0
  6
Continuous
 62
     7
370
    25
100
AcDbLine
 10
4518.0589560377
 20
1353.5393884771
 30
0.0
 11
4515.9163010121
 21
1353.4832810807
 31
0.0
  0
LINE
  5
3A1
330
1F
100
AcDbEntity
  8
0
  6
Continuous
 62
     7
370
    25
100
AcDbLine
 10
4136.916301012099
 20
1426.7543978663
 30
0.0
 11
4136.916301012099
 21
1398.2543978663
 31
0.0
  0
LINE
  5
3A2
330
1F
100
AcDbEntity
  8
0
  6
Continuous
 62
     7
370
    25
100
AcDbLine
 10
4515.9163010121
 20
1398.2543978663
 30
0.0
 11
4515.9163010121
 21
1426.7543978663
 31
0.0
  0
LINE
  5
3A3
330
1F
100
AcDbEntity
  8
0
  6
Continuous
 62
     7
370
    25
100
AcDbLine
 10
4136.916301012099
 20
1398.2543978663
 30
0.0
 11
4515.9163010121
 21
1398.2543978663
 31
0.0
  0
LINE
  5
3A4
330
1F
100
AcDbEntity
  8
0
  6
Continuous
 62
     7
370
    25
100
AcDbLine
 10
4515.9163010121
 20
1426.7543978663
 30
0.0
 11
4136.916301012099
 21
1426.7543978663
 31
0.0
  0
LINE
  5
3A5
330
1F
100
AcDbEntity
  8
0
  6
Continuous
 62
     7
370
    25
100
AcDbLine
 10
4117.4163010121
 20
986.7543978663
 30
0.0
 11
4121.4163010121
 21
986.7543978663
 31
0.0
  0
LINE
  5
3A6
330
1F
100
AcDbEntity
  8
0
  6
Continuous
 62
     7
370
    25
100
AcDbLine
 10
4117.4163010121
 20
986.7543978663
 30
0.0
 11
4117.4163010121
 21
1416.7543978663
 31
0.0
  0
LINE
  5
3A7
330
1F
100
AcDbEntity
  8
0
  6
Continuous
 62
     7
370
    25
100
AcDbLine
 10
4133.9163010121
 20
1020.2543978663
 30
0.0
 11
4133.9163010121
 21
999.7543978662999
 31
0.0
  0
LINE
  5
3A8
330
1F
100
AcDbEntity
  8
0
  6
Continuous
 62
     7
370
    25
100
AcDbLine
 10
4135.416301012099
 20
1020.2543978663
 30
0.0
 11
4133.9163010121
 21
1020.2543978663
 31
0.0
  0
LINE
  5
3A9
330
1F
100
AcDbEntity
  8
0
  6
Continuous
 62
     7
370
    25
100
AcDbLine
 10
4135.416301012099
 20
1020.2543978663
 30
0.0
 11
4135.416301012099
 21
1416.7543978663
 31
0.0
  0
LINE
  5
3AA
330
1F
100
AcDbEntity
  8
0
  6
Continuous
 62
     7
370
    25
100
AcDbLine
 10
4133.9163010121
 20
999.7543978662999
 30
0.0
 11
4121.4163010121
 21
999.7543978662999
 31
0.0
  0
LINE
  5
3AB
330
1F
100
AcDbEntity
  8
0
  6
Continuous
 62
     7
370
    25
100
AcDbLine
 10
4121.4163010121
 20
999.7543978662999
 30
0.0
 11
4121.4163010121
 21
986.7543978663
 31
0.0
  0
LINE
  5
3AC
330
1F
100
AcDbEntity
  8
0
  6
Continuous
 62
     7
370
    25
100
AcDbLine
 10
4117.4163010121
 20
1416.7543978663
 30
0.0
 11
4135.416301012099
 21
1416.7543978663
 31
0.0
  0
LINE
  5
3AD
330
1F
100
AcDbEntity
  8
0
  6
Continuous
 62
     7
370
    25
100
AcDbLine
 10
4137.4163010121
 20
976.7543978662999
 30
0.0
 11
4137.4163010121
 21
1398.2543978663
 31
0.0
  0
LINE
  5
3AE
330
1F
100
AcDbEntity
  8
0
  6
Continuous
 62
     7
370
    25
100
AcDbLine
 10
4515.9163010121
 20
976.7543978662999
 30
0.0
 11
4515.9163010121
 21
1398.2543978663
 31
0.0
  0
LINE
  5
3AF
330
1F
100
AcDbEntity
  8
0
  6
Continuous
 62
     7
370
    25
100
AcDbLine
 10
4137.4163010121
 20
976.7543978662999
 30
0.0
 11
4515.9163010121
 21
976.7543978662999
 31
0.0
  0
SPLINE
  5
3B0
330
1F
100
AcDbEntity
  8
0
  6
Continuous
 62
     7
370
    25
100
AcDbSpline
210
0.0
220
0.0
230
1.0
 70
    24
 71
     3
 72
    12
 73
     8
 74
     0
 42
0.00000001
 43
0.0000000001
 40
0.0
 40
0.0
 40
0.0
 40
0.0
 40
0.2460973337389956
 40
0.4921955654195413
 40
0.738302577044096
 40
0.9844160040482867
 40
1.0
 40
1.0
 40
1.0
 40
1.0
 10
4518.121931763795
 20
1332.033667515996
 30
0.0
 10
4518.130161240796
 20
1331.719396468498
 30
0.0
 10
4518.146620224825
 20
1331.090853226814
 30
0.0
 10
4518.167936227935
 20
1330.276827909652
 30
0.0
 10
4518.18147649068
 20
1329.759746136904
 30
0.0
 10
4518.187395967761
 20
1329.533690427251
 30
0.0
 10
4518.185875737425
 20
1329.591745681663
 30
0.0
 10
4518.185785208205
 20
1329.595202853077
 30
0.0
  0
SPLINE
  5
3B1
330
1F
100
AcDbEntity
  8
0
  6
Continuous
 62
     7
370
    25
100
AcDbSpline
210
0.0
220
0.0
230
1.0
 70
     8
 71
     3
 72
    11
 73
     7
 74
     0
 42
0.00000001
 43
0.0000000001
 40
0.0
 40
0.0
 40
0.0
 40
0.0
 40
0.2382247349852351
 40
0.4921376904596563
 40
0.7460575595478418
 40
1.0
 40
1.0
 40
1.0
 40
1.0
 10
4518.058072034715
 20
1334.472372180739
 30
0.0
 10
4518.058744419021
 20
1334.446694861225
 30
0.0
 10
4518.060133467298
 20
1334.393649249805
 30
0.0
 10
4518.073671064533
 20
1333.876669251059
 30
0.0
 10
4518.093771655868
 20
1333.109058705194
 30
0.0
 10
4518.11015529726
 20
1332.483392512937
 30
0.0
 10
4518.118347482032
 20
1332.170545513297
 30
0.0
  0
LINE
  5
3B2
330
1F
100
AcDbEntity
  8
0
  6
Continuous
 62
     7
370
    25
100
AcDbLine
 10
4518.118347482
 20
1332.1705455133
 30
0.0
 11
4518.1219317638
 21
1332.033667516
 31
0.0
  0
SPLINE
  5
3B3
330
1F
100
AcDbEntity
  8
0
  6
Continuous
 62
     7
370
    25
100
AcDbSpline
210
0.0
220
0.0
230
1.0
 70
    24
 71
     3
 72
    13
 73
     9
 74
     0
 42
0.00000001
 43
0.0000000001
 40
0.0
 40
0.0
 40
0.0
 40
0.0
 40
0.1813201537907813
 40
0.4101468448380521
 40
0.5438150184965087
 40
0.6886421238875737
 40
0.8419966874126878
 40
1.0
 40
1.0
 40
1.0
 40
1.0
 10
4518.676580967553
 20
1349.054018988886
 30
0.0
 10
4518.652354093911
 20
1349.979205966927
 30
0.0
 10
4518.597552817952
 20
1352.071982263415
 30
0.0
 10
4518.531192586929
 20
1354.606177244851
 30
0.0
 10
4518.481221570375
 20
1356.514493376594
 30
0.0
 10
4518.448299481661
 20
1357.771737221525
 30
0.0
 10
4518.425017322933
 20
1358.660846992431
 30
0.0
 10
4518.421725129525
 20
1358.78657078643
 30
0.0
 10
4518.420054455666
 20
1358.850371247079
 30
0.0
  0
SPLINE
  5
3B4
330
1F
100
AcDbEntity
  8
0
  6
Continuous
 62
     7
370
    25
100
AcDbSpline
210
0.0
220
0.0
230
1.0
 70
    24
 71
     3
 72
    13
 73
     9
 74
     0
 42
0.00000001
 43
0.0000000001
 40
0.0
 40
0.0
 40
0.0
 40
0.0
 40
0.1538581583651961
 40
0.3079676862452768
 40
0.4535077802384951
 40
0.5878340078345566
 40
0.8177872163813388
 40
1.0
 40
1.0
 40
1.0
 40
1.0
 10
4518.932881372515
 20
1339.266301405848
 30
0.0
 10
4518.931561895873
 20
1339.316690185941
 30
0.0
 10
4518.928920786857
 20
1339.417550070022
 30
0.0
 10
4518.906694001445
 20
1340.266356760077
 30
0.0
 10
4518.874525991148
 20
1341.494803511993
 30
0.0
 10
4518.82526305956
 20
1343.376078969865
 30
0.0
 10
4518.759443730821
 20
1345.889617726496
 30
0.0
 10
4518.704718667676
 20
1347.979483573086
 30
0.0
 10
4518.68052548755
 20
1348.903383847575
 30
0.0
  0
LINE
  5
3B5
330
1F
100
AcDbEntity
  8
0
  6
Continuous
 62
     7
370
    25
100
AcDbLine
 10
4521.078232038401
 20
1349.0223848582
 30
0.0
 11
4521.198532929999
 21
1344.4282791568
 31
0.0
  0
LINE
  5
3B6
330
1F
100
AcDbEntity
  8
0
  6
Continuous
 62
     7
370
    25
100
AcDbLine
 10
4520.952984165
 20
1353.8054081729
 30
0.0
 11
4521.0757585475
 21
1349.1168436648
 31
0.0
  0
SPLINE
  5
3B7
330
1F
100
AcDbEntity
  8
0
  6
Continuous
 62
     7
370
    25
100
AcDbSpline
210
0.0
220
0.0
230
1.0
 70
     8
 71
     3
 72
    11
 73
     7
 74
     0
 42
0.00000001
 43
0.0000000001
 40
0.0
 40
0.0
 40
0.0
 40
0.0
 40
0.2702602051691415
 40
0.5624283659902113
 40
0.7897359586728284
 40
1.0
 40
1.0
 40
1.0
 40
1.0
 10
4518.672281383429
 20
1349.218213482242
 30
0.0
 10
4518.663531975717
 20
1349.215656025557
 30
0.0
 10
4518.645323911824
 20
1349.210333798471
 30
0.0
 10
4518.510265639419
 20
1349.20128582409
 30
0.0
 10
4518.342203449887
 20
1349.193677152425
 30
0.0
 10
4518.227838085995
 20
1349.190318953096
 30
0.0
 10
4518.17288268731
 20
1349.188705254886
 30
0.0
  0
SPLINE
  5
3B8
330
1F
100
AcDbEntity
  8
0
  6
Continuous
 62
     7
370
    25
100
AcDbSpline
210
0.0
220
0.0
230
1.0
 70
     8
 71
     3
 72
    10
 73
     6
 74
     0
 42
0.00000001
 43
0.0000000001
 40
0.0
 40
0.0
 40
0.0
 40
0.0
 40
0.369868246393449
 40
0.7394183665247829
 40
1.0
 40
1.0
 40
1.0
 40
1.0
 10
4518.4001613348
 20
1348.531609380491
 30
0.0
 10
4518.396941611832
 20
1348.655185441902
 30
0.0
 10
4518.3905049352
 20
1348.902231276091
 30
0.0
 10
4518.381012383299
 20
1349.268343236764
 30
0.0
 10
4518.37548508435
 20
1349.475556144413
 30
0.0
 10
4518.373199351912
 20
1349.56124596665
 30
0.0
  0
ARC
  5
3B9
330
1F
100
AcDbEntity
  8
0
  6
Continuous
 62
     7
370
    25
100
AcDbCircle
 10
4124.333114781999
 20
996.7543978663
 30
0.0
 40
1.19999999999996
100
AcDbArc
 50
90.0
 51
175.0300534053043
  0
LINE
  5
3BA
330
1F
100
AcDbEntity
  8
0
  6
Continuous
 62
     7
370
    25
100
AcDbLine
 10
4122.296437831099
 20
987.1850913096
 30
0.0
 11
4123.137626449699
 21
996.8583577013999
 31
0.0
  0
ARC
  5
3BB
330
1F
100
AcDbEntity
  8
0
  6
Continuous
 62
     7
370
    25
100
AcDbCircle
 10
4121.499445609599
 20
987.2543978662999
 30
0.0
 40
0.7999999999999814
100
AcDbArc
 50
260.4234115188801
 51
355.030053405304
  0
ARC
  5
3BC
330
1F
100
AcDbEntity
  8
0
  6
Continuous
 62
     7
370
    25
100
AcDbCircle
 10
4121.416262686099
 20
986.7613658174001
 30
0.0
 40
0.3000000000004442
100
AcDbArc
 50
223.6216529672108
 51
260.4234115188801
  0
LINE
  5
3BD
330
1F
100
AcDbEntity
  8
0
  6
Continuous
 62
     7
370
    25
100
AcDbLine
 10
4121.6163010121
 20
986.5543978663
 30
0.0
 11
4121.1990893286
 21
986.5543978663
 31
0.0
  0
LINE
  5
3BE
330
1F
100
AcDbEntity
  8
0
  6
Continuous
 62
     7
370
    25
100
AcDbLine
 10
4121.6163010121
 20
999.5543978663
 30
0.0
 11
4121.6163010121
 21
986.5543978663
 31
0.0
  0
LINE
  5
3BF
330
1F
100
AcDbEntity
  8
0
  6
Continuous
 62
     7
370
    25
100
AcDbLine
 10
4134.1163010121
 20
999.5543978663
 30
0.0
 11
4121.6163010121
 21
999.5543978663
 31
0.0
  0
LINE
  5
3C0
330
1F
100
AcDbEntity
  8
0
  6
Continuous
 62
     7
370
    25
100
AcDbLine
 10
4134.1163010121
 20
1019.5543978663
 30
0.0
 11
4134.1163010121
 21
999.5543978663
 31
0.0
  0
LINE
  5
3C1
330
1F
100
AcDbEntity
  8
0
  6
Continuous
 62
     7
370
    25
100
AcDbLine
 10
4135.5163010121
 20
1019.5543978663
 30
0.0
 11
4134.1163010121
 21
1019.5543978663
 31
0.0
  0
LINE
  5
3C2
330
1F
100
AcDbEntity
  8
0
  6
Continuous
 62
     7
370
    25
100
AcDbLine
 10
4135.5163010121
 20
998.7543978663
 30
0.0
 11
4135.5163010121
 21
1019.5543978663
 31
0.0
  0
ARC
  5
3C3
330
1F
100
AcDbEntity
  8
0
  6
Continuous
 62
     7
370
    25
100
AcDbCircle
 10
4134.7163010121
 20
998.7543978663
 30
0.0
 40
0.8000000000001818
100
AcDbArc
 50
270.0
 51
0.0
  0
LINE
  5
3C4
330
1F
100
AcDbEntity
  8
0
  6
Continuous
 62
     7
370
    25
100
AcDbLine
 10
4124.333114781999
 20
997.9543978663
 30
0.0
 11
4134.7163010121
 21
997.9543978663
 31
0.0
  0
LINE
  5
3C5
330
1F
100
AcDbEntity
  8
0
  6
Continuous
 62
     7
370
    25
100
AcDbLine
 10
4121.4163010121
 20
999.7543978662999
 30
0.0
 11
4121.6163010121
 21
999.5543978663
 31
0.0
  0
LINE
  5
3C6
330
1F
100
AcDbEntity
  8
0
  6
Continuous
 62
     7
370
    25
100
AcDbLine
 10
4121.4163010121
 20
986.7543978663
 30
0.0
 11
4121.6163010121
 21
986.5543978663
 31
0.0
  0
LINE
  5
3C7
330
1F
100
AcDbEntity
  8
0
  6
Continuous
 62
     7
370
    25
100
AcDbLine
 10
4123.137626449699
 20
996.8583577013999
 30
0.0
 11
4123.3368745051
 21
996.8410310622001
 31
0.0
  0
LINE
  5
3C8
330
1F
100
AcDbEntity
  8
0
  6
Continuous
 62
     7
370
    25
100
AcDbLine
 10
4123.3368745051
 20
996.8410310622001
 30
0.0
 11
4122.4956858865
 21
987.1677646703998
 31
0.0
  0
LINE
  5
3C9
330
1F
100
AcDbEntity
  8
0
  6
Continuous
 62
     7
370
    25
100
AcDbLine
 10
4122.296437831099
 20
987.1850913096
 30
0.0
 11
4122.4956858865
 21
987.1677646703998
 31
0.0
  0
LINE
  5
3CA
330
1F
100
AcDbEntity
  8
0
  6
Continuous
 62
     7
370
    25
100
AcDbLine
 10
4121.3663529321
 20
986.4655465881
 30
0.0
 11
4121.3330797627
 21
986.2683337685
 31
0.0
  0
ARC
  5
3CB
330
1F
100
AcDbEntity
  8
0
  6
Continuous
 62
     7
370
    25
100
AcDbCircle
 10
4121.416262686099
 20
986.7613658174001
 30
0.0
 40
0.5000000000001892
100
AcDbArc
 50
180.798494226097
 51
260.4234115188801
  0
SPLINE
  5
3CC
330
1F
100
AcDbEntity
  8
0
  6
Continuous
 62
     7
370
    25
100
AcDbSpline
210
0.0
220
0.0
230
1.0
 70
     8
 71
     3
 72
    13
 73
     9
 74
     0
 42
0.00000001
 43
0.0000000001
 40
0.0
 40
0.0
 40
0.0
 40
0.0
 40
0.0075029974113214
 40
0.3818974549657648
 40
0.6070018873267128
 40
0.7653769096342216
 40
0.8824605049805153
 40
1.0
 40
1.0
 40
1.0
 40
1.0
 10
4121.199089328598
 20
986.5543978663124
 30
0.0
 10
4121.198071551982
 20
986.5548358642078
 30
0.0
 10
4121.146267415844
 20
986.5771296585769
 30
0.0
 10
4121.067682050475
 20
986.6240140467926
 30
0.0
 10
4120.985042586444
 20
986.6902984838288
 30
0.0
 10
4120.942946468345
 20
986.7285600430015
 30
0.0
 10
4120.920423041509
 20
986.7503158187366
 30
0.0
 10
4120.917683615396
 20
986.7530354222864
 30
0.0
 10
4120.916311240828
 20
986.7543978663123
 30
0.0
  0
ARC
  5
3CD
330
1F
100
AcDbEntity
  8
0
  6
Continuous
 62
     7
370
    25
100
AcDbCircle
 10
4121.499445609599
 20
987.2543978662999
 30
0.0
 40
1.000000000000051
100
AcDbArc
 50
260.4234115188801
 51
355.030053405304
  0
LINE
  5
3CE
330
1F
100
AcDbEntity
  8
0
  6
Continuous
 62
     7
370
    25
100
AcDbLine
 10
4135.7163010121
 20
1019.5543978663
 30
0.0
 11
4135.7163010121
 21
998.7543978663
 31
0.0
  0
LINE
  5
3CF
330
1F
100
AcDbEntity
  8
0
  6
Continuous
 62
     7
370
    25
100
AcDbLine
 10
4135.7163010121
 20
998.7543978663
 30
0.0
 11
4135.5163010121
 21
998.7543978663
 31
0.0
  0
LINE
  5
3D0
330
1F
100
AcDbEntity
  8
0
  6
Continuous
 62
     7
370
    25
100
AcDbLine
 10
4135.7163010121
 20
1019.5543978663
 30
0.0
 11
4135.5163010121
 21
1019.5543978663
 31
0.0
  0
LINE
  5
3D1
330
1F
100
AcDbEntity
  8
0
  6
Continuous
 62
     7
370
    25
100
AcDbLine
 10
4134.7163010121
 20
997.9543978663
 30
0.0
 11
4134.7163010121
 21
997.7543978663
 31
0.0
  0
LINE
  5
3D2
330
1F
100
AcDbEntity
  8
0
  6
Continuous
 62
     7
370
    25
100
AcDbLine
 10
4134.7163010121
 20
997.7543978663
 30
0.0
 11
4124.333114781999
 21
997.7543978663
 31
0.0
  0
LINE
  5
3D3
330
1F
100
AcDbEntity
  8
0
  6
Continuous
 62
     7
370
    25
100
AcDbLine
 10
4124.333114781999
 20
997.9543978663
 30
0.0
 11
4124.333114781999
 21
997.7543978663
 31
0.0
  0
ARC
  5
3D4
330
1F
100
AcDbEntity
  8
0
  6
Continuous
 62
     7
370
    25
100
AcDbCircle
 10
4124.333114781999
 20
996.7543978663
 30
0.0
 40
1.0
100
AcDbArc
 50
90.0
 51
175.0300534053043
  0
LINE
  5
3D5
330
1F
100
AcDbEntity
  8
0
  6
Continuous
 62
     7
370
    25
100
AcDbLine
 10
4133.9163010121
 20
999.7543978662999
 30
0.0
 11
4134.1163010121
 21
999.5543978663
 31
0.0
  0
ARC
  5
3D6
330
1F
100
AcDbEntity
  8
0
  6
Continuous
 62
     7
370
    25
100
AcDbCircle
 10
4134.7163010121
 20
998.7543978663
 30
0.0
 40
1.000000000000113
100
AcDbArc
 50
270.0000000001042
 51
0.0
  0
LINE
  5
3D7
330
1F
100
AcDbEntity
  8
0
  6
Continuous
 62
     7
370
    25
100
AcDbLine
 10
4133.9163010121
 20
1019.7543978663
 30
0.0
 11
4134.1163010121
 21
1019.5543978663
 31
0.0
  0
LINE
  5
3D8
330
1F
100
AcDbEntity
  8
0
  6
Continuous
 62
     7
370
    25
100
AcDbLine
 10
4135.5163010121
 20
1019.7543978663
 30
0.0
 11
4135.5163010121
 21
1019.5543978663
 31
0.0
  0
ARC
  5
3D9
330
1F
100
AcDbEntity
  8
0
  6
Continuous
 62
     7
370
    25
100
AcDbCircle
 10
4135.5163010121
 20
1019.5543978663
 30
0.0
 40
0.1999999999999318
100
AcDbArc
 50
0.0
 51
90.0
  0
LINE
  5
3DA
330
1F
100
AcDbEntity
  8
0
  6
Continuous
 62
     7
370
    25
100
AcDbLine
 10
4133.9163010121
 20
1019.7543978663
 30
0.0
 11
4135.5163010121
 21
1019.7543978663
 31
0.0
  0
LINE
  5
3DB
330
1F
100
AcDbEntity
  8
0
  6
Continuous
 62
     7
370
    25
100
AcDbLine
 10
4136.616301012099
 20
1384.0543978663
 30
0.0
 11
4136.616301012099
 21
1385.2543978663
 31
0.0
  0
LINE
  5
3DC
330
1F
100
AcDbEntity
  8
0
  6
Continuous
 62
     7
370
    25
100
AcDbLine
 10
4136.616301012099
 20
1385.2543978663
 30
0.0
 11
4137.4163010121
 21
1385.2543978663
 31
0.0
  0
LINE
  5
3DD
330
1F
100
AcDbEntity
  8
0
  6
Continuous
 62
     7
370
    25
100
AcDbLine
 10
4136.616301012099
 20
1384.0543978663
 30
0.0
 11
4137.4163010121
 21
1384.0543978663
 31
0.0
  0
LINE
  5
3DE
330
1F
100
AcDbEntity
  8
0
  6
Continuous
 62
     7
370
    25
100
AcDbLine
 10
4135.416301012099
 20
1385.2543978663
 30
0.0
 11
4136.616301012099
 21
1385.2543978663
 31
0.0
  0
LINE
  5
3DF
330
1F
100
AcDbEntity
  8
0
  6
Continuous
 62
     7
370
    25
100
AcDbLine
 10
4135.416301012099
 20
1384.0543978663
 30
0.0
 11
4136.616301012099
 21
1384.0543978663
 31
0.0
  0
LINE
  5
3E0
330
1F
100
AcDbEntity
  8
0
  6
Continuous
 62
     7
370
    25
100
AcDbLine
 10
4136.616301012099
 20
1366.2543978663
 30
0.0
 11
4136.616301012099
 21
1384.0543978663
 31
0.0
  0
LINE
  5
3E1
330
1F
100
AcDbEntity
  8
0
  6
Continuous
 62
     7
370
    25
100
AcDbLine
 10
4135.416301012099
 20
1366.2543978663
 30
0.0
 11
4136.616301012099
 21
1366.2543978663
 31
0.0
  0
LINE
  5
3E2
330
1F
100
AcDbEntity
  8
0
  6
Continuous
 62
     7
370
    25
100
AcDbLine
 10
4136.616301012099
 20
1366.2543978663
 30
0.0
 11
4136.616301012099
 21
1365.2470896858
 31
0.0
  0
LINE
  5
3E3
330
1F
100
AcDbEntity
  8
0
  6
Continuous
 62
     7
370
    25
100
AcDbLine
 10
4135.9163010121
 20
1057.7984397273
 30
0.0
 11
4135.416301012099
 21
1057.7984397273
 31
0.0
  0
LINE
  5
3E4
330
1F
100
AcDbEntity
  8
0
  6
Continuous
 62
     7
370
    25
100
AcDbLine
 10
4135.9163010121
 20
1059.3543978665
 30
0.0
 11
4135.416301012099
 21
1059.3543978665
 31
0.0
  0
LINE
  5
3E5
330
1F
100
AcDbEntity
  8
0
  6
Continuous
 62
     7
370
    25
100
AcDbLine
 10
4135.9163010121
 20
1059.3543978665
 30
0.0
 11
4135.9163010121
 21
1057.7984397273
 31
0.0
  0
LINE
  5
3E6
330
1F
100
AcDbEntity
  8
0
  6
Continuous
 62
     7
370
    25
100
AcDbLine
 10
4135.416301012099
 20
1075.7103560054
 30
0.0
 11
4135.9163010121
 21
1075.7103560054
 31
0.0
  0
LINE
  5
3E7
330
1F
100
AcDbEntity
  8
0
  6
Continuous
 62
     7
370
    25
100
AcDbLine
 10
4135.9163010121
 20
1075.7103560054
 30
0.0
 11
4135.9163010121
 21
1074.1543978661
 31
0.0
  0
LINE
  5
3E8
330
1F
100
AcDbEntity
  8
0
  6
Continuous
 62
     7
370
    25
100
AcDbLine
 10
4135.416301012099
 20
1074.1543978661
 30
0.0
 11
4135.9163010121
 21
1074.1543978661
 31
0.0
  0
LINE
  5
3E9
330
1F
100
AcDbEntity
  8
0
  6
Continuous
 62
     7
370
    25
100
AcDbLine
 10
4135.6163010121
 20
1048.3628237086
 30
0.0
 11
4135.9163010121
 21
1048.3628237086
 31
0.0
  0
LINE
  5
3EA
330
1F
100
AcDbEntity
  8
0
  6
Continuous
 62
     7
370
    25
100
AcDbLine
 10
4135.416301012099
 20
1048.3628237086
 30
0.0
 11
4135.6163010121
 21
1048.3628237086
 31
0.0
  0
LINE
  5
3EB
330
1F
100
AcDbEntity
  8
0
  6
Continuous
 62
     7
370
    25
100
AcDbLine
 10
4135.9163010121
 20
1048.3628237086
 30
0.0
 11
4135.9163010121
 21
1057.7984397273
 31
0.0
  0
LINE
  5
3EC
330
1F
100
AcDbEntity
  8
0
  6
Continuous
 62
     7
370
    25
100
AcDbLine
 10
4135.6163010121
 20
1085.1459720241
 30
0.0
 11
4135.416301012099
 21
1085.1459720241
 31
0.0
  0
LINE
  5
3ED
330
1F
100
AcDbEntity
  8
0
  6
Continuous
 62
     7
370
    25
100
AcDbLine
 10
4135.9163010121
 20
1085.1459720241
 30
0.0
 11
4135.6163010121
 21
1085.1459720241
 31
0.0
  0
LINE
  5
3EE
330
1F
100
AcDbEntity
  8
0
  6
Continuous
 62
     7
370
    25
100
AcDbLine
 10
4135.9163010121
 20
1075.7103560054
 30
0.0
 11
4135.9163010121
 21
1085.1459720241
 31
0.0
  0
SPLINE
  5
3EF
330
1F
100
AcDbEntity
  8
0
  6
Continuous
 62
     7
370
    25
100
AcDbSpline
210
0.0
220
0.0
230
1.0
 70
    24
 71
     3
 72
    12
 73
     8
 74
     0
 42
0.00000001
 43
0.0000000001
 40
0.0
 40
0.0
 40
0.0
 40
0.0
 40
0.1234882189629546
 40
0.3047574776085323
 40
0.4857888495171557
 40
0.6670582154003763
 40
1.0
 40
1.0
 40
1.0
 40
1.0
 10
4137.416301012061
 20
1038.254397866318
 30
0.0
 10
4137.376554443023
 20
1038.254397866318
 30
0.0
 10
4137.278463594966
 20
1038.254397866318
 30
0.0
 10
4137.038490306604
 20
1038.254397866318
 30
0.0
 10
4136.72287611811
 20
1038.254397866317
 30
0.0
 10
4136.255966029009
 20
1038.254397866318
 30
0.0
 10
4135.867697428772
 20
1038.254397866316
 30
0.0
 10
4135.616301012057
 20
1038.254397866314
 30
0.0
  0
LINE
  5
3F0
330
1F
100
AcDbEntity
  8
0
  6
Continuous
 62
     7
370
    25
100
AcDbLine
 10
4135.6163010121
 20
1039.2543978663
 30
0.0
 11
4135.6163010121
 21
1038.2543978663
 31
0.0
  0
SPLINE
  5
3F1
330
1F
100
AcDbEntity
  8
0
  6
Continuous
 62
     7
370
    25
100
AcDbSpline
210
0.0
220
0.0
230
1.0
 70
    24
 71
     3
 72
    12
 73
     8
 74
     0
 42
0.00000001
 43
0.0000000001
 40
0.0
 40
0.0
 40
0.0
 40
0.0
 40
0.3329369653735156
 40
0.5139656098116915
 40
0.6952322446429113
 40
0.8762609961831072
 40
1.0
 40
1.0
 40
1.0
 40
1.0
 10
4135.616301012049
 20
1095.254397866313
 30
0.0
 10
4135.867698425192
 20
1095.254397866315
 30
0.0
 10
4136.25578877919
 20
1095.254397866317
 30
0.0
 10
4136.722718048866
 20
1095.254397866317
 30
0.0
 10
4137.038236937886
 20
1095.254397866317
 30
0.0
 10
4137.278361156405
 20
1095.254397866317
 30
0.0
 10
4137.376468407416
 20
1095.254397866317
 30
0.0
 10
4137.41630101206
 20
1095.254397866317
 30
0.0
  0
LINE
  5
3F2
330
1F
100
AcDbEntity
  8
0
  6
Continuous
 62
     7
370
    25
100
AcDbLine
 10
4135.616301011999
 20
1094.2543978663
 30
0.0
 11
4135.6163010121
 21
1095.2543978663
 31
0.0
  0
SPLINE
  5
3F3
330
1F
100
AcDbEntity
  8
0
  6
Continuous
 62
     7
370
    25
100
AcDbSpline
210
0.0
220
0.0
230
1.0
 70
     8
 71
     3
 72
    10
 73
     6
 74
     0
 42
0.00000001
 43
0.0000000001
 40
0.0
 40
0.0
 40
0.0
 40
0.0
 40
0.0371311943430135
 40
0.5486628195591451
 40
1.0
 40
1.0
 40
1.0
 40
1.0
 10
4137.41630101206
 20
1056.508633526142
 30
0.0
 10
4137.410678159846
 20
1056.515351873569
 30
0.0
 10
4137.327593034139
 20
1056.614624399191
 30
0.0
 10
4137.106037061554
 20
1056.715053312386
 30
0.0
 10
4136.874726172309
 20
1056.741841237216
 30
0.0
 10
4136.766301012055
 20
1056.754397866314
 30
0.0
  0
LINE
  5
3F4
330
1F
100
AcDbEntity
  8
0
  6
Continuous
 62
     7
370
    25
100
AcDbLine
 10
4135.6163010121
 20
1039.2543978663
 30
0.0
 11
4135.6163010121
 21
1048.3628237086
 31
0.0
  0
LINE
  5
3F5
330
1F
100
AcDbEntity
  8
0
  6
Continuous
 62
     7
370
    25
100
AcDbLine
 10
4135.9163010121
 20
1056.7543978663
 30
0.0
 11
4136.766301012101
 21
1056.7543978663
 31
0.0
  0
LINE
  5
3F6
330
1F
100
AcDbEntity
  8
0
  6
Continuous
 62
     7
370
    25
100
AcDbLine
 10
4135.416301012099
 20
1039.2543978663
 30
0.0
 11
4135.6163010121
 21
1039.2543978663
 31
0.0
  0
SPLINE
  5
3F7
330
1F
100
AcDbEntity
  8
0
  6
Continuous
 62
     7
370
    25
100
AcDbSpline
210
0.0
220
0.0
230
1.0
 70
     8
 71
     3
 72
     9
 73
     5
 74
     0
 42
0.00000001
 43
0.0000000001
 40
0.0
 40
0.0
 40
0.0
 40
0.0
 40
0.5050081268919398
 40
1.0
 40
1.0
 40
1.0
 40
1.0
 10
4136.766301012053
 20
1076.754397866314
 30
0.0
 10
4136.889597283919
 20
1076.766617725698
 30
0.0
 10
4137.133744388296
 20
1076.790815077648
 30
0.0
 10
4137.32274650185
 20
1076.927891150911
 30
0.0
 10
4137.416301012061
 20
1076.995742693174
 30
0.0
  0
LINE
  5
3F8
330
1F
100
AcDbEntity
  8
0
  6
Continuous
 62
     7
370
    25
100
AcDbLine
 10
4135.6163010121
 20
1085.1459720241
 30
0.0
 11
4135.616301011999
 21
1094.2543978663
 31
0.0
  0
LINE
  5
3F9
330
1F
100
AcDbEntity
  8
0
  6
Continuous
 62
     7
370
    25
100
AcDbLine
 10
4136.766301012101
 20
1076.7543978663
 30
0.0
 11
4135.9163010121
 21
1076.7543978663
 31
0.0
  0
LINE
  5
3FA
330
1F
100
AcDbEntity
  8
0
  6
Continuous
 62
     7
370
    25
100
AcDbLine
 10
4135.416301012
 20
1094.2543978663
 30
0.0
 11
4135.616301011999
 21
1094.2543978663
 31
0.0
  0
LINE
  5
3FB
330
1F
100
AcDbEntity
  8
0
  6
Continuous
 62
     7
370
    25
100
AcDbLine
 10
4135.416301012099
 20
1038.2543978663
 30
0.0
 11
4135.6163010121
 21
1038.2543978663
 31
0.0
  0
LINE
  5
3FC
330
1F
100
AcDbEntity
  8
0
  6
Continuous
 62
     7
370
    25
100
AcDbLine
 10
4135.416301012099
 20
1095.2543978663
 30
0.0
 11
4135.6163010121
 21
1095.2543978663
 31
0.0
  0
LINE
  5
3FD
330
1F
100
AcDbEntity
  8
0
  6
Continuous
 62
     7
370
    25
100
AcDbLine
 10
4135.9163010121
 20
1327.7984397273
 30
0.0
 11
4135.416301012099
 21
1327.7984397273
 31
0.0
  0
LINE
  5
3FE
330
1F
100
AcDbEntity
  8
0
  6
Continuous
 62
     7
370
    25
100
AcDbLine
 10
4135.9163010121
 20
1329.3543978665
 30
0.0
 11
4135.416301012099
 21
1329.3543978665
 31
0.0
  0
LINE
  5
3FF
330
1F
100
AcDbEntity
  8
0
  6
Continuous
 62
     7
370
    25
100
AcDbLine
 10
4135.9163010121
 20
1329.3543978665
 30
0.0
 11
4135.9163010121
 21
1327.7984397273
 31
0.0
  0
LINE
  5
400
330
1F
100
AcDbEntity
  8
0
  6
Continuous
 62
     7
370
    25
100
AcDbLine
 10
4135.416301012099
 20
1345.7103560054
 30
0.0
 11
4135.9163010121
 21
1345.7103560054
 31
0.0
  0
LINE
  5
401
330
1F
100
AcDbEntity
  8
0
  6
Continuous
 62
     7
370
    25
100
AcDbLine
 10
4135.9163010121
 20
1345.7103560054
 30
0.0
 11
4135.9163010121
 21
1344.1543978661
 31
0.0
  0
LINE
  5
402
330
1F
100
AcDbEntity
  8
0
  6
Continuous
 62
     7
370
    25
100
AcDbLine
 10
4135.416301012099
 20
1344.1543978661
 30
0.0
 11
4135.9163010121
 21
1344.1543978661
 31
0.0
  0
LINE
  5
403
330
1F
100
AcDbEntity
  8
0
  6
Continuous
 62
     7
370
    25
100
AcDbLine
 10
4135.6163010121
 20
1318.3628237086
 30
0.0
 11
4135.9163010121
 21
1318.3628237086
 31
0.0
  0
LINE
  5
404
330
1F
100
AcDbEntity
  8
0
  6
Continuous
 62
     7
370
    25
100
AcDbLine
 10
4135.416301012099
 20
1318.3628237086
 30
0.0
 11
4135.6163010121
 21
1318.3628237086
 31
0.0
  0
LINE
  5
405
330
1F
100
AcDbEntity
  8
0
  6
Continuous
 62
     7
370
    25
100
AcDbLine
 10
4135.9163010121
 20
1318.3628237086
 30
0.0
 11
4135.9163010121
 21
1327.7984397273
 31
0.0
  0
LINE
  5
406
330
1F
100
AcDbEntity
  8
0
  6
Continuous
 62
     7
370
    25
100
AcDbLine
 10
4135.6163010121
 20
1355.1459720241
 30
0.0
 11
4135.416301012099
 21
1355.1459720241
 31
0.0
  0
LINE
  5
407
330
1F
100
AcDbEntity
  8
0
  6
Continuous
 62
     7
370
    25
100
AcDbLine
 10
4135.9163010121
 20
1355.1459720241
 30
0.0
 11
4135.6163010121
 21
1355.1459720241
 31
0.0
  0
LINE
  5
408
330
1F
100
AcDbEntity
  8
0
  6
Continuous
 62
     7
370
    25
100
AcDbLine
 10
4135.9163010121
 20
1345.7103560054
 30
0.0
 11
4135.9163010121
 21
1355.1459720241
 31
0.0
  0
SPLINE
  5
409
330
1F
100
AcDbEntity
  8
0
  6
Continuous
 62
     7
370
    25
100
AcDbSpline
210
0.0
220
0.0
230
1.0
 70
    24
 71
     3
 72
    12
 73
     8
 74
     0
 42
0.00000001
 43
0.0000000001
 40
0.0
 40
0.0
 40
0.0
 40
0.0
 40
0.1234882189629546
 40
0.3047574776085323
 40
0.4857888495171557
 40
0.6670582154003763
 40
1.0
 40
1.0
 40
1.0
 40
1.0
 10
4137.416301012061
 20
1308.254397866317
 30
0.0
 10
4137.376554443023
 20
1308.254397866317
 30
0.0
 10
4137.278463594966
 20
1308.254397866317
 30
0.0
 10
4137.038490306604
 20
1308.254397866318
 30
0.0
 10
4136.72287611811
 20
1308.254397866317
 30
0.0
 10
4136.255966029009
 20
1308.254397866318
 30
0.0
 10
4135.867697428772
 20
1308.254397866316
 30
0.0
 10
4135.616301012057
 20
1308.254397866314
 30
0.0
  0
LINE
  5
40A
330
1F
100
AcDbEntity
  8
0
  6
Continuous
 62
     7
370
    25
100
AcDbLine
 10
4135.6163010121
 20
1309.2543978663
 30
0.0
 11
4135.6163010121
 21
1308.2543978663
 31
0.0
  0
SPLINE
  5
40B
330
1F
100
AcDbEntity
  8
0
  6
Continuous
 62
     7
370
    25
100
AcDbSpline
210
0.0
220
0.0
230
1.0
 70
    24
 71
     3
 72
    12
 73
     8
 74
     0
 42
0.00000001
 43
0.0000000001
 40
0.0
 40
0.0
 40
0.0
 40
0.0
 40
0.332936965373518
 40
0.5139656098116951
 40
0.6952322446429475
 40
0.8762609961831063
 40
1.0
 40
1.0
 40
1.0
 40
1.0
 10
4135.616301012049
 20
1365.254397866314
 30
0.0
 10
4135.867698425192
 20
1365.254397866315
 30
0.0
 10
4136.25578877919
 20
1365.254397866317
 30
0.0
 10
4136.722718048866
 20
1365.254397866317
 30
0.0
 10
4137.038236937886
 20
1365.254397866317
 30
0.0
 10
4137.278361156405
 20
1365.254397866317
 30
0.0
 10
4137.376468407416
 20
1365.254397866317
 30
0.0
 10
4137.41630101206
 20
1365.254397866317
 30
0.0
  0
LINE
  5
40C
330
1F
100
AcDbEntity
  8
0
  6
Continuous
 62
     7
370
    25
100
AcDbLine
 10
4135.616301011999
 20
1364.2543978663
 30
0.0
 11
4135.6163010121
 21
1365.2543978663
 31
0.0
  0
LINE
  5
40D
330
1F
100
AcDbEntity
  8
0
  6
Continuous
 62
     7
370
    25
100
AcDbLine
 10
4135.416301012099
 20
1309.2543978663
 30
0.0
 11
4135.6163010121
 21
1309.2543978663
 31
0.0
  0
LINE
  5
40E
330
1F
100
AcDbEntity
  8
0
  6
Continuous
 62
     7
370
    25
100
AcDbLine
 10
4135.6163010121
 20
1309.2543978663
 30
0.0
 11
4135.6163010121
 21
1318.3628237086
 31
0.0
  0
SPLINE
  5
40F
330
1F
100
AcDbEntity
  8
0
  6
Continuous
 62
     7
370
    25
100
AcDbSpline
210
0.0
220
0.0
230
1.0
 70
     8
 71
     3
 72
    10
 73
     6
 74
     0
 42
0.00000001
 43
0.0000000001
 40
0.0
 40
0.0
 40
0.0
 40
0.0
 40
0.0371311943430247
 40
0.5486628195591504
 40
1.0
 40
1.0
 40
1.0
 40
1.0
 10
4137.416301012061
 20
1326.508633526142
 30
0.0
 10
4137.410678159846
 20
1326.515351873569
 30
0.0
 10
4137.327593034139
 20
1326.614624399191
 30
0.0
 10
4137.106037061555
 20
1326.715053312386
 30
0.0
 10
4136.874726172309
 20
1326.741841237216
 30
0.0
 10
4136.766301012055
 20
1326.754397866314
 30
0.0
  0
LINE
  5
410
330
1F
100
AcDbEntity
  8
0
  6
Continuous
 62
     7
370
    25
100
AcDbLine
 10
4135.9163010121
 20
1326.7543978663
 30
0.0
 11
4136.766301012101
 21
1326.7543978663
 31
0.0
  0
LINE
  5
411
330
1F
100
AcDbEntity
  8
0
  6
Continuous
 62
     7
370
    25
100
AcDbLine
 10
4135.416301012
 20
1364.2543978663
 30
0.0
 11
4135.616301011999
 21
1364.2543978663
 31
0.0
  0
LINE
  5
412
330
1F
100
AcDbEntity
  8
0
  6
Continuous
 62
     7
370
    25
100
AcDbLine
 10
4135.6163010121
 20
1355.1459720241
 30
0.0
 11
4135.616301011999
 21
1364.2543978663
 31
0.0
  0
SPLINE
  5
413
330
1F
100
AcDbEntity
  8
0
  6
Continuous
 62
     7
370
    25
100
AcDbSpline
210
0.0
220
0.0
230
1.0
 70
     8
 71
     3
 72
     9
 73
     5
 74
     0
 42
0.00000001
 43
0.0000000001
 40
0.0
 40
0.0
 40
0.0
 40
0.0
 40
0.5050081268919437
 40
1.0
 40
1.0
 40
1.0
 40
1.0
 10
4136.766301012053
 20
1346.754397866314
 30
0.0
 10
4136.889597283919
 20
1346.766617725698
 30
0.0
 10
4137.133744388296
 20
1346.790815077648
 30
0.0
 10
4137.32274650185
 20
1346.927891150911
 30
0.0
 10
4137.41630101206
 20
1346.995742693174
 30
0.0
  0
LINE
  5
414
330
1F
100
AcDbEntity
  8
0
  6
Continuous
 62
     7
370
    25
100
AcDbLine
 10
4136.766301012101
 20
1346.7543978663
 30
0.0
 11
4135.9163010121
 21
1346.7543978663
 31
0.0
  0
LINE
  5
415
330
1F
100
AcDbEntity
  8
0
  6
Continuous
 62
     7
370
    25
100
AcDbLine
 10
4135.416301012099
 20
1308.2543978663
 30
0.0
 11
4135.6163010121
 21
1308.2543978663
 31
0.0
  0
LINE
  5
416
330
1F
100
AcDbEntity
  8
0
  6
Continuous
 62
     7
370
    25
100
AcDbLine
 10
4135.416301012099
 20
1365.2543978663
 30
0.0
 11
4135.6163010121
 21
1365.2543978663
 31
0.0
  0
LINE
  5
417
330
1F
100
AcDbEntity
  8
0
  6
Continuous
 62
     7
370
    25
100
AcDbLine
 10
4137.2814859371
 20
1058.3793978663
 30
0.0
 11
4137.2814859371
 21
1059.3043978663
 31
0.0
  0
LINE
  5
418
330
1F
100
AcDbEntity
  8
0
  6
Continuous
 62
     7
370
    25
100
AcDbLine
 10
4137.2814859371
 20
1074.2043978663
 30
0.0
 11
4137.2814859371
 21
1075.1293978663
 31
0.0
  0
LINE
  5
419
330
1F
100
AcDbEntity
  8
0
  6
Continuous
 62
     7
370
    25
100
AcDbLine
 10
4137.2814859371
 20
1075.1293978663
 30
0.0
 11
4137.4163010121
 21
1075.1293978663
 31
0.0
  0
LINE
  5
41A
330
1F
100
AcDbEntity
  8
0
  6
Continuous
 62
     7
370
    25
100
AcDbLine
 10
4137.4163010121
 20
1058.3793978663
 30
0.0
 11
4137.2814859371
 21
1058.3793978663
 31
0.0
  0
LINE
  5
41B
330
1F
100
AcDbEntity
  8
0
  6
Continuous
 62
     7
370
    25
100
AcDbLine
 10
4135.9163010121
 20
1075.1293978663
 30
0.0
 11
4137.2814859371
 21
1075.1293978663
 31
0.0
  0
LINE
  5
41C
330
1F
100
AcDbEntity
  8
0
  6
Continuous
 62
     7
370
    25
100
AcDbLine
 10
4137.2814859371
 20
1058.3793978663
 30
0.0
 11
4135.9163010121
 21
1058.3793978663
 31
0.0
  0
LINE
  5
41D
330
1F
100
AcDbEntity
  8
0
  6
Continuous
 62
     7
370
    25
100
AcDbLine
 10
4137.2814859371
 20
1328.3793978663
 30
0.0
 11
4137.2814859371
 21
1329.3043978663
 31
0.0
  0
LINE
  5
41E
330
1F
100
AcDbEntity
  8
0
  6
Continuous
 62
     7
370
    25
100
AcDbLine
 10
4137.2814859371
 20
1344.2043978663
 30
0.0
 11
4137.2814859371
 21
1345.1293978663
 31
0.0
  0
LINE
  5
41F
330
1F
100
AcDbEntity
  8
0
  6
Continuous
 62
     7
370
    25
100
AcDbLine
 10
4137.2814859371
 20
1345.1293978663
 30
0.0
 11
4137.4163010121
 21
1345.1293978663
 31
0.0
  0
LINE
  5
420
330
1F
100
AcDbEntity
  8
0
  6
Continuous
 62
     7
370
    25
100
AcDbLine
 10
4137.4163010121
 20
1328.3793978663
 30
0.0
 11
4137.2814859371
 21
1328.3793978663
 31
0.0
  0
LINE
  5
421
330
1F
100
AcDbEntity
  8
0
  6
Continuous
 62
     7
370
    25
100
AcDbLine
 10
4135.9163010121
 20
1345.1293978663
 30
0.0
 11
4137.2814859371
 21
1345.1293978663
 31
0.0
  0
LINE
  5
422
330
1F
100
AcDbEntity
  8
0
  6
Continuous
 62
     7
370
    25
100
AcDbLine
 10
4137.2814859371
 20
1328.3793978663
 30
0.0
 11
4135.9163010121
 21
1328.3793978663
 31
0.0
  0
LINE
  5
423
330
1F
100
AcDbEntity
  8
0
  6
Continuous
 62
     7
370
    25
100
AcDbLine
 10
4137.4163010121
 20
1330.2543978663
 30
0.0
 11
4135.416301012099
 21
1330.2543978663
 31
0.0
  0
LINE
  5
424
330
1F
100
AcDbEntity
  8
0
  6
Continuous
 62
     7
370
    25
100
AcDbLine
 10
4135.416301012099
 20
1343.2543978663
 30
0.0
 11
4137.4163010121
 21
1343.2543978663
 31
0.0
  0
LINE
  5
425
330
1F
100
AcDbEntity
  8
0
  6
Continuous
 62
     7
370
    25
100
AcDbLine
 10
4136.6875835572
 20
1344.2043978663
 30
0.0
 11
4136.6875835572
 21
1343.2543978663
 31
0.0
  0
LINE
  5
426
330
1F
100
AcDbEntity
  8
0
  6
Continuous
 62
     7
370
    25
100
AcDbLine
 10
4136.6875835572
 20
1330.2543978663
 30
0.0
 11
4136.6875835572
 21
1329.3043978663
 31
0.0
  0
LINE
  5
427
330
1F
100
AcDbEntity
  8
0
  6
Continuous
 62
     7
370
    25
100
AcDbLine
 10
4136.6875835572
 20
1344.2043978663
 30
0.0
 11
4137.4163010121
 21
1344.2043978663
 31
0.0
  0
LINE
  5
428
330
1F
100
AcDbEntity
  8
0
  6
Continuous
 62
     7
370
    25
100
AcDbLine
 10
4136.6875835572
 20
1329.3043978663
 30
0.0
 11
4137.4163010121
 21
1329.3043978663
 31
0.0
  0
LINE
  5
429
330
1F
100
AcDbEntity
  8
0
  6
Continuous
 62
     7
370
    25
100
AcDbLine
 10
4136.6262140616
 20
1344.2043978663
 30
0.0
 11
4136.6262140616
 21
1343.2543978663
 31
0.0
  0
LINE
  5
42A
330
1F
100
AcDbEntity
  8
0
  6
Continuous
 62
     7
370
    25
100
AcDbLine
 10
4136.6262140616
 20
1330.2543978663
 30
0.0
 11
4136.6262140616
 21
1329.3043978663
 31
0.0
  0
LINE
  5
42B
330
1F
100
AcDbEntity
  8
0
  6
Continuous
 62
     7
370
    25
100
AcDbLine
 10
4136.6262140616
 20
1344.2043978663
 30
0.0
 11
4136.6875835572
 21
1344.2043978663
 31
0.0
  0
LINE
  5
42C
330
1F
100
AcDbEntity
  8
0
  6
Continuous
 62
     7
370
    25
100
AcDbLine
 10
4136.6262140616
 20
1329.3043978663
 30
0.0
 11
4136.6875835572
 21
1329.3043978663
 31
0.0
  0
LINE
  5
42D
330
1F
100
AcDbEntity
  8
0
  6
Continuous
 62
     7
370
    25
100
AcDbLine
 10
4137.4163010121
 20
1060.2543978663
 30
0.0
 11
4135.416301012099
 21
1060.2543978663
 31
0.0
  0
LINE
  5
42E
330
1F
100
AcDbEntity
  8
0
  6
Continuous
 62
     7
370
    25
100
AcDbLine
 10
4135.416301012099
 20
1073.2543978663
 30
0.0
 11
4137.4163010121
 21
1073.2543978663
 31
0.0
  0
LINE
  5
42F
330
1F
100
AcDbEntity
  8
0
  6
Continuous
 62
     7
370
    25
100
AcDbLine
 10
4136.6875835572
 20
1074.2043978663
 30
0.0
 11
4136.6875835572
 21
1073.2543978663
 31
0.0
  0
LINE
  5
430
330
1F
100
AcDbEntity
  8
0
  6
Continuous
 62
     7
370
    25
100
AcDbLine
 10
4136.6875835572
 20
1060.2543978663
 30
0.0
 11
4136.6875835572
 21
1059.3043978663
 31
0.0
  0
LINE
  5
431
330
1F
100
AcDbEntity
  8
0
  6
Continuous
 62
     7
370
    25
100
AcDbLine
 10
4136.6875835572
 20
1074.2043978663
 30
0.0
 11
4137.4163010121
 21
1074.2043978663
 31
0.0
  0
LINE
  5
432
330
1F
100
AcDbEntity
  8
0
  6
Continuous
 62
     7
370
    25
100
AcDbLine
 10
4136.6875835572
 20
1059.3043978663
 30
0.0
 11
4137.4163010121
 21
1059.3043978663
 31
0.0
  0
LINE
  5
433
330
1F
100
AcDbEntity
  8
0
  6
Continuous
 62
     7
370
    25
100
AcDbLine
 10
4136.6262140616
 20
1074.2043978663
 30
0.0
 11
4136.6262140616
 21
1073.2543978663
 31
0.0
  0
LINE
  5
434
330
1F
100
AcDbEntity
  8
0
  6
Continuous
 62
     7
370
    25
100
AcDbLine
 10
4136.6262140616
 20
1060.2543978663
 30
0.0
 11
4136.6262140616
 21
1059.3043978663
 31
0.0
  0
LINE
  5
435
330
1F
100
AcDbEntity
  8
0
  6
Continuous
 62
     7
370
    25
100
AcDbLine
 10
4136.6262140616
 20
1074.2043978663
 30
0.0
 11
4136.6875835572
 21
1074.2043978663
 31
0.0
  0
LINE
  5
436
330
1F
100
AcDbEntity
  8
0
  6
Continuous
 62
     7
370
    25
100
AcDbLine
 10
4136.6262140616
 20
1059.3043978663
 30
0.0
 11
4136.6875835572
 21
1059.3043978663
 31
0.0
  0
LINE
  5
437
330
1F
100
AcDbEntity
  8
0
  6
Continuous
 62
     7
370
    25
100
AcDbLine
 10
4135.9163010121
 20
1074.2293978663
 30
0.0
 11
4136.2278668149
 21
1074.2293978663
 31
0.0
  0
LINE
  5
438
330
1F
100
AcDbEntity
  8
0
  6
Continuous
 62
     7
370
    25
100
AcDbLine
 10
4136.2278668149
 20
1059.2793978663
 30
0.0
 11
4136.2278668149
 21
1060.2543978663
 31
0.0
  0
LINE
  5
439
330
1F
100
AcDbEntity
  8
0
  6
Continuous
 62
     7
370
    25
100
AcDbLine
 10
4136.2278668149
 20
1073.2543978663
 30
0.0
 11
4136.2278668149
 21
1074.2293978663
 31
0.0
  0
LINE
  5
43A
330
1F
100
AcDbEntity
  8
0
  6
Continuous
 62
     7
370
    25
100
AcDbLine
 10
4135.9163010121
 20
1059.2793978663
 30
0.0
 11
4136.2278668149
 21
1059.2793978663
 31
0.0
  0
LINE
  5
43B
330
1F
100
AcDbEntity
  8
0
  6
Continuous
 62
     7
370
    25
100
AcDbLine
 10
4136.2278668149
 20
1074.2293978663
 30
0.0
 11
4136.2670094093
 21
1074.2293978663
 31
0.0
  0
LINE
  5
43C
330
1F
100
AcDbEntity
  8
0
  6
Continuous
 62
     7
370
    25
100
AcDbLine
 10
4136.2278668149
 20
1059.2793978663
 30
0.0
 11
4136.2670094093
 21
1059.2793978663
 31
0.0
  0
LINE
  5
43D
330
1F
100
AcDbEntity
  8
0
  6
Continuous
 62
     7
370
    25
100
AcDbLine
 10
4135.9163010121
 20
1344.2293978663
 30
0.0
 11
4136.2278668149
 21
1344.2293978663
 31
0.0
  0
LINE
  5
43E
330
1F
100
AcDbEntity
  8
0
  6
Continuous
 62
     7
370
    25
100
AcDbLine
 10
4136.2278668149
 20
1329.2793978663
 30
0.0
 11
4136.2278668149
 21
1330.2543978663
 31
0.0
  0
LINE
  5
43F
330
1F
100
AcDbEntity
  8
0
  6
Continuous
 62
     7
370
    25
100
AcDbLine
 10
4136.2278668149
 20
1343.2543978663
 30
0.0
 11
4136.2278668149
 21
1344.2293978663
 31
0.0
  0
LINE
  5
440
330
1F
100
AcDbEntity
  8
0
  6
Continuous
 62
     7
370
    25
100
AcDbLine
 10
4135.9163010121
 20
1329.2793978663
 30
0.0
 11
4136.2278668149
 21
1329.2793978663
 31
0.0
  0
LINE
  5
441
330
1F
100
AcDbEntity
  8
0
  6
Continuous
 62
     7
370
    25
100
AcDbLine
 10
4136.2278668149
 20
1344.2293978663
 30
0.0
 11
4136.2670094093
 21
1344.2293978663
 31
0.0
  0
LINE
  5
442
330
1F
100
AcDbEntity
  8
0
  6
Continuous
 62
     7
370
    25
100
AcDbLine
 10
4136.2278668149
 20
1329.2793978663
 30
0.0
 11
4136.2670094093
 21
1329.2793978663
 31
0.0
  0
LINE
  5
443
330
1F
100
AcDbEntity
  8
0
  6
Continuous
 62
     7
370
    25
100
AcDbLine
 10
4517.894021174099
 20
1329.2767567878
 30
0.0
 11
4517.750047958499
 21
1334.7748720752
 31
0.0
  0
LINE
  5
444
330
1F
100
AcDbEntity
  8
0
  6
Continuous
 62
     7
370
    25
100
AcDbLine
 10
4519.8884726929
 20
1339.0823255656
 30
0.0
 11
4519.3649337268
 21
1359.0754720652
 31
0.0
  0
LINE
  5
445
330
1F
100
AcDbEntity
  8
0
  6
Continuous
 62
     7
370
    25
100
AcDbLine
 10
4520.588632291599
 20
1358.0117271316
 30
0.0
 11
4521.0548221131
 21
1340.2086561082
 31
0.0
  0
LINE
  5
446
330
1F
100
AcDbEntity
  8
0
  6
Continuous
 62
     7
370
    25
100
AcDbLine
 10
4518.8843462156
 20
1348.7600942736
 30
0.0
 11
4519.1382819156
 21
1339.0626811288
 31
0.0
  0
LINE
  5
447
330
1F
100
AcDbEntity
  8
0
  6
Continuous
 62
     7
370
    25
100
AcDbLine
 10
4521.1528571334
 20
1341.8115145215
 30
0.0
 11
4520.7704200861
 21
1356.4161961367
 31
0.0
  0
LINE
  5
448
330
1F
100
AcDbEntity
  8
0
  6
Continuous
 62
     7
370
    25
100
AcDbLine
 10
4518.2945485266
 20
1344.5424743019
 30
0.0
 11
4518.172882687199
 21
1349.1887052586
 31
0.0
  0
LINE
  5
449
330
1F
100
AcDbEntity
  8
0
  6
Continuous
 62
     7
370
    25
100
AcDbLine
 10
4518.172882687199
 20
1349.1887052586
 30
0.0
 11
4518.0589560754
 21
1353.539387036
 31
0.0
  0
LINE
  5
44A
330
1F
100
AcDbEntity
  8
0
  6
Continuous
 62
     7
370
    25
100
AcDbLine
 10
4135.6163010121
 20
1039.2543978663
 30
0.0
 11
4137.4163010121
 21
1039.2543978663
 31
0.0
  0
LINE
  5
44B
330
1F
100
AcDbEntity
  8
0
  6
Continuous
 62
     7
370
    25
100
AcDbLine
 10
4135.616301011999
 20
1094.2543978663
 30
0.0
 11
4137.4163010121
 21
1094.2543978663
 31
0.0
  0
LINE
  5
44C
330
1F
100
AcDbEntity
  8
0
  6
Continuous
 62
     7
370
    25
100
AcDbLine
 10
4136.766301012101
 20
1058.3793978663
 30
0.0
 11
4136.766301012101
 21
1056.7543978663
 31
0.0
  0
LINE
  5
44D
330
1F
100
AcDbEntity
  8
0
  6
Continuous
 62
     7
370
    25
100
AcDbLine
 10
4136.766301012101
 20
1076.7543978663
 30
0.0
 11
4136.766301012101
 21
1075.1293978663
 31
0.0
  0
LINE
  5
44E
330
1F
100
AcDbEntity
  8
0
  6
Continuous
 62
     7
370
    25
100
AcDbLine
 10
4135.6163010121
 20
1309.2543978663
 30
0.0
 11
4137.4163010121
 21
1309.2543978663
 31
0.0
  0
LINE
  5
44F
330
1F
100
AcDbEntity
  8
0
  6
Continuous
 62
     7
370
    25
100
AcDbLine
 10
4135.616301011999
 20
1364.2543978663
 30
0.0
 11
4137.4163010121
 21
1364.2543978663
 31
0.0
  0
LINE
  5
450
330
1F
100
AcDbEntity
  8
0
  6
Continuous
 62
     7
370
    25
100
AcDbLine
 10
4136.766301012101
 20
1328.3793978663
 30
0.0
 11
4136.766301012101
 21
1326.7543978663
 31
0.0
  0
LINE
  5
451
330
1F
100
AcDbEntity
  8
0
  6
Continuous
 62
     7
370
    25
100
AcDbLine
 10
4136.766301012101
 20
1346.7543978663
 30
0.0
 11
4136.766301012101
 21
1345.1293978663
 31
0.0
  0
LINE
  5
452
330
1F
100
AcDbEntity
  8
0
  6
Continuous
 62
     7
370
    25
100
AcDbLine
 10
475.7954764323003
 20
1334.7748720752
 30
0.0
 11
477.6292233786998
 21
1334.7268537215
 31
0.0
  0
LINE
  5
453
330
1F
100
AcDbEntity
  8
0
  6
Continuous
 62
     7
370
    25
100
AcDbLine
 10
477.6292233786998
 20
1329.2249683628
 30
0.0
 11
475.6515032166999
 21
1329.2767567878
 31
0.0
  0
ARC
  5
454
330
1F
100
AcDbEntity
  8
0
  6
Continuous
 62
     7
370
    25
100
AcDbCircle
 10
475.7876233478
 20
1334.4749748777
 30
0.0
 40
0.3000000000003306
100
AcDbArc
 50
88.50000000001029
 51
178.500000000101
  0
ARC
  5
455
330
1F
100
AcDbEntity
  8
0
  6
Continuous
 62
     7
370
    25
100
AcDbCircle
 10
475.6593563011001
 20
1329.5766539853
 30
0.0
 40
0.3000000000003366
100
AcDbArc
 50
178.500000000101
 51
268.5000000000103
  0
ARC
  5
456
330
1F
100
AcDbEntity
  8
0
  6
Continuous
 62
     7
370
    25
100
AcDbCircle
 10
473.6884640358002
 20
1340.2819143556
 30
0.0
 40
1.200000000000284
100
AcDbArc
 50
183.4999999968012
 51
268.5000000000103
  0
ARC
  5
457
330
1F
100
AcDbEntity
  8
0
  6
Continuous
 62
     7
370
    25
100
AcDbCircle
 10
474.1491783259998
 20
1357.8758832752
 30
0.0
 40
1.200000000000529
100
AcDbArc
 50
88.50000000001029
 51
173.5000000033048
  0
LINE
  5
458
330
1F
100
AcDbEntity
  8
0
  6
Continuous
 62
     7
370
    25
100
AcDbLine
 10
474.4072424752003
 20
1339.0626811288
 30
0.0
 11
473.6570516978999
 21
1339.0823255656
 31
0.0
  0
LINE
  5
459
330
1F
100
AcDbEntity
  8
0
  6
Continuous
 62
     7
370
    25
100
AcDbLine
 10
474.1805906640002
 20
1359.0754720652
 30
0.0
 11
474.9307814412995
 21
1359.0558276283
 31
0.0
  0
ARC
  5
45A
330
1F
100
AcDbEntity
  8
0
  6
Continuous
 62
     7
370
    25
100
AcDbCircle
 10
474.4124778648001
 20
1339.2626125938
 30
0.0
 40
0.1999999999998535
100
AcDbArc
 50
268.5000000000103
 51
358.4999999999971
  0
ARC
  5
45B
330
1F
100
AcDbEntity
  8
0
  6
Continuous
 62
     7
370
    25
100
AcDbCircle
 10
474.9255460517006
 20
1358.8558961633
 30
0.0
 40
0.200000000000057
100
AcDbArc
 50
358.4999999999971
 51
88.50000000021884
  0
LINE
  5
45C
330
1F
100
AcDbEntity
  8
0
  6
Continuous
 62
     7
370
    25
100
AcDbLine
 10
472.4907022776997
 20
1340.2086561082
 30
0.0
 11
472.3926672573997
 21
1341.8115145215
 31
0.0
  0
LINE
  5
45D
330
1F
100
AcDbEntity
  8
0
  6
Continuous
 62
     7
370
    25
100
AcDbLine
 10
472.7751043047001
 20
1356.4161961367
 30
0.0
 11
472.9568920992005
 21
1358.0117271316
 31
0.0
  0
ARC
  5
45E
330
1F
100
AcDbEntity
  8
0
  6
Continuous
 62
     7
370
    25
100
AcDbCircle
 10
502.3367112100995
 20
1343.6429707076
 30
0.0
 40
30.00000000000198
100
AcDbArc
 50
178.500000000101
 51
183.5000000000982
  0
ARC
  5
45F
330
1F
100
AcDbEntity
  8
0
  6
Continuous
 62
     7
370
    25
100
AcDbCircle
 10
502.5822599749999
 20
1353.0200997237
 30
0.0
 40
30.00000000000258
100
AcDbArc
 50
173.5000000001049
 51
178.500000000101
  0
LINE
  5
460
330
1F
100
AcDbEntity
  8
0
  6
Continuous
 62
     7
370
    25
100
AcDbLine
 10
472.4672923523995
 20
1349.0223848583
 30
0.0
 11
472.4697658432996
 21
1349.1168436648
 31
0.0
  0
SPLINE
  5
461
330
1F
100
AcDbEntity
  8
0
  6
Continuous
 62
     7
370
    25
100
AcDbSpline
210
0.0
220
0.0
230
1.0
 70
     8
 71
     3
 72
    11
 73
     7
 74
     0
 42
0.00000001
 43
0.0000000001
 40
0.0
 40
0.0
 40
0.0
 40
0.0
 40
0.2706712709044488
 40
0.5632120728001543
 40
0.7903891635245555
 40
1.0
 40
1.0
 40
1.0
 40
1.0
 10
475.2509758183532
 20
1344.542472552353
 30
0.0
 10
475.1791631098431
 20
1344.535344805512
 30
0.0
 10
475.0297354137374
 20
1344.520513408521
 30
0.0
 10
474.8576241880236
 20
1344.387093926349
 30
0.0
 10
474.7565732223993
 20
1344.21896553141
 30
0.0
 10
474.7439374048408
 20
1344.103888307107
 30
0.0
 10
474.7378735827351
 20
1344.048663719285
 30
0.0
  0
SPLINE
  5
462
330
1F
100
AcDbEntity
  8
0
  6
Continuous
 62
     7
370
    25
100
AcDbSpline
210
0.0
220
0.0
230
1.0
 70
     8
 71
     3
 72
    11
 73
     7
 74
     0
 42
0.00000001
 43
0.0000000001
 40
0.0
 40
0.0
 40
0.0
 40
0.0
 40
0.2695105035985372
 40
0.5617364405776624
 40
0.7894224931279864
 40
1.0
 40
1.0
 40
1.0
 40
1.0
 10
475.0000132637579
 20
1354.059374258502
 30
0.0
 10
475.0060794247637
 20
1353.987784817778
 30
0.0
 10
475.0187230273195
 20
1353.838572089226
 30
0.0
 10
475.1491155935554
 20
1353.664552517792
 30
0.0
 10
475.3158856410363
 20
1353.560590211834
 30
0.0
 10
475.4311742946265
 20
1353.546269373957
 30
0.0
 10
475.4865683531134
 20
1353.539388477127
 30
0.0
  0
LINE
  5
463
330
1F
100
AcDbEntity
  8
0
  6
Continuous
 62
     7
370
    25
100
AcDbLine
 10
477.6292233786998
 20
1344.4801959483
 30
0.0
 11
475.2509758183996
 21
1344.5424725523
 31
0.0
  0
LINE
  5
464
330
1F
100
AcDbEntity
  8
0
  6
Continuous
 62
     7
370
    25
100
AcDbLine
 10
475.4865683530997
 20
1353.5393884771
 30
0.0
 11
477.6292233786998
 21
1353.4832810807
 31
0.0
  0
LINE
  5
465
330
1F
100
AcDbEntity
  8
0
  6
Continuous
 62
     7
370
    25
100
AcDbLine
 10
856.6292233786999
 20
1426.7543978663
 30
0.0
 11
856.6292233786999
 21
1398.2543978663
 31
0.0
  0
LINE
  5
466
330
1F
100
AcDbEntity
  8
0
  6
Continuous
 62
     7
370
    25
100
AcDbLine
 10
477.6292233786998
 20
1398.2543978663
 30
0.0
 11
477.6292233786998
 21
1426.7543978663
 31
0.0
  0
LINE
  5
467
330
1F
100
AcDbEntity
  8
0
  6
Continuous
 62
     7
370
    25
100
AcDbLine
 10
856.6292233786999
 20
1398.2543978663
 30
0.0
 11
477.6292233786998
 21
1398.2543978663
 31
0.0
  0
LINE
  5
468
330
1F
100
AcDbEntity
  8
0
  6
Continuous
 62
     7
370
    25
100
AcDbLine
 10
477.6292233786998
 20
1426.7543978663
 30
0.0
 11
856.6292233786999
 21
1426.7543978663
 31
0.0
  0
LINE
  5
469
330
1F
100
AcDbEntity
  8
0
  6
Continuous
 62
     7
370
    25
100
AcDbLine
 10
876.1292233786999
 20
986.7543978663
 30
0.0
 11
872.1292233786998
 21
986.7543978663
 31
0.0
  0
LINE
  5
46A
330
1F
100
AcDbEntity
  8
0
  6
Continuous
 62
     7
370
    25
100
AcDbLine
 10
876.1292233786999
 20
986.7543978663
 30
0.0
 11
876.1292233786999
 21
1416.7543978663
 31
0.0
  0
LINE
  5
46B
330
1F
100
AcDbEntity
  8
0
  6
Continuous
 62
     7
370
    25
100
AcDbLine
 10
859.6292233786998
 20
1020.2543978663
 30
0.0
 11
859.6292233786998
 21
999.7543978662999
 31
0.0
  0
LINE
  5
46C
330
1F
100
AcDbEntity
  8
0
  6
Continuous
 62
     7
370
    25
100
AcDbLine
 10
858.1292233786998
 20
1020.2543978663
 30
0.0
 11
859.6292233786998
 21
1020.2543978663
 31
0.0
  0
LINE
  5
46D
330
1F
100
AcDbEntity
  8
0
  6
Continuous
 62
     7
370
    25
100
AcDbLine
 10
858.1292233786998
 20
1020.2543978663
 30
0.0
 11
858.1292233786998
 21
1416.7543978663
 31
0.0
  0
LINE
  5
46E
330
1F
100
AcDbEntity
  8
0
  6
Continuous
 62
     7
370
    25
100
AcDbLine
 10
859.6292233786998
 20
999.7543978662999
 30
0.0
 11
872.1292233786998
 21
999.7543978662999
 31
0.0
  0
LINE
  5
46F
330
1F
100
AcDbEntity
  8
0
  6
Continuous
 62
     7
370
    25
100
AcDbLine
 10
872.1292233786998
 20
999.7543978662999
 30
0.0
 11
872.1292233786998
 21
986.7543978663
 31
0.0
  0
LINE
  5
470
330
1F
100
AcDbEntity
  8
0
  6
Continuous
 62
     7
370
    25
100
AcDbLine
 10
876.1292233786999
 20
1416.7543978663
 30
0.0
 11
858.1292233786998
 21
1416.7543978663
 31
0.0
  0
LINE
  5
471
330
1F
100
AcDbEntity
  8
0
  6
Continuous
 62
     7
370
    25
100
AcDbLine
 10
856.1292233786998
 20
976.7543978662999
 30
0.0
 11
856.1292233786998
 21
1398.2543978663
 31
0.0
  0
LINE
  5
472
330
1F
100
AcDbEntity
  8
0
  6
Continuous
 62
     7
370
    25
100
AcDbLine
 10
477.6292233786998
 20
976.7543978662999
 30
0.0
 11
477.6292233786998
 21
1398.2543978663
 31
0.0
  0
LINE
  5
473
330
1F
100
AcDbEntity
  8
0
  6
Continuous
 62
     7
370
    25
100
AcDbLine
 10
856.1292233786998
 20
976.7543978662999
 30
0.0
 11
477.6292233786998
 21
976.7543978662999
 31
0.0
  0
SPLINE
  5
474
330
1F
100
AcDbEntity
  8
0
  6
Continuous
 62
     7
370
    25
100
AcDbSpline
210
0.0
220
0.0
230
1.0
 70
    24
 71
     3
 72
    12
 73
     8
 74
     0
 42
0.00000001
 43
0.0000000001
 40
0.0
 40
0.0
 40
0.0
 40
0.0
 40
0.2460973337389956
 40
0.4921955654195413
 40
0.738302577044096
 40
0.9844160040482867
 40
1.0
 40
1.0
 40
1.0
 40
1.0
 10
475.4235926270048
 20
1332.033667515996
 30
0.0
 10
475.4153631500039
 20
1331.719396468498
 30
0.0
 10
475.3989041659751
 20
1331.090853226814
 30
0.0
 10
475.3775881628643
 20
1330.276827909652
 30
0.0
 10
475.3640479001196
 20
1329.759746136904
 30
0.0
 10
475.3581284230385
 20
1329.533690427251
 30
0.0
 10
475.3596486533751
 20
1329.591745681663
 30
0.0
 10
475.3597391825951
 20
1329.595202853077
 30
0.0
  0
SPLINE
  5
475
330
1F
100
AcDbEntity
  8
0
  6
Continuous
 62
     7
370
    25
100
AcDbSpline
210
0.0
220
0.0
230
1.0
 70
     8
 71
     3
 72
    11
 73
     7
 74
     0
 42
0.00000001
 43
0.0000000001
 40
0.0
 40
0.0
 40
0.0
 40
0.0
 40
0.2382247349852351
 40
0.4921376904596563
 40
0.7460575595478418
 40
1.0
 40
1.0
 40
1.0
 40
1.0
 10
475.4874523560838
 20
1334.472372180739
 30
0.0
 10
475.4867799717795
 20
1334.446694861225
 30
0.0
 10
475.4853909235016
 20
1334.393649249805
 30
0.0
 10
475.4718533262657
 20
1333.876669251059
 30
0.0
 10
475.4517527349316
 20
1333.109058705194
 30
0.0
 10
475.4353690935395
 20
1332.483392512937
 30
0.0
 10
475.4271769087672
 20
1332.170545513297
 30
0.0
  0
LINE
  5
476
330
1F
100
AcDbEntity
  8
0
  6
Continuous
 62
     7
370
    25
100
AcDbLine
 10
475.4271769087999
 20
1332.1705455133
 30
0.0
 11
475.4235926270003
 21
1332.033667516
 31
0.0
  0
SPLINE
  5
477
330
1F
100
AcDbEntity
  8
0
  6
Continuous
 62
     7
370
    25
100
AcDbSpline
210
0.0
220
0.0
230
1.0
 70
    24
 71
     3
 72
    13
 73
     9
 74
     0
 42
0.00000001
 43
0.0000000001
 40
0.0
 40
0.0
 40
0.0
 40
0.0
 40
0.1813201537907813
 40
0.4101468448380521
 40
0.5438150184965087
 40
0.6886421238875737
 40
0.8419966874126878
 40
1.0
 40
1.0
 40
1.0
 40
1.0
 10
474.8689434232464
 20
1349.054018988886
 30
0.0
 10
474.8931702968884
 20
1349.979205966927
 30
0.0
 10
474.9479715728475
 20
1352.071982263415
 30
0.0
 10
475.0143318038708
 20
1354.606177244851
 30
0.0
 10
475.064302820424
 20
1356.514493376594
 30
0.0
 10
475.0972249091391
 20
1357.771737221525
 30
0.0
 10
475.1205070678661
 20
1358.660846992431
 30
0.0
 10
475.123799261275
 20
1358.78657078643
 30
0.0
 10
475.1254699351338
 20
1358.850371247079
 30
0.0
  0
SPLINE
  5
478
330
1F
100
AcDbEntity
  8
0
  6
Continuous
 62
     7
370
    25
100
AcDbSpline
210
0.0
220
0.0
230
1.0
 70
    24
 71
     3
 72
    13
 73
     9
 74
     0
 42
0.00000001
 43
0.0000000001
 40
0.0
 40
0.0
 40
0.0
 40
0.0
 40
0.1538581583651961
 40
0.3079676862452768
 40
0.4535077802384951
 40
0.5878340078345566
 40
0.8177872163813388
 40
1.0
 40
1.0
 40
1.0
 40
1.0
 10
474.6126430182848
 20
1339.266301405848
 30
0.0
 10
474.6139624949273
 20
1339.316690185941
 30
0.0
 10
474.616603603943
 20
1339.417550070022
 30
0.0
 10
474.6388303893554
 20
1340.266356760077
 30
0.0
 10
474.6709983996516
 20
1341.494803511993
 30
0.0
 10
474.7202613312392
 20
1343.376078969865
 30
0.0
 10
474.7860806599792
 20
1345.889617726496
 30
0.0
 10
474.8408057231245
 20
1347.979483573086
 30
0.0
 10
474.8649989032501
 20
1348.903383847575
 30
0.0
  0
LINE
  5
479
330
1F
100
AcDbEntity
  8
0
  6
Continuous
 62
     7
370
    25
100
AcDbLine
 10
472.4672923523995
 20
1349.0223848582
 30
0.0
 11
472.3469914608004
 21
1344.4282791568
 31
0.0
  0
LINE
  5
47A
330
1F
100
AcDbEntity
  8
0
  6
Continuous
 62
     7
370
    25
100
AcDbLine
 10
472.5925402257998
 20
1353.8054081729
 30
0.0
 11
472.4697658432996
 21
1349.1168436648
 31
0.0
  0
SPLINE
  5
47B
330
1F
100
AcDbEntity
  8
0
  6
Continuous
 62
     7
370
    25
100
AcDbSpline
210
0.0
220
0.0
230
1.0
 70
     8
 71
     3
 72
    11
 73
     7
 74
     0
 42
0.00000001
 43
0.0000000001
 40
0.0
 40
0.0
 40
0.0
 40
0.0
 40
0.2702602051691415
 40
0.5624283659902113
 40
0.7897359586728284
 40
1.0
 40
1.0
 40
1.0
 40
1.0
 10
474.8732430073714
 20
1349.218213482242
 30
0.0
 10
474.8819924150829
 20
1349.215656025557
 30
0.0
 10
474.9002004789754
 20
1349.210333798471
 30
0.0
 10
475.0352587513798
 20
1349.20128582409
 30
0.0
 10
475.2033209409128
 20
1349.193677152425
 30
0.0
 10
475.3176863048047
 20
1349.190318953096
 30
0.0
 10
475.3726417034895
 20
1349.188705254886
 30
0.0
  0
SPLINE
  5
47C
330
1F
100
AcDbEntity
  8
0
  6
Continuous
 62
     7
370
    25
100
AcDbSpline
210
0.0
220
0.0
230
1.0
 70
     8
 71
     3
 72
    10
 73
     6
 74
     0
 42
0.00000001
 43
0.0000000001
 40
0.0
 40
0.0
 40
0.0
 40
0.0
 40
0.369868246393449
 40
0.7394183665247829
 40
1.0
 40
1.0
 40
1.0
 40
1.0
 10
475.1453630559999
 20
1348.531609380491
 30
0.0
 10
475.1485827789674
 20
1348.655185441902
 30
0.0
 10
475.1550194555993
 20
1348.902231276091
 30
0.0
 10
475.1645120075009
 20
1349.268343236764
 30
0.0
 10
475.1700393064502
 20
1349.475556144413
 30
0.0
 10
475.1723250388886
 20
1349.56124596665
 30
0.0
  0
ARC
  5
47D
330
1F
100
AcDbEntity
  8
0
  6
Continuous
 62
     7
370
    25
100
AcDbCircle
 10
869.2124096088001
 20
996.7543978663
 30
0.0
 40
1.19999999999996
100
AcDbArc
 50
4.969946594693716
 51
90.0
  0
LINE
  5
47E
330
1F
100
AcDbEntity
  8
0
  6
Continuous
 62
     7
370
    25
100
AcDbLine
 10
871.2490865597001
 20
987.1850913096
 30
0.0
 11
870.4078979411006
 21
996.8583577013999
 31
0.0
  0
ARC
  5
47F
330
1F
100
AcDbEntity
  8
0
  6
Continuous
 62
     7
370
    25
100
AcDbCircle
 10
872.0460787811999
 20
987.2543978662999
 30
0.0
 40
0.7999999999999814
100
AcDbArc
 50
184.9699465946939
 51
279.5765884811198
  0
ARC
  5
480
330
1F
100
AcDbEntity
  8
0
  6
Continuous
 62
     7
370
    25
100
AcDbCircle
 10
872.1292617047001
 20
986.7613658174001
 30
0.0
 40
0.3000000000004442
100
AcDbArc
 50
279.5765884811198
 51
316.3783470327839
  0
LINE
  5
481
330
1F
100
AcDbEntity
  8
0
  6
Continuous
 62
     7
370
    25
100
AcDbLine
 10
871.9292233786999
 20
986.5543978663
 30
0.0
 11
872.3464350621998
 21
986.5543978663
 31
0.0
  0
LINE
  5
482
330
1F
100
AcDbEntity
  8
0
  6
Continuous
 62
     7
370
    25
100
AcDbLine
 10
871.9292233786999
 20
999.5543978663
 30
0.0
 11
871.9292233786999
 21
986.5543978663
 31
0.0
  0
LINE
  5
483
330
1F
100
AcDbEntity
  8
0
  6
Continuous
 62
     7
370
    25
100
AcDbLine
 10
859.4292233786999
 20
999.5543978663
 30
0.0
 11
871.9292233786999
 21
999.5543978663
 31
0.0
  0
LINE
  5
484
330
1F
100
AcDbEntity
  8
0
  6
Continuous
 62
     7
370
    25
100
AcDbLine
 10
859.4292233786999
 20
1019.5543978663
 30
0.0
 11
859.4292233786999
 21
999.5543978663
 31
0.0
  0
LINE
  5
485
330
1F
100
AcDbEntity
  8
0
  6
Continuous
 62
     7
370
    25
100
AcDbLine
 10
858.0292233786995
 20
1019.5543978663
 30
0.0
 11
859.4292233786999
 21
1019.5543978663
 31
0.0
  0
LINE
  5
486
330
1F
100
AcDbEntity
  8
0
  6
Continuous
 62
     7
370
    25
100
AcDbLine
 10
858.0292233786995
 20
998.7543978663
 30
0.0
 11
858.0292233786995
 21
1019.5543978663
 31
0.0
  0
ARC
  5
487
330
1F
100
AcDbEntity
  8
0
  6
Continuous
 62
     7
370
    25
100
AcDbCircle
 10
858.8292233786997
 20
998.7543978663
 30
0.0
 40
0.8000000000001818
100
AcDbArc
 50
180.0
 51
270.0
  0
LINE
  5
488
330
1F
100
AcDbEntity
  8
0
  6
Continuous
 62
     7
370
    25
100
AcDbLine
 10
869.2124096088001
 20
997.9543978663
 30
0.0
 11
858.8292233786997
 21
997.9543978663
 31
0.0
  0
LINE
  5
489
330
1F
100
AcDbEntity
  8
0
  6
Continuous
 62
     7
370
    25
100
AcDbLine
 10
872.1292233786998
 20
999.7543978662999
 30
0.0
 11
871.9292233786999
 21
999.5543978663
 31
0.0
  0
LINE
  5
48A
330
1F
100
AcDbEntity
  8
0
  6
Continuous
 62
     7
370
    25
100
AcDbLine
 10
872.1292233786998
 20
986.7543978663
 30
0.0
 11
871.9292233786999
 21
986.5543978663
 31
0.0
  0
LINE
  5
48B
330
1F
100
AcDbEntity
  8
0
  6
Continuous
 62
     7
370
    25
100
AcDbLine
 10
870.4078979411006
 20
996.8583577013999
 30
0.0
 11
870.2086498856997
 21
996.8410310622001
 31
0.0
  0
LINE
  5
48C
330
1F
100
AcDbEntity
  8
0
  6
Continuous
 62
     7
370
    25
100
AcDbLine
 10
870.2086498856997
 20
996.8410310622001
 30
0.0
 11
871.0498385043001
 21
987.1677646703998
 31
0.0
  0
LINE
  5
48D
330
1F
100
AcDbEntity
  8
0
  6
Continuous
 62
     7
370
    25
100
AcDbLine
 10
871.2490865597001
 20
987.1850913096
 30
0.0
 11
871.0498385043001
 21
987.1677646703998
 31
0.0
  0
LINE
  5
48E
330
1F
100
AcDbEntity
  8
0
  6
Continuous
 62
     7
370
    25
100
AcDbLine
 10
872.1791714586997
 20
986.4655465881
 30
0.0
 11
872.2124446280995
 21
986.2683337685
 31
0.0
  0
ARC
  5
48F
330
1F
100
AcDbEntity
  8
0
  6
Continuous
 62
     7
370
    25
100
AcDbCircle
 10
872.1292617047001
 20
986.7613658174001
 30
0.0
 40
0.5000000000001892
100
AcDbArc
 50
279.5765884811198
 51
359.2015057739032
  0
SPLINE
  5
490
330
1F
100
AcDbEntity
  8
0
  6
Continuous
 62
     7
370
    25
100
AcDbSpline
210
0.0
220
0.0
230
1.0
 70
     8
 71
     3
 72
    13
 73
     9
 74
     0
 42
0.00000001
 43
0.0000000001
 40
0.0
 40
0.0
 40
0.0
 40
0.0
 40
0.0075029974113214
 40
0.3818974549657648
 40
0.6070018873267128
 40
0.7653769096342216
 40
0.8824605049805153
 40
1.0
 40
1.0
 40
1.0
 40
1.0
 10
872.3464350622016
 20
986.5543978663124
 30
0.0
 10
872.3474528388178
 20
986.5548358642078
 30
0.0
 10
872.3992569749553
 20
986.5771296585769
 30
0.0
 10
872.477842340324
 20
986.6240140467926
 30
0.0
 10
872.5604818043557
 20
986.6902984838288
 30
0.0
 10
872.6025779224537
 20
986.7285600430015
 30
0.0
 10
872.6251013492911
 20
986.7503158187366
 30
0.0
 10
872.6278407754035
 20
986.7530354222864
 30
0.0
 10
872.6292131499713
 20
986.7543978663123
 30
0.0
  0
ARC
  5
491
330
1F
100
AcDbEntity
  8
0
  6
Continuous
 62
     7
370
    25
100
AcDbCircle
 10
872.0460787811999
 20
987.2543978662999
 30
0.0
 40
1.000000000000051
100
AcDbArc
 50
184.9699465946939
 51
279.5765884811198
  0
LINE
  5
492
330
1F
100
AcDbEntity
  8
0
  6
Continuous
 62
     7
370
    25
100
AcDbLine
 10
857.8292233786996
 20
1019.5543978663
 30
0.0
 11
857.8292233786996
 21
998.7543978663
 31
0.0
  0
LINE
  5
493
330
1F
100
AcDbEntity
  8
0
  6
Continuous
 62
     7
370
    25
100
AcDbLine
 10
857.8292233786996
 20
998.7543978663
 30
0.0
 11
858.0292233786995
 21
998.7543978663
 31
0.0
  0
LINE
  5
494
330
1F
100
AcDbEntity
  8
0
  6
Continuous
 62
     7
370
    25
100
AcDbLine
 10
857.8292233786996
 20
1019.5543978663
 30
0.0
 11
858.0292233786995
 21
1019.5543978663
 31
0.0
  0
LINE
  5
495
330
1F
100
AcDbEntity
  8
0
  6
Continuous
 62
     7
370
    25
100
AcDbLine
 10
858.8292233786997
 20
997.9543978663
 30
0.0
 11
858.8292233786997
 21
997.7543978663
 31
0.0
  0
LINE
  5
496
330
1F
100
AcDbEntity
  8
0
  6
Continuous
 62
     7
370
    25
100
AcDbLine
 10
858.8292233786997
 20
997.7543978663
 30
0.0
 11
869.2124096088001
 21
997.7543978663
 31
0.0
  0
LINE
  5
497
330
1F
100
AcDbEntity
  8
0
  6
Continuous
 62
     7
370
    25
100
AcDbLine
 10
869.2124096088001
 20
997.9543978663
 30
0.0
 11
869.2124096088001
 21
997.7543978663
 31
0.0
  0
ARC
  5
498
330
1F
100
AcDbEntity
  8
0
  6
Continuous
 62
     7
370
    25
100
AcDbCircle
 10
869.2124096088001
 20
996.7543978663
 30
0.0
 40
1.0
100
AcDbArc
 50
4.969946594693716
 51
90.0
  0
LINE
  5
499
330
1F
100
AcDbEntity
  8
0
  6
Continuous
 62
     7
370
    25
100
AcDbLine
 10
859.6292233786998
 20
999.7543978662999
 30
0.0
 11
859.4292233786999
 21
999.5543978663
 31
0.0
  0
ARC
  5
49A
330
1F
100
AcDbEntity
  8
0
  6
Continuous
 62
     7
370
    25
100
AcDbCircle
 10
858.8292233786997
 20
998.7543978663
 30
0.0
 40
1.000000000000113
100
AcDbArc
 50
180.0
 51
269.9999999998958
  0
LINE
  5
49B
330
1F
100
AcDbEntity
  8
0
  6
Continuous
 62
     7
370
    25
100
AcDbLine
 10
859.6292233786998
 20
1019.7543978663
 30
0.0
 11
859.4292233786999
 21
1019.5543978663
 31
0.0
  0
LINE
  5
49C
330
1F
100
AcDbEntity
  8
0
  6
Continuous
 62
     7
370
    25
100
AcDbLine
 10
858.0292233786995
 20
1019.7543978663
 30
0.0
 11
858.0292233786995
 21
1019.5543978663
 31
0.0
  0
ARC
  5
49D
330
1F
100
AcDbEntity
  8
0
  6
Continuous
 62
     7
370
    25
100
AcDbCircle
 10
858.0292233786995
 20
1019.5543978663
 30
0.0
 40
0.1999999999999318
100
AcDbArc
 50
90.0
 51
180.0
  0
LINE
  5
49E
330
1F
100
AcDbEntity
  8
0
  6
Continuous
 62
     7
370
    25
100
AcDbLine
 10
859.6292233786998
 20
1019.7543978663
 30
0.0
 11
858.0292233786995
 21
1019.7543978663
 31
0.0
  0
LINE
  5
49F
330
1F
100
AcDbEntity
  8
0
  6
Continuous
 62
     7
370
    25
100
AcDbLine
 10
856.9292233787001
 20
1384.0543978663
 30
0.0
 11
856.9292233787001
 21
1385.2543978663
 31
0.0
  0
LINE
  5
4A0
330
1F
100
AcDbEntity
  8
0
  6
Continuous
 62
     7
370
    25
100
AcDbLine
 10
856.9292233787001
 20
1385.2543978663
 30
0.0
 11
856.1292233786998
 21
1385.2543978663
 31
0.0
  0
LINE
  5
4A1
330
1F
100
AcDbEntity
  8
0
  6
Continuous
 62
     7
370
    25
100
AcDbLine
 10
856.9292233787001
 20
1384.0543978663
 30
0.0
 11
856.1292233786998
 21
1384.0543978663
 31
0.0
  0
LINE
  5
4A2
330
1F
100
AcDbEntity
  8
0
  6
Continuous
 62
     7
370
    25
100
AcDbLine
 10
858.1292233786998
 20
1385.2543978663
 30
0.0
 11
856.9292233787001
 21
1385.2543978663
 31
0.0
  0
LINE
  5
4A3
330
1F
100
AcDbEntity
  8
0
  6
Continuous
 62
     7
370
    25
100
AcDbLine
 10
858.1292233786998
 20
1384.0543978663
 30
0.0
 11
856.9292233787001
 21
1384.0543978663
 31
0.0
  0
LINE
  5
4A4
330
1F
100
AcDbEntity
  8
0
  6
Continuous
 62
     7
370
    25
100
AcDbLine
 10
856.9292233787001
 20
1366.2543978663
 30
0.0
 11
856.9292233787001
 21
1384.0543978663
 31
0.0
  0
LINE
  5
4A5
330
1F
100
AcDbEntity
  8
0
  6
Continuous
 62
     7
370
    25
100
AcDbLine
 10
858.1292233786998
 20
1366.2543978663
 30
0.0
 11
856.9292233787001
 21
1366.2543978663
 31
0.0
  0
LINE
  5
4A6
330
1F
100
AcDbEntity
  8
0
  6
Continuous
 62
     7
370
    25
100
AcDbLine
 10
856.9292233787001
 20
1366.2543978663
 30
0.0
 11
856.9292233787001
 21
1365.2470896858
 31
0.0
  0
LINE
  5
4A7
330
1F
100
AcDbEntity
  8
0
  6
Continuous
 62
     7
370
    25
100
AcDbLine
 10
857.6292233786999
 20
1057.7984397273
 30
0.0
 11
858.1292233786998
 21
1057.7984397273
 31
0.0
  0
LINE
  5
4A8
330
1F
100
AcDbEntity
  8
0
  6
Continuous
 62
     7
370
    25
100
AcDbLine
 10
857.6292233786999
 20
1059.3543978665
 30
0.0
 11
858.1292233786998
 21
1059.3543978665
 31
0.0
  0
LINE
  5
4A9
330
1F
100
AcDbEntity
  8
0
  6
Continuous
 62
     7
370
    25
100
AcDbLine
 10
857.6292233786999
 20
1059.3543978665
 30
0.0
 11
857.6292233786999
 21
1057.7984397273
 31
0.0
  0
LINE
  5
4AA
330
1F
100
AcDbEntity
  8
0
  6
Continuous
 62
     7
370
    25
100
AcDbLine
 10
858.1292233786998
 20
1075.7103560054
 30
0.0
 11
857.6292233786999
 21
1075.7103560054
 31
0.0
  0
LINE
  5
4AB
330
1F
100
AcDbEntity
  8
0
  6
Continuous
 62
     7
370
    25
100
AcDbLine
 10
857.6292233786999
 20
1075.7103560054
 30
0.0
 11
857.6292233786999
 21
1074.1543978661
 31
0.0
  0
LINE
  5
4AC
330
1F
100
AcDbEntity
  8
0
  6
Continuous
 62
     7
370
    25
100
AcDbLine
 10
858.1292233786998
 20
1074.1543978661
 30
0.0
 11
857.6292233786999
 21
1074.1543978661
 31
0.0
  0
LINE
  5
4AD
330
1F
100
AcDbEntity
  8
0
  6
Continuous
 62
     7
370
    25
100
AcDbLine
 10
857.9292233787001
 20
1048.3628237086
 30
0.0
 11
857.6292233786999
 21
1048.3628237086
 31
0.0
  0
LINE
  5
4AE
330
1F
100
AcDbEntity
  8
0
  6
Continuous
 62
     7
370
    25
100
AcDbLine
 10
858.1292233786998
 20
1048.3628237086
 30
0.0
 11
857.9292233787001
 21
1048.3628237086
 31
0.0
  0
LINE
  5
4AF
330
1F
100
AcDbEntity
  8
0
  6
Continuous
 62
     7
370
    25
100
AcDbLine
 10
857.6292233786999
 20
1048.3628237086
 30
0.0
 11
857.6292233786999
 21
1057.7984397273
 31
0.0
  0
LINE
  5
4B0
330
1F
100
AcDbEntity
  8
0
  6
Continuous
 62
     7
370
    25
100
AcDbLine
 10
857.9292233787001
 20
1085.1459720241
 30
0.0
 11
858.1292233786998
 21
1085.1459720241
 31
0.0
  0
LINE
  5
4B1
330
1F
100
AcDbEntity
  8
0
  6
Continuous
 62
     7
370
    25
100
AcDbLine
 10
857.6292233786999
 20
1085.1459720241
 30
0.0
 11
857.9292233787001
 21
1085.1459720241
 31
0.0
  0
LINE
  5
4B2
330
1F
100
AcDbEntity
  8
0
  6
Continuous
 62
     7
370
    25
100
AcDbLine
 10
857.6292233786999
 20
1075.7103560054
 30
0.0
 11
857.6292233786999
 21
1085.1459720241
 31
0.0
  0
SPLINE
  5
4B3
330
1F
100
AcDbEntity
  8
0
  6
Continuous
 62
     7
370
    25
100
AcDbSpline
210
0.0
220
0.0
230
1.0
 70
    24
 71
     3
 72
    12
 73
     8
 74
     0
 42
0.00000001
 43
0.0000000001
 40
0.0
 40
0.0
 40
0.0
 40
0.0
 40
0.1234882189629546
 40
0.3047574776085323
 40
0.4857888495171557
 40
0.6670582154003763
 40
1.0
 40
1.0
 40
1.0
 40
1.0
 10
856.1292233787389
 20
1038.254397866318
 30
0.0
 10
856.1689699477765
 20
1038.254397866318
 30
0.0
 10
856.2670607958343
 20
1038.254397866318
 30
0.0
 10
856.5070340841957
 20
1038.254397866318
 30
0.0
 10
856.8226482726895
 20
1038.254397866317
 30
0.0
 10
857.289558361791
 20
1038.254397866318
 30
0.0
 10
857.6778269620271
 20
1038.254397866316
 30
0.0
 10
857.9292233787427
 20
1038.254397866314
 30
0.0
  0
LINE
  5
4B4
330
1F
100
AcDbEntity
  8
0
  6
Continuous
 62
     7
370
    25
100
AcDbLine
 10
857.9292233787001
 20
1039.2543978663
 30
0.0
 11
857.9292233787001
 21
1038.2543978663
 31
0.0
  0
SPLINE
  5
4B5
330
1F
100
AcDbEntity
  8
0
  6
Continuous
 62
     7
370
    25
100
AcDbSpline
210
0.0
220
0.0
230
1.0
 70
    24
 71
     3
 72
    12
 73
     8
 74
     0
 42
0.00000001
 43
0.0000000001
 40
0.0
 40
0.0
 40
0.0
 40
0.0
 40
0.3329369653735156
 40
0.5139656098116915
 40
0.6952322446429113
 40
0.8762609961831072
 40
1.0
 40
1.0
 40
1.0
 40
1.0
 10
857.92922337875
 20
1095.254397866313
 30
0.0
 10
857.6778259656075
 20
1095.254397866315
 30
0.0
 10
857.289735611609
 20
1095.254397866317
 30
0.0
 10
856.8228063419338
 20
1095.254397866317
 30
0.0
 10
856.5072874529132
 20
1095.254397866317
 30
0.0
 10
856.2671632343946
 20
1095.254397866317
 30
0.0
 10
856.1690559833833
 20
1095.254397866317
 30
0.0
 10
856.1292233787398
 20
1095.254397866317
 30
0.0
  0
LINE
  5
4B6
330
1F
100
AcDbEntity
  8
0
  6
Continuous
 62
     7
370
    25
100
AcDbLine
 10
857.9292233788001
 20
1094.2543978663
 30
0.0
 11
857.9292233787001
 21
1095.2543978663
 31
0.0
  0
SPLINE
  5
4B7
330
1F
100
AcDbEntity
  8
0
  6
Continuous
 62
     7
370
    25
100
AcDbSpline
210
0.0
220
0.0
230
1.0
 70
     8
 71
     3
 72
    10
 73
     6
 74
     0
 42
0.00000001
 43
0.0000000001
 40
0.0
 40
0.0
 40
0.0
 40
0.0
 40
0.0371311943430135
 40
0.5486628195591451
 40
1.0
 40
1.0
 40
1.0
 40
1.0
 10
856.1292233787398
 20
1056.508633526142
 30
0.0
 10
856.1348462309533
 20
1056.515351873569
 30
0.0
 10
856.2179313566602
 20
1056.614624399191
 30
0.0
 10
856.4394873292458
 20
1056.715053312386
 30
0.0
 10
856.6707982184906
 20
1056.741841237216
 30
0.0
 10
856.7792233787459
 20
1056.754397866314
 30
0.0
  0
LINE
  5
4B8
330
1F
100
AcDbEntity
  8
0
  6
Continuous
 62
     7
370
    25
100
AcDbLine
 10
857.9292233787001
 20
1039.2543978663
 30
0.0
 11
857.9292233787001
 21
1048.3628237086
 31
0.0
  0
LINE
  5
4B9
330
1F
100
AcDbEntity
  8
0
  6
Continuous
 62
     7
370
    25
100
AcDbLine
 10
857.6292233786999
 20
1056.7543978663
 30
0.0
 11
856.7792233786995
 21
1056.7543978663
 31
0.0
  0
LINE
  5
4BA
330
1F
100
AcDbEntity
  8
0
  6
Continuous
 62
     7
370
    25
100
AcDbLine
 10
858.1292233786998
 20
1039.2543978663
 30
0.0
 11
857.9292233787001
 21
1039.2543978663
 31
0.0
  0
SPLINE
  5
4BB
330
1F
100
AcDbEntity
  8
0
  6
Continuous
 62
     7
370
    25
100
AcDbSpline
210
0.0
220
0.0
230
1.0
 70
     8
 71
     3
 72
     9
 73
     5
 74
     0
 42
0.00000001
 43
0.0000000001
 40
0.0
 40
0.0
 40
0.0
 40
0.0
 40
0.5050081268919398
 40
1.0
 40
1.0
 40
1.0
 40
1.0
 10
856.7792233787468
 20
1076.754397866314
 30
0.0
 10
856.6559271068809
 20
1076.766617725698
 30
0.0
 10
856.4117800025032
 20
1076.790815077648
 30
0.0
 10
856.2227778889491
 20
1076.927891150911
 30
0.0
 10
856.1292233787389
 20
1076.995742693174
 30
0.0
  0
LINE
  5
4BC
330
1F
100
AcDbEntity
  8
0
  6
Continuous
 62
     7
370
    25
100
AcDbLine
 10
857.9292233787001
 20
1085.1459720241
 30
0.0
 11
857.9292233788001
 21
1094.2543978663
 31
0.0
  0
LINE
  5
4BD
330
1F
100
AcDbEntity
  8
0
  6
Continuous
 62
     7
370
    25
100
AcDbLine
 10
856.7792233786995
 20
1076.7543978663
 30
0.0
 11
857.6292233786999
 21
1076.7543978663
 31
0.0
  0
LINE
  5
4BE
330
1F
100
AcDbEntity
  8
0
  6
Continuous
 62
     7
370
    25
100
AcDbLine
 10
858.1292233787999
 20
1094.2543978663
 30
0.0
 11
857.9292233788001
 21
1094.2543978663
 31
0.0
  0
LINE
  5
4BF
330
1F
100
AcDbEntity
  8
0
  6
Continuous
 62
     7
370
    25
100
AcDbLine
 10
858.1292233786998
 20
1038.2543978663
 30
0.0
 11
857.9292233787001
 21
1038.2543978663
 31
0.0
  0
LINE
  5
4C0
330
1F
100
AcDbEntity
  8
0
  6
Continuous
 62
     7
370
    25
100
AcDbLine
 10
858.1292233786998
 20
1095.2543978663
 30
0.0
 11
857.9292233787001
 21
1095.2543978663
 31
0.0
  0
LINE
  5
4C1
330
1F
100
AcDbEntity
  8
0
  6
Continuous
 62
     7
370
    25
100
AcDbLine
 10
857.6292233786999
 20
1327.7984397273
 30
0.0
 11
858.1292233786998
 21
1327.7984397273
 31
0.0
  0
LINE
  5
4C2
330
1F
100
AcDbEntity
  8
0
  6
Continuous
 62
     7
370
    25
100
AcDbLine
 10
857.6292233786999
 20
1329.3543978665
 30
0.0
 11
858.1292233786998
 21
1329.3543978665
 31
0.0
  0
LINE
  5
4C3
330
1F
100
AcDbEntity
  8
0
  6
Continuous
 62
     7
370
    25
100
AcDbLine
 10
857.6292233786999
 20
1329.3543978665
 30
0.0
 11
857.6292233786999
 21
1327.7984397273
 31
0.0
  0
LINE
  5
4C4
330
1F
100
AcDbEntity
  8
0
  6
Continuous
 62
     7
370
    25
100
AcDbLine
 10
858.1292233786998
 20
1345.7103560054
 30
0.0
 11
857.6292233786999
 21
1345.7103560054
 31
0.0
  0
LINE
  5
4C5
330
1F
100
AcDbEntity
  8
0
  6
Continuous
 62
     7
370
    25
100
AcDbLine
 10
857.6292233786999
 20
1345.7103560054
 30
0.0
 11
857.6292233786999
 21
1344.1543978661
 31
0.0
  0
LINE
  5
4C6
330
1F
100
AcDbEntity
  8
0
  6
Continuous
 62
     7
370
    25
100
AcDbLine
 10
858.1292233786998
 20
1344.1543978661
 30
0.0
 11
857.6292233786999
 21
1344.1543978661
 31
0.0
  0
LINE
  5
4C7
330
1F
100
AcDbEntity
  8
0
  6
Continuous
 62
     7
370
    25
100
AcDbLine
 10
857.9292233787001
 20
1318.3628237086
 30
0.0
 11
857.6292233786999
 21
1318.3628237086
 31
0.0
  0
LINE
  5
4C8
330
1F
100
AcDbEntity
  8
0
  6
Continuous
 62
     7
370
    25
100
AcDbLine
 10
858.1292233786998
 20
1318.3628237086
 30
0.0
 11
857.9292233787001
 21
1318.3628237086
 31
0.0
  0
LINE
  5
4C9
330
1F
100
AcDbEntity
  8
0
  6
Continuous
 62
     7
370
    25
100
AcDbLine
 10
857.6292233786999
 20
1318.3628237086
 30
0.0
 11
857.6292233786999
 21
1327.7984397273
 31
0.0
  0
LINE
  5
4CA
330
1F
100
AcDbEntity
  8
0
  6
Continuous
 62
     7
370
    25
100
AcDbLine
 10
857.9292233787001
 20
1355.1459720241
 30
0.0
 11
858.1292233786998
 21
1355.1459720241
 31
0.0
  0
LINE
  5
4CB
330
1F
100
AcDbEntity
  8
0
  6
Continuous
 62
     7
370
    25
100
AcDbLine
 10
857.6292233786999
 20
1355.1459720241
 30
0.0
 11
857.9292233787001
 21
1355.1459720241
 31
0.0
  0
LINE
  5
4CC
330
1F
100
AcDbEntity
  8
0
  6
Continuous
 62
     7
370
    25
100
AcDbLine
 10
857.6292233786999
 20
1345.7103560054
 30
0.0
 11
857.6292233786999
 21
1355.1459720241
 31
0.0
  0
SPLINE
  5
4CD
330
1F
100
AcDbEntity
  8
0
  6
Continuous
 62
     7
370
    25
100
AcDbSpline
210
0.0
220
0.0
230
1.0
 70
    24
 71
     3
 72
    12
 73
     8
 74
     0
 42
0.00000001
 43
0.0000000001
 40
0.0
 40
0.0
 40
0.0
 40
0.0
 40
0.1234882189629546
 40
0.3047574776085323
 40
0.4857888495171557
 40
0.6670582154003763
 40
1.0
 40
1.0
 40
1.0
 40
1.0
 10
856.1292233787389
 20
1308.254397866317
 30
0.0
 10
856.1689699477765
 20
1308.254397866317
 30
0.0
 10
856.2670607958343
 20
1308.254397866317
 30
0.0
 10
856.5070340841957
 20
1308.254397866318
 30
0.0
 10
856.8226482726895
 20
1308.254397866317
 30
0.0
 10
857.289558361791
 20
1308.254397866318
 30
0.0
 10
857.6778269620271
 20
1308.254397866316
 30
0.0
 10
857.9292233787427
 20
1308.254397866314
 30
0.0
  0
LINE
  5
4CE
330
1F
100
AcDbEntity
  8
0
  6
Continuous
 62
     7
370
    25
100
AcDbLine
 10
857.9292233787001
 20
1309.2543978663
 30
0.0
 11
857.9292233787001
 21
1308.2543978663
 31
0.0
  0
SPLINE
  5
4CF
330
1F
100
AcDbEntity
  8
0
  6
Continuous
 62
     7
370
    25
100
AcDbSpline
210
0.0
220
0.0
230
1.0
 70
    24
 71
     3
 72
    12
 73
     8
 74
     0
 42
0.00000001
 43
0.0000000001
 40
0.0
 40
0.0
 40
0.0
 40
0.0
 40
0.332936965373518
 40
0.5139656098116951
 40
0.6952322446429475
 40
0.8762609961831063
 40
1.0
 40
1.0
 40
1.0
 40
1.0
 10
857.92922337875
 20
1365.254397866314
 30
0.0
 10
857.6778259656075
 20
1365.254397866315
 30
0.0
 10
857.2897356116099
 20
1365.254397866317
 30
0.0
 10
856.8228063419338
 20
1365.254397866317
 30
0.0
 10
856.5072874529132
 20
1365.254397866317
 30
0.0
 10
856.2671632343946
 20
1365.254397866317
 30
0.0
 10
856.1690559833833
 20
1365.254397866317
 30
0.0
 10
856.1292233787398
 20
1365.254397866317
 30
0.0
  0
LINE
  5
4D0
330
1F
100
AcDbEntity
  8
0
  6
Continuous
 62
     7
370
    25
100
AcDbLine
 10
857.9292233788001
 20
1364.2543978663
 30
0.0
 11
857.9292233787001
 21
1365.2543978663
 31
0.0
  0
LINE
  5
4D1
330
1F
100
AcDbEntity
  8
0
  6
Continuous
 62
     7
370
    25
100
AcDbLine
 10
858.1292233786998
 20
1309.2543978663
 30
0.0
 11
857.9292233787001
 21
1309.2543978663
 31
0.0
  0
LINE
  5
4D2
330
1F
100
AcDbEntity
  8
0
  6
Continuous
 62
     7
370
    25
100
AcDbLine
 10
857.9292233787001
 20
1309.2543978663
 30
0.0
 11
857.9292233787001
 21
1318.3628237086
 31
0.0
  0
SPLINE
  5
4D3
330
1F
100
AcDbEntity
  8
0
  6
Continuous
 62
     7
370
    25
100
AcDbSpline
210
0.0
220
0.0
230
1.0
 70
     8
 71
     3
 72
    10
 73
     6
 74
     0
 42
0.00000001
 43
0.0000000001
 40
0.0
 40
0.0
 40
0.0
 40
0.0
 40
0.0371311943430247
 40
0.5486628195591504
 40
1.0
 40
1.0
 40
1.0
 40
1.0
 10
856.1292233787389
 20
1326.508633526142
 30
0.0
 10
856.1348462309533
 20
1326.515351873569
 30
0.0
 10
856.2179313566602
 20
1326.614624399191
 30
0.0
 10
856.4394873292449
 20
1326.715053312386
 30
0.0
 10
856.6707982184906
 20
1326.741841237216
 30
0.0
 10
856.7792233787459
 20
1326.754397866314
 30
0.0
  0
LINE
  5
4D4
330
1F
100
AcDbEntity
  8
0
  6
Continuous
 62
     7
370
    25
100
AcDbLine
 10
857.6292233786999
 20
1326.7543978663
 30
0.0
 11
856.7792233786995
 21
1326.7543978663
 31
0.0
  0
LINE
  5
4D5
330
1F
100
AcDbEntity
  8
0
  6
Continuous
 62
     7
370
    25
100
AcDbLine
 10
858.1292233787999
 20
1364.2543978663
 30
0.0
 11
857.9292233788001
 21
1364.2543978663
 31
0.0
  0
LINE
  5
4D6
330
1F
100
AcDbEntity
  8
0
  6
Continuous
 62
     7
370
    25
100
AcDbLine
 10
857.9292233787001
 20
1355.1459720241
 30
0.0
 11
857.9292233788001
 21
1364.2543978663
 31
0.0
  0
SPLINE
  5
4D7
330
1F
100
AcDbEntity
  8
0
  6
Continuous
 62
     7
370
    25
100
AcDbSpline
210
0.0
220
0.0
230
1.0
 70
     8
 71
     3
 72
     9
 73
     5
 74
     0
 42
0.00000001
 43
0.0000000001
 40
0.0
 40
0.0
 40
0.0
 40
0.0
 40
0.5050081268919437
 40
1.0
 40
1.0
 40
1.0
 40
1.0
 10
856.7792233787468
 20
1346.754397866314
 30
0.0
 10
856.6559271068809
 20
1346.766617725698
 30
0.0
 10
856.4117800025032
 20
1346.790815077648
 30
0.0
 10
856.2227778889491
 20
1346.927891150911
 30
0.0
 10
856.1292233787398
 20
1346.995742693174
 30
0.0
  0
LINE
  5
4D8
330
1F
100
AcDbEntity
  8
0
  6
Continuous
 62
     7
370
    25
100
AcDbLine
 10
856.7792233786995
 20
1346.7543978663
 30
0.0
 11
857.6292233786999
 21
1346.7543978663
 31
0.0
  0
LINE
  5
4D9
330
1F
100
AcDbEntity
  8
0
  6
Continuous
 62
     7
370
    25
100
AcDbLine
 10
858.1292233786998
 20
1308.2543978663
 30
0.0
 11
857.9292233787001
 21
1308.2543978663
 31
0.0
  0
LINE
  5
4DA
330
1F
100
AcDbEntity
  8
0
  6
Continuous
 62
     7
370
    25
100
AcDbLine
 10
858.1292233786998
 20
1365.2543978663
 30
0.0
 11
857.9292233787001
 21
1365.2543978663
 31
0.0
  0
LINE
  5
4DB
330
1F
100
AcDbEntity
  8
0
  6
Continuous
 62
     7
370
    25
100
AcDbLine
 10
856.2640384536999
 20
1058.3793978663
 30
0.0
 11
856.2640384536999
 21
1059.3043978663
 31
0.0
  0
LINE
  5
4DC
330
1F
100
AcDbEntity
  8
0
  6
Continuous
 62
     7
370
    25
100
AcDbLine
 10
856.2640384536999
 20
1074.2043978663
 30
0.0
 11
856.2640384536999
 21
1075.1293978663
 31
0.0
  0
LINE
  5
4DD
330
1F
100
AcDbEntity
  8
0
  6
Continuous
 62
     7
370
    25
100
AcDbLine
 10
856.2640384536999
 20
1075.1293978663
 30
0.0
 11
856.1292233786998
 21
1075.1293978663
 31
0.0
  0
LINE
  5
4DE
330
1F
100
AcDbEntity
  8
0
  6
Continuous
 62
     7
370
    25
100
AcDbLine
 10
856.1292233786998
 20
1058.3793978663
 30
0.0
 11
856.2640384536999
 21
1058.3793978663
 31
0.0
  0
LINE
  5
4DF
330
1F
100
AcDbEntity
  8
0
  6
Continuous
 62
     7
370
    25
100
AcDbLine
 10
857.6292233786999
 20
1075.1293978663
 30
0.0
 11
856.2640384536999
 21
1075.1293978663
 31
0.0
  0
LINE
  5
4E0
330
1F
100
AcDbEntity
  8
0
  6
Continuous
 62
     7
370
    25
100
AcDbLine
 10
856.2640384536999
 20
1058.3793978663
 30
0.0
 11
857.6292233786999
 21
1058.3793978663
 31
0.0
  0
LINE
  5
4E1
330
1F
100
AcDbEntity
  8
0
  6
Continuous
 62
     7
370
    25
100
AcDbLine
 10
856.2640384536999
 20
1328.3793978663
 30
0.0
 11
856.2640384536999
 21
1329.3043978663
 31
0.0
  0
LINE
  5
4E2
330
1F
100
AcDbEntity
  8
0
  6
Continuous
 62
     7
370
    25
100
AcDbLine
 10
856.2640384536999
 20
1344.2043978663
 30
0.0
 11
856.2640384536999
 21
1345.1293978663
 31
0.0
  0
LINE
  5
4E3
330
1F
100
AcDbEntity
  8
0
  6
Continuous
 62
     7
370
    25
100
AcDbLine
 10
856.2640384536999
 20
1345.1293978663
 30
0.0
 11
856.1292233786998
 21
1345.1293978663
 31
0.0
  0
LINE
  5
4E4
330
1F
100
AcDbEntity
  8
0
  6
Continuous
 62
     7
370
    25
100
AcDbLine
 10
856.1292233786998
 20
1328.3793978663
 30
0.0
 11
856.2640384536999
 21
1328.3793978663
 31
0.0
  0
LINE
  5
4E5
330
1F
100
AcDbEntity
  8
0
  6
Continuous
 62
     7
370
    25
100
AcDbLine
 10
857.6292233786999
 20
1345.1293978663
 30
0.0
 11
856.2640384536999
 21
1345.1293978663
 31
0.0
  0
LINE
  5
4E6
330
1F
100
AcDbEntity
  8
0
  6
Continuous
 62
     7
370
    25
100
AcDbLine
 10
856.2640384536999
 20
1328.3793978663
 30
0.0
 11
857.6292233786999
 21
1328.3793978663
 31
0.0
  0
LINE
  5
4E7
330
1F
100
AcDbEntity
  8
0
  6
Continuous
 62
     7
370
    25
100
AcDbLine
 10
856.1292233786998
 20
1330.2543978663
 30
0.0
 11
858.1292233786998
 21
1330.2543978663
 31
0.0
  0
LINE
  5
4E8
330
1F
100
AcDbEntity
  8
0
  6
Continuous
 62
     7
370
    25
100
AcDbLine
 10
858.1292233786998
 20
1343.2543978663
 30
0.0
 11
856.1292233786998
 21
1343.2543978663
 31
0.0
  0
LINE
  5
4E9
330
1F
100
AcDbEntity
  8
0
  6
Continuous
 62
     7
370
    25
100
AcDbLine
 10
856.8579408335999
 20
1344.2043978663
 30
0.0
 11
856.8579408335999
 21
1343.2543978663
 31
0.0
  0
LINE
  5
4EA
330
1F
100
AcDbEntity
  8
0
  6
Continuous
 62
     7
370
    25
100
AcDbLine
 10
856.8579408335999
 20
1330.2543978663
 30
0.0
 11
856.8579408335999
 21
1329.3043978663
 31
0.0
  0
LINE
  5
4EB
330
1F
100
AcDbEntity
  8
0
  6
Continuous
 62
     7
370
    25
100
AcDbLine
 10
856.8579408335999
 20
1344.2043978663
 30
0.0
 11
856.1292233786998
 21
1344.2043978663
 31
0.0
  0
LINE
  5
4EC
330
1F
100
AcDbEntity
  8
0
  6
Continuous
 62
     7
370
    25
100
AcDbLine
 10
856.8579408335999
 20
1329.3043978663
 30
0.0
 11
856.1292233786998
 21
1329.3043978663
 31
0.0
  0
LINE
  5
4ED
330
1F
100
AcDbEntity
  8
0
  6
Continuous
 62
     7
370
    25
100
AcDbLine
 10
856.9193103292001
 20
1344.2043978663
 30
0.0
 11
856.9193103292001
 21
1343.2543978663
 31
0.0
  0
LINE
  5
4EE
330
1F
100
AcDbEntity
  8
0
  6
Continuous
 62
     7
370
    25
100
AcDbLine
 10
856.9193103292001
 20
1330.2543978663
 30
0.0
 11
856.9193103292001
 21
1329.3043978663
 31
0.0
  0
LINE
  5
4EF
330
1F
100
AcDbEntity
  8
0
  6
Continuous
 62
     7
370
    25
100
AcDbLine
 10
856.9193103292001
 20
1344.2043978663
 30
0.0
 11
856.8579408335999
 21
1344.2043978663
 31
0.0
  0
LINE
  5
4F0
330
1F
100
AcDbEntity
  8
0
  6
Continuous
 62
     7
370
    25
100
AcDbLine
 10
856.9193103292001
 20
1329.3043978663
 30
0.0
 11
856.8579408335999
 21
1329.3043978663
 31
0.0
  0
LINE
  5
4F1
330
1F
100
AcDbEntity
  8
0
  6
Continuous
 62
     7
370
    25
100
AcDbLine
 10
856.1292233786998
 20
1060.2543978663
 30
0.0
 11
858.1292233786998
 21
1060.2543978663
 31
0.0
  0
LINE
  5
4F2
330
1F
100
AcDbEntity
  8
0
  6
Continuous
 62
     7
370
    25
100
AcDbLine
 10
858.1292233786998
 20
1073.2543978663
 30
0.0
 11
856.1292233786998
 21
1073.2543978663
 31
0.0
  0
LINE
  5
4F3
330
1F
100
AcDbEntity
  8
0
  6
Continuous
 62
     7
370
    25
100
AcDbLine
 10
856.8579408335999
 20
1074.2043978663
 30
0.0
 11
856.8579408335999
 21
1073.2543978663
 31
0.0
  0
LINE
  5
4F4
330
1F
100
AcDbEntity
  8
0
  6
Continuous
 62
     7
370
    25
100
AcDbLine
 10
856.8579408335999
 20
1060.2543978663
 30
0.0
 11
856.8579408335999
 21
1059.3043978663
 31
0.0
  0
LINE
  5
4F5
330
1F
100
AcDbEntity
  8
0
  6
Continuous
 62
     7
370
    25
100
AcDbLine
 10
856.8579408335999
 20
1074.2043978663
 30
0.0
 11
856.1292233786998
 21
1074.2043978663
 31
0.0
  0
LINE
  5
4F6
330
1F
100
AcDbEntity
  8
0
  6
Continuous
 62
     7
370
    25
100
AcDbLine
 10
856.8579408335999
 20
1059.3043978663
 30
0.0
 11
856.1292233786998
 21
1059.3043978663
 31
0.0
  0
LINE
  5
4F7
330
1F
100
AcDbEntity
  8
0
  6
Continuous
 62
     7
370
    25
100
AcDbLine
 10
856.9193103292001
 20
1074.2043978663
 30
0.0
 11
856.9193103292001
 21
1073.2543978663
 31
0.0
  0
LINE
  5
4F8
330
1F
100
AcDbEntity
  8
0
  6
Continuous
 62
     7
370
    25
100
AcDbLine
 10
856.9193103292001
 20
1060.2543978663
 30
0.0
 11
856.9193103292001
 21
1059.3043978663
 31
0.0
  0
LINE
  5
4F9
330
1F
100
AcDbEntity
  8
0
  6
Continuous
 62
     7
370
    25
100
AcDbLine
 10
856.9193103292001
 20
1074.2043978663
 30
0.0
 11
856.8579408335999
 21
1074.2043978663
 31
0.0
  0
LINE
  5
4FA
330
1F
100
AcDbEntity
  8
0
  6
Continuous
 62
     7
370
    25
100
AcDbLine
 10
856.9193103292001
 20
1059.3043978663
 30
0.0
 11
856.8579408335999
 21
1059.3043978663
 31
0.0
  0
LINE
  5
4FB
330
1F
100
AcDbEntity
  8
0
  6
Continuous
 62
     7
370
    25
100
AcDbLine
 10
857.6292233786999
 20
1074.2293978663
 30
0.0
 11
857.3176575758997
 21
1074.2293978663
 31
0.0
  0
LINE
  5
4FC
330
1F
100
AcDbEntity
  8
0
  6
Continuous
 62
     7
370
    25
100
AcDbLine
 10
857.3176575758997
 20
1059.2793978663
 30
0.0
 11
857.3176575758997
 21
1060.2543978663
 31
0.0
  0
LINE
  5
4FD
330
1F
100
AcDbEntity
  8
0
  6
Continuous
 62
     7
370
    25
100
AcDbLine
 10
857.3176575758997
 20
1073.2543978663
 30
0.0
 11
857.3176575758997
 21
1074.2293978663
 31
0.0
  0
LINE
  5
4FE
330
1F
100
AcDbEntity
  8
0
  6
Continuous
 62
     7
370
    25
100
AcDbLine
 10
857.6292233786999
 20
1059.2793978663
 30
0.0
 11
857.3176575758997
 21
1059.2793978663
 31
0.0
  0
LINE
  5
4FF
330
1F
100
AcDbEntity
  8
0
  6
Continuous
 62
     7
370
    25
100
AcDbLine
 10
857.3176575758997
 20
1074.2293978663
 30
0.0
 11
857.2785149814999
 21
1074.2293978663
 31
0.0
  0
LINE
  5
500
330
1F
100
AcDbEntity
  8
0
  6
Continuous
 62
     7
370
    25
100
AcDbLine
 10
857.3176575758997
 20
1059.2793978663
 30
0.0
 11
857.2785149814999
 21
1059.2793978663
 31
0.0
  0
LINE
  5
501
330
1F
100
AcDbEntity
  8
0
  6
Continuous
 62
     7
370
    25
100
AcDbLine
 10
857.6292233786999
 20
1344.2293978663
 30
0.0
 11
857.3176575758997
 21
1344.2293978663
 31
0.0
  0
LINE
  5
502
330
1F
100
AcDbEntity
  8
0
  6
Continuous
 62
     7
370
    25
100
AcDbLine
 10
857.3176575758997
 20
1329.2793978663
 30
0.0
 11
857.3176575758997
 21
1330.2543978663
 31
0.0
  0
LINE
  5
503
330
1F
100
AcDbEntity
  8
0
  6
Continuous
 62
     7
370
    25
100
AcDbLine
 10
857.3176575758997
 20
1343.2543978663
 30
0.0
 11
857.3176575758997
 21
1344.2293978663
 31
0.0
  0
LINE
  5
504
330
1F
100
AcDbEntity
  8
0
  6
Continuous
 62
     7
370
    25
100
AcDbLine
 10
857.6292233786999
 20
1329.2793978663
 30
0.0
 11
857.3176575758997
 21
1329.2793978663
 31
0.0
  0
LINE
  5
505
330
1F
100
AcDbEntity
  8
0
  6
Continuous
 62
     7
370
    25
100
AcDbLine
 10
857.3176575758997
 20
1344.2293978663
 30
0.0
 11
857.2785149814999
 21
1344.2293978663
 31
0.0
  0
LINE
  5
506
330
1F
100
AcDbEntity
  8
0
  6
Continuous
 62
     7
370
    25
100
AcDbLine
 10
857.3176575758997
 20
1329.2793978663
 30
0.0
 11
857.2785149814999
 21
1329.2793978663
 31
0.0
  0
LINE
  5
507
330
1F
100
AcDbEntity
  8
0
  6
Continuous
 62
     7
370
    25
100
AcDbLine
 10
475.6515032166999
 20
1329.2767567878
 30
0.0
 11
475.7954764323003
 21
1334.7748720752
 31
0.0
  0
LINE
  5
508
330
1F
100
AcDbEntity
  8
0
  6
Continuous
 62
     7
370
    25
100
AcDbLine
 10
473.6570516978999
 20
1339.0823255656
 30
0.0
 11
474.1805906640002
 21
1359.0754720652
 31
0.0
  0
LINE
  5
509
330
1F
100
AcDbEntity
  8
0
  6
Continuous
 62
     7
370
    25
100
AcDbLine
 10
472.9568920992005
 20
1358.0117271316
 30
0.0
 11
472.4907022776997
 21
1340.2086561082
 31
0.0
  0
LINE
  5
50A
330
1F
100
AcDbEntity
  8
0
  6
Continuous
 62
     7
370
    25
100
AcDbLine
 10
474.6611781751998
 20
1348.7600942736
 30
0.0
 11
474.4072424752003
 21
1339.0626811288
 31
0.0
  0
LINE
  5
50B
330
1F
100
AcDbEntity
  8
0
  6
Continuous
 62
     7
370
    25
100
AcDbLine
 10
472.3926672573997
 20
1341.8115145215
 30
0.0
 11
472.7751043047001
 21
1356.4161961367
 31
0.0
  0
LINE
  5
50C
330
1F
100
AcDbEntity
  8
0
  6
Continuous
 62
     7
370
    25
100
AcDbLine
 10
475.2509758641999
 20
1344.5424743019
 30
0.0
 11
475.3726417036005
 21
1349.1887052586
 31
0.0
  0
LINE
  5
50D
330
1F
100
AcDbEntity
  8
0
  6
Continuous
 62
     7
370
    25
100
AcDbLine
 10
475.3726417036005
 20
1349.1887052586
 30
0.0
 11
475.4865683154003
 21
1353.539387036
 31
0.0
  0
LINE
  5
50E
330
1F
100
AcDbEntity
  8
0
  6
Continuous
 62
     7
370
    25
100
AcDbLine
 10
857.9292233787001
 20
1039.2543978663
 30
0.0
 11
856.1292233786998
 21
1039.2543978663
 31
0.0
  0
LINE
  5
50F
330
1F
100
AcDbEntity
  8
0
  6
Continuous
 62
     7
370
    25
100
AcDbLine
 10
857.9292233788001
 20
1094.2543978663
 30
0.0
 11
856.1292233786998
 21
1094.2543978663
 31
0.0
  0
LINE
  5
510
330
1F
100
AcDbEntity
  8
0
  6
Continuous
 62
     7
370
    25
100
AcDbLine
 10
856.7792233786995
 20
1058.3793978663
 30
0.0
 11
856.7792233786995
 21
1056.7543978663
 31
0.0
  0
LINE
  5
511
330
1F
100
AcDbEntity
  8
0
  6
Continuous
 62
     7
370
    25
100
AcDbLine
 10
856.7792233786995
 20
1076.7543978663
 30
0.0
 11
856.7792233786995
 21
1075.1293978663
 31
0.0
  0
LINE
  5
512
330
1F
100
AcDbEntity
  8
0
  6
Continuous
 62
     7
370
    25
100
AcDbLine
 10
857.9292233787001
 20
1309.2543978663
 30
0.0
 11
856.1292233786998
 21
1309.2543978663
 31
0.0
  0
LINE
  5
513
330
1F
100
AcDbEntity
  8
0
  6
Continuous
 62
     7
370
    25
100
AcDbLine
 10
857.9292233788001
 20
1364.2543978663
 30
0.0
 11
856.1292233786998
 21
1364.2543978663
 31
0.0
  0
LINE
  5
514
330
1F
100
AcDbEntity
  8
0
  6
Continuous
 62
     7
370
    25
100
AcDbLine
 10
856.7792233786995
 20
1328.3793978663
 30
0.0
 11
856.7792233786995
 21
1326.7543978663
 31
0.0
  0
LINE
  5
515
330
1F
100
AcDbEntity
  8
0
  6
Continuous
 62
     7
370
    25
100
AcDbLine
 10
856.7792233786995
 20
1346.7543978663
 30
0.0
 11
856.7792233786995
 21
1345.1293978663
 31
0.0
  0
ENDSEC
  0
SECTION
  2
OBJECTS
  0
DICTIONARY
  5
C
330
0
100
AcDbDictionary
281
     1
  3
ACAD_CIP_PREVIOUS_PRODUCT_INFO
350
2BC
  3
ACAD_COLOR
350
2B0
  3
ACAD_DETAILVIEWSTYLE
350
2B7
  3
ACAD_GROUP
350
D
  3
ACAD_LAST_SAVED_VERSION_INFO
350
518
  3
ACAD_LAYOUT
350
1A
  3
ACAD_MATERIAL
350
27E
  3
ACAD_MLEADERSTYLE
350
2B3
  3
ACAD_MLINESTYLE
350
17
  3
ACAD_PLOTSETTINGS
350
19
  3
ACAD_PLOTSTYLENAME
350
E
  3
ACAD_SCALELIST
350
47
  3
ACAD_SECTIONVIEWSTYLE
350
2B5
  3
ACAD_TABLESTYLE
350
2B1
  3
ACAD_VISUALSTYLE
350
297
  3
ACDB_RECOMPOSE_DATA
350
52B
  3
AcDbVariableDictionary
350
51F
  0
DICTIONARY
  5
519
330
10
100
AcDbDictionary
280
     1
281
     1
  3
ADSK_XREC_LAYER_RECONCILED
360
51A
  0
DICTIONARY
  5
51B
330
63
100
AcDbDictionary
280
     1
281
     1
  3
ADSK_XREC_LAYER_RECONCILED
360
51C
  0
DICTIONARY
  5
51D
330
64
100
AcDbDictionary
280
     1
281
     1
  3
ADSK_XREC_LAYER_RECONCILED
360
51E
  0
XRECORD
  5
2BC
102
{ACAD_REACTORS
330
C
102
}
330
C
100
AcDbXrecord
280
     1
300
ACD
300
2025
300

  0
DICTIONARY
  5
2B0
102
{ACAD_REACTORS
330
C
102
}
330
C
100
AcDbDictionary
281
     1
  0
DICTIONARY
  5
2B7
102
{ACAD_REACTORS
330
C
102
}
330
C
100
AcDbDictionary
281
     1
  3
Metric50
350
2B8
  0
DICTIONARY
  5
D
102
{ACAD_REACTORS
330
C
102
}
330
C
100
AcDbDictionary
281
     1
  0
XRECORD
  5
518
102
{ACAD_REACTORS
330
C
102
}
330
C
100
AcDbXrecord
280
     1
300
{90C00173-3D06-7A4C-8DA4-62FBD2B0D090}
301
{14A5F13E-55A4-0141-90D8-1287097F2F9C}
302
{90C00173-3D06-7A4C-8DA4-62FBD2B0D090}
303
\\192.168.1.169\設計g\1_図面編集ﾃﾞｰﾀ\MA\00_資料用図面_DWG,DXF\DXF\ENTRANCE＿新エントランス\ベーシック\MA-G43UL.DXF
  0
DICTIONARY
  5
1A
102
{ACAD_REACTORS
330
C
102
}
330
C
100
AcDbDictionary
281
     1
  3
Layout1
350
1E
  3
Layout2
350
26
  3
Model
350
22
  0
DICTIONARY
  5
27E
102
{ACAD_REACTORS
330
C
102
}
330
C
100
AcDbDictionary
281
     1
  3
ByBlock
350
287
  3
ByLayer
350
27F
  3
Global
350
28F
  0
DICTIONARY
  5
2B3
102
{ACAD_REACTORS
330
C
102
}
330
C
100
AcDbDictionary
281
     1
  3
Standard
350
2B4
  0
DICTIONARY
  5
17
102
{ACAD_REACTORS
330
C
102
}
330
C
100
AcDbDictionary
281
     1
  3
Standard
350
18
  0
DICTIONARY
  5
19
102
{ACAD_REACTORS
330
C
102
}
330
C
100
AcDbDictionary
281
     1
  0
ACDBDICTIONARYWDFLT
  5
E
102
{ACAD_REACTORS
330
C
102
}
330
C
100
AcDbDictionary
281
     1
  3
Normal
350
F
100
AcDbDictionaryWithDefault
340
F
  0
DICTIONARY
  5
47
102
{ACAD_REACTORS
330
C
102
}
330
C
100
AcDbDictionary
281
     1
  3
A0
350
48
  3
A1
350
49
  3
A2
350
4A
  3
A3
350
4B
  3
A4
350
4C
  3
A5
350
4D
  3
A6
350
4E
  3
A7
350
4F
  3
A8
350
50
  3
A9
350
51
  3
B0
350
52
  3
B1
350
53
  3
B2
350
54
  3
B3
350
55
  3
B4
350
56
  3
B5
350
57
  3
B6
350
58
  0
DICTIONARY
  5
2B5
102
{ACAD_REACTORS
330
C
102
}
330
C
100
AcDbDictionary
281
     1
  3
Metric50
350
2B6
  0
DICTIONARY
  5
2B1
102
{ACAD_REACTORS
330
C
102
}
330
C
100
AcDbDictionary
281
     1
  3
Standard
350
2B2
  0
DICTIONARY
  5
297
102
{ACAD_REACTORS
330
C
102
}
330
C
100
AcDbDictionary
281
     1
  3
2dWireframe
350
29D
  3
Basic
350
29C
  3
Brighten
350
2A3
  3
ColorChange
350
2A7
  3
Conceptual
350
2A0
  3
Dim
350
2A2
  3
EdgeColorOff
350
2AF
  3
Facepattern
350
2A6
  3
Flat
350
298
  3
FlatWithEdges
350
299
  3
Gouraud
350
29A
  3
GouraudWithEdges
350
29B
  3
Hidden
350
29F
  3
JitterOff
350
2AD
  3
Linepattern
350
2A5
  3
OverhangOff
350
2AE
  3
Realistic
350
2A1
  3
Shaded
350
2AC
  3
Shaded with edges
350
2AB
  3
Shades of Gray
350
2A8
  3
Sketchy
350
2A9
  3
Thicken
350
2A4
  3
Wireframe
350
29E
  3
X-Ray
350
2AA
  0
XRECORD
  5
52B
102
{ACAD_REACTORS
330
C
102
}
330
C
100
AcDbXrecord
280
     1
 90
        1
330
2B2
  0
DICTIONARY
  5
51F
102
{ACAD_REACTORS
330
C
102
}
330
C
100
AcDbDictionary
281
     1
  3
CANNOSCALE
350
525
  3
CMLEADERSTYLE
350
521
  3
CTABLESTYLE
350
520
  3
CVIEWDETAILSTYLE
350
522
  3
CVIEWSECTIONSTYLE
350
523
  3
LAYEREVAL
350
527
  3
LAYERNOTIFY
350
528
  3
LIGHTINGUNITS
350
526
  3
MSLTSCALE
350
524
  0
XRECORD
  5
51A
102
{ACAD_REACTORS
330
519
102
}
330
519
100
AcDbXrecord
280
     1
290
     1
  0
XRECORD
  5
51C
102
{ACAD_REACTORS
330
51B
102
}
330
51B
100
AcDbXrecord
280
     1
290
     1
  0
XRECORD
  5
51E
102
{ACAD_REACTORS
330
51D
102
}
330
51D
100
AcDbXrecord
280
     1
290
     1
  0
ACDBDETAILVIEWSTYLE
  5
2B8
102
{ACAD_REACTORS
330
2B7
102
}
330
2B7
100
AcDbModelDocViewStyle
 70
     0
  3
Metric50
290
     0
300
Metric50
 90
        0
100
AcDbDetailViewStyle
 70
     0
 71
     0
 90
        3
 71
     1
340
11
 62
   256
 40
5.0
340
0
 62
   256
 40
5.0
300

 40
0.0
280
     1
 71
     2
340
16
 90
       25
 62
   256
 71
     3
340
11
 62
   256
 40
5.0
 90
        0
 40
15.0
 90
        1
300
%<\AcVar ViewDetailId>% (%<\AcVar ViewScale \f "%sn">%)
 71
     4
340
16
 90
       25
 62
   256
340
16
 90
       25
 62
   256
280
     0
  0
LAYOUT
  5
1E
102
{ACAD_REACTORS
330
1A
102
}
330
1A
100
AcDbPlotSettings
  1

  2
none_device
  4

  6

 40
0.0
 41
0.0
 42
0.0
 43
0.0
 44
0.0
 45
0.0
 46
0.0
 47
0.0
 48
0.0
 49
0.0
140
0.0
141
0.0
142
1.0
143
1.0
 70
   688
 72
     1
 73
     0
 74
     5
  7

 75
    16
147
1.0
 76
     0
 77
     2
 78
   300
148
0.0
149
0.0
100
AcDbLayout
  1
Layout1
 70
     1
 71
     1
 10
0.0
 20
0.0
 11
420.0
 21
297.0
 12
0.0
 22
0.0
 32
0.0
 14
1.000000000000000E+20
 24
1.000000000000000E+20
 34
1.000000000000000E+20
 15
-1.000000000000000E+20
 25
-1.000000000000000E+20
 35
-1.000000000000000E+20
146
0.0
 13
0.0
 23
0.0
 33
0.0
 16
1.0
 26
0.0
 36
0.0
 17
0.0
 27
1.0
 37
0.0
 76
     0
330
1B
  0
LAYOUT
  5
26
102
{ACAD_REACTORS
330
1A
102
}
330
1A
100
AcDbPlotSettings
  1

  2
none_device
  4

  6

 40
0.0
 41
0.0
 42
0.0
 43
0.0
 44
0.0
 45
0.0
 46
0.0
 47
0.0
 48
0.0
 49
0.0
140
0.0
141
0.0
142
1.0
143
1.0
 70
   688
 72
     1
 73
     0
 74
     5
  7

 75
    16
147
1.0
 76
     0
 77
     2
 78
   300
148
0.0
149
0.0
100
AcDbLayout
  1
Layout2
 70
     1
 71
     2
 10
0.0
 20
0.0
 11
0.0
 21
0.0
 12
0.0
 22
0.0
 32
0.0
 14
0.0
 24
0.0
 34
0.0
 15
0.0
 25
0.0
 35
0.0
146
0.0
 13
0.0
 23
0.0
 33
0.0
 16
1.0
 26
0.0
 36
0.0
 17
0.0
 27
1.0
 37
0.0
 76
     0
330
23
  0
LAYOUT
  5
22
102
{ACAD_REACTORS
330
1A
102
}
330
1A
100
AcDbPlotSettings
  1

  2
none_device
  4
Letter_(8.50_x_11.00_Inches)
  6

 40
6.349999999999999
 41
6.349999999999999
 42
6.350005079999999
 43
6.350005079999999
 44
215.9
 45
279.4
 46
0.0
 47
0.0
 48
0.0
 49
0.0
140
0.0
141
0.0
142
1.0
143
1.0
 70
  1712
 72
     1
 73
     0
 74
     0
  7

 75
     0
147
1.0
 76
     0
 77
     2
 78
   300
148
0.0
149
0.0
100
AcDbLayout
  1
Model
 70
     1
 71
     0
 10
0.0
 20
0.0
 11
5000.0
 21
3500.0
 12
0.0
 22
0.0
 32
0.0
 14
0.0
 24
0.0
 34
0.0
 15
5000.0
 25
3500.0
 35
0.0
146
0.0
 13
0.0
 23
0.0
 33
0.0
 16
1.0
 26
0.0
 36
0.0
 17
0.0
 27
1.0
 37
0.0
 76
     0
330
1F
331
29
  0
MATERIAL
  5
287
102
{ACAD_XDICTIONARY
360
288
102
}
102
{ACAD_REACTORS
330
27E
102
}
330
27E
100
AcDbMaterial
  1
ByBlock
 72
     0
 43
0.0008202099737533
 43
0.0
 43
0.0
 43
0.0
 43
0.0
 43
0.0008202099737533
 43
0.0
 43
0.0
 43
0.0
 43
0.0
 43
1.0
 43
0.0
 43
0.0
 43
0.0
 43
0.0
 43
1.0
 77
     0
 47
0.0008202099737533
 47
0.0
 47
0.0
 47
0.0
 47
0.0
 47
0.0008202099737533
 47
0.0
 47
0.0
 47
0.0
 47
0.0
 47
1.0
 47
0.0
 47
0.0
 47
0.0
 47
0.0
 47
1.0
171
     0
 49
0.0008202099737533
 49
0.0
 49
0.0
 49
0.0
 49
0.0
 49
0.0008202099737533
 49
0.0
 49
0.0
 49
0.0
 49
0.0
 49
1.0
 49
0.0
 49
0.0
 49
0.0
 49
0.0
 49
1.0
175
     0
142
0.0008202099737533
142
0.0
142
0.0
142
0.0
142
0.0
142
0.0008202099737533
142
0.0
142
0.0
142
0.0
142
0.0
142
1.0
142
0.0
142
0.0
142
0.0
142
0.0
142
1.0
179
     0
144
0.0008202099737533
144
0.0
144
0.0
144
0.0
144
0.0
144
0.0008202099737533
144
0.0
144
0.0
144
0.0
144
0.0
144
1.0
144
0.0
144
0.0
144
0.0
144
0.0
144
1.0
147
0.0008202099737533
147
0.0
147
0.0
147
0.0
147
0.0
147
0.0008202099737533
147
0.0
147
0.0
147
0.0
147
0.0
147
1.0
147
0.0
147
0.0
147
0.0
147
0.0
147
1.0
  0
MATERIAL
  5
27F
102
{ACAD_XDICTIONARY
360
280
102
}
102
{ACAD_REACTORS
330
27E
102
}
330
27E
100
AcDbMaterial
  1
ByLayer
 72
     0
 43
0.0008202099737533
 43
0.0
 43
0.0
 43
0.0
 43
0.0
 43
0.0008202099737533
 43
0.0
 43
0.0
 43
0.0
 43
0.0
 43
1.0
 43
0.0
 43
0.0
 43
0.0
 43
0.0
 43
1.0
 77
     0
 47
0.0008202099737533
 47
0.0
 47
0.0
 47
0.0
 47
0.0
 47
0.0008202099737533
 47
0.0
 47
0.0
 47
0.0
 47
0.0
 47
1.0
 47
0.0
 47
0.0
 47
0.0
 47
0.0
 47
1.0
171
     0
 49
0.0008202099737533
 49
0.0
 49
0.0
 49
0.0
 49
0.0
 49
0.0008202099737533
 49
0.0
 49
0.0
 49
0.0
 49
0.0
 49
1.0
 49
0.0
 49
0.0
 49
0.0
 49
0.0
 49
1.0
175
     0
142
0.0008202099737533
142
0.0
142
0.0
142
0.0
142
0.0
142
0.0008202099737533
142
0.0
142
0.0
142
0.0
142
0.0
142
1.0
142
0.0
142
0.0
142
0.0
142
0.0
142
1.0
179
     0
144
0.0008202099737533
144
0.0
144
0.0
144
0.0
144
0.0
144
0.0008202099737533
144
0.0
144
0.0
144
0.0
144
0.0
144
1.0
144
0.0
144
0.0
144
0.0
144
0.0
144
1.0
147
0.0008202099737533
147
0.0
147
0.0
147
0.0
147
0.0
147
0.0008202099737533
147
0.0
147
0.0
147
0.0
147
0.0
147
1.0
147
0.0
147
0.0
147
0.0
147
0.0
147
1.0
  0
MATERIAL
  5
28F
102
{ACAD_XDICTIONARY
360
290
102
}
102
{ACAD_REACTORS
330
27E
102
}
330
27E
100
AcDbMaterial
  1
Global
 72
     0
 43
0.0008202099737533
 43
0.0
 43
0.0
 43
0.0
 43
0.0
 43
0.0008202099737533
 43
0.0
 43
0.0
 43
0.0
 43
0.0
 43
1.0
 43
0.0
 43
0.0
 43
0.0
 43
0.0
 43
1.0
 77
     0
 47
0.0008202099737533
 47
0.0
 47
0.0
 47
0.0
 47
0.0
 47
0.0008202099737533
 47
0.0
 47
0.0
 47
0.0
 47
0.0
 47
1.0
 47
0.0
 47
0.0
 47
0.0
 47
0.0
 47
1.0
171
     0
 49
0.0008202099737533
 49
0.0
 49
0.0
 49
0.0
 49
0.0
 49
0.0008202099737533
 49
0.0
 49
0.0
 49
0.0
 49
0.0
 49
1.0
 49
0.0
 49
0.0
 49
0.0
 49
0.0
 49
1.0
175
     0
142
0.0008202099737533
142
0.0
142
0.0
142
0.0
142
0.0
142
0.0008202099737533
142
0.0
142
0.0
142
0.0
142
0.0
142
1.0
142
0.0
142
0.0
142
0.0
142
0.0
142
1.0
179
     0
144
0.0008202099737533
144
0.0
144
0.0
144
0.0
144
0.0
144
0.0008202099737533
144
0.0
144
0.0
144
0.0
144
0.0
144
1.0
144
0.0
144
0.0
144
0.0
144
0.0
144
1.0
147
0.0008202099737533
147
0.0
147
0.0
147
0.0
147
0.0
147
0.0008202099737533
147
0.0
147
0.0
147
0.0
147
0.0
147
1.0
147
0.0
147
0.0
147
0.0
147
0.0
147
1.0
  0
MLEADERSTYLE
  5
2B4
102
{ACAD_REACTORS
330
2B3
102
}
330
2B3
100
AcDbMLeaderStyle
179
     2
170
     2
171
     1
172
     0
 90
        2
 40
0.0
 41
0.0
173
     1
 91
-1056964608
340
14
 92
       -2
290
     1
 42
2.0
291
     1
 43
0.36
  3
Standard
 44
4.0
300

342
11
174
     1
178
     6
175
     1
176
     0
 93
-1056964608
 45
4.0
292
     0
297
     0
 46
4.0
 94
-1056964608
 47
1.0
 49
1.0
140
1.0
293
     1
141
0.0
294
     1
177
     0
142
1.0
295
     0
296
     0
143
0.125
271
     0
272
     9
273
     9
298
     0
  0
MLINESTYLE
  5
18
102
{ACAD_REACTORS
330
17
102
}
330
17
100
AcDbMlineStyle
  2
STANDARD
 70
     0
  3

 62
   256
 51
90.0
 52
90.0
 71
     2
 49
0.5
 62
   256
  6
BYLAYER
 49
-0.5
 62
   256
  6
BYLAYER
  0
ACDBPLACEHOLDER
  5
F
102
{ACAD_REACTORS
330
E
102
}
330
E
  0
SCALE
  5
48
102
{ACAD_REACTORS
330
47
102
}
330
47
100
AcDbScale
 70
     0
300
1:1
140
1.0
141
1.0
290
     1
  0
SCALE
  5
49
102
{ACAD_REACTORS
330
47
102
}
330
47
100
AcDbScale
 70
     0
300
1:2
140
1.0
141
2.0
290
     0
  0
SCALE
  5
4A
102
{ACAD_REACTORS
330
47
102
}
330
47
100
AcDbScale
 70
     0
300
1:4
140
1.0
141
4.0
290
     0
  0
SCALE
  5
4B
102
{ACAD_REACTORS
330
47
102
}
330
47
100
AcDbScale
 70
     0
300
1:5
140
1.0
141
5.0
290
     0
  0
SCALE
  5
4C
102
{ACAD_REACTORS
330
47
102
}
330
47
100
AcDbScale
 70
     0
300
1:8
140
1.0
141
8.0
290
     0
  0
SCALE
  5
4D
102
{ACAD_REACTORS
330
47
102
}
330
47
100
AcDbScale
 70
     0
300
1:10
140
1.0
141
10.0
290
     0
  0
SCALE
  5
4E
102
{ACAD_REACTORS
330
47
102
}
330
47
100
AcDbScale
 70
     0
300
1:16
140
1.0
141
16.0
290
     0
  0
SCALE
  5
4F
102
{ACAD_REACTORS
330
47
102
}
330
47
100
AcDbScale
 70
     0
300
1:20
140
1.0
141
20.0
290
     0
  0
SCALE
  5
50
102
{ACAD_REACTORS
330
47
102
}
330
47
100
AcDbScale
 70
     0
300
1:30
140
1.0
141
30.0
290
     0
  0
SCALE
  5
51
102
{ACAD_REACTORS
330
47
102
}
330
47
100
AcDbScale
 70
     0
300
1:40
140
1.0
141
40.0
290
     0
  0
SCALE
  5
52
102
{ACAD_REACTORS
330
47
102
}
330
47
100
AcDbScale
 70
     0
300
1:50
140
1.0
141
50.0
290
     0
  0
SCALE
  5
53
102
{ACAD_REACTORS
330
47
102
}
330
47
100
AcDbScale
 70
     0
300
1:100
140
1.0
141
100.0
290
     0
  0
SCALE
  5
54
102
{ACAD_REACTORS
330
47
102
}
330
47
100
AcDbScale
 70
     0
300
2:1
140
2.0
141
1.0
290
     0
  0
SCALE
  5
55
102
{ACAD_REACTORS
330
47
102
}
330
47
100
AcDbScale
 70
     0
300
4:1
140
4.0
141
1.0
290
     0
  0
SCALE
  5
56
102
{ACAD_REACTORS
330
47
102
}
330
47
100
AcDbScale
 70
     0
300
8:1
140
8.0
141
1.0
290
     0
  0
SCALE
  5
57
102
{ACAD_REACTORS
330
47
102
}
330
47
100
AcDbScale
 70
     0
300
10:1
140
10.0
141
1.0
290
     0
  0
SCALE
  5
58
102
{ACAD_REACTORS
330
47
102
}
330
47
100
AcDbScale
 70
     0
300
100:1
140
100.0
141
1.0
290
     0
  0
ACDBSECTIONVIEWSTYLE
  5
2B6
102
{ACAD_REACTORS
330
2B5
102
}
330
2B5
100
AcDbModelDocViewStyle
 70
     0
  3
Metric50
290
     0
300
Metric50
 90
        0
100
AcDbSectionViewStyle
 70
     0
 71
     0
 90
      102
 71
     1
340
11
 62
   256
 40
5.0
340
0
340
0
 62
   256
 40
5.0
300
I, O, Q, S, X, Z
 40
10.0
 90
        0
 40
2.5
 90
        0
 71
     2
340
16
 90
       25
 62
   256
340
16
 90
       50
 62
   256
 40
5.0
 40
2.5
 40
5.0
 71
     3
340
11
 62
   256
 40
5.0
 90
        0
 40
15.0
 90
        1
300
%<\AcVar ViewSectionStartId>%-%<\AcVar ViewSectionEndId>% (%<\AcVar ViewScale \f "%sn">%)
 71
     4
 62
   256
 62
   257
300
ANSI31
 40
1.0
 90
        0
290
     0
290
     0
 90
        6
 40
0.0
 40
1.570796326794896
 40
0.2617993877991494
 40
1.308996938995747
 40
-0.2617993877991494
 40
1.832595714594046
  0
TABLESTYLE
  5
2B2
102
{ACAD_XDICTIONARY
360
529
102
}
102
{ACAD_REACTORS
330
2B1
102
}
330
2B1
100
AcDbTableStyle
280
     0
  3
Standard
 70
     0
 71
     0
 40
1.5
 41
1.5
280
     0
281
     0
  7
Standard
140
4.5
170
     2
 62
     0
 63
     7
283
     0
 90
      512
 91
        0
  1

274
    -2
284
     1
 64
     0
275
    -2
285
     1
 65
     0
276
    -2
286
     1
 66
     0
277
    -2
287
     1
 67
     0
278
    -2
288
     1
 68
     0
279
    -2
289
     1
 69
     0
  7
Standard
140
6.0
170
     5
 62
     0
 63
     7
283
     0
 90
      512
 91
        0
  1

274
    -2
284
     1
 64
     0
275
    -2
285
     1
 65
     0
276
    -2
286
     1
 66
     0
277
    -2
287
     1
 67
     0
278
    -2
288
     1
 68
     0
279
    -2
289
     1
 69
     0
  7
Standard
140
4.5
170
     5
 62
     0
 63
     7
283
     0
 90
      512
 91
        0
  1

274
    -2
284
     1
 64
     0
275
    -2
285
     1
 65
     0
276
    -2
286
     1
 66
     0
277
    -2
287
     1
 67
     0
278
    -2
288
     1
 68
     0
279
    -2
289
     1
 69
     0
  0
VISUALSTYLE
  5
29D
102
{ACAD_REACTORS
330
297
102
}
330
297
100
AcDbVisualStyle
  2
2dWireframe
 70
     4
177
     3
291
     0
 70
    58
 90
        0
176
     1
 90
        2
176
     1
 90
        0
176
     1
 90
        0
176
     1
 40
0.6
176
     1
 40
30.0
176
     1
 62
     7
420
 16777215
176
     1
 90
        1
176
     1
 90
        4
176
     1
 62
     7
176
     1
 62
   257
176
     1
 90
        1
176
     1
 90
        1
176
     1
 40
1.0
176
     1
 90
        0
176
     1
 62
   257
176
     1
 40
1.0
176
     1
 90
        1
176
     1
 90
        6
176
     1
 90
        2
176
     1
 62
     7
176
     1
 90
        5
176
     1
 90
        0
176
     1
 90
        0
176
     1
290
     0
176
     1
 90
        1
176
     1
 40
0.0
176
     1
 90
        0
176
     1
290
     1
176
     1
290
     1
176
     1
290
     0
176
     1
290
     0
176
     1
290
     0
176
     1
290
     0
176
     1
290
     0
176
     1
290
     0
176
     1
290
     0
176
     1
 90
       50
176
     1
 40
0.0
176
     1
 40
1.0
176
     1
 90
        0
176
     1
 62
    18
420
        0
176
     1
 90
       50
176
     1
 90
        3
176
     1
 62
     5
420
      255
176
     1
290
     0
176
     1
 90
       50
176
     1
 90
       50
176
     1
 90
       50
176
     1
290
     0
176
     1
 90
       50
176
     1
 62
   256
176
     0
 40
1.0
176
     0
 90
        2
176
     1
  1
strokes_ogs.tif
176
     1
290
     0
176
     1
 40
1.0
176
     1
 40
1.0
176
     1
  0
VISUALSTYLE
  5
29C
102
{ACAD_REACTORS
330
297
102
}
330
297
100
AcDbVisualStyle
  2
Basic
 70
     7
177
     3
291
     1
 70
    58
 90
        1
176
     1
 90
        0
176
     1
 90
        1
176
     1
 90
        0
176
     1
 40
0.6
176
     1
 40
30.0
176
     1
 62
     7
420
 16777215
176
     1
 90
        0
176
     1
 90
        4
176
     1
 62
     7
176
     1
 62
   257
176
     1
 90
        1
176
     1
 90
        1
176
     1
 40
1.0
176
     1
 90
        8
176
     1
 62
     7
176
     1
 40
1.0
176
     1
 90
        1
176
     1
 90
        6
176
     1
 90
        2
176
     1
 62
     7
176
     1
 90
        5
176
     1
 90
        0
176
     1
 90
        0
176
     1
290
     0
176
     1
 90
        1
176
     1
 40
0.0
176
     1
 90
        0
176
     1
290
     0
176
     1
290
     1
176
     1
290
     1
176
     1
290
     0
176
     1
290
     0
176
     1
290
     0
176
     1
290
     0
176
     1
290
     0
176
     1
290
     0
176
     1
 90
       50
176
     1
 40
0.0
176
     1
 40
1.0
176
     1
 90
        0
176
     1
 62
    18
420
        0
176
     1
 90
       50
176
     1
 90
        3
176
     1
 62
     5
420
      255
176
     1
290
     0
176
     1
 90
       50
176
     1
 90
       50
176
     1
 90
       50
176
     1
290
     0
176
     1
 90
       50
176
     1
 62
   256
176
     0
 40
1.0
176
     0
 90
        2
176
     1
  1
strokes_ogs.tif
176
     1
290
     0
176
     1
 40
1.0
176
     1
 40
1.0
176
     1
  0
VISUALSTYLE
  5
2A3
102
{ACAD_REACTORS
330
297
102
}
330
297
100
AcDbVisualStyle
  2
Brighten
 70
    12
177
     3
291
     1
 70
    58
 90
        2
176
     1
 90
        2
176
     1
 90
        0
176
     1
 90
        0
176
     1
 40
0.6
176
     1
 40
30.0
176
     1
 62
     7
420
 16777215
176
     1
 90
        1
176
     1
 90
        4
176
     1
 62
     7
176
     1
 62
   257
176
     1
 90
        1
176
     1
 90
        1
176
     1
 40
1.0
176
     1
 90
        8
176
     1
 62
     7
176
     1
 40
1.0
176
     1
 90
        1
176
     1
 90
        6
176
     1
 90
        2
176
     1
 62
     7
176
     1
 90
        5
176
     1
 90
        0
176
     1
 90
        0
176
     1
290
     0
176
     1
 90
        1
176
     1
 40
50.0
176
     1
 90
        0
176
     1
290
     0
176
     1
290
     1
176
     1
290
     1
176
     1
290
     0
176
     1
290
     0
176
     1
290
     0
176
     1
290
     0
176
     1
290
     0
176
     1
290
     0
176
     1
 90
       50
176
     1
 40
0.0
176
     1
 40
1.0
176
     1
 90
        0
176
     1
 62
    18
420
        0
176
     1
 90
       50
176
     1
 90
        3
176
     1
 62
     5
420
      255
176
     1
290
     0
176
     1
 90
       50
176
     1
 90
       50
176
     1
 90
       50
176
     1
290
     0
176
     1
 90
       50
176
     1
 62
   256
176
     0
 40
1.0
176
     0
 90
        2
176
     1
  1
strokes_ogs.tif
176
     1
290
     0
176
     1
 40
1.0
176
     1
 40
1.0
176
     1
  0
VISUALSTYLE
  5
2A7
102
{ACAD_REACTORS
330
297
102
}
330
297
100
AcDbVisualStyle
  2
ColorChange
 70
    16
177
     3
291
     1
 70
    58
 90
        2
176
     1
 90
        2
176
     1
 90
        3
176
     1
 90
        0
176
     1
 40
0.6
176
     1
 40
30.0
176
     1
 62
     8
420
  8421504
176
     1
 90
        1
176
     1
 90
        4
176
     1
 62
     7
176
     1
 62
   257
176
     1
 90
        1
176
     1
 90
        1
176
     1
 40
1.0
176
     1
 90
        8
176
     1
 62
     8
420
  8421504
176
     1
 40
1.0
176
     1
 90
        1
176
     1
 90
        6
176
     1
 90
        2
176
     1
 62
     7
176
     1
 90
        5
176
     1
 90
        0
176
     1
 90
        0
176
     1
290
     0
176
     1
 90
        1
176
     1
 40
0.0
176
     1
 90
        0
176
     1
290
     0
176
     1
290
     1
176
     1
290
     1
176
     1
290
     0
176
     1
290
     0
176
     1
290
     0
176
     1
290
     0
176
     1
290
     0
176
     1
290
     0
176
     1
 90
       50
176
     1
 40
0.0
176
     1
 40
1.0
176
     1
 90
        0
176
     1
 62
    18
420
        0
176
     1
 90
       50
176
     1
 90
        3
176
     1
 62
     5
420
      255
176
     1
290
     0
176
     1
 90
       50
176
     1
 90
       50
176
     1
 90
       50
176
     1
290
     0
176
     1
 90
       50
176
     1
 62
   256
176
     0
 40
1.0
176
     0
 90
        2
176
     1
  1
strokes_ogs.tif
176
     1
290
     0
176
     1
 40
1.0
176
     1
 40
1.0
176
     1
  0
VISUALSTYLE
  5
2A0
102
{ACAD_REACTORS
330
297
102
}
330
297
100
AcDbVisualStyle
  2
Conceptual
 70
     9
177
     3
291
     0
 70
    58
 90
        3
176
     1
 90
        2
176
     1
 90
        0
176
     1
 90
        0
176
     1
 40
0.6
176
     1
 40
30.0
176
     1
 62
     7
420
 16777215
176
     1
 90
        2
176
     1
 90
        2
176
     1
 62
     7
176
     1
 62
   257
176
     1
 90
        1
176
     1
 90
        1
176
     1
 40
179.0
176
     1
 90
        8
176
     1
 62
     7
176
     1
 40
1.0
176
     1
 90
        1
176
     1
 90
        6
176
     1
 90
        2
176
     1
 62
     7
176
     1
 90
        3
176
     1
 90
        0
176
     1
 90
        0
176
     1
290
     0
176
     1
 90
        1
176
     1
 40
0.0
176
     1
 90
        0
176
     1
290
     0
176
     1
290
     1
176
     1
290
     1
176
     1
290
     0
176
     1
290
     0
176
     1
290
     0
176
     1
290
     0
176
     1
290
     0
176
     1
290
     0
176
     1
 90
       50
176
     1
 40
0.0
176
     1
 40
1.0
176
     1
 90
        0
176
     1
 62
    18
420
        0
176
     1
 90
       50
176
     1
 90
        3
176
     1
 62
     5
420
      255
176
     1
290
     0
176
     1
 90
       50
176
     1
 90
       50
176
     1
 90
       50
176
     1
290
     0
176
     1
 90
       50
176
     1
 62
   256
176
     0
 40
1.0
176
     0
 90
        2
176
     1
  1
strokes_ogs.tif
176
     1
290
     0
176
     1
 40
1.0
176
     1
 40
1.0
176
     1
  0
VISUALSTYLE
  5
2A2
102
{ACAD_REACTORS
330
297
102
}
330
297
100
AcDbVisualStyle
  2
Dim
 70
    11
177
     3
291
     1
 70
    58
 90
        2
176
     1
 90
        2
176
     1
 90
        0
176
     1
 90
        0
176
     1
 40
0.6
176
     1
 40
30.0
176
     1
 62
     7
420
 16777215
176
     1
 90
        1
176
     1
 90
        4
176
     1
 62
     7
176
     1
 62
   257
176
     1
 90
        1
176
     1
 90
        1
176
     1
 40
1.0
176
     1
 90
        8
176
     1
 62
     7
176
     1
 40
1.0
176
     1
 90
        1
176
     1
 90
        6
176
     1
 90
        2
176
     1
 62
     7
176
     1
 90
        5
176
     1
 90
        0
176
     1
 90
        0
176
     1
290
     0
176
     1
 90
        1
176
     1
 40
-50.0
176
     1
 90
        0
176
     1
290
     0
176
     1
290
     1
176
     1
290
     1
176
     1
290
     0
176
     1
290
     0
176
     1
290
     0
176
     1
290
     0
176
     1
290
     0
176
     1
290
     0
176
     1
 90
       50
176
     1
 40
0.0
176
     1
 40
1.0
176
     1
 90
        0
176
     1
 62
    18
420
        0
176
     1
 90
       50
176
     1
 90
        3
176
     1
 62
     5
420
      255
176
     1
290
     0
176
     1
 90
       50
176
     1
 90
       50
176
     1
 90
       50
176
     1
290
     0
176
     1
 90
       50
176
     1
 62
   256
176
     0
 40
1.0
176
     0
 90
        2
176
     1
  1
strokes_ogs.tif
176
     1
290
     0
176
     1
 40
1.0
176
     1
 40
1.0
176
     1
  0
VISUALSTYLE
  5
2AF
102
{ACAD_REACTORS
330
297
102
}
330
297
100
AcDbVisualStyle
  2
EdgeColorOff
 70
    22
177
     3
291
     1
 70
    58
 90
        2
176
     0
 90
        2
176
     0
 90
        0
176
     0
 90
        0
176
     0
 40
0.6
176
     0
 40
30.0
176
     0
 62
     7
420
 16777215
176
     0
 90
        1
176
     0
 90
        4
176
     0
 62
     7
176
     0
 62
   257
176
     0
 90
        1
176
     0
 90
        1
176
     0
 40
1.0
176
     0
 90
        8
176
     2
 62
     7
176
     0
 40
1.0
176
     0
 90
        1
176
     0
 90
        6
176
     0
 90
        2
176
     0
 62
     7
176
     0
 90
        5
176
     0
 90
        0
176
     0
 90
        0
176
     0
290
     0
176
     0
 90
        1
176
     0
 40
0.0
176
     0
 90
        0
176
     0
290
     0
176
     1
290
     1
176
     1
290
     1
176
     1
290
     0
176
     1
290
     0
176
     1
290
     0
176
     1
290
     0
176
     1
290
     0
176
     1
290
     0
176
     1
 90
       50
176
     0
 40
0.0
176
     0
 40
1.0
176
     0
 90
        0
176
     0
 62
    18
420
        0
176
     0
 90
       50
176
     0
 90
        3
176
     0
 62
     5
420
      255
176
     0
290
     0
176
     1
 90
       50
176
     0
 90
       50
176
     0
 90
       50
176
     0
290
     0
176
     1
 90
       50
176
     0
 62
   256
176
     0
 40
1.0
176
     0
 90
        2
176
     0
  1
strokes_ogs.tif
176
     0
290
     0
176
     1
 40
1.0
176
     0
 40
1.0
176
     0
  0
VISUALSTYLE
  5
2A6
102
{ACAD_REACTORS
330
297
102
}
330
297
100
AcDbVisualStyle
  2
Facepattern
 70
    15
177
     3
291
     1
 70
    58
 90
        2
176
     1
 90
        2
176
     1
 90
        0
176
     1
 90
        0
176
     1
 40
0.6
176
     1
 40
30.0
176
     1
 62
     7
420
 16777215
176
     1
 90
        1
176
     1
 90
        4
176
     1
 62
     7
176
     1
 62
   257
176
     1
 90
        1
176
     1
 90
        1
176
     1
 40
1.0
176
     1
 90
        8
176
     1
 62
     7
176
     1
 40
1.0
176
     1
 90
        1
176
     1
 90
        6
176
     1
 90
        2
176
     1
 62
     7
176
     1
 90
        5
176
     1
 90
        0
176
     1
 90
        0
176
     1
290
     0
176
     1
 90
        1
176
     1
 40
0.0
176
     1
 90
        0
176
     1
290
     0
176
     1
290
     1
176
     1
290
     1
176
     1
290
     0
176
     1
290
     0
176
     1
290
     0
176
     1
290
     0
176
     1
290
     0
176
     1
290
     0
176
     1
 90
       50
176
     1
 40
0.0
176
     1
 40
1.0
176
     1
 90
        0
176
     1
 62
    18
420
        0
176
     1
 90
       50
176
     1
 90
        3
176
     1
 62
     5
420
      255
176
     1
290
     0
176
     1
 90
       50
176
     1
 90
       50
176
     1
 90
       50
176
     1
290
     0
176
     1
 90
       50
176
     1
 62
   256
176
     0
 40
1.0
176
     0
 90
        2
176
     1
  1
strokes_ogs.tif
176
     1
290
     0
176
     1
 40
1.0
176
     1
 40
1.0
176
     1
  0
VISUALSTYLE
  5
298
102
{ACAD_REACTORS
330
297
102
}
330
297
100
AcDbVisualStyle
  2
Flat
 70
     0
177
     3
291
     1
 70
    58
 90
        2
176
     1
 90
        1
176
     1
 90
        1
176
     1
 90
        2
176
     1
 40
0.6
176
     1
 40
30.0
176
     1
 62
     7
420
 16777215
176
     1
 90
        0
176
     1
 90
        0
176
     1
 62
     7
176
     1
 62
   257
176
     1
 90
        1
176
     1
 90
        1
176
     1
 40
1.0
176
     1
 90
        8
176
     1
 62
     7
176
     1
 40
1.0
176
     1
 90
        1
176
     1
 90
        6
176
     1
 90
        2
176
     1
 62
     7
176
     1
 90
        5
176
     1
 90
        0
176
     1
 90
        0
176
     1
290
     0
176
     1
 90
       13
176
     1
 40
0.0
176
     1
 90
        0
176
     1
290
     0
176
     1
290
     1
176
     1
290
     1
176
     1
290
     0
176
     1
290
     0
176
     1
290
     0
176
     1
290
     0
176
     1
290
     0
176
     1
290
     0
176
     1
 90
       50
176
     1
 40
0.0
176
     1
 40
1.0
176
     1
 90
        0
176
     1
 62
    18
420
        0
176
     1
 90
       50
176
     1
 90
        3
176
     1
 62
     5
420
      255
176
     1
290
     0
176
     1
 90
       50
176
     1
 90
       50
176
     1
 90
       50
176
     1
290
     0
176
     1
 90
       50
176
     1
 62
   256
176
     0
 40
1.0
176
     0
 90
        2
176
     1
  1
strokes_ogs.tif
176
     1
290
     0
176
     1
 40
1.0
176
     1
 40
1.0
176
     1
  0
VISUALSTYLE
  5
299
102
{ACAD_REACTORS
330
297
102
}
330
297
100
AcDbVisualStyle
  2
FlatWithEdges
 70
     1
177
     3
291
     1
 70
    58
 90
        2
176
     1
 90
        1
176
     1
 90
        1
176
     1
 90
        2
176
     1
 40
0.6
176
     1
 40
30.0
176
     1
 62
     7
420
 16777215
176
     1
 90
        1
176
     1
 90
        0
176
     1
 62
     7
176
     1
 62
   257
176
     1
 90
        1
176
     1
 90
        1
176
     1
 40
1.0
176
     1
 90
        0
176
     1
 62
   257
176
     1
 40
1.0
176
     1
 90
        1
176
     1
 90
        6
176
     1
 90
        2
176
     1
 62
     7
176
     1
 90
        5
176
     1
 90
        0
176
     1
 90
        0
176
     1
290
     0
176
     1
 90
       13
176
     1
 40
0.0
176
     1
 90
        0
176
     1
290
     0
176
     1
290
     1
176
     1
290
     1
176
     1
290
     0
176
     1
290
     0
176
     1
290
     0
176
     1
290
     0
176
     1
290
     0
176
     1
290
     0
176
     1
 90
       50
176
     1
 40
0.0
176
     1
 40
1.0
176
     1
 90
        0
176
     1
 62
    18
420
        0
176
     1
 90
       50
176
     1
 90
        3
176
     1
 62
     5
420
      255
176
     1
290
     0
176
     1
 90
       50
176
     1
 90
       50
176
     1
 90
       50
176
     1
290
     0
176
     1
 90
       50
176
     1
 62
   256
176
     0
 40
1.0
176
     0
 90
        2
176
     1
  1
strokes_ogs.tif
176
     1
290
     0
176
     1
 40
1.0
176
     1
 40
1.0
176
     1
  0
VISUALSTYLE
  5
29A
102
{ACAD_REACTORS
330
297
102
}
330
297
100
AcDbVisualStyle
  2
Gouraud
 70
     2
177
     3
291
     1
 70
    58
 90
        2
176
     1
 90
        2
176
     1
 90
        1
176
     1
 90
        2
176
     1
 40
0.6
176
     1
 40
30.0
176
     1
 62
     7
420
 16777215
176
     1
 90
        0
176
     1
 90
        0
176
     1
 62
     7
176
     1
 62
   257
176
     1
 90
        1
176
     1
 90
        1
176
     1
 40
1.0
176
     1
 90
        0
176
     1
 62
     7
176
     1
 40
1.0
176
     1
 90
        1
176
     1
 90
        6
176
     1
 90
        2
176
     1
 62
     7
176
     1
 90
        5
176
     1
 90
        0
176
     1
 90
        0
176
     1
290
     0
176
     1
 90
       13
176
     1
 40
0.0
176
     1
 90
        0
176
     1
290
     0
176
     1
290
     1
176
     1
290
     1
176
     1
290
     0
176
     1
290
     0
176
     1
290
     0
176
     1
290
     0
176
     1
290
     0
176
     1
290
     0
176
     1
 90
       50
176
     1
 40
0.0
176
     1
 40
1.0
176
     1
 90
        0
176
     1
 62
    18
420
        0
176
     1
 90
       50
176
     1
 90
        3
176
     1
 62
     5
420
      255
176
     1
290
     0
176
     1
 90
       50
176
     1
 90
       50
176
     1
 90
       50
176
     1
290
     0
176
     1
 90
       50
176
     1
 62
   256
176
     0
 40
1.0
176
     0
 90
        2
176
     1
  1
strokes_ogs.tif
176
     1
290
     0
176
     1
 40
1.0
176
     1
 40
1.0
176
     1
  0
VISUALSTYLE
  5
29B
102
{ACAD_REACTORS
330
297
102
}
330
297
100
AcDbVisualStyle
  2
GouraudWithEdges
 70
     3
177
     3
291
     1
 70
    58
 90
        2
176
     1
 90
        2
176
     1
 90
        1
176
     1
 90
        2
176
     1
 40
0.6
176
     1
 40
30.0
176
     1
 62
     7
420
 16777215
176
     1
 90
        1
176
     1
 90
        0
176
     1
 62
     7
176
     1
 62
   257
176
     1
 90
        1
176
     1
 90
        1
176
     1
 40
1.0
176
     1
 90
        0
176
     1
 62
   257
176
     1
 40
1.0
176
     1
 90
        1
176
     1
 90
        6
176
     1
 90
        2
176
     1
 62
     7
176
     1
 90
        5
176
     1
 90
        0
176
     1
 90
        0
176
     1
290
     0
176
     1
 90
       13
176
     1
 40
0.0
176
     1
 90
        0
176
     1
290
     0
176
     1
290
     1
176
     1
290
     1
176
     1
290
     0
176
     1
290
     0
176
     1
290
     0
176
     1
290
     0
176
     1
290
     0
176
     1
290
     0
176
     1
 90
       50
176
     1
 40
0.0
176
     1
 40
1.0
176
     1
 90
        0
176
     1
 62
    18
420
        0
176
     1
 90
       50
176
     1
 90
        3
176
     1
 62
     5
420
      255
176
     1
290
     0
176
     1
 90
       50
176
     1
 90
       50
176
     1
 90
       50
176
     1
290
     0
176
     1
 90
       50
176
     1
 62
   256
176
     0
 40
1.0
176
     0
 90
        2
176
     1
  1
strokes_ogs.tif
176
     1
290
     0
176
     1
 40
1.0
176
     1
 40
1.0
176
     1
  0
VISUALSTYLE
  5
29F
102
{ACAD_REACTORS
330
297
102
}
330
297
100
AcDbVisualStyle
  2
Hidden
 70
     6
177
     3
291
     0
 70
    58
 90
        1
176
     1
 90
        2
176
     1
 90
        2
176
     1
 90
        0
176
     1
 40
0.6
176
     1
 40
30.0
176
     1
 62
     7
420
 16777215
176
     1
 90
        2
176
     1
 90
        2
176
     1
 62
     7
176
     1
 62
   257
176
     1
 90
        2
176
     1
 90
        1
176
     1
 40
40.0
176
     1
 90
        0
176
     1
 62
   257
176
     1
 40
1.0
176
     1
 90
        1
176
     1
 90
        6
176
     1
 90
        2
176
     1
 62
     7
176
     1
 90
        3
176
     1
 90
        0
176
     1
 90
        0
176
     1
290
     0
176
     1
 90
        1
176
     1
 40
0.0
176
     1
 90
        0
176
     1
290
     0
176
     1
290
     1
176
     1
290
     1
176
     1
290
     0
176
     1
290
     0
176
     1
290
     0
176
     1
290
     0
176
     1
290
     0
176
     1
290
     0
176
     1
 90
       50
176
     1
 40
0.0
176
     1
 40
1.0
176
     1
 90
        0
176
     1
 62
    18
420
        0
176
     1
 90
       50
176
     1
 90
        3
176
     1
 62
     5
420
      255
176
     1
290
     0
176
     1
 90
       50
176
     1
 90
       50
176
     1
 90
       50
176
     1
290
     0
176
     1
 90
       50
176
     1
 62
   256
176
     0
 40
1.0
176
     0
 90
        2
176
     1
  1
strokes_ogs.tif
176
     1
290
     0
176
     1
 40
1.0
176
     1
 40
1.0
176
     1
  0
VISUALSTYLE
  5
2AD
102
{ACAD_REACTORS
330
297
102
}
330
297
100
AcDbVisualStyle
  2
JitterOff
 70
    20
177
     3
291
     1
 70
    58
 90
        2
176
     0
 90
        2
176
     0
 90
        0
176
     0
 90
        0
176
     0
 40
0.6
176
     0
 40
30.0
176
     0
 62
     7
420
 16777215
176
     0
 90
        1
176
     0
 90
        4
176
     0
 62
     7
176
     0
 62
   257
176
     0
 90
        1
176
     0
 90
        1
176
     0
 40
1.0
176
     0
 90
       10
176
     2
 62
     7
176
     0
 40
1.0
176
     0
 90
        1
176
     0
 90
        6
176
     0
 90
        2
176
     0
 62
     7
176
     0
 90
        5
176
     0
 90
        0
176
     0
 90
        0
176
     0
290
     0
176
     0
 90
        1
176
     0
 40
0.0
176
     0
 90
        0
176
     0
290
     0
176
     1
290
     1
176
     1
290
     1
176
     1
290
     0
176
     1
290
     0
176
     1
290
     0
176
     1
290
     0
176
     1
290
     0
176
     1
290
     0
176
     1
 90
       50
176
     0
 40
0.0
176
     0
 40
1.0
176
     0
 90
        0
176
     0
 62
    18
420
        0
176
     0
 90
       50
176
     0
 90
        3
176
     0
 62
     5
420
      255
176
     0
290
     0
176
     1
 90
       50
176
     0
 90
       50
176
     0
 90
       50
176
     0
290
     0
176
     1
 90
       50
176
     0
 62
   256
176
     0
 40
1.0
176
     0
 90
        2
176
     0
  1
strokes_ogs.tif
176
     0
290
     0
176
     1
 40
1.0
176
     0
 40
1.0
176
     0
  0
VISUALSTYLE
  5
2A5
102
{ACAD_REACTORS
330
297
102
}
330
297
100
AcDbVisualStyle
  2
Linepattern
 70
    14
177
     3
291
     1
 70
    58
 90
        2
176
     1
 90
        2
176
     1
 90
        0
176
     1
 90
        0
176
     1
 40
0.6
176
     1
 40
30.0
176
     1
 62
     7
420
 16777215
176
     1
 90
        1
176
     1
 90
        4
176
     1
 62
     7
176
     1
 62
   257
176
     1
 90
        7
176
     1
 90
        7
176
     1
 40
1.0
176
     1
 90
        8
176
     1
 62
     7
176
     1
 40
1.0
176
     1
 90
        1
176
     1
 90
        6
176
     1
 90
        2
176
     1
 62
     7
176
     1
 90
        5
176
     1
 90
        0
176
     1
 90
        0
176
     1
290
     0
176
     1
 90
        1
176
     1
 40
0.0
176
     1
 90
        0
176
     1
290
     0
176
     1
290
     1
176
     1
290
     1
176
     1
290
     0
176
     1
290
     0
176
     1
290
     0
176
     1
290
     0
176
     1
290
     0
176
     1
290
     0
176
     1
 90
       50
176
     1
 40
0.0
176
     1
 40
1.0
176
     1
 90
        0
176
     1
 62
    18
420
        0
176
     1
 90
       50
176
     1
 90
        3
176
     1
 62
     5
420
      255
176
     1
290
     0
176
     1
 90
       50
176
     1
 90
       50
176
     1
 90
       50
176
     1
290
     0
176
     1
 90
       50
176
     1
 62
   256
176
     0
 40
1.0
176
     0
 90
        2
176
     1
  1
strokes_ogs.tif
176
     1
290
     0
176
     1
 40
1.0
176
     1
 40
1.0
176
     1
  0
VISUALSTYLE
  5
2AE
102
{ACAD_REACTORS
330
297
102
}
330
297
100
AcDbVisualStyle
  2
OverhangOff
 70
    21
177
     3
291
     1
 70
    58
 90
        2
176
     0
 90
        2
176
     0
 90
        0
176
     0
 90
        0
176
     0
 40
0.6
176
     0
 40
30.0
176
     0
 62
     7
420
 16777215
176
     0
 90
        1
176
     0
 90
        4
176
     0
 62
     7
176
     0
 62
   257
176
     0
 90
        1
176
     0
 90
        1
176
     0
 40
1.0
176
     0
 90
        9
176
     2
 62
     7
176
     0
 40
1.0
176
     0
 90
        1
176
     0
 90
        6
176
     0
 90
        2
176
     0
 62
     7
176
     0
 90
        5
176
     0
 90
        0
176
     0
 90
        0
176
     0
290
     0
176
     0
 90
        1
176
     0
 40
0.0
176
     0
 90
        0
176
     0
290
     0
176
     1
290
     1
176
     1
290
     1
176
     1
290
     0
176
     1
290
     0
176
     1
290
     0
176
     1
290
     0
176
     1
290
     0
176
     1
290
     0
176
     1
 90
       50
176
     0
 40
0.0
176
     0
 40
1.0
176
     0
 90
        0
176
     0
 62
    18
420
        0
176
     0
 90
       50
176
     0
 90
        3
176
     0
 62
     5
420
      255
176
     0
290
     0
176
     1
 90
       50
176
     0
 90
       50
176
     0
 90
       50
176
     0
290
     0
176
     1
 90
       50
176
     0
 62
   256
176
     0
 40
1.0
176
     0
 90
        2
176
     0
  1
strokes_ogs.tif
176
     0
290
     0
176
     1
 40
1.0
176
     0
 40
1.0
176
     0
  0
VISUALSTYLE
  5
2A1
102
{ACAD_REACTORS
330
297
102
}
330
297
100
AcDbVisualStyle
  2
Realistic
 70
     8
177
     3
291
     0
 70
    58
 90
        2
176
     1
 90
        3
176
     1
 90
        0
176
     1
 90
        2
176
     1
 40
0.6
176
     1
 40
30.0
176
     1
 62
     7
420
 16777215
176
     1
 90
        0
176
     1
 90
        0
176
     1
 62
     7
176
     1
 62
   257
176
     1
 90
        1
176
     1
 90
        1
176
     1
 40
1.0
176
     1
 90
        8
176
     1
 62
   257
176
     1
 40
1.0
176
     1
 90
        1
176
     1
 90
        6
176
     1
 90
        2
176
     1
 62
     7
176
     1
 90
        3
176
     1
 90
        0
176
     1
 90
        0
176
     1
290
     0
176
     1
 90
       13
176
     1
 40
0.0
176
     1
 90
        0
176
     1
290
     0
176
     1
290
     1
176
     1
290
     1
176
     1
290
     0
176
     1
290
     0
176
     1
290
     0
176
     1
290
     0
176
     1
290
     0
176
     1
290
     0
176
     1
 90
       50
176
     1
 40
0.0
176
     1
 40
1.0
176
     1
 90
        0
176
     1
 62
    18
420
        0
176
     1
 90
       50
176
     1
 90
        3
176
     1
 62
     5
420
      255
176
     1
290
     0
176
     1
 90
       50
176
     1
 90
       50
176
     1
 90
       50
176
     1
290
     0
176
     1
 90
       50
176
     1
 62
   256
176
     0
 40
1.0
176
     0
 90
        2
176
     1
  1
strokes_ogs.tif
176
     1
290
     0
176
     1
 40
1.0
176
     1
 40
1.0
176
     1
  0
VISUALSTYLE
  5
2AC
102
{ACAD_REACTORS
330
297
102
}
330
297
100
AcDbVisualStyle
  2
Shaded
 70
    27
177
     3
291
     0
 70
    58
 90
        2
176
     1
 90
        2
176
     1
 90
        1
176
     1
 90
        2
176
     1
 40
0.6
176
     1
 40
30.0
176
     1
 62
     7
420
 16777215
176
     1
 90
        0
176
     1
 90
        4
176
     1
 62
     7
176
     1
 62
   257
176
     1
 90
        1
176
     1
 90
        1
176
     1
 40
1.0
176
     1
 90
        8
176
     1
 62
   257
176
     1
 40
1.0
176
     1
 90
        1
176
     1
 90
        6
176
     1
 90
        2
176
     1
 62
     8
420
  7895160
176
     1
 90
        3
176
     1
 90
        0
176
     1
 90
        0
176
     1
290
     0
176
     1
 90
        5
176
     1
 40
0.0
176
     1
 90
        0
176
     1
290
     0
176
     1
290
     1
176
     1
290
     1
176
     1
290
     0
176
     1
290
     0
176
     1
290
     0
176
     1
290
     0
176
     1
290
     0
176
     1
290
     0
176
     1
 90
       50
176
     1
 40
0.0
176
     1
 40
1.0
176
     1
 90
        0
176
     1
 62
    18
420
        0
176
     1
 90
       50
176
     1
 90
        3
176
     1
 62
     5
420
      255
176
     1
290
     0
176
     1
 90
       50
176
     1
 90
       50
176
     1
 90
       50
176
     1
290
     0
176
     1
 90
       50
176
     1
 62
   256
176
     0
 40
1.0
176
     0
 90
        2
176
     1
  1
strokes_ogs.tif
176
     1
290
     0
176
     1
 40
1.0
176
     1
 40
1.0
176
     1
  0
VISUALSTYLE
  5
2AB
102
{ACAD_REACTORS
330
297
102
}
330
297
100
AcDbVisualStyle
  2
Shaded with edges
 70
    26
177
     3
291
     0
 70
    58
 90
        2
176
     1
 90
        2
176
     1
 90
        1
176
     1
 90
        2
176
     1
 40
0.6
176
     1
 40
30.0
176
     1
 62
     7
420
 16777215
176
     1
 90
        1
176
     1
 90
        2
176
     1
 62
     7
176
     1
 62
   257
176
     1
 90
        2
176
     1
 90
        1
176
     1
 40
1.0
176
     1
 90
        8
176
     1
 62
   257
176
     1
 40
1.0
176
     1
 90
        1
176
     1
 90
        6
176
     1
 90
        2
176
     1
 62
     7
176
     1
 90
        3
176
     1
 90
        0
176
     1
 90
        0
176
     1
290
     0
176
     1
 90
        5
176
     1
 40
0.0
176
     1
 90
        0
176
     1
290
     0
176
     1
290
     1
176
     1
290
     1
176
     1
290
     0
176
     1
290
     0
176
     1
290
     0
176
     1
290
     0
176
     1
290
     0
176
     1
290
     0
176
     1
 90
       50
176
     1
 40
0.0
176
     1
 40
1.0
176
     1
 90
        0
176
     1
 62
    18
420
        0
176
     1
 90
       50
176
     1
 90
        3
176
     1
 62
     5
420
      255
176
     1
290
     0
176
     1
 90
       50
176
     1
 90
       50
176
     1
 90
       50
176
     1
290
     0
176
     1
 90
       50
176
     1
 62
   256
176
     0
 40
1.0
176
     0
 90
        2
176
     1
  1
strokes_ogs.tif
176
     1
290
     0
176
     1
 40
1.0
176
     1
 40
1.0
176
     1
  0
VISUALSTYLE
  5
2A8
102
{ACAD_REACTORS
330
297
102
}
330
297
100
AcDbVisualStyle
  2
Shades of Gray
 70
    23
177
     3
291
     0
 70
    58
 90
        2
176
     1
 90
        2
176
     1
 90
        3
176
     1
 90
        0
176
     1
 40
0.6
176
     1
 40
30.0
176
     1
 62
     7
420
 16777215
176
     1
 90
        2
176
     1
 90
        2
176
     1
 62
     7
176
     1
 62
     7
176
     1
 90
        1
176
     1
 90
        1
176
     1
 40
40.0
176
     1
 90
        8
176
     1
 62
     7
176
     1
 40
1.0
176
     1
 90
        1
176
     1
 90
        6
176
     1
 90
        2
176
     1
 62
     7
176
     1
 90
        3
176
     1
 90
        0
176
     1
 90
        0
176
     1
290
     0
176
     1
 90
        1
176
     1
 40
0.0
176
     1
 90
        0
176
     1
290
     0
176
     1
290
     1
176
     1
290
     1
176
     1
290
     0
176
     1
290
     0
176
     1
290
     0
176
     1
290
     0
176
     1
290
     0
176
     1
290
     0
176
     1
 90
       50
176
     1
 40
0.0
176
     1
 40
1.0
176
     1
 90
        0
176
     1
 62
    18
420
        0
176
     1
 90
       50
176
     1
 90
        3
176
     1
 62
     5
420
      255
176
     1
290
     0
176
     1
 90
       50
176
     1
 90
       50
176
     1
 90
       50
176
     1
290
     0
176
     1
 90
       50
176
     1
 62
   256
176
     0
 40
1.0
176
     0
 90
        2
176
     1
  1
strokes_ogs.tif
176
     1
290
     0
176
     1
 40
1.0
176
     1
 40
1.0
176
     1
  0
VISUALSTYLE
  5
2A9
102
{ACAD_REACTORS
330
297
102
}
330
297
100
AcDbVisualStyle
  2
Sketchy
 70
    24
177
     3
291
     0
 70
    58
 90
        1
176
     1
 90
        2
176
     1
 90
        2
176
     1
 90
        0
176
     1
 40
0.6
176
     1
 40
30.0
176
     1
 62
     7
420
 16777215
176
     1
 90
        2
176
     1
 90
        2
176
     1
 62
     7
176
     1
 62
     7
176
     1
 90
        1
176
     1
 90
        1
176
     1
 40
40.0
176
     1
 90
       11
176
     1
 62
     7
176
     1
 40
1.0
176
     1
 90
        1
176
     1
 90
        6
176
     1
 90
        2
176
     1
 62
     7
176
     1
 90
        6
176
     1
 90
        0
176
     1
 90
        0
176
     1
290
     0
176
     1
 90
        1
176
     1
 40
0.0
176
     1
 90
        0
176
     1
290
     0
176
     1
290
     1
176
     1
290
     1
176
     1
290
     0
176
     1
290
     0
176
     1
290
     0
176
     1
290
     0
176
     1
290
     0
176
     1
290
     0
176
     1
 90
       50
176
     1
 40
0.0
176
     1
 40
1.0
176
     1
 90
        0
176
     1
 62
    18
420
        0
176
     1
 90
       50
176
     1
 90
        3
176
     1
 62
     5
420
      255
176
     1
290
     0
176
     1
 90
       50
176
     1
 90
       50
176
     1
 90
       50
176
     1
290
     0
176
     1
 90
       50
176
     1
 62
   256
176
     0
 40
1.0
176
     0
 90
        2
176
     1
  1
strokes_ogs.tif
176
     1
290
     0
176
     1
 40
1.0
176
     1
 40
1.0
176
     1
  0
VISUALSTYLE
  5
2A4
102
{ACAD_REACTORS
330
297
102
}
330
297
100
AcDbVisualStyle
  2
Thicken
 70
    13
177
     3
291
     1
 70
    58
 90
        2
176
     1
 90
        2
176
     1
 90
        0
176
     1
 90
        0
176
     1
 40
0.6
176
     1
 40
30.0
176
     1
 62
     7
420
 16777215
176
     1
 90
        1
176
     1
 90
        4
176
     1
 62
     7
176
     1
 62
   257
176
     1
 90
        1
176
     1
 90
        1
176
     1
 40
1.0
176
     1
 90
       12
176
     1
 62
     7
176
     1
 40
1.0
176
     1
 90
        1
176
     1
 90
        6
176
     1
 90
        2
176
     1
 62
     7
176
     1
 90
        5
176
     1
 90
        0
176
     1
 90
        0
176
     1
290
     0
176
     1
 90
        1
176
     1
 40
0.0
176
     1
 90
        0
176
     1
290
     0
176
     1
290
     1
176
     1
290
     1
176
     1
290
     0
176
     1
290
     0
176
     1
290
     0
176
     1
290
     0
176
     1
290
     0
176
     1
290
     0
176
     1
 90
       50
176
     1
 40
0.0
176
     1
 40
1.0
176
     1
 90
        0
176
     1
 62
    18
420
        0
176
     1
 90
       50
176
     1
 90
        3
176
     1
 62
     5
420
      255
176
     1
290
     0
176
     1
 90
       50
176
     1
 90
       50
176
     1
 90
       50
176
     1
290
     0
176
     1
 90
       50
176
     1
 62
   256
176
     0
 40
1.0
176
     0
 90
        2
176
     1
  1
strokes_ogs.tif
176
     1
290
     0
176
     1
 40
1.0
176
     1
 40
1.0
176
     1
  0
VISUALSTYLE
  5
29E
102
{ACAD_REACTORS
330
297
102
}
330
297
100
AcDbVisualStyle
  2
Wireframe
 70
     5
177
     3
291
     0
 70
    58
 90
        0
176
     1
 90
        2
176
     1
 90
        0
176
     1
 90
        0
176
     1
 40
0.6
176
     1
 40
30.0
176
     1
 62
     7
420
 16777215
176
     1
 90
        1
176
     1
 90
        4
176
     1
 62
     7
176
     1
 62
   257
176
     1
 90
        1
176
     1
 90
        1
176
     1
 40
1.0
176
     1
 90
        0
176
     1
 62
   257
176
     1
 40
1.0
176
     1
 90
        1
176
     1
 90
        6
176
     1
 90
        2
176
     1
 62
     7
176
     1
 90
        3
176
     1
 90
        0
176
     1
 90
        0
176
     1
290
     0
176
     1
 90
        1
176
     1
 40
0.0
176
     1
 90
        0
176
     1
290
     0
176
     1
290
     1
176
     1
290
     1
176
     1
290
     0
176
     1
290
     0
176
     1
290
     0
176
     1
290
     0
176
     1
290
     0
176
     1
290
     0
176
     1
 90
       50
176
     1
 40
0.0
176
     1
 40
1.0
176
     1
 90
        0
176
     1
 62
    18
420
        0
176
     1
 90
       50
176
     1
 90
        3
176
     1
 62
     5
420
      255
176
     1
290
     0
176
     1
 90
       50
176
     1
 90
       50
176
     1
 90
       50
176
     1
290
     0
176
     1
 90
       50
176
     1
 62
   256
176
     0
 40
1.0
176
     0
 90
        2
176
     1
  1
strokes_ogs.tif
176
     1
290
     0
176
     1
 40
1.0
176
     1
 40
1.0
176
     1
  0
VISUALSTYLE
  5
2AA
102
{ACAD_REACTORS
330
297
102
}
330
297
100
AcDbVisualStyle
  2
X-Ray
 70
    25
177
     3
291
     0
 70
    58
 90
        2
176
     1
 90
        2
176
     1
 90
        1
176
     1
 90
        1
176
     1
 40
0.5
176
     1
 40
30.0
176
     1
 62
     7
420
 16777215
176
     1
 90
        1
176
     1
 90
        0
176
     1
 62
     7
176
     1
 62
   257
176
     1
 90
        1
176
     1
 90
        1
176
     1
 40
1.0
176
     1
 90
        8
176
     1
 62
     7
176
     1
 40
1.0
176
     1
 90
        1
176
     1
 90
        6
176
     1
 90
        2
176
     1
 62
     7
176
     1
 90
        3
176
     1
 90
        0
176
     1
 90
        0
176
     1
290
     0
176
     1
 90
       13
176
     1
 40
0.0
176
     1
 90
        0
176
     1
290
     0
176
     1
290
     1
176
     1
290
     1
176
     1
290
     0
176
     1
290
     0
176
     1
290
     0
176
     1
290
     0
176
     1
290
     0
176
     1
290
     0
176
     1
 90
       50
176
     1
 40
0.0
176
     1
 40
1.0
176
     1
 90
        0
176
     1
 62
    18
420
        0
176
     1
 90
       50
176
     1
 90
        3
176
     1
 62
     5
420
      255
176
     1
290
     0
176
     1
 90
       50
176
     1
 90
       50
176
     1
 90
       50
176
     1
290
     0
176
     1
 90
       50
176
     1
 62
   256
176
     0
 40
1.0
176
     0
 90
        2
176
     1
  1
strokes_ogs.tif
176
     1
290
     0
176
     1
 40
1.0
176
     1
 40
1.0
176
     1
  0
DICTIONARYVAR
  5
525
102
{ACAD_REACTORS
330
51F
102
}
330
51F
100
DictionaryVariables
280
     0
  1
1:1
  0
DICTIONARYVAR
  5
521
102
{ACAD_REACTORS
330
51F
102
}
330
51F
100
DictionaryVariables
280
     0
  1
STANDARD
  0
DICTIONARYVAR
  5
520
102
{ACAD_REACTORS
330
51F
102
}
330
51F
100
DictionaryVariables
280
     0
  1
STANDARD
  0
DICTIONARYVAR
  5
522
102
{ACAD_REACTORS
330
51F
102
}
330
51F
100
DictionaryVariables
280
     0
  1
Metric50
  0
DICTIONARYVAR
  5
523
102
{ACAD_REACTORS
330
51F
102
}
330
51F
100
DictionaryVariables
280
     0
  1
Metric50
  0
DICTIONARYVAR
  5
527
102
{ACAD_REACTORS
330
51F
102
}
330
51F
100
DictionaryVariables
280
     0
  1
1
  0
DICTIONARYVAR
  5
528
102
{ACAD_REACTORS
330
51F
102
}
330
51F
100
DictionaryVariables
280
     0
  1
15
  0
DICTIONARYVAR
  5
526
102
{ACAD_REACTORS
330
51F
102
}
330
51F
100
DictionaryVariables
280
     0
  1
0
  0
DICTIONARYVAR
  5
524
102
{ACAD_REACTORS
330
51F
102
}
330
51F
100
DictionaryVariables
280
     0
  1
0
  0
DICTIONARY
  5
288
330
287
100
AcDbDictionary
280
     1
281
     1
  3
BUMPTILE
360
28A
  3
DIFFUSETILE
360
289
  3
OPACITYTILE
360
28D
  3
REFLECTIONTILE
360
28C
  3
REFRACTIONTILE
360
28E
  3
SPECULARTILE
360
28B
  0
DICTIONARY
  5
280
330
27F
100
AcDbDictionary
280
     1
281
     1
  3
BUMPTILE
360
282
  3
DIFFUSETILE
360
281
  3
OPACITYTILE
360
285
  3
REFLECTIONTILE
360
284
  3
REFRACTIONTILE
360
286
  3
SPECULARTILE
360
283
  0
DICTIONARY
  5
290
330
28F
100
AcDbDictionary
280
     1
281
     1
  3
BUMPTILE
360
292
  3
DIFFUSETILE
360
291
  3
OPACITYTILE
360
295
  3
REFLECTIONTILE
360
294
  3
REFRACTIONTILE
360
296
  3
SPECULARTILE
360
293
  0
DICTIONARY
  5
529
330
2B2
100
AcDbDictionary
280
     1
281
     1
  3
ACAD_ROUNDTRIP_2008_TABLESTYLE_CELLSTYLEMAP
360
52A
  0
XRECORD
  5
28A
102
{ACAD_REACTORS
330
288
102
}
330
288
100
AcDbXrecord
280
     1
270
     1
271
     1
  0
XRECORD
  5
289
102
{ACAD_REACTORS
330
288
102
}
330
288
100
AcDbXrecord
280
     1
270
     1
271
     1
  0
XRECORD
  5
28D
102
{ACAD_REACTORS
330
288
102
}
330
288
100
AcDbXrecord
280
     1
270
     1
271
     1
  0
XRECORD
  5
28C
102
{ACAD_REACTORS
330
288
102
}
330
288
100
AcDbXrecord
280
     1
270
     1
271
     1
  0
XRECORD
  5
28E
102
{ACAD_REACTORS
330
288
102
}
330
288
100
AcDbXrecord
280
     1
270
     1
271
     1
  0
XRECORD
  5
28B
102
{ACAD_REACTORS
330
288
102
}
330
288
100
AcDbXrecord
280
     1
270
     1
271
     1
  0
XRECORD
  5
282
102
{ACAD_REACTORS
330
280
102
}
330
280
100
AcDbXrecord
280
     1
270
     1
271
     1
  0
XRECORD
  5
281
102
{ACAD_REACTORS
330
280
102
}
330
280
100
AcDbXrecord
280
     1
270
     1
271
     1
  0
XRECORD
  5
285
102
{ACAD_REACTORS
330
280
102
}
330
280
100
AcDbXrecord
280
     1
270
     1
271
     1
  0
XRECORD
  5
284
102
{ACAD_REACTORS
330
280
102
}
330
280
100
AcDbXrecord
280
     1
270
     1
271
     1
  0
XRECORD
  5
286
102
{ACAD_REACTORS
330
280
102
}
330
280
100
AcDbXrecord
280
     1
270
     1
271
     1
  0
XRECORD
  5
283
102
{ACAD_REACTORS
330
280
102
}
330
280
100
AcDbXrecord
280
     1
270
     1
271
     1
  0
XRECORD
  5
292
102
{ACAD_REACTORS
330
290
102
}
330
290
100
AcDbXrecord
280
     1
270
     1
271
     1
  0
XRECORD
  5
291
102
{ACAD_REACTORS
330
290
102
}
330
290
100
AcDbXrecord
280
     1
270
     1
271
     1
  0
XRECORD
  5
295
102
{ACAD_REACTORS
330
290
102
}
330
290
100
AcDbXrecord
280
     1
270
     1
271
     1
  0
XRECORD
  5
294
102
{ACAD_REACTORS
330
290
102
}
330
290
100
AcDbXrecord
280
     1
270
     1
271
     1
  0
XRECORD
  5
296
102
{ACAD_REACTORS
330
290
102
}
330
290
100
AcDbXrecord
280
     1
270
     1
271
     1
  0
XRECORD
  5
293
102
{ACAD_REACTORS
330
290
102
}
330
290
100
AcDbXrecord
280
     1
270
     1
271
     1
  0
CELLSTYLEMAP
  5
52A
102
{ACAD_REACTORS
330
529
102
}
330
529
100
AcDbCellStyleMap
 90
        3
300
CELLSTYLE
  1
TABLEFORMAT_BEGIN
 90
        5
170
     1
 91
        0
 92
    32768
 62
   257
 93
        1
300
CONTENTFORMAT
  1
CONTENTFORMAT_BEGIN
 90
        0
 91
        0
 92
      512
 93
        0
300

 40
0.0
140
1.0
 94
        5
 62
     0
340
11
144
6.0
309
CONTENTFORMAT_END
171
     1
301
MARGIN
  1
CELLMARGIN_BEGIN
 40
1.5
 40
1.5
 40
1.5
 40
1.5
 40
4.5
 40
4.5
309
CELLMARGIN_END
 94
        6
 95
        1
302
GRIDFORMAT
  1
GRIDFORMAT_BEGIN
 90
        0
 91
        1
 62
     0
 92
       -2
340
0
 93
        0
 40
1.125
309
GRIDFORMAT_END
 95
        2
302
GRIDFORMAT
  1
GRIDFORMAT_BEGIN
 90
        0
 91
        1
 62
     0
 92
       -2
340
0
 93
        0
 40
1.125
309
GRIDFORMAT_END
 95
        4
302
GRIDFORMAT
  1
GRIDFORMAT_BEGIN
 90
        0
 91
        1
 62
     0
 92
       -2
340
0
 93
        0
 40
1.125
309
GRIDFORMAT_END
 95
        8
302
GRIDFORMAT
  1
GRIDFORMAT_BEGIN
 90
        0
 91
        1
 62
     0
 92
       -2
340
0
 93
        0
 40
1.125
309
GRIDFORMAT_END
 95
       16
302
GRIDFORMAT
  1
GRIDFORMAT_BEGIN
 90
        0
 91
        1
 62
     0
 92
       -2
340
0
 93
        0
 40
1.125
309
GRIDFORMAT_END
 95
       32
302
GRIDFORMAT
  1
GRIDFORMAT_BEGIN
 90
        0
 91
        1
 62
     0
 92
       -2
340
0
 93
        0
 40
1.125
309
GRIDFORMAT_END
309
TABLEFORMAT_END
  1
CELLSTYLE_BEGIN
 90
        1
 91
        1
300
_TITLE
309
CELLSTYLE_END
300
CELLSTYLE
  1
TABLEFORMAT_BEGIN
 90
        5
170
     1
 91
        0
 92
        0
 62
   257
 93
        1
300
CONTENTFORMAT
  1
CONTENTFORMAT_BEGIN
 90
        0
 91
        0
 92
      512
 93
        0
300

 40
0.0
140
1.0
 94
        5
 62
     0
340
11
144
4.5
309
CONTENTFORMAT_END
171
     1
301
MARGIN
  1
CELLMARGIN_BEGIN
 40
1.5
 40
1.5
 40
1.5
 40
1.5
 40
4.5
 40
4.5
309
CELLMARGIN_END
 94
        6
 95
        1
302
GRIDFORMAT
  1
GRIDFORMAT_BEGIN
 90
        0
 91
        1
 62
     0
 92
       -2
340
0
 93
        0
 40
1.125
309
GRIDFORMAT_END
 95
        2
302
GRIDFORMAT
  1
GRIDFORMAT_BEGIN
 90
        0
 91
        1
 62
     0
 92
       -2
340
0
 93
        0
 40
1.125
309
GRIDFORMAT_END
 95
        4
302
GRIDFORMAT
  1
GRIDFORMAT_BEGIN
 90
        0
 91
        1
 62
     0
 92
       -2
340
0
 93
        0
 40
1.125
309
GRIDFORMAT_END
 95
        8
302
GRIDFORMAT
  1
GRIDFORMAT_BEGIN
 90
        0
 91
        1
 62
     0
 92
       -2
340
0
 93
        0
 40
1.125
309
GRIDFORMAT_END
 95
       16
302
GRIDFORMAT
  1
GRIDFORMAT_BEGIN
 90
        0
 91
        1
 62
     0
 92
       -2
340
0
 93
        0
 40
1.125
309
GRIDFORMAT_END
 95
       32
302
GRIDFORMAT
  1
GRIDFORMAT_BEGIN
 90
        0
 91
        1
 62
     0
 92
       -2
340
0
 93
        0
 40
1.125
309
GRIDFORMAT_END
309
TABLEFORMAT_END
  1
CELLSTYLE_BEGIN
 90
        2
 91
        1
300
_HEADER
309
CELLSTYLE_END
300
CELLSTYLE
  1
TABLEFORMAT_BEGIN
 90
        5
170
     1
 91
        0
 92
        0
 62
   257
 93
        1
300
CONTENTFORMAT
  1
CONTENTFORMAT_BEGIN
 90
        0
 91
        0
 92
      512
 93
        0
300

 40
0.0
140
1.0
 94
        2
 62
     0
340
11
144
4.5
309
CONTENTFORMAT_END
171
     1
301
MARGIN
  1
CELLMARGIN_BEGIN
 40
1.5
 40
1.5
 40
1.5
 40
1.5
 40
4.5
 40
4.5
309
CELLMARGIN_END
 94
        6
 95
        1
302
GRIDFORMAT
  1
GRIDFORMAT_BEGIN
 90
        0
 91
        1
 62
     0
 92
       -2
340
0
 93
        0
 40
1.125
309
GRIDFORMAT_END
 95
        2
302
GRIDFORMAT
  1
GRIDFORMAT_BEGIN
 90
        0
 91
        1
 62
     0
 92
       -2
340
0
 93
        0
 40
1.125
309
GRIDFORMAT_END
 95
        4
302
GRIDFORMAT
  1
GRIDFORMAT_BEGIN
 90
        0
 91
        1
 62
     0
 92
       -2
340
0
 93
        0
 40
1.125
309
GRIDFORMAT_END
 95
        8
302
GRIDFORMAT
  1
GRIDFORMAT_BEGIN
 90
        0
 91
        1
 62
     0
 92
       -2
340
0
 93
        0
 40
1.125
309
GRIDFORMAT_END
 95
       16
302
GRIDFORMAT
  1
GRIDFORMAT_BEGIN
 90
        0
 91
        1
 62
     0
 92
       -2
340
0
 93
        0
 40
1.125
309
GRIDFORMAT_END
 95
       32
302
GRIDFORMAT
  1
GRIDFORMAT_BEGIN
 90
        0
 91
        1
 62
     0
 92
       -2
340
0
 93
        0
 40
1.125
309
GRIDFORMAT_END
309
TABLEFORMAT_END
  1
CELLSTYLE_BEGIN
 90
        3
 91
        2
300
_DATA
309
CELLSTYLE_END
  0
ENDSEC
  0
EOF
