  0
SECTION
  2
HEADER
  9
$ACADVER
  1
AC1015
  9
$ACADMAINTVER
 70
     6
  9
$DWGCODEPAGE
  3
DOS932
  9
$INSBASE
 10
0.0
 20
0.0
 30
0.0
  9
$EXTMIN
 10
0.0
 20
0.0
 30
0.0
  9
$EXTMAX
 10
5000.0
 20
3500.0
 30
0.0
  9
$LIMMIN
 10
0.0
 20
0.0
  9
$LIMMAX
 10
5000.0
 20
3500.0
  9
$ORTHOMODE
 70
     0
  9
$REGENMODE
 70
     1
  9
$FILLMODE
 70
     1
  9
$QTEXTMODE
 70
     0
  9
$MIRRTEXT
 70
     1
  9
$LTSCALE
 40
1.0
  9
$ATTMODE
 70
     1
  9
$TEXTSIZE
 40
3.5
  9
$TRACEWID
 40
1.0
  9
$TEXTSTYLE
  7
Standard
  9
$CLAYER
  8
0
  9
$CELTYPE
  6
ByLayer
  9
$CECOLOR
 62
   256
  9
$CELTSCALE
 40
1.0
  9
$DISPSILH
 70
     0
  9
$DIMSCALE
 40
1.0
  9
$DIMASZ
 40
3.302
  9
$DIMEXO
 40
1.0
  9
$DIMDLI
 40
3.75
  9
$DIMRND
 40
0.0
  9
$DIMDLE
 40
0.0
  9
$DIMEXE
 40
1.0
  9
$DIMTP
 40
0.0
  9
$DIMTM
 40
0.0
  9
$DIMTXT
 40
3.5
  9
$DIMCEN
 40
2.5
  9
$DIMTSZ
 40
0.0
  9
$DIMTOL
 70
     0
  9
$DIMLIM
 70
     0
  9
$DIMTIH
 70
     1
  9
$DIMTOH
 70
     1
  9
$DIMSE1
 70
     0
  9
$DIMSE2
 70
     0
  9
$DIMTAD
 70
     1
  9
$DIMZIN
 70
     0
  9
$DIMBLK
  1

  9
$DIMASO
 70
     1
  9
$DIMSHO
 70
     1
  9
$DIMPOST
  1

  9
$DIMAPOST
  1

  9
$DIMALT
 70
     0
  9
$DIMALTD
 70
     3
  9
$DIMALTF
 40
0.0393700787
  9
$DIMLFAC
 40
1.0
  9
$DIMTOFL
 70
     1
  9
$DIMTVP
 40
0.0
  9
$DIMTIX
 70
     0
  9
$DIMSOXD
 70
     0
  9
$DIMSAH
 70
     0
  9
$DIMBLK1
  1

  9
$DIMBLK2
  1

  9
$DIMSTYLE
  2
ISO-25
  9
$DIMCLRD
 70
     0
  9
$DIMCLRE
 70
     0
  9
$DIMCLRT
 70
     0
  9
$DIMTFAC
 40
1.0
  9
$DIMGAP
 40
1.524
  9
$DIMJUST
 70
     0
  9
$DIMSD1
 70
     0
  9
$DIMSD2
 70
     0
  9
$DIMTOLJ
 70
     0
  9
$DIMTZIN
 70
     0
  9
$DIMALTZ
 70
     0
  9
$DIMALTTZ
 70
     0
  9
$DIMUPT
 70
     0
  9
$DIMDEC
 70
     2
  9
$DIMTDEC
 70
     2
  9
$DIMALTU
 70
     2
  9
$DIMALTTD
 70
     3
  9
$DIMTXSTY
  7
Standard
  9
$DIMAUNIT
 70
     0
  9
$DIMADEC
 70
     2
  9
$DIMALTRND
 40
0.0
  9
$DIMAZIN
 70
     0
  9
$DIMDSEP
 70
    44
  9
$DIMATFIT
 70
     3
  9
$DIMFRAC
 70
     0
  9
$DIMLDRBLK
  1

  9
$DIMLUNIT
 70
     2
  9
$DIMLWD
 70
    -2
  9
$DIMLWE
 70
    -2
  9
$DIMTMOVE
 70
     0
  9
$LUNITS
 70
     2
  9
$LUPREC
 70
     3
  9
$SKETCHINC
 40
1.0
  9
$FILLETRAD
 40
0.0
  9
$AUNITS
 70
     0
  9
$AUPREC
 70
     2
  9
$MENU
  1
.
  9
$ELEVATION
 40
0.0
  9
$PELEVATION
 40
0.0
  9
$THICKNESS
 40
0.0
  9
$LIMCHECK
 70
     0
  9
$CHAMFERA
 40
0.0
  9
$CHAMFERB
 40
0.0
  9
$CHAMFERC
 40
0.0
  9
$CHAMFERD
 40
0.0
  9
$SKPOLY
 70
     0
  9
$TDCREATE
 40
2460383.647709815
  9
$TDUCREATE
 40
2460383.272709815
  9
$TDUPDATE
 40
2460383.647709989
  9
$TDUUPDATE
 40
2460383.272709989
  9
$TDINDWG
 40
0.0000000116
  9
$TDUSRTIMER
 40
0.0000000116
  9
$USRTIMER
 70
     1
  9
$ANGBASE
 50
0.0
  9
$ANGDIR
 70
     0
  9
$PDMODE
 70
     0
  9
$PDSIZE
 40
-1.0
  9
$PLINEWID
 40
0.0
  9
$SPLFRAME
 70
     0
  9
$SPLINETYPE
 70
     6
  9
$SPLINESEGS
 70
     8
  9
$HANDSEED
  5
291
  9
$SURFTAB1
 70
     6
  9
$SURFTAB2
 70
     6
  9
$SURFTYPE
 70
     6
  9
$SURFU
 70
     6
  9
$SURFV
 70
     6
  9
$UCSBASE
  2

  9
$UCSNAME
  2

  9
$UCSORG
 10
0.0
 20
0.0
 30
0.0
  9
$UCSXDIR
 10
1.0
 20
0.0
 30
0.0
  9
$UCSYDIR
 10
0.0
 20
1.0
 30
0.0
  9
$UCSORTHOREF
  2

  9
$UCSORTHOVIEW
 70
     0
  9
$UCSORGTOP
 10
0.0
 20
0.0
 30
0.0
  9
$UCSORGBOTTOM
 10
0.0
 20
0.0
 30
0.0
  9
$UCSORGLEFT
 10
0.0
 20
0.0
 30
0.0
  9
$UCSORGRIGHT
 10
0.0
 20
0.0
 30
0.0
  9
$UCSORGFRONT
 10
0.0
 20
0.0
 30
0.0
  9
$UCSORGBACK
 10
0.0
 20
0.0
 30
0.0
  9
$PUCSBASE
  2

  9
$PUCSNAME
  2

  9
$PUCSORG
 10
0.0
 20
0.0
 30
0.0
  9
$PUCSXDIR
 10
1.0
 20
0.0
 30
0.0
  9
$PUCSYDIR
 10
0.0
 20
1.0
 30
0.0
  9
$PUCSORTHOREF
  2

  9
$PUCSORTHOVIEW
 70
     0
  9
$PUCSORGTOP
 10
0.0
 20
0.0
 30
0.0
  9
$PUCSORGBOTTOM
 10
0.0
 20
0.0
 30
0.0
  9
$PUCSORGLEFT
 10
0.0
 20
0.0
 30
0.0
  9
$PUCSORGRIGHT
 10
0.0
 20
0.0
 30
0.0
  9
$PUCSORGFRONT
 10
0.0
 20
0.0
 30
0.0
  9
$PUCSORGBACK
 10
0.0
 20
0.0
 30
0.0
  9
$USERI1
 70
     0
  9
$USERI2
 70
     0
  9
$USERI3
 70
     0
  9
$USERI4
 70
     0
  9
$USERI5
 70
     0
  9
$USERR1
 40
0.0
  9
$USERR2
 40
0.0
  9
$USERR3
 40
0.0
  9
$USERR4
 40
0.0
  9
$USERR5
 40
0.0
  9
$WORLDVIEW
 70
     1
  9
$SHADEDGE
 70
     3
  9
$SHADEDIF
 70
    70
  9
$TILEMODE
 70
     1
  9
$MAXACTVP
 70
    64
  9
$PINSBASE
 10
0.0
 20
0.0
 30
0.0
  9
$PLIMCHECK
 70
     0
  9
$PEXTMIN
 10
1.0000000000E+20
 20
1.0000000000E+20
 30
1.0000000000E+20
  9
$PEXTMAX
 10
-1.0000000000E+20
 20
-1.0000000000E+20
 30
-1.0000000000E+20
  9
$PLIMMIN
 10
0.0
 20
0.0
  9
$PLIMMAX
 10
420.0
 20
297.0
  9
$UNITMODE
 70
     0
  9
$VISRETAIN
 70
     1
  9
$PLINEGEN
 70
     0
  9
$PSLTSCALE
 70
     1
  9
$TREEDEPTH
 70
  3020
  9
$CMLSTYLE
  2
Standard
  9
$CMLJUST
 70
     0
  9
$CMLSCALE
 40
20.0
  9
$PROXYGRAPHICS
 70
     1
  9
$MEASUREMENT
 70
     1
  9
$CELWEIGHT
370
    -1
  9
$ENDCAPS
280
     0
  9
$JOINSTYLE
280
     0
  9
$LWDISPLAY
290
     1
  9
$INSUNITS
 70
     4
  9
$HYPERLINKBASE
  1

  9
$STYLESHEET
  1

  9
$XEDIT
290
     1
  9
$CEPSNTYPE
380
     0
  9
$PSTYLEMODE
290
     1
  9
$FINGERPRINTGUID
  2
{1df73ac6-8eb7-4843-b203-5bc433847f22}
  9
$VERSIONGUID
  2
{FAEB1C32-E019-11D5-929B-00C0DF256EC4}
  9
$EXTNAMES
290
     1
  9
$PSVPSCALE
 40
0.0
  9
$OLESTARTUP
290
     0
  0
ENDSEC
  0
SECTION
  2
CLASSES
  0
CLASS
  1
ACDBDICTIONARYWDFLT
  2
AcDbDictionaryWithDefault
  3
ObjectDBX Classes
 90
        0
280
     0
281
     0
  0
CLASS
  1
VISUALSTYLE
  2
AcDbVisualStyle
  3
ObjectDBX Classes
 90
     4095
280
     0
281
     0
  0
CLASS
  1
MATERIAL
  2
AcDbMaterial
  3
ObjectDBX Classes
 90
     1153
280
     0
281
     0
  0
CLASS
  1
SCALE
  2
AcDbScale
  3
ObjectDBX Classes
 90
     1153
280
     0
281
     0
  0
CLASS
  1
TABLESTYLE
  2
AcDbTableStyle
  3
ObjectDBX Classes
 90
     4095
280
     0
281
     0
  0
CLASS
  1
MLEADERSTYLE
  2
AcDbMLeaderStyle
  3
ACDB_MLEADERSTYLE_CLASS
 90
     4095
280
     0
281
     0
  0
CLASS
  1
SUN
  2
AcDbSun
  3
SCENEOE
 90
     1153
280
     0
281
     0
  0
CLASS
  1
ACDBPLACEHOLDER
  2
AcDbPlaceHolder
  3
ObjectDBX Classes
 90
        0
280
     0
281
     0
  0
CLASS
  1
LAYOUT
  2
AcDbLayout
  3
ObjectDBX Classes
 90
        0
280
     0
281
     0
  0
ENDSEC
  0
SECTION
  2
TABLES
  0
TABLE
  2
VPORT
  5
8
330
0
100
AcDbSymbolTable
 70
     1
  0
VPORT
  5
29
330
8
100
AcDbSymbolTableRecord
100
AcDbViewportTableRecord
  2
*Active
 70
     0
 10
0.0
 20
0.0
 11
1.0
 21
1.0
 12
2500.0
 22
1750.0
 13
0.0
 23
0.0
 14
10.0
 24
10.0
 15
10.0
 25
10.0
 16
0.0
 26
0.0
 36
1.0
 17
0.0
 27
0.0
 37
0.0
 40
3500.0
 41
1.4285714286
 42
50.0
 43
0.0
 44
0.0
 50
0.0
 51
0.0
 71
     0
 72
  2000
 73
     1
 74
     3
 75
     0
 76
     0
 77
     0
 78
     0
281
     0
 65
     1
110
0.0
120
0.0
130
0.0
111
1.0
121
0.0
131
0.0
112
0.0
122
1.0
132
0.0
 79
     0
146
0.0
  0
ENDTAB
  0
TABLE
  2
LTYPE
  5
5
330
0
100
AcDbSymbolTable
 70
     6
  0
LTYPE
  5
14
330
5
100
AcDbSymbolTableRecord
100
AcDbLinetypeTableRecord
  2
ByBlock
 70
     0
  3

 72
    65
 73
     0
 40
0.0
  0
LTYPE
  5
15
330
5
100
AcDbSymbolTableRecord
100
AcDbLinetypeTableRecord
  2
ByLayer
 70
     0
  3

 72
    65
 73
     0
 40
0.0
  0
LTYPE
  5
16
330
5
100
AcDbSymbolTableRecord
100
AcDbLinetypeTableRecord
  2
Continuous
 70
     0
  3
Solid line
 72
    65
 73
     0
 40
0.0
  0
LTYPE
  5
5E
330
5
100
AcDbSymbolTableRecord
100
AcDbLinetypeTableRecord
  2
HIDDEN
 70
     0
  3
Hidden __ __ __ __ __ __ __ __ __ __ __ __ __ __
 72
    65
 73
     2
 40
1.905
 49
1.27
 74
     0
 49
-0.635
 74
     0
  0
LTYPE
  5
5F
330
5
100
AcDbSymbolTableRecord
100
AcDbLinetypeTableRecord
  2
PHANTOM
 70
     0
  3
Phantom ______  __  __  ______  __  __  ______
 72
    65
 73
     6
 40
12.7
 49
6.35
 74
     0
 49
-1.27
 74
     0
 49
1.27
 74
     0
 49
-1.27
 74
     0
 49
1.27
 74
     0
 49
-1.27
 74
     0
  0
LTYPE
  5
60
330
5
100
AcDbSymbolTableRecord
100
AcDbLinetypeTableRecord
  2
CENTER
 70
     0
  3
Center ____ _ ____ _ ____ _ ____ _ ____ _ ____
 72
    65
 73
     4
 40
10.16
 49
6.35
 74
     0
 49
-1.27
 74
     0
 49
1.27
 74
     0
 49
-1.27
 74
     0
  0
LTYPE
  5
61
330
5
100
AcDbSymbolTableRecord
100
AcDbLinetypeTableRecord
  2
CENTERX2
 70
     0
  3
Center (2x) ________  __  ________  __  _____
 72
    65
 73
     4
 40
20.32
 49
12.7
 74
     0
 49
-2.54
 74
     0
 49
2.54
 74
     0
 49
-2.54
 74
     0
  0
LTYPE
  5
62
330
5
100
AcDbSymbolTableRecord
100
AcDbLinetypeTableRecord
  2
DOT2
 70
     0
  3
Dot (.5x) ........................................
 72
    65
 73
     2
 40
0.635
 49
0.0
 74
     0
 49
-0.635
 74
     0
  0
ENDTAB
  0
TABLE
  2
LAYER
  5
2
330
0
100
AcDbSymbolTable
 70
     3
  0
LAYER
  5
10
330
2
100
AcDbSymbolTableRecord
100
AcDbLayerTableRecord
  2
0
 70
     0
 62
     7
  6
Continuous
370
    -3
390
F
  0
LAYER
  5
63
330
2
100
AcDbSymbolTableRecord
100
AcDbLayerTableRecord
  2
SLD-0
 70
     0
 62
   179
  6
Continuous
370
    -3
390
F
  0
LAYER
  5
64
330
2
100
AcDbSymbolTableRecord
100
AcDbLayerTableRecord
  2
寸法
 70
     0
 62
   179
  6
Continuous
370
    -3
390
F
  0
ENDTAB
  0
TABLE
  2
STYLE
  5
3
330
0
100
AcDbSymbolTable
 70
     2
  0
STYLE
  5
11
330
3
100
AcDbSymbolTableRecord
100
AcDbTextStyleTableRecord
  2
Standard
 70
     0
 40
0.0
 41
1.0
 50
0.0
 71
     0
 42
3.5
  3
txt
  4
bigfont
  0
STYLE
  5
66
330
3
100
AcDbSymbolTableRecord
100
AcDbTextStyleTableRecord
  2
SLDTEXTSTYLE0
 70
     0
 40
0.0
 41
0.75
 50
0.0
 71
     0
 42
3.5
  3
TXT
  4
bigfont
  0
ENDTAB
  0
TABLE
  2
VIEW
  5
6
330
0
100
AcDbSymbolTable
 70
     0
  0
ENDTAB
  0
TABLE
  2
UCS
  5
7
330
0
100
AcDbSymbolTable
 70
     0
  0
ENDTAB
  0
TABLE
  2
APPID
  5
9
330
0
100
AcDbSymbolTable
 70
     1
  0
APPID
  5
12
330
9
100
AcDbSymbolTableRecord
100
AcDbRegAppTableRecord
  2
ACAD
 70
     0
  0
ENDTAB
  0
TABLE
  2
DIMSTYLE
  5
A
330
0
100
AcDbSymbolTable
 70
     1
100
AcDbDimStyleTable
  0
DIMSTYLE
105
27
330
A
100
AcDbSymbolTableRecord
100
AcDbDimStyleTableRecord
  2
ISO-25
 70
     0
 41
2.5
 42
0.625
 43
3.75
 44
1.25
 73
     0
 74
     0
 77
     1
 78
     8
140
2.5
141
2.5
143
0.0393700787
147
0.625
171
     3
172
     1
178
     0
271
     2
272
     2
274
     3
278
    44
283
     0
284
     8
340
11
  0
ENDTAB
  0
TABLE
  2
BLOCK_RECORD
  5
1
330
0
100
AcDbSymbolTable
 70
     1
  0
BLOCK_RECORD
  5
1F
330
1
100
AcDbSymbolTableRecord
100
AcDbBlockTableRecord
  2
*Model_Space
340
22
  0
BLOCK_RECORD
  5
1B
330
1
100
AcDbSymbolTableRecord
100
AcDbBlockTableRecord
  2
*Paper_Space
340
1E
  0
BLOCK_RECORD
  5
23
330
1
100
AcDbSymbolTableRecord
100
AcDbBlockTableRecord
  2
*Paper_Space0
340
26
  0
ENDTAB
  0
ENDSEC
  0
SECTION
  2
BLOCKS
  0
BLOCK
  5
20
330
1F
100
AcDbEntity
  8
0
100
AcDbBlockBegin
  2
*Model_Space
 70
     0
 10
0.0
 20
0.0
 30
0.0
  3
*Model_Space
  1

  0
ENDBLK
  5
21
330
1F
100
AcDbEntity
  8
0
100
AcDbBlockEnd
  0
BLOCK
  5
1C
330
1B
100
AcDbEntity
 67
     1
  8
0
100
AcDbBlockBegin
  2
*Paper_Space
 70
     0
 10
0.0
 20
0.0
 30
0.0
  3
*Paper_Space
  1

  0
ENDBLK
  5
1D
330
1B
100
AcDbEntity
 67
     1
  8
0
100
AcDbBlockEnd
  0
BLOCK
  5
24
330
23
100
AcDbEntity
  8
0
100
AcDbBlockBegin
  2
*Paper_Space0
 70
     0
 10
0.0
 20
0.0
 30
0.0
  3
*Paper_Space0
  1

  0
ENDBLK
  5
25
330
23
100
AcDbEntity
  8
0
100
AcDbBlockEnd
  0
ENDSEC
  0
SECTION
  2
ENTITIES
  0
LINE
  5
65
330
1F
100
AcDbEntity
  8
0
  6
Continuous
 62
     7
370
    18
100
AcDbLine
 10
4801.663086451
 20
279.1403827252
 30
0.0
 11
3345.9062220501
 21
279.1403827252
 31
0.0
  0
MTEXT
  5
67
330
1F
100
AcDbEntity
  8
0
  6
Continuous
 62
     7
370
     0
100
AcDbMText
 10
1762.8324799637
 20
1989.2846179971
 30
0.0
 40
52.9166666667
 41
0.0
 71
     1
 72
     1
  1
＜正面＞
  7
SLDTEXTSTYLE0
 73
     1
 44
1.0
  0
MTEXT
  5
68
330
1F
100
AcDbEntity
  8
0
  6
Continuous
 62
     7
370
     0
100
AcDbMText
 10
3377.8142431891
 20
379.4057208634
 30
0.0
 40
52.9166666667
 41
0.0
 71
     1
 72
     1
  1
品名：
  7
SLDTEXTSTYLE0
 73
     1
 44
1.0
  0
MTEXT
  5
69
330
1F
100
AcDbEntity
  8
0
  6
Continuous
 62
     7
370
     0
100
AcDbMText
 10
4446.6634374817
 20
385.2343854145
 30
0.0
 40
52.9166666667
 41
0.0
 71
     1
 72
     1
  1
Pamouna
  7
SLDTEXTSTYLE0
 73
     1
 44
1.0
  0
MTEXT
  5
6A
330
1F
100
AcDbEntity
  8
寸法
 62
     7
100
AcDbMText
 10
4688.0073048854
 20
218.6255182943
 30
0.0
 40
52.9166666667
 41
0.0
 71
     1
 72
     1
  1
1/1
  7
SLDTEXTSTYLE0
 73
     1
 44
1.0
  0
MTEXT
  5
6B
330
1F
100
AcDbEntity
  8
寸法
 62
     7
100
AcDbMText
 10
3611.2831293492
 20
398.3924235142
 30
0.0
 40
66.1458333333
 41
0.0
 71
     1
 72
     1
  1
MAG40UL
  7
SLDTEXTSTYLE0
 73
     1
 44
1.0
  0
MTEXT
  5
6C
330
1F
100
AcDbEntity
  8
寸法
 62
     7
100
AcDbMText
 10
4198.7969392118
 20
218.6255210883
 30
0.0
 40
52.9166666667
 41
0.0
 71
     1
 72
     1
  1
2024/03/13
  7
SLDTEXTSTYLE0
 73
     1
 44
1.0
  0
MTEXT
  5
6D
330
1F
100
AcDbEntity
  8
寸法
 62
     7
100
AcDbMText
 10
3972.4665930518
 20
2002.9002064516
 30
0.0
 40
52.9166666667
 41
0.0
 71
     1
 72
     1
  1
＜右側面＞
  7
SLDTEXTSTYLE0
 73
     1
 44
1.0
  0
MTEXT
  5
6E
330
1F
100
AcDbEntity
  8
0
  6
Continuous
 62
     7
370
     0
100
AcDbMText
 10
669.5723251208
 20
1997.9509737295
 30
0.0
 40
52.9166666667
 41
0.0
 71
     1
 72
     1
  1
＜左側面＞
  7
SLDTEXTSTYLE0
 73
     1
 44
1.0
  0
MTEXT
  5
6F
330
1F
100
AcDbEntity
  8
0
  6
Continuous
 62
     7
370
     0
100
AcDbMText
 10
1765.2858929776
 20
2965.5678091759
 30
0.0
 40
52.9166666667
 41
0.0
 71
     1
 72
     1
  1
＜上面＞
  7
SLDTEXTSTYLE0
 73
     1
 44
1.0
  0
ARC
  5
70
330
1F
100
AcDbEntity
  8
0
  6
Continuous
 62
     7
370
    25
100
AcDbCircle
 10
2197.1454585654
 20
986.4543978663
 30
0.0
 40
0.2000000000000455
100
AcDbArc
 50
180.0
 51
270.0
  0
LINE
  5
71
330
1F
100
AcDbEntity
  8
0
  6
Continuous
 62
     7
370
    25
100
AcDbLine
 10
2197.1454585654
 20
986.2543978663
 30
0.0
 11
2198.9454585654
 21
986.2543978663
 31
0.0
  0
LINE
  5
72
330
1F
100
AcDbEntity
  8
0
  6
Continuous
 62
     7
370
    25
100
AcDbLine
 10
2198.9454585654
 20
986.2543978663
 30
0.0
 11
2590.9454585654
 21
986.2543978663
 31
0.0
  0
LINE
  5
73
330
1F
100
AcDbEntity
  8
0
  6
Continuous
 62
     7
370
    25
100
AcDbLine
 10
2590.9454585654
 20
986.2543978663
 30
0.0
 11
2592.7454585654
 21
986.2543978663
 31
0.0
  0
ARC
  5
74
330
1F
100
AcDbEntity
  8
0
  6
Continuous
 62
     7
370
    25
100
AcDbCircle
 10
2592.7454585654
 20
986.4543978663
 30
0.0
 40
0.2000000000002728
100
AcDbArc
 50
270.0
 51
0.0
  0
LINE
  5
75
330
1F
100
AcDbEntity
  8
0
  6
Continuous
 62
     7
370
    25
100
AcDbLine
 10
2576.4454585654
 20
977.7543978663
 30
0.0
 11
2212.9454585654
 21
977.7543978663
 31
0.0
  0
LINE
  5
76
330
1F
100
AcDbEntity
  8
0
  6
Continuous
 62
     7
370
    25
100
AcDbLine
 10
2196.9454585654
 20
986.4655465881
 30
0.0
 11
2196.9454585654
 21
986.5543978663
 31
0.0
  0
SPLINE
  5
77
330
1F
100
AcDbEntity
  8
0
  6
Continuous
 62
     7
370
    25
100
AcDbSpline
210
0.0
220
0.0
230
1.0
 70
     8
 71
     3
 72
    13
 73
     9
 74
     0
 42
0.00000001
 43
0.00000001
 40
0.0
 40
0.0
 40
0.0
 40
0.0
 40
0.0075029974113211
 40
0.3818974549663279
 40
0.6070018873271174
 40
0.7653769096344447
 40
0.8824605049809741
 40
0.9999999999999999
 40
0.9999999999999999
 40
0.9999999999999999
 40
0.9999999999999999
 10
2196.945458565361
 20
986.554397866314
 30
0.0
 10
2196.945459520966
 20
986.5548358642092
 30
0.0
 10
2196.945508160581
 20
986.5771296585783
 30
0.0
 10
2196.95163026532
 20
986.6240140467942
 30
0.0
 10
2196.993646370794
 20
986.6902984838304
 30
0.0
 10
2197.04245717276
 20
986.7285600430031
 30
0.0
 10
2197.093187820075
 20
986.750315818738
 30
0.0
 10
2197.128012427526
 20
986.7530354222878
 30
0.0
 10
2197.145458565361
 20
986.754397866314
 30
0.0
  0
LINE
  5
78
330
1F
100
AcDbEntity
  8
0
  6
Continuous
 62
     7
370
    25
100
AcDbLine
 10
2197.1454585654
 20
986.7543978663
 30
0.0
 11
2197.1454585654
 21
986.2683337685
 31
0.0
  0
ARC
  5
79
330
1F
100
AcDbEntity
  8
0
  6
Continuous
 62
     7
370
    25
100
AcDbCircle
 10
2197.1440746856
 20
986.466950026
 30
0.0
 40
0.1986210785928132
100
AcDbArc
 50
180.4048499764
 51
270.3992079345
  0
LINE
  5
7A
330
1F
100
AcDbEntity
  8
0
  6
Continuous
 62
     7
370
    25
100
AcDbLine
 10
2198.9454585654
 20
986.2683337685
 30
0.0
 11
2198.9454585654
 21
986.7543978663
 31
0.0
  0
LINE
  5
7B
330
1F
100
AcDbEntity
  8
0
  6
Continuous
 62
     7
370
    25
100
AcDbLine
 10
2197.1454585654
 20
986.2683337685
 30
0.0
 11
2198.9454585654
 21
986.2683337685
 31
0.0
  0
LINE
  5
7C
330
1F
100
AcDbEntity
  8
0
  6
Continuous
 62
     7
370
    25
100
AcDbLine
 10
2196.9454585654
 20
986.4543978663
 30
0.0
 11
2196.9454585654
 21
986.4655465881
 31
0.0
  0
LINE
  5
7D
330
1F
100
AcDbEntity
  8
0
  6
Continuous
 62
     7
370
    25
100
AcDbLine
 10
2198.9454585654
 20
986.2543978663
 30
0.0
 11
2198.9454585654
 21
986.2683337685
 31
0.0
  0
LINE
  5
7E
330
1F
100
AcDbEntity
  8
0
  6
Continuous
 62
     7
370
    25
100
AcDbLine
 10
2196.9454585654
 20
986.5543978663
 30
0.0
 11
2196.9454585654
 21
986.7543978663
 31
0.0
  0
LINE
  5
7F
330
1F
100
AcDbEntity
  8
0
  6
Continuous
 62
     7
370
    25
100
AcDbLine
 10
2198.9454585654
 20
986.2683337685
 30
0.0
 11
2590.9454585654
 21
986.2683337685
 31
0.0
  0
LINE
  5
80
330
1F
100
AcDbEntity
  8
0
  6
Continuous
 62
     7
370
    25
100
AcDbLine
 10
2590.9454585654
 20
986.7543978663
 30
0.0
 11
2590.9454585654
 21
986.2683337685
 31
0.0
  0
LINE
  5
81
330
1F
100
AcDbEntity
  8
0
  6
Continuous
 62
     7
370
    25
100
AcDbLine
 10
2590.9454585654
 20
986.2683337685
 30
0.0
 11
2590.9454585654
 21
986.2543978663
 31
0.0
  0
LINE
  5
82
330
1F
100
AcDbEntity
  8
0
  6
Continuous
 62
     7
370
    25
100
AcDbLine
 10
2592.9454585654
 20
986.5543978663
 30
0.0
 11
2592.9454585654
 21
986.4655465881
 31
0.0
  0
ARC
  5
83
330
1F
100
AcDbEntity
  8
0
  6
Continuous
 62
     7
370
    25
100
AcDbCircle
 10
2592.7468424451
 20
986.466950026
 30
0.0
 40
0.1986210785935454
100
AcDbArc
 50
269.6007920655
 51
359.5951500236
  0
LINE
  5
84
330
1F
100
AcDbEntity
  8
0
  6
Continuous
 62
     7
370
    25
100
AcDbLine
 10
2592.7454585654
 20
986.2683337685
 30
0.0
 11
2592.7454585654
 21
986.7543978663
 31
0.0
  0
SPLINE
  5
85
330
1F
100
AcDbEntity
  8
0
  6
Continuous
 62
     7
370
    25
100
AcDbSpline
210
0.0
220
0.0
230
1.0
 70
     8
 71
     3
 72
    13
 73
     9
 74
     0
 42
0.00000001
 43
0.00000001
 40
0.0
 40
0.0
 40
0.0
 40
0.0
 40
0.0075029974113226
 40
0.3818974549657843
 40
0.6070018873268582
 40
0.7653769096342224
 40
0.8824605049807476
 40
1.0
 40
1.0
 40
1.0
 40
1.0
 10
2592.945458565366
 20
986.554397866315
 30
0.0
 10
2592.945457609761
 20
986.5548358642101
 30
0.0
 10
2592.945408970147
 20
986.5771296585793
 30
0.0
 10
2592.939286865407
 20
986.624014046795
 30
0.0
 10
2592.897270759933
 20
986.6902984838313
 30
0.0
 10
2592.848459957967
 20
986.728560043004
 30
0.0
 10
2592.797729310652
 20
986.7503158187391
 30
0.0
 10
2592.762904703202
 20
986.7530354222888
 30
0.0
 10
2592.745458565366
 20
986.7543978663149
 30
0.0
  0
LINE
  5
86
330
1F
100
AcDbEntity
  8
0
  6
Continuous
 62
     7
370
    25
100
AcDbLine
 10
2590.9454585654
 20
986.2683337685
 30
0.0
 11
2592.7454585654
 21
986.2683337685
 31
0.0
  0
LINE
  5
87
330
1F
100
AcDbEntity
  8
0
  6
Continuous
 62
     7
370
    25
100
AcDbLine
 10
2592.9454585654
 20
986.4655465881
 30
0.0
 11
2592.9454585654
 21
986.4543978663
 31
0.0
  0
LINE
  5
88
330
1F
100
AcDbEntity
  8
0
  6
Continuous
 62
     7
370
    25
100
AcDbLine
 10
2592.9454585654
 20
986.7543978663
 30
0.0
 11
2592.9454585654
 21
986.5543978663
 31
0.0
  0
LINE
  5
89
330
1F
100
AcDbEntity
  8
0
  6
Continuous
 62
     7
370
    25
100
AcDbLine
 10
2592.9454585654
 20
1866.7543978663
 30
0.0
 11
2196.9454585654
 21
1866.7543978663
 31
0.0
  0
LINE
  5
8A
330
1F
100
AcDbEntity
  8
0
  6
Continuous
 62
     7
370
    25
100
AcDbLine
 10
2196.9454585654
 20
1866.7543978663
 30
0.0
 11
2196.9454585654
 21
986.7543978663
 31
0.0
  0
LINE
  5
8B
330
1F
100
AcDbEntity
  8
0
  6
Continuous
 62
     7
370
    25
100
AcDbLine
 10
2196.9454585654
 20
986.7543978663
 30
0.0
 11
2592.9454585654
 21
986.7543978663
 31
0.0
  0
LINE
  5
8C
330
1F
100
AcDbEntity
  8
0
  6
Continuous
 62
     7
370
    25
100
AcDbLine
 10
2592.9454585654
 20
986.7543978663
 30
0.0
 11
2592.9454585654
 21
1866.7543978663
 31
0.0
  0
LINE
  5
8D
330
1F
100
AcDbEntity
  8
0
  6
Continuous
 62
     7
370
    25
100
AcDbLine
 10
2576.4454585654
 20
976.7543978663
 30
0.0
 11
2593.9454585654
 21
976.7543978663
 31
0.0
  0
LINE
  5
8E
330
1F
100
AcDbEntity
  8
0
  6
Continuous
 62
     7
370
    25
100
AcDbLine
 10
2576.4454585654
 20
986.2543978663
 30
0.0
 11
2576.4454585654
 21
976.7543978663
 31
0.0
  0
LINE
  5
8F
330
1F
100
AcDbEntity
  8
0
  6
Continuous
 62
     7
370
    25
100
AcDbLine
 10
2593.9454585654
 20
976.7543978663
 30
0.0
 11
2593.9454585654
 21
1848.2543978663
 31
0.0
  0
LINE
  5
90
330
1F
100
AcDbEntity
  8
0
  6
Continuous
 62
     7
370
    25
100
AcDbLine
 10
2212.9454585654
 20
976.7543978663
 30
0.0
 11
2212.9454585654
 21
986.2543978663
 31
0.0
  0
LINE
  5
91
330
1F
100
AcDbEntity
  8
0
  6
Continuous
 62
     7
370
    25
100
AcDbLine
 10
2195.4454585654
 20
976.7543978663
 30
0.0
 11
2212.9454585654
 21
976.7543978663
 31
0.0
  0
LINE
  5
92
330
1F
100
AcDbEntity
  8
0
  6
Continuous
 62
     7
370
    25
100
AcDbLine
 10
2195.4454585654
 20
1848.2543978663
 30
0.0
 11
2195.4454585654
 21
976.7543978663
 31
0.0
  0
LINE
  5
93
330
1F
100
AcDbEntity
  8
0
  6
Continuous
 62
     7
370
    25
100
AcDbLine
 10
2594.9454585654
 20
1876.7543978663
 30
0.0
 11
2194.4454585654
 21
1876.7543978663
 31
0.0
  0
LINE
  5
94
330
1F
100
AcDbEntity
  8
0
  6
Continuous
 62
     7
370
    25
100
AcDbLine
 10
2594.9454585654
 20
1848.2543978663
 30
0.0
 11
2592.9454585654
 21
1848.2543978663
 31
0.0
  0
LINE
  5
95
330
1F
100
AcDbEntity
  8
0
  6
Continuous
 62
     7
370
    25
100
AcDbLine
 10
2196.9454585654
 20
1848.2543978663
 30
0.0
 11
2194.4454585654
 21
1848.2543978663
 31
0.0
  0
LINE
  5
96
330
1F
100
AcDbEntity
  8
0
  6
Continuous
 62
     7
370
    25
100
AcDbLine
 10
2594.9454585654
 20
1876.7543978663
 30
0.0
 11
2594.9454585654
 21
1848.2543978663
 31
0.0
  0
LINE
  5
97
330
1F
100
AcDbEntity
  8
0
  6
Continuous
 62
     7
370
    25
100
AcDbLine
 10
2194.4454585654
 20
1876.7543978663
 30
0.0
 11
2194.4454585654
 21
1848.2543978663
 31
0.0
  0
LINE
  5
98
330
1F
100
AcDbEntity
  8
0
  6
Continuous
 62
     7
370
    25
100
AcDbLine
 10
2197.1454585654
 20
986.2683337685
 30
0.0
 11
2197.1454585654
 21
986.2543978663
 31
0.0
  0
LINE
  5
99
330
1F
100
AcDbEntity
  8
0
  6
Continuous
 62
     7
370
    25
100
AcDbLine
 10
2592.7454585654
 20
986.2543978663
 30
0.0
 11
2592.7454585654
 21
986.2683337685
 31
0.0
  0
LINE
  5
9A
330
1F
100
AcDbEntity
  8
0
  6
Continuous
 62
     7
370
    25
100
AcDbLine
 10
475.6515032166
 20
1779.2767567878
 30
0.0
 11
477.6292233787
 21
1779.2249683628
 31
0.0
  0
LINE
  5
9B
330
1F
100
AcDbEntity
  8
0
  6
Continuous
 62
     7
370
    25
100
AcDbLine
 10
477.6292233787
 20
1784.7268537215
 30
0.0
 11
475.7954764323
 21
1784.7748720752
 31
0.0
  0
ARC
  5
9C
330
1F
100
AcDbEntity
  8
0
  6
Continuous
 62
     7
370
    25
100
AcDbCircle
 10
475.6593563011
 20
1779.5766539853
 30
0.0
 40
0.3000000000001078
100
AcDbArc
 50
178.5
 51
268.5000000001
  0
ARC
  5
9D
330
1F
100
AcDbEntity
  8
0
  6
Continuous
 62
     7
370
    25
100
AcDbCircle
 10
475.7876233478
 20
1784.4749748777
 30
0.0
 40
0.2999999999999956
100
AcDbArc
 50
88.5000000001
 51
178.5
  0
ARC
  5
9E
330
1F
100
AcDbEntity
  8
0
  6
Continuous
 62
     7
370
    25
100
AcDbCircle
 10
474.149178326
 20
1807.8758832752
 30
0.0
 40
1.199999999999975
100
AcDbArc
 50
88.5000000001
 51
173.5000000033
  0
ARC
  5
9F
330
1F
100
AcDbEntity
  8
0
  6
Continuous
 62
     7
370
    25
100
AcDbCircle
 10
473.6884640358
 20
1790.2819143556
 30
0.0
 40
1.200000000000014
100
AcDbArc
 50
183.4999999968
 51
268.5000000001
  0
LINE
  5
A0
330
1F
100
AcDbEntity
  8
0
  6
Continuous
 62
     7
370
    25
100
AcDbLine
 10
474.9307814413
 20
1809.0558276283
 30
0.0
 11
474.1805906639
 21
1809.0754720652
 31
0.0
  0
LINE
  5
A1
330
1F
100
AcDbEntity
  8
0
  6
Continuous
 62
     7
370
    25
100
AcDbLine
 10
473.6570516978
 20
1789.0823255657
 30
0.0
 11
474.4072424751
 21
1789.0626811288
 31
0.0
  0
ARC
  5
A2
330
1F
100
AcDbEntity
  8
0
  6
Continuous
 62
     7
370
    25
100
AcDbCircle
 10
474.9255460516
 20
1808.8558961633
 30
0.0
 40
0.2000000000000704
100
AcDbArc
 50
358.5000000001
 51
88.5000000001
  0
ARC
  5
A3
330
1F
100
AcDbEntity
  8
0
  6
Continuous
 62
     7
370
    25
100
AcDbCircle
 10
474.4124778648
 20
1789.2626125938
 30
0.0
 40
0.2000000000000718
100
AcDbArc
 50
268.5000000001
 51
358.5
  0
LINE
  5
A4
330
1F
100
AcDbEntity
  8
0
  6
Continuous
 62
     7
370
    25
100
AcDbLine
 10
472.9568920992
 20
1808.0117271316
 30
0.0
 11
472.7751043047
 21
1806.4161961367
 31
0.0
  0
LINE
  5
A5
330
1F
100
AcDbEntity
  8
0
  6
Continuous
 62
     7
370
    25
100
AcDbLine
 10
472.3926672574
 20
1791.8115145215
 30
0.0
 11
472.4907022777
 21
1790.2086561082
 31
0.0
  0
ARC
  5
A6
330
1F
100
AcDbEntity
  8
0
  6
Continuous
 62
     7
370
    25
100
AcDbCircle
 10
502.582259975
 20
1803.0200997237
 30
0.0
 40
30.00000000000215
100
AcDbArc
 50
173.5000000001
 51
178.5000000001
  0
ARC
  5
A7
330
1F
100
AcDbEntity
  8
0
  6
Continuous
 62
     7
370
    25
100
AcDbCircle
 10
502.33671121
 20
1793.6429707076
 30
0.0
 40
30.00000000000211
100
AcDbArc
 50
178.5000000001
 51
183.5000000001
  0
SPLINE
  5
A8
330
1F
100
AcDbEntity
  8
0
  6
Continuous
 62
     7
370
    25
100
AcDbSpline
210
0.0
220
0.0
230
1.0
 70
     8
 71
     3
 72
    11
 73
     7
 74
     0
 42
0.00000001
 43
0.00000001
 40
0.0
 40
0.0
 40
0.0
 40
0.0
 40
0.2706712709043996
 40
0.5632120728000687
 40
0.7903891635246261
 40
1.0
 40
1.0
 40
1.0
 40
1.0
 10
475.4865683530587
 20
1803.539388477128
 30
0.0
 10
475.4152270988167
 20
1803.55026484241
 30
0.0
 10
475.2667804035189
 20
1803.572896354851
 30
0.0
 10
475.1018876864396
 20
1803.715140595837
 30
0.0
 10
475.009774367972
 20
1803.888327175569
 30
0.0
 10
475.0031785439368
 20
1804.00390799813
 30
0.0
 10
475.0000132637009
 20
1804.059374258503
 30
0.0
  0
SPLINE
  5
A9
330
1F
100
AcDbEntity
  8
0
  6
Continuous
 62
     7
370
    25
100
AcDbSpline
210
0.0
220
0.0
230
1.0
 70
     8
 71
     3
 72
    11
 73
     7
 74
     0
 42
0.00000001
 43
0.00000001
 40
0.0
 40
0.0
 40
0.0
 40
0.0
 40
0.2695105035983951
 40
0.5617364405775489
 40
0.7894224931279145
 40
1.0
 40
1.0
 40
1.0
 40
1.0
 10
474.737873582679
 20
1794.048663719285
 30
0.0
 10
474.7476781320599
 20
1794.119837570832
 30
0.0
 10
474.768113597829
 20
1794.268184093495
 30
0.0
 10
474.907434946261
 20
1794.435140957513
 30
0.0
 10
475.079417407883
 20
1794.530232716836
 30
0.0
 10
475.1952975571253
 20
1794.538500186574
 30
0.0
 10
475.2509758182968
 20
1794.542472552353
 30
0.0
  0
LINE
  5
AA
330
1F
100
AcDbEntity
  8
0
  6
Continuous
 62
     7
370
    25
100
AcDbLine
 10
477.6292233787
 20
1803.4832810807
 30
0.0
 11
475.4865683531
 21
1803.5393884771
 31
0.0
  0
LINE
  5
AB
330
1F
100
AcDbEntity
  8
0
  6
Continuous
 62
     7
370
    25
100
AcDbLine
 10
475.2509758183
 20
1794.5424725523
 30
0.0
 11
477.6292233787
 21
1794.4801959483
 31
0.0
  0
SPLINE
  5
AC
330
1F
100
AcDbEntity
  8
0
  6
Continuous
 62
     7
370
    25
100
AcDbSpline
210
0.0
220
0.0
230
1.0
 70
     8
 71
     3
 72
    11
 73
     7
 74
     0
 42
0.00000001
 43
0.00000001
 40
0.0
 40
0.0
 40
0.0
 40
0.0
 40
0.2382247349852462
 40
0.4921376904596644
 40
0.7460575595480063
 40
0.9999999999999999
 40
0.9999999999999999
 40
0.9999999999999999
 40
0.9999999999999999
 10
475.3597328978698
 20
1779.594962851254
 30
0.0
 10
475.3604052821162
 20
1779.62064017077
 30
0.0
 10
475.3617943302776
 20
1779.673685782194
 30
0.0
 10
475.3753319284404
 20
1780.190665780914
 30
0.0
 10
475.3954325162061
 20
1780.958276326873
 30
0.0
 10
475.4118161664845
 20
1781.583942518897
 30
0.0
 10
475.4200083557
 20
1781.896789518421
 30
0.0
  0
LINE
  5
AD
330
1F
100
AcDbEntity
  8
0
  6
Continuous
 62
     7
370
    25
100
AcDbLine
 10
475.4200083557
 20
1781.8967895184
 30
0.0
 11
475.4235926269
 21
1782.033667516
 31
0.0
  0
SPLINE
  5
AE
330
1F
100
AcDbEntity
  8
0
  6
Continuous
 62
     7
370
    25
100
AcDbSpline
210
0.0
220
0.0
230
1.0
 70
    24
 71
     3
 72
    12
 73
     8
 74
     0
 42
0.00000001
 43
0.00000001
 40
0.0
 40
0.0
 40
0.0
 40
0.0
 40
0.2460973337389815
 40
0.4921955654195008
 40
0.7383025770440085
 40
0.984416004048157
 40
1.0
 40
1.0
 40
1.0
 40
1.0
 10
475.4235926269488
 20
1782.033667515997
 30
0.0
 10
475.4318221039496
 20
1782.347938563495
 30
0.0
 10
475.4482810879786
 20
1782.97648180518
 30
0.0
 10
475.4695970910882
 20
1783.790507122341
 30
0.0
 10
475.4831373538338
 20
1784.307588895089
 30
0.0
 10
475.4890568309168
 20
1784.533644604745
 30
0.0
 10
475.4875366005782
 20
1784.475589350331
 30
0.0
 10
475.4874460713587
 20
1784.472132178916
 30
0.0
  0
SPLINE
  5
AF
330
1F
100
AcDbEntity
  8
0
  6
Continuous
 62
     7
370
    25
100
AcDbSpline
210
0.0
220
0.0
230
1.0
 70
    24
 71
     3
 72
    13
 73
     9
 74
     0
 42
0.00000001
 43
0.00000001
 40
0.0
 40
0.0
 40
0.0
 40
0.0
 40
0.1538581583652814
 40
0.3079676862453947
 40
0.4535077802386509
 40
0.5878340078347456
 40
0.8177872163815787
 40
0.9999999999999999
 40
0.9999999999999999
 40
0.9999999999999999
 40
0.9999999999999999
 10
475.1252438281506
 20
1808.841736571925
 30
0.0
 10
475.1239243515071
 20
1808.791347791833
 30
0.0
 10
475.1212832424932
 20
1808.690487907751
 30
0.0
 10
475.0990564570809
 20
1807.841681217696
 30
0.0
 10
475.0668884467846
 20
1806.61323446578
 30
0.0
 10
475.0176255151966
 20
1804.731959007908
 30
0.0
 10
474.951806186457
 20
1802.218420251279
 30
0.0
 10
474.8970811233101
 20
1800.12855440469
 30
0.0
 10
474.8728879431855
 20
1799.204654130202
 30
0.0
  0
SPLINE
  5
B0
330
1F
100
AcDbEntity
  8
0
  6
Continuous
 62
     7
370
    25
100
AcDbSpline
210
0.0
220
0.0
230
1.0
 70
    24
 71
     3
 72
    13
 73
     9
 74
     0
 42
0.00000001
 43
0.00000001
 40
0.0
 40
0.0
 40
0.0
 40
0.0
 40
0.1813201537908815
 40
0.4101468448381227
 40
0.5438150184965616
 40
0.6886421238876164
 40
0.841996687412712
 40
1.0
 40
1.0
 40
1.0
 40
1.0
 10
474.8689434231898
 20
1799.054018988889
 30
0.0
 10
474.8447165495468
 20
1798.128832010847
 30
0.0
 10
474.7899152735874
 20
1796.036055714359
 30
0.0
 10
474.723555042565
 20
1793.501860732922
 30
0.0
 10
474.6735840260119
 20
1791.59354460118
 30
0.0
 10
474.6406619372965
 20
1790.336300756248
 30
0.0
 10
474.6173797785701
 20
1789.447190985342
 30
0.0
 10
474.6140875851611
 20
1789.321467191344
 30
0.0
 10
474.6124169113025
 20
1789.257666730695
 30
0.0
  0
LINE
  5
B1
330
1F
100
AcDbEntity
  8
0
  6
Continuous
 62
     7
370
    25
100
AcDbLine
 10
472.3469914608
 20
1794.4282791568
 30
0.0
 11
472.5925402257
 21
1803.8054081729
 31
0.0
  0
SPLINE
  5
B2
330
1F
100
AcDbEntity
  8
0
  6
Continuous
 62
     7
370
    25
100
AcDbSpline
210
0.0
220
0.0
230
1.0
 70
     8
 71
     3
 72
    11
 73
     7
 74
     0
 42
0.00000001
 43
0.00000001
 40
0.0
 40
0.0
 40
0.0
 40
0.0
 40
0.2702619356875446
 40
0.5624305486173095
 40
0.7897374073711134
 40
1.0
 40
1.0
 40
1.0
 40
1.0
 10
475.3649024679222
 20
1798.893155774585
 30
0.0
 10
475.2940652736346
 20
1798.894721041428
 30
0.0
 10
475.1466490200494
 20
1798.897978451271
 30
0.0
 10
474.9788778048931
 20
1798.897927095683
 30
0.0
 10
474.8811543747934
 20
1798.894958610163
 30
0.0
 10
474.8700025552322
 20
1798.891490841407
 30
0.0
 10
474.8646438390649
 20
1798.889824495534
 30
0.0
  0
LINE
  5
B3
330
1F
100
AcDbEntity
  8
0
  6
Continuous
 62
     7
370
    25
100
AcDbLine
 10
871.9292233787
 20
986.5543978663
 30
0.0
 11
871.9292233787
 21
999.5543978663
 31
0.0
  0
LINE
  5
B4
330
1F
100
AcDbEntity
  8
0
  6
Continuous
 62
     7
370
    25
100
AcDbLine
 10
872.3464350621
 20
986.5543978663
 30
0.0
 11
871.9292233787
 21
986.5543978663
 31
0.0
  0
ARC
  5
B5
330
1F
100
AcDbEntity
  8
0
  6
Continuous
 62
     7
370
    25
100
AcDbCircle
 10
872.1292617046
 20
986.7613658174
 30
0.0
 40
0.2999999999999552
100
AcDbArc
 50
279.576588481
 51
316.3783470327
  0
ARC
  5
B6
330
1F
100
AcDbEntity
  8
0
  6
Continuous
 62
     7
370
    25
100
AcDbCircle
 10
872.0460787812
 20
987.2543978663
 30
0.0
 40
0.7999999999999706
100
AcDbArc
 50
184.9699465947
 51
279.5765884811
  0
LINE
  5
B7
330
1F
100
AcDbEntity
  8
0
  6
Continuous
 62
     7
370
    25
100
AcDbLine
 10
870.407897941
 20
996.8583577014
 30
0.0
 11
871.2490865597
 21
987.1850913096
 31
0.0
  0
ARC
  5
B8
330
1F
100
AcDbEntity
  8
0
  6
Continuous
 62
     7
370
    25
100
AcDbCircle
 10
869.2124096087
 20
996.7543978663
 30
0.0
 40
1.200000000000159
100
AcDbArc
 50
4.9699465947
 51
90.0
  0
LINE
  5
B9
330
1F
100
AcDbEntity
  8
0
  6
Continuous
 62
     7
370
    25
100
AcDbLine
 10
858.8292233787
 20
997.9543978663
 30
0.0
 11
869.2124096087
 21
997.9543978663
 31
0.0
  0
ARC
  5
BA
330
1F
100
AcDbEntity
  8
0
  6
Continuous
 62
     7
370
    25
100
AcDbCircle
 10
858.8292233787
 20
998.7543978663
 30
0.0
 40
0.7999999999999545
100
AcDbArc
 50
180.0
 51
270.0
  0
LINE
  5
BB
330
1F
100
AcDbEntity
  8
0
  6
Continuous
 62
     7
370
    25
100
AcDbLine
 10
858.0292233787
 20
1019.5543978663
 30
0.0
 11
858.0292233787
 21
998.7543978663
 31
0.0
  0
LINE
  5
BC
330
1F
100
AcDbEntity
  8
0
  6
Continuous
 62
     7
370
    25
100
AcDbLine
 10
859.4292233787
 20
1019.5543978663
 30
0.0
 11
858.0292233787
 21
1019.5543978663
 31
0.0
  0
LINE
  5
BD
330
1F
100
AcDbEntity
  8
0
  6
Continuous
 62
     7
370
    25
100
AcDbLine
 10
859.4292233787
 20
999.5543978663
 30
0.0
 11
859.4292233787
 21
1019.5543978663
 31
0.0
  0
LINE
  5
BE
330
1F
100
AcDbEntity
  8
0
  6
Continuous
 62
     7
370
    25
100
AcDbLine
 10
871.9292233787
 20
999.5543978663
 30
0.0
 11
859.4292233787
 21
999.5543978663
 31
0.0
  0
LINE
  5
BF
330
1F
100
AcDbEntity
  8
0
  6
Continuous
 62
     7
370
    25
100
AcDbLine
 10
871.0498385043
 20
987.1677646704
 30
0.0
 11
870.2086498856
 21
996.8410310622
 31
0.0
  0
LINE
  5
C0
330
1F
100
AcDbEntity
  8
0
  6
Continuous
 62
     7
370
    25
100
AcDbLine
 10
870.2086498856
 20
996.8410310622
 30
0.0
 11
870.407897941
 21
996.8583577014
 31
0.0
  0
LINE
  5
C1
330
1F
100
AcDbEntity
  8
0
  6
Continuous
 62
     7
370
    25
100
AcDbLine
 10
871.2490865597
 20
987.1850913096
 30
0.0
 11
871.0498385043
 21
987.1677646704
 31
0.0
  0
LINE
  5
C2
330
1F
100
AcDbEntity
  8
0
  6
Continuous
 62
     7
370
    25
100
AcDbLine
 10
871.9292233787
 20
999.5543978663
 30
0.0
 11
872.1292233787
 21
999.7543978663
 31
0.0
  0
LINE
  5
C3
330
1F
100
AcDbEntity
  8
0
  6
Continuous
 62
     7
370
    25
100
AcDbLine
 10
871.9292233787
 20
986.5543978663
 30
0.0
 11
872.1292233787
 21
986.7543978663
 31
0.0
  0
LINE
  5
C4
330
1F
100
AcDbEntity
  8
0
  6
Continuous
 62
     7
370
    25
100
AcDbLine
 10
872.1791714587
 20
986.4655465881
 30
0.0
 11
872.212444628
 21
986.2683337685
 31
0.0
  0
ARC
  5
C5
330
1F
100
AcDbEntity
  8
0
  6
Continuous
 62
     7
370
    25
100
AcDbCircle
 10
872.0460787812
 20
987.2543978663
 30
0.0
 40
0.9999999999999706
100
AcDbArc
 50
184.9699465947
 51
279.5765884811
  0
SPLINE
  5
C6
330
1F
100
AcDbEntity
  8
0
  6
Continuous
 62
     7
370
    25
100
AcDbSpline
210
0.0
220
0.0
230
1.0
 70
     8
 71
     3
 72
    13
 73
     9
 74
     0
 42
0.00000001
 43
0.00000001
 40
0.0
 40
0.0
 40
0.0
 40
0.0
 40
0.0075029974113211
 40
0.3818974549663279
 40
0.6070018873271174
 40
0.7653769096344447
 40
0.8824605049809741
 40
0.9999999999999999
 40
0.9999999999999999
 40
0.9999999999999999
 40
0.9999999999999999
 10
872.3464350621467
 20
986.554397866314
 30
0.0
 10
872.3474528387627
 20
986.5548358642092
 30
0.0
 10
872.3992569749021
 20
986.5771296585783
 30
0.0
 10
872.4778423402693
 20
986.6240140467942
 30
0.0
 10
872.5604818043014
 20
986.6902984838304
 30
0.0
 10
872.6025779224001
 20
986.7285600430031
 30
0.0
 10
872.6251013492355
 20
986.750315818738
 30
0.0
 10
872.6278407753496
 20
986.7530354222878
 30
0.0
 10
872.629213149917
 20
986.754397866314
 30
0.0
  0
ARC
  5
C7
330
1F
100
AcDbEntity
  8
0
  6
Continuous
 62
     7
370
    25
100
AcDbCircle
 10
872.1292617046
 20
986.7613658174
 30
0.0
 40
0.4999999999999634
100
AcDbArc
 50
279.576588481
 51
359.2015057739
  0
LINE
  5
C8
330
1F
100
AcDbEntity
  8
0
  6
Continuous
 62
     7
370
    25
100
AcDbLine
 10
859.6292233787
 20
1019.7543978663
 30
0.0
 11
859.4292233787
 21
1019.5543978663
 31
0.0
  0
LINE
  5
C9
330
1F
100
AcDbEntity
  8
0
  6
Continuous
 62
     7
370
    25
100
AcDbLine
 10
859.4292233787
 20
999.5543978663
 30
0.0
 11
859.6292233787
 21
999.7543978663
 31
0.0
  0
ARC
  5
CA
330
1F
100
AcDbEntity
  8
0
  6
Continuous
 62
     7
370
    25
100
AcDbCircle
 10
858.8292233787
 20
998.7543978663
 30
0.0
 40
1.0
100
AcDbArc
 50
180.0
 51
270.0
  0
LINE
  5
CB
330
1F
100
AcDbEntity
  8
0
  6
Continuous
 62
     7
370
    25
100
AcDbLine
 10
857.8292233787
 20
998.7543978663
 30
0.0
 11
858.0292233787
 21
998.7543978663
 31
0.0
  0
LINE
  5
CC
330
1F
100
AcDbEntity
  8
0
  6
Continuous
 62
     7
370
    25
100
AcDbLine
 10
858.8292233787
 20
997.7543978663
 30
0.0
 11
858.8292233787
 21
997.9543978663
 31
0.0
  0
LINE
  5
CD
330
1F
100
AcDbEntity
  8
0
  6
Continuous
 62
     7
370
    25
100
AcDbLine
 10
869.2124096087
 20
997.7543978663
 30
0.0
 11
858.8292233787
 21
997.7543978663
 31
0.0
  0
LINE
  5
CE
330
1F
100
AcDbEntity
  8
0
  6
Continuous
 62
     7
370
    25
100
AcDbLine
 10
869.2124096087
 20
997.7543978663
 30
0.0
 11
869.2124096087
 21
997.9543978663
 31
0.0
  0
ARC
  5
CF
330
1F
100
AcDbEntity
  8
0
  6
Continuous
 62
     7
370
    25
100
AcDbCircle
 10
869.2124096087
 20
996.7543978663
 30
0.0
 40
1.000000000000114
100
AcDbArc
 50
4.9699465947
 51
90.0
  0
LINE
  5
D0
330
1F
100
AcDbEntity
  8
0
  6
Continuous
 62
     7
370
    25
100
AcDbLine
 10
858.0292233787
 20
1019.7543978663
 30
0.0
 11
858.0292233787
 21
1019.5543978663
 31
0.0
  0
LINE
  5
D1
330
1F
100
AcDbEntity
  8
0
  6
Continuous
 62
     7
370
    25
100
AcDbLine
 10
857.8292233787
 20
1019.5543978663
 30
0.0
 11
858.0292233787
 21
1019.5543978663
 31
0.0
  0
ARC
  5
D2
330
1F
100
AcDbEntity
  8
0
  6
Continuous
 62
     7
370
    25
100
AcDbCircle
 10
858.0292233787
 20
1019.5543978663
 30
0.0
 40
0.2000000000000455
100
AcDbArc
 50
90.0
 51
180.0
  0
LINE
  5
D3
330
1F
100
AcDbEntity
  8
0
  6
Continuous
 62
     7
370
    25
100
AcDbLine
 10
857.8292233787
 20
998.7543978663
 30
0.0
 11
857.8292233787
 21
1019.5543978663
 31
0.0
  0
LINE
  5
D4
330
1F
100
AcDbEntity
  8
0
  6
Continuous
 62
     7
370
    25
100
AcDbLine
 10
858.0292233787
 20
1019.7543978663
 30
0.0
 11
859.6292233787
 21
1019.7543978663
 31
0.0
  0
LINE
  5
D5
330
1F
100
AcDbEntity
  8
0
  6
Continuous
 62
     7
370
    25
100
AcDbLine
 10
856.9292233787
 20
1834.0543978663
 30
0.0
 11
856.9292233787
 21
1835.2543978663
 31
0.0
  0
LINE
  5
D6
330
1F
100
AcDbEntity
  8
0
  6
Continuous
 62
     7
370
    25
100
AcDbLine
 10
856.1292233787
 20
1835.2543978663
 30
0.0
 11
856.9292233787
 21
1835.2543978663
 31
0.0
  0
LINE
  5
D7
330
1F
100
AcDbEntity
  8
0
  6
Continuous
 62
     7
370
    25
100
AcDbLine
 10
856.1292233787
 20
1834.0543978663
 30
0.0
 11
856.9292233787
 21
1834.0543978663
 31
0.0
  0
LINE
  5
D8
330
1F
100
AcDbEntity
  8
0
  6
Continuous
 62
     7
370
    25
100
AcDbLine
 10
856.9292233787
 20
1835.2543978663
 30
0.0
 11
858.1292233787
 21
1835.2543978663
 31
0.0
  0
LINE
  5
D9
330
1F
100
AcDbEntity
  8
0
  6
Continuous
 62
     7
370
    25
100
AcDbLine
 10
856.9292233787
 20
1834.0543978663
 30
0.0
 11
858.1292233787
 21
1834.0543978663
 31
0.0
  0
LINE
  5
DA
330
1F
100
AcDbEntity
  8
0
  6
Continuous
 62
     7
370
    25
100
AcDbLine
 10
856.9292233787
 20
1816.2543978663
 30
0.0
 11
858.1292233787
 21
1816.2543978663
 31
0.0
  0
LINE
  5
DB
330
1F
100
AcDbEntity
  8
0
  6
Continuous
 62
     7
370
    25
100
AcDbLine
 10
856.9292233787
 20
1815.2510784443
 30
0.0
 11
856.9292233787
 21
1816.2543978663
 31
0.0
  0
LINE
  5
DC
330
1F
100
AcDbEntity
  8
0
  6
Continuous
 62
     7
370
    25
100
AcDbLine
 10
856.9292233787
 20
1816.2543978663
 30
0.0
 11
856.9292233787
 21
1834.0543978663
 31
0.0
  0
LINE
  5
DD
330
1F
100
AcDbEntity
  8
0
  6
Continuous
 62
     7
370
    25
100
AcDbLine
 10
857.6292233787
 20
1795.7103560054
 30
0.0
 11
858.1292233787
 21
1795.7103560054
 31
0.0
  0
LINE
  5
DE
330
1F
100
AcDbEntity
  8
0
  6
Continuous
 62
     7
370
    25
100
AcDbLine
 10
857.6292233787
 20
1794.1543978661
 30
0.0
 11
858.1292233787
 21
1794.1543978661
 31
0.0
  0
LINE
  5
DF
330
1F
100
AcDbEntity
  8
0
  6
Continuous
 62
     7
370
    25
100
AcDbLine
 10
857.6292233787
 20
1794.1543978661
 30
0.0
 11
857.6292233787
 21
1795.7103560054
 31
0.0
  0
LINE
  5
E0
330
1F
100
AcDbEntity
  8
0
  6
Continuous
 62
     7
370
    25
100
AcDbLine
 10
858.1292233787
 20
1777.7984397272
 30
0.0
 11
857.6292233787
 21
1777.7984397272
 31
0.0
  0
LINE
  5
E1
330
1F
100
AcDbEntity
  8
0
  6
Continuous
 62
     7
370
    25
100
AcDbLine
 10
857.6292233787
 20
1777.7984397272
 30
0.0
 11
857.6292233787
 21
1779.3543978665
 31
0.0
  0
LINE
  5
E2
330
1F
100
AcDbEntity
  8
0
  6
Continuous
 62
     7
370
    25
100
AcDbLine
 10
858.1292233787
 20
1779.3543978665
 30
0.0
 11
857.6292233787
 21
1779.3543978665
 31
0.0
  0
LINE
  5
E3
330
1F
100
AcDbEntity
  8
0
  6
Continuous
 62
     7
370
    25
100
AcDbLine
 10
857.9292233787
 20
1805.1459720241
 30
0.0
 11
857.6292233787
 21
1805.1459720241
 31
0.0
  0
LINE
  5
E4
330
1F
100
AcDbEntity
  8
0
  6
Continuous
 62
     7
370
    25
100
AcDbLine
 10
858.1292233787
 20
1805.1459720241
 30
0.0
 11
857.9292233787
 21
1805.1459720241
 31
0.0
  0
LINE
  5
E5
330
1F
100
AcDbEntity
  8
0
  6
Continuous
 62
     7
370
    25
100
AcDbLine
 10
857.6292233787
 20
1805.1459720241
 30
0.0
 11
857.6292233787
 21
1795.7103560054
 31
0.0
  0
LINE
  5
E6
330
1F
100
AcDbEntity
  8
0
  6
Continuous
 62
     7
370
    25
100
AcDbLine
 10
857.9292233787
 20
1768.3628237086
 30
0.0
 11
858.1292233787
 21
1768.3628237086
 31
0.0
  0
LINE
  5
E7
330
1F
100
AcDbEntity
  8
0
  6
Continuous
 62
     7
370
    25
100
AcDbLine
 10
857.6292233787
 20
1768.3628237086
 30
0.0
 11
857.9292233787
 21
1768.3628237086
 31
0.0
  0
LINE
  5
E8
330
1F
100
AcDbEntity
  8
0
  6
Continuous
 62
     7
370
    25
100
AcDbLine
 10
857.6292233787
 20
1777.7984397272
 30
0.0
 11
857.6292233787
 21
1768.3628237086
 31
0.0
  0
SPLINE
  5
E9
330
1F
100
AcDbEntity
  8
0
  6
Continuous
 62
     7
370
    25
100
AcDbSpline
210
0.0
220
0.0
230
1.0
 70
    24
 71
     3
 72
    12
 73
     8
 74
     0
 42
0.00000001
 43
0.00000001
 40
0.0
 40
0.0
 40
0.0
 40
0.0
 40
0.1234882189587132
 40
0.3047574776051782
 40
0.4857888495146915
 40
0.6670582153987806
 40
1.0
 40
1.0
 40
1.0
 40
1.0
 10
856.1292233786888
 20
1815.254397866311
 30
0.0
 10
856.1689699477242
 20
1815.254397866311
 30
0.0
 10
856.2670607957816
 20
1815.254397866311
 30
0.0
 10
856.5070340841405
 20
1815.254397866311
 30
0.0
 10
856.8226482726349
 20
1815.254397866311
 30
0.0
 10
857.2895583617344
 20
1815.254397866311
 30
0.0
 10
857.6778269619716
 20
1815.254397866313
 30
0.0
 10
857.9292233786878
 20
1815.254397866315
 30
0.0
  0
LINE
  5
EA
330
1F
100
AcDbEntity
  8
0
  6
Continuous
 62
     7
370
    25
100
AcDbLine
 10
857.9292233787
 20
1814.2543978663
 30
0.0
 11
857.9292233787
 21
1815.2543978663
 31
0.0
  0
SPLINE
  5
EB
330
1F
100
AcDbEntity
  8
0
  6
Continuous
 62
     7
370
    25
100
AcDbSpline
210
0.0
220
0.0
230
1.0
 70
    24
 71
     3
 72
    12
 73
     8
 74
     0
 42
0.00000001
 43
0.00000001
 40
0.0
 40
0.0
 40
0.0
 40
0.0
 40
0.3329369653751018
 40
0.5139656098141732
 40
0.6952322446462745
 40
0.8762609961873181
 40
1.0
 40
1.0
 40
1.0
 40
1.0
 10
857.9292233786939
 20
1758.254397866316
 30
0.0
 10
857.6778259655517
 20
1758.254397866314
 30
0.0
 10
857.2897356115539
 20
1758.254397866312
 30
0.0
 10
856.8228063418786
 20
1758.254397866312
 30
0.0
 10
856.5072874528572
 20
1758.254397866312
 30
0.0
 10
856.2671632343414
 20
1758.254397866312
 30
0.0
 10
856.1690559833312
 20
1758.254397866312
 30
0.0
 10
856.1292233786888
 20
1758.254397866312
 30
0.0
  0
LINE
  5
EC
330
1F
100
AcDbEntity
  8
0
  6
Continuous
 62
     7
370
    25
100
AcDbLine
 10
857.9292233787
 20
1759.2543978663
 30
0.0
 11
857.9292233787
 21
1758.2543978663
 31
0.0
  0
SPLINE
  5
ED
330
1F
100
AcDbEntity
  8
0
  6
Continuous
 62
     7
370
    25
100
AcDbSpline
210
0.0
220
0.0
230
1.0
 70
     8
 71
     3
 72
    10
 73
     6
 74
     0
 42
0.00000001
 43
0.00000001
 40
0.0
 40
0.0
 40
0.0
 40
0.0
 40
0.0371311943325802
 40
0.5486628195541904
 40
0.9999999999999999
 40
0.9999999999999999
 40
0.9999999999999999
 40
0.9999999999999999
 10
856.1292233786888
 20
1797.000162206481
 30
0.0
 10
856.1348462309008
 20
1796.993443859056
 30
0.0
 10
856.2179313566062
 20
1796.894171333435
 30
0.0
 10
856.4394873291894
 20
1796.793742420243
 30
0.0
 10
856.6707982184357
 20
1796.766954495413
 30
0.0
 10
856.7792233786903
 20
1796.754397866315
 30
0.0
  0
LINE
  5
EE
330
1F
100
AcDbEntity
  8
0
  6
Continuous
 62
     7
370
    25
100
AcDbLine
 10
857.9292233787
 20
1814.2543978663
 30
0.0
 11
857.9292233787
 21
1805.1459720241
 31
0.0
  0
LINE
  5
EF
330
1F
100
AcDbEntity
  8
0
  6
Continuous
 62
     7
370
    25
100
AcDbLine
 10
857.6292233787
 20
1796.7543978663
 30
0.0
 11
856.7792233787
 21
1796.7543978663
 31
0.0
  0
LINE
  5
F0
330
1F
100
AcDbEntity
  8
0
  6
Continuous
 62
     7
370
    25
100
AcDbLine
 10
858.1292233787
 20
1814.2543978663
 30
0.0
 11
857.9292233787
 21
1814.2543978663
 31
0.0
  0
SPLINE
  5
F1
330
1F
100
AcDbEntity
  8
0
  6
Continuous
 62
     7
370
    25
100
AcDbSpline
210
0.0
220
0.0
230
1.0
 70
     8
 71
     3
 72
     9
 73
     5
 74
     0
 42
0.00000001
 43
0.00000001
 40
0.0
 40
0.0
 40
0.0
 40
0.0
 40
0.505008126895109
 40
1.0
 40
1.0
 40
1.0
 40
1.0
 10
856.779223378692
 20
1776.754397866315
 30
0.0
 10
856.6559271068244
 20
1776.742178006931
 30
0.0
 10
856.4117800024491
 20
1776.717980654981
 30
0.0
 10
856.222777888896
 20
1776.580904581719
 30
0.0
 10
856.1292233786875
 20
1776.513053039457
 30
0.0
  0
LINE
  5
F2
330
1F
100
AcDbEntity
  8
0
  6
Continuous
 62
     7
370
    25
100
AcDbLine
 10
857.9292233787
 20
1768.3628237086
 30
0.0
 11
857.9292233787
 21
1759.2543978663
 31
0.0
  0
LINE
  5
F3
330
1F
100
AcDbEntity
  8
0
  6
Continuous
 62
     7
370
    25
100
AcDbLine
 10
856.7792233787
 20
1776.7543978663
 30
0.0
 11
857.6292233787
 21
1776.7543978663
 31
0.0
  0
LINE
  5
F4
330
1F
100
AcDbEntity
  8
0
  6
Continuous
 62
     7
370
    25
100
AcDbLine
 10
858.1292233787
 20
1759.2543978663
 30
0.0
 11
857.9292233787
 21
1759.2543978663
 31
0.0
  0
LINE
  5
F5
330
1F
100
AcDbEntity
  8
0
  6
Continuous
 62
     7
370
    25
100
AcDbLine
 10
858.1292233787
 20
1815.2543978663
 30
0.0
 11
857.9292233787
 21
1815.2543978663
 31
0.0
  0
LINE
  5
F6
330
1F
100
AcDbEntity
  8
0
  6
Continuous
 62
     7
370
    25
100
AcDbLine
 10
858.1292233787
 20
1758.2543978663
 30
0.0
 11
857.9292233787
 21
1758.2543978663
 31
0.0
  0
LINE
  5
F7
330
1F
100
AcDbEntity
  8
0
  6
Continuous
 62
     7
370
    25
100
AcDbLine
 10
857.6292233787
 20
1075.7103560054
 30
0.0
 11
858.1292233787
 21
1075.7103560054
 31
0.0
  0
LINE
  5
F8
330
1F
100
AcDbEntity
  8
0
  6
Continuous
 62
     7
370
    25
100
AcDbLine
 10
857.6292233787
 20
1074.1543978661
 30
0.0
 11
858.1292233787
 21
1074.1543978661
 31
0.0
  0
LINE
  5
F9
330
1F
100
AcDbEntity
  8
0
  6
Continuous
 62
     7
370
    25
100
AcDbLine
 10
857.6292233787
 20
1074.1543978661
 30
0.0
 11
857.6292233787
 21
1075.7103560054
 31
0.0
  0
LINE
  5
FA
330
1F
100
AcDbEntity
  8
0
  6
Continuous
 62
     7
370
    25
100
AcDbLine
 10
858.1292233787
 20
1057.7984397272
 30
0.0
 11
857.6292233787
 21
1057.7984397272
 31
0.0
  0
LINE
  5
FB
330
1F
100
AcDbEntity
  8
0
  6
Continuous
 62
     7
370
    25
100
AcDbLine
 10
857.6292233787
 20
1057.7984397272
 30
0.0
 11
857.6292233787
 21
1059.3543978665
 31
0.0
  0
LINE
  5
FC
330
1F
100
AcDbEntity
  8
0
  6
Continuous
 62
     7
370
    25
100
AcDbLine
 10
858.1292233787
 20
1059.3543978665
 30
0.0
 11
857.6292233787
 21
1059.3543978665
 31
0.0
  0
LINE
  5
FD
330
1F
100
AcDbEntity
  8
0
  6
Continuous
 62
     7
370
    25
100
AcDbLine
 10
857.9292233787
 20
1085.1459720241
 30
0.0
 11
857.6292233787
 21
1085.1459720241
 31
0.0
  0
LINE
  5
FE
330
1F
100
AcDbEntity
  8
0
  6
Continuous
 62
     7
370
    25
100
AcDbLine
 10
858.1292233787
 20
1085.1459720241
 30
0.0
 11
857.9292233787
 21
1085.1459720241
 31
0.0
  0
LINE
  5
FF
330
1F
100
AcDbEntity
  8
0
  6
Continuous
 62
     7
370
    25
100
AcDbLine
 10
857.6292233787
 20
1085.1459720241
 30
0.0
 11
857.6292233787
 21
1075.7103560054
 31
0.0
  0
LINE
  5
100
330
1F
100
AcDbEntity
  8
0
  6
Continuous
 62
     7
370
    25
100
AcDbLine
 10
857.9292233787
 20
1048.3628237086
 30
0.0
 11
858.1292233787
 21
1048.3628237086
 31
0.0
  0
LINE
  5
101
330
1F
100
AcDbEntity
  8
0
  6
Continuous
 62
     7
370
    25
100
AcDbLine
 10
857.6292233787
 20
1048.3628237086
 30
0.0
 11
857.9292233787
 21
1048.3628237086
 31
0.0
  0
LINE
  5
102
330
1F
100
AcDbEntity
  8
0
  6
Continuous
 62
     7
370
    25
100
AcDbLine
 10
857.6292233787
 20
1057.7984397272
 30
0.0
 11
857.6292233787
 21
1048.3628237086
 31
0.0
  0
SPLINE
  5
103
330
1F
100
AcDbEntity
  8
0
  6
Continuous
 62
     7
370
    25
100
AcDbSpline
210
0.0
220
0.0
230
1.0
 70
    24
 71
     3
 72
    12
 73
     8
 74
     0
 42
0.00000001
 43
0.00000001
 40
0.0
 40
0.0
 40
0.0
 40
0.0
 40
0.1234882189600064
 40
0.3047574776062213
 40
0.48578884951545
 40
0.6670582153992941
 40
1.0
 40
1.0
 40
1.0
 40
1.0
 10
856.1292233786875
 20
1095.254397866311
 30
0.0
 10
856.1689699477236
 20
1095.254397866311
 30
0.0
 10
856.267060795781
 20
1095.254397866311
 30
0.0
 10
856.5070340841406
 20
1095.254397866311
 30
0.0
 10
856.8226482726351
 20
1095.254397866311
 30
0.0
 10
857.2895583617347
 20
1095.254397866311
 30
0.0
 10
857.6778269619718
 20
1095.254397866313
 30
0.0
 10
857.9292233786879
 20
1095.254397866314
 30
0.0
  0
LINE
  5
104
330
1F
100
AcDbEntity
  8
0
  6
Continuous
 62
     7
370
    25
100
AcDbLine
 10
857.9292233787
 20
1094.2543978663
 30
0.0
 11
857.9292233787
 21
1095.2543978663
 31
0.0
  0
SPLINE
  5
105
330
1F
100
AcDbEntity
  8
0
  6
Continuous
 62
     7
370
    25
100
AcDbSpline
210
0.0
220
0.0
230
1.0
 70
    24
 71
     3
 72
    12
 73
     8
 74
     0
 42
0.00000001
 43
0.00000001
 40
0.0
 40
0.0
 40
0.0
 40
0.0
 40
0.3329369653746097
 40
0.5139656098134139
 40
0.695232244645248
 40
0.8762609961860248
 40
1.0
 40
1.0
 40
1.0
 40
1.0
 10
857.9292233786941
 20
1038.254397866315
 30
0.0
 10
857.6778259655517
 20
1038.254397866314
 30
0.0
 10
857.2897356115539
 20
1038.254397866312
 30
0.0
 10
856.822806341879
 20
1038.254397866312
 30
0.0
 10
856.5072874528576
 20
1038.254397866312
 30
0.0
 10
856.2671632343407
 20
1038.254397866312
 30
0.0
 10
856.1690559833304
 20
1038.254397866312
 30
0.0
 10
856.1292233786875
 20
1038.254397866312
 30
0.0
  0
LINE
  5
106
330
1F
100
AcDbEntity
  8
0
  6
Continuous
 62
     7
370
    25
100
AcDbLine
 10
857.9292233787
 20
1039.2543978663
 30
0.0
 11
857.9292233787
 21
1038.2543978663
 31
0.0
  0
LINE
  5
107
330
1F
100
AcDbEntity
  8
0
  6
Continuous
 62
     7
370
    25
100
AcDbLine
 10
858.1292233787
 20
1094.2543978663
 30
0.0
 11
857.9292233787
 21
1094.2543978663
 31
0.0
  0
LINE
  5
108
330
1F
100
AcDbEntity
  8
0
  6
Continuous
 62
     7
370
    25
100
AcDbLine
 10
857.9292233787
 20
1094.2543978663
 30
0.0
 11
857.9292233787
 21
1085.1459720241
 31
0.0
  0
SPLINE
  5
109
330
1F
100
AcDbEntity
  8
0
  6
Continuous
 62
     7
370
    25
100
AcDbSpline
210
0.0
220
0.0
230
1.0
 70
     8
 71
     3
 72
    10
 73
     6
 74
     0
 42
0.00000001
 43
0.00000001
 40
0.0
 40
0.0
 40
0.0
 40
0.0
 40
0.0371311943356972
 40
0.5486628195556497
 40
1.0
 40
1.0
 40
1.0
 40
1.0
 10
856.1292233786875
 20
1077.000162206482
 30
0.0
 10
856.1348462309002
 20
1076.993443859057
 30
0.0
 10
856.2179313566056
 20
1076.894171333436
 30
0.0
 10
856.4394873291899
 20
1076.793742420243
 30
0.0
 10
856.6707982184358
 20
1076.766954495413
 30
0.0
 10
856.7792233786904
 20
1076.754397866315
 30
0.0
  0
LINE
  5
10A
330
1F
100
AcDbEntity
  8
0
  6
Continuous
 62
     7
370
    25
100
AcDbLine
 10
857.6292233787
 20
1076.7543978663
 30
0.0
 11
856.7792233787
 21
1076.7543978663
 31
0.0
  0
LINE
  5
10B
330
1F
100
AcDbEntity
  8
0
  6
Continuous
 62
     7
370
    25
100
AcDbLine
 10
858.1292233787
 20
1039.2543978663
 30
0.0
 11
857.9292233787
 21
1039.2543978663
 31
0.0
  0
LINE
  5
10C
330
1F
100
AcDbEntity
  8
0
  6
Continuous
 62
     7
370
    25
100
AcDbLine
 10
857.9292233787
 20
1048.3628237086
 30
0.0
 11
857.9292233787
 21
1039.2543978663
 31
0.0
  0
SPLINE
  5
10D
330
1F
100
AcDbEntity
  8
0
  6
Continuous
 62
     7
370
    25
100
AcDbSpline
210
0.0
220
0.0
230
1.0
 70
     8
 71
     3
 72
     9
 73
     5
 74
     0
 42
0.00000001
 43
0.00000001
 40
0.0
 40
0.0
 40
0.0
 40
0.0
 40
0.5050081268949707
 40
0.9999999999999999
 40
0.9999999999999999
 40
0.9999999999999999
 40
0.9999999999999999
 10
856.7792233786922
 20
1056.754397866314
 30
0.0
 10
856.6559271068247
 20
1056.742178006931
 30
0.0
 10
856.4117800024491
 20
1056.717980654981
 30
0.0
 10
856.222777888896
 20
1056.580904581719
 30
0.0
 10
856.1292233786875
 20
1056.513053039457
 30
0.0
  0
LINE
  5
10E
330
1F
100
AcDbEntity
  8
0
  6
Continuous
 62
     7
370
    25
100
AcDbLine
 10
856.7792233787
 20
1056.7543978663
 30
0.0
 11
857.6292233787
 21
1056.7543978663
 31
0.0
  0
LINE
  5
10F
330
1F
100
AcDbEntity
  8
0
  6
Continuous
 62
     7
370
    25
100
AcDbLine
 10
858.1292233787
 20
1095.2543978663
 30
0.0
 11
857.9292233787
 21
1095.2543978663
 31
0.0
  0
LINE
  5
110
330
1F
100
AcDbEntity
  8
0
  6
Continuous
 62
     7
370
    25
100
AcDbLine
 10
858.1292233787
 20
1038.2543978663
 30
0.0
 11
857.9292233787
 21
1038.2543978663
 31
0.0
  0
LINE
  5
111
330
1F
100
AcDbEntity
  8
0
  6
Continuous
 62
     7
370
    25
100
AcDbLine
 10
857.6292233787
 20
1435.7103560054
 30
0.0
 11
858.1292233787
 21
1435.7103560054
 31
0.0
  0
LINE
  5
112
330
1F
100
AcDbEntity
  8
0
  6
Continuous
 62
     7
370
    25
100
AcDbLine
 10
857.6292233787
 20
1434.1543978661
 30
0.0
 11
858.1292233787
 21
1434.1543978661
 31
0.0
  0
LINE
  5
113
330
1F
100
AcDbEntity
  8
0
  6
Continuous
 62
     7
370
    25
100
AcDbLine
 10
857.6292233787
 20
1434.1543978661
 30
0.0
 11
857.6292233787
 21
1435.7103560054
 31
0.0
  0
LINE
  5
114
330
1F
100
AcDbEntity
  8
0
  6
Continuous
 62
     7
370
    25
100
AcDbLine
 10
858.1292233787
 20
1417.7984397272
 30
0.0
 11
857.6292233787
 21
1417.7984397272
 31
0.0
  0
LINE
  5
115
330
1F
100
AcDbEntity
  8
0
  6
Continuous
 62
     7
370
    25
100
AcDbLine
 10
857.6292233787
 20
1417.7984397272
 30
0.0
 11
857.6292233787
 21
1419.3543978665
 31
0.0
  0
LINE
  5
116
330
1F
100
AcDbEntity
  8
0
  6
Continuous
 62
     7
370
    25
100
AcDbLine
 10
858.1292233787
 20
1419.3543978665
 30
0.0
 11
857.6292233787
 21
1419.3543978665
 31
0.0
  0
LINE
  5
117
330
1F
100
AcDbEntity
  8
0
  6
Continuous
 62
     7
370
    25
100
AcDbLine
 10
857.9292233787
 20
1445.1459720241
 30
0.0
 11
857.6292233787
 21
1445.1459720241
 31
0.0
  0
LINE
  5
118
330
1F
100
AcDbEntity
  8
0
  6
Continuous
 62
     7
370
    25
100
AcDbLine
 10
858.1292233787
 20
1445.1459720241
 30
0.0
 11
857.9292233787
 21
1445.1459720241
 31
0.0
  0
LINE
  5
119
330
1F
100
AcDbEntity
  8
0
  6
Continuous
 62
     7
370
    25
100
AcDbLine
 10
857.6292233787
 20
1445.1459720241
 30
0.0
 11
857.6292233787
 21
1435.7103560054
 31
0.0
  0
LINE
  5
11A
330
1F
100
AcDbEntity
  8
0
  6
Continuous
 62
     7
370
    25
100
AcDbLine
 10
857.9292233787
 20
1408.3628237086
 30
0.0
 11
858.1292233787
 21
1408.3628237086
 31
0.0
  0
LINE
  5
11B
330
1F
100
AcDbEntity
  8
0
  6
Continuous
 62
     7
370
    25
100
AcDbLine
 10
857.6292233787
 20
1408.3628237086
 30
0.0
 11
857.9292233787
 21
1408.3628237086
 31
0.0
  0
LINE
  5
11C
330
1F
100
AcDbEntity
  8
0
  6
Continuous
 62
     7
370
    25
100
AcDbLine
 10
857.6292233787
 20
1417.7984397272
 30
0.0
 11
857.6292233787
 21
1408.3628237086
 31
0.0
  0
SPLINE
  5
11D
330
1F
100
AcDbEntity
  8
0
  6
Continuous
 62
     7
370
    25
100
AcDbSpline
210
0.0
220
0.0
230
1.0
 70
    24
 71
     3
 72
    12
 73
     8
 74
     0
 42
0.00000001
 43
0.00000001
 40
0.0
 40
0.0
 40
0.0
 40
0.0
 40
0.1234882189599696
 40
0.3047574776061928
 40
0.4857888495154274
 40
0.6670582153992572
 40
1.0
 40
1.0
 40
1.0
 40
1.0
 10
856.1292233786875
 20
1455.254397866311
 30
0.0
 10
856.1689699477236
 20
1455.254397866311
 30
0.0
 10
856.2670607957809
 20
1455.254397866311
 30
0.0
 10
856.5070340841407
 20
1455.254397866312
 30
0.0
 10
856.8226482726351
 20
1455.254397866312
 30
0.0
 10
857.2895583617346
 20
1455.254397866311
 30
0.0
 10
857.6778269619716
 20
1455.254397866313
 30
0.0
 10
857.9292233786879
 20
1455.254397866314
 30
0.0
  0
LINE
  5
11E
330
1F
100
AcDbEntity
  8
0
  6
Continuous
 62
     7
370
    25
100
AcDbLine
 10
857.9292233787
 20
1454.2543978663
 30
0.0
 11
857.9292233787
 21
1455.2543978663
 31
0.0
  0
SPLINE
  5
11F
330
1F
100
AcDbEntity
  8
0
  6
Continuous
 62
     7
370
    25
100
AcDbSpline
210
0.0
220
0.0
230
1.0
 70
    24
 71
     3
 72
    12
 73
     8
 74
     0
 42
0.00000001
 43
0.00000001
 40
0.0
 40
0.0
 40
0.0
 40
0.0
 40
0.3329369653746097
 40
0.5139656098134139
 40
0.695232244645248
 40
0.8762609961860248
 40
1.0
 40
1.0
 40
1.0
 40
1.0
 10
857.9292233786941
 20
1398.254397866315
 30
0.0
 10
857.6778259655517
 20
1398.254397866314
 30
0.0
 10
857.2897356115539
 20
1398.254397866312
 30
0.0
 10
856.822806341879
 20
1398.254397866312
 30
0.0
 10
856.5072874528576
 20
1398.254397866312
 30
0.0
 10
856.2671632343407
 20
1398.254397866312
 30
0.0
 10
856.1690559833304
 20
1398.254397866312
 30
0.0
 10
856.1292233786875
 20
1398.254397866312
 30
0.0
  0
LINE
  5
120
330
1F
100
AcDbEntity
  8
0
  6
Continuous
 62
     7
370
    25
100
AcDbLine
 10
857.9292233787
 20
1399.2543978663
 30
0.0
 11
857.9292233787
 21
1398.2543978663
 31
0.0
  0
SPLINE
  5
121
330
1F
100
AcDbEntity
  8
0
  6
Continuous
 62
     7
370
    25
100
AcDbSpline
210
0.0
220
0.0
230
1.0
 70
     8
 71
     3
 72
    10
 73
     6
 74
     0
 42
0.00000001
 43
0.00000001
 40
0.0
 40
0.0
 40
0.0
 40
0.0
 40
0.0371311943356953
 40
0.5486628195556505
 40
1.0
 40
1.0
 40
1.0
 40
1.0
 10
856.1292233786875
 20
1437.000162206483
 30
0.0
 10
856.1348462309002
 20
1436.993443859057
 30
0.0
 10
856.2179313566058
 20
1436.894171333436
 30
0.0
 10
856.4394873291898
 20
1436.793742420243
 30
0.0
 10
856.6707982184358
 20
1436.766954495413
 30
0.0
 10
856.7792233786904
 20
1436.754397866315
 30
0.0
  0
LINE
  5
122
330
1F
100
AcDbEntity
  8
0
  6
Continuous
 62
     7
370
    25
100
AcDbLine
 10
857.9292233787
 20
1454.2543978663
 30
0.0
 11
857.9292233787
 21
1445.1459720241
 31
0.0
  0
LINE
  5
123
330
1F
100
AcDbEntity
  8
0
  6
Continuous
 62
     7
370
    25
100
AcDbLine
 10
857.6292233787
 20
1436.7543978663
 30
0.0
 11
856.7792233787
 21
1436.7543978663
 31
0.0
  0
LINE
  5
124
330
1F
100
AcDbEntity
  8
0
  6
Continuous
 62
     7
370
    25
100
AcDbLine
 10
858.1292233787
 20
1454.2543978663
 30
0.0
 11
857.9292233787
 21
1454.2543978663
 31
0.0
  0
LINE
  5
125
330
1F
100
AcDbEntity
  8
0
  6
Continuous
 62
     7
370
    25
100
AcDbLine
 10
858.1292233787
 20
1399.2543978663
 30
0.0
 11
857.9292233787
 21
1399.2543978663
 31
0.0
  0
LINE
  5
126
330
1F
100
AcDbEntity
  8
0
  6
Continuous
 62
     7
370
    25
100
AcDbLine
 10
857.9292233787
 20
1408.3628237086
 30
0.0
 11
857.9292233787
 21
1399.2543978663
 31
0.0
  0
SPLINE
  5
127
330
1F
100
AcDbEntity
  8
0
  6
Continuous
 62
     7
370
    25
100
AcDbSpline
210
0.0
220
0.0
230
1.0
 70
     8
 71
     3
 72
     9
 73
     5
 74
     0
 42
0.00000001
 43
0.00000001
 40
0.0
 40
0.0
 40
0.0
 40
0.0
 40
0.5050081268949795
 40
1.0
 40
1.0
 40
1.0
 40
1.0
 10
856.7792233786922
 20
1416.754397866314
 30
0.0
 10
856.6559271068246
 20
1416.742178006931
 30
0.0
 10
856.4117800024492
 20
1416.717980654981
 30
0.0
 10
856.2227778888958
 20
1416.580904581719
 30
0.0
 10
856.1292233786875
 20
1416.513053039457
 30
0.0
  0
LINE
  5
128
330
1F
100
AcDbEntity
  8
0
  6
Continuous
 62
     7
370
    25
100
AcDbLine
 10
856.7792233787
 20
1416.7543978663
 30
0.0
 11
857.6292233787
 21
1416.7543978663
 31
0.0
  0
LINE
  5
129
330
1F
100
AcDbEntity
  8
0
  6
Continuous
 62
     7
370
    25
100
AcDbLine
 10
858.1292233787
 20
1455.2543978663
 30
0.0
 11
857.9292233787
 21
1455.2543978663
 31
0.0
  0
LINE
  5
12A
330
1F
100
AcDbEntity
  8
0
  6
Continuous
 62
     7
370
    25
100
AcDbLine
 10
858.1292233787
 20
1398.2543978663
 30
0.0
 11
857.9292233787
 21
1398.2543978663
 31
0.0
  0
LINE
  5
12B
330
1F
100
AcDbEntity
  8
0
  6
Continuous
 62
     7
370
    25
100
AcDbLine
 10
856.2640384536
 20
1795.1293978663
 30
0.0
 11
856.2640384536
 21
1794.2043978663
 31
0.0
  0
LINE
  5
12C
330
1F
100
AcDbEntity
  8
0
  6
Continuous
 62
     7
370
    25
100
AcDbLine
 10
856.2640384536
 20
1779.3043978663
 30
0.0
 11
856.2640384536
 21
1778.3793978663
 31
0.0
  0
LINE
  5
12D
330
1F
100
AcDbEntity
  8
0
  6
Continuous
 62
     7
370
    25
100
AcDbLine
 10
856.2640384536
 20
1778.3793978663
 30
0.0
 11
856.1292233787
 21
1778.3793978663
 31
0.0
  0
LINE
  5
12E
330
1F
100
AcDbEntity
  8
0
  6
Continuous
 62
     7
370
    25
100
AcDbLine
 10
856.1292233787
 20
1795.1293978663
 30
0.0
 11
856.2640384536
 21
1795.1293978663
 31
0.0
  0
LINE
  5
12F
330
1F
100
AcDbEntity
  8
0
  6
Continuous
 62
     7
370
    25
100
AcDbLine
 10
857.6292233787
 20
1778.3793978663
 30
0.0
 11
856.2640384536
 21
1778.3793978663
 31
0.0
  0
LINE
  5
130
330
1F
100
AcDbEntity
  8
0
  6
Continuous
 62
     7
370
    25
100
AcDbLine
 10
856.2640384536
 20
1795.1293978663
 30
0.0
 11
857.6292233787
 21
1795.1293978663
 31
0.0
  0
LINE
  5
131
330
1F
100
AcDbEntity
  8
0
  6
Continuous
 62
     7
370
    25
100
AcDbLine
 10
856.2640384536
 20
1075.1293978663
 30
0.0
 11
856.2640384536
 21
1074.2043978663
 31
0.0
  0
LINE
  5
132
330
1F
100
AcDbEntity
  8
0
  6
Continuous
 62
     7
370
    25
100
AcDbLine
 10
856.2640384536
 20
1059.3043978663
 30
0.0
 11
856.2640384536
 21
1058.3793978663
 31
0.0
  0
LINE
  5
133
330
1F
100
AcDbEntity
  8
0
  6
Continuous
 62
     7
370
    25
100
AcDbLine
 10
856.2640384536
 20
1058.3793978663
 30
0.0
 11
856.1292233787
 21
1058.3793978663
 31
0.0
  0
LINE
  5
134
330
1F
100
AcDbEntity
  8
0
  6
Continuous
 62
     7
370
    25
100
AcDbLine
 10
856.1292233787
 20
1075.1293978663
 30
0.0
 11
856.2640384536
 21
1075.1293978663
 31
0.0
  0
LINE
  5
135
330
1F
100
AcDbEntity
  8
0
  6
Continuous
 62
     7
370
    25
100
AcDbLine
 10
857.6292233787
 20
1058.3793978663
 30
0.0
 11
856.2640384536
 21
1058.3793978663
 31
0.0
  0
LINE
  5
136
330
1F
100
AcDbEntity
  8
0
  6
Continuous
 62
     7
370
    25
100
AcDbLine
 10
856.2640384536
 20
1075.1293978663
 30
0.0
 11
857.6292233787
 21
1075.1293978663
 31
0.0
  0
LINE
  5
137
330
1F
100
AcDbEntity
  8
0
  6
Continuous
 62
     7
370
    25
100
AcDbLine
 10
856.2640384536
 20
1435.1293978663
 30
0.0
 11
856.2640384536
 21
1434.2043978663
 31
0.0
  0
LINE
  5
138
330
1F
100
AcDbEntity
  8
0
  6
Continuous
 62
     7
370
    25
100
AcDbLine
 10
856.2640384536
 20
1419.3043978663
 30
0.0
 11
856.2640384536
 21
1418.3793978663
 31
0.0
  0
LINE
  5
139
330
1F
100
AcDbEntity
  8
0
  6
Continuous
 62
     7
370
    25
100
AcDbLine
 10
856.2640384536
 20
1418.3793978663
 30
0.0
 11
856.1292233787
 21
1418.3793978663
 31
0.0
  0
LINE
  5
13A
330
1F
100
AcDbEntity
  8
0
  6
Continuous
 62
     7
370
    25
100
AcDbLine
 10
856.1292233787
 20
1435.1293978663
 30
0.0
 11
856.2640384536
 21
1435.1293978663
 31
0.0
  0
LINE
  5
13B
330
1F
100
AcDbEntity
  8
0
  6
Continuous
 62
     7
370
    25
100
AcDbLine
 10
857.6292233787
 20
1418.3793978663
 30
0.0
 11
856.2640384536
 21
1418.3793978663
 31
0.0
  0
LINE
  5
13C
330
1F
100
AcDbEntity
  8
0
  6
Continuous
 62
     7
370
    25
100
AcDbLine
 10
856.2640384536
 20
1435.1293978663
 30
0.0
 11
857.6292233787
 21
1435.1293978663
 31
0.0
  0
LINE
  5
13D
330
1F
100
AcDbEntity
  8
0
  6
Continuous
 62
     7
370
    25
100
AcDbLine
 10
856.1292233787
 20
1433.2543978663
 30
0.0
 11
858.1292233787
 21
1433.2543978663
 31
0.0
  0
LINE
  5
13E
330
1F
100
AcDbEntity
  8
0
  6
Continuous
 62
     7
370
    25
100
AcDbLine
 10
858.1292233787
 20
1420.2543978663
 30
0.0
 11
856.1292233787
 21
1420.2543978663
 31
0.0
  0
LINE
  5
13F
330
1F
100
AcDbEntity
  8
0
  6
Continuous
 62
     7
370
    25
100
AcDbLine
 10
856.8579408335
 20
1419.3043978663
 30
0.0
 11
856.8579408335
 21
1420.2543978663
 31
0.0
  0
LINE
  5
140
330
1F
100
AcDbEntity
  8
0
  6
Continuous
 62
     7
370
    25
100
AcDbLine
 10
856.8579408335
 20
1433.2543978663
 30
0.0
 11
856.8579408335
 21
1434.2043978663
 31
0.0
  0
LINE
  5
141
330
1F
100
AcDbEntity
  8
0
  6
Continuous
 62
     7
370
    25
100
AcDbLine
 10
856.8579408335
 20
1419.3043978663
 30
0.0
 11
856.1292233787
 21
1419.3043978663
 31
0.0
  0
LINE
  5
142
330
1F
100
AcDbEntity
  8
0
  6
Continuous
 62
     7
370
    25
100
AcDbLine
 10
856.8579408335
 20
1434.2043978663
 30
0.0
 11
856.1292233787
 21
1434.2043978663
 31
0.0
  0
LINE
  5
143
330
1F
100
AcDbEntity
  8
0
  6
Continuous
 62
     7
370
    25
100
AcDbLine
 10
856.9193103291
 20
1419.3043978663
 30
0.0
 11
856.9193103291
 21
1420.2543978663
 31
0.0
  0
LINE
  5
144
330
1F
100
AcDbEntity
  8
0
  6
Continuous
 62
     7
370
    25
100
AcDbLine
 10
856.9193103291
 20
1433.2543978663
 30
0.0
 11
856.9193103291
 21
1434.2043978663
 31
0.0
  0
LINE
  5
145
330
1F
100
AcDbEntity
  8
0
  6
Continuous
 62
     7
370
    25
100
AcDbLine
 10
856.9193103291
 20
1419.3043978663
 30
0.0
 11
856.8579408335
 21
1419.3043978663
 31
0.0
  0
LINE
  5
146
330
1F
100
AcDbEntity
  8
0
  6
Continuous
 62
     7
370
    25
100
AcDbLine
 10
856.9193103291
 20
1434.2043978663
 30
0.0
 11
856.8579408335
 21
1434.2043978663
 31
0.0
  0
LINE
  5
147
330
1F
100
AcDbEntity
  8
0
  6
Continuous
 62
     7
370
    25
100
AcDbLine
 10
856.1292233787
 20
1793.2543978663
 30
0.0
 11
858.1292233787
 21
1793.2543978663
 31
0.0
  0
LINE
  5
148
330
1F
100
AcDbEntity
  8
0
  6
Continuous
 62
     7
370
    25
100
AcDbLine
 10
858.1292233787
 20
1780.2543978663
 30
0.0
 11
856.1292233787
 21
1780.2543978663
 31
0.0
  0
LINE
  5
149
330
1F
100
AcDbEntity
  8
0
  6
Continuous
 62
     7
370
    25
100
AcDbLine
 10
856.8579408335
 20
1779.3043978663
 30
0.0
 11
856.8579408335
 21
1780.2543978663
 31
0.0
  0
LINE
  5
14A
330
1F
100
AcDbEntity
  8
0
  6
Continuous
 62
     7
370
    25
100
AcDbLine
 10
856.8579408335
 20
1793.2543978663
 30
0.0
 11
856.8579408335
 21
1794.2043978663
 31
0.0
  0
LINE
  5
14B
330
1F
100
AcDbEntity
  8
0
  6
Continuous
 62
     7
370
    25
100
AcDbLine
 10
856.8579408335
 20
1779.3043978663
 30
0.0
 11
856.1292233787
 21
1779.3043978663
 31
0.0
  0
LINE
  5
14C
330
1F
100
AcDbEntity
  8
0
  6
Continuous
 62
     7
370
    25
100
AcDbLine
 10
856.8579408335
 20
1794.2043978663
 30
0.0
 11
856.1292233787
 21
1794.2043978663
 31
0.0
  0
LINE
  5
14D
330
1F
100
AcDbEntity
  8
0
  6
Continuous
 62
     7
370
    25
100
AcDbLine
 10
856.9193103291
 20
1779.3043978663
 30
0.0
 11
856.9193103291
 21
1780.2543978663
 31
0.0
  0
LINE
  5
14E
330
1F
100
AcDbEntity
  8
0
  6
Continuous
 62
     7
370
    25
100
AcDbLine
 10
856.9193103291
 20
1793.2543978663
 30
0.0
 11
856.9193103291
 21
1794.2043978663
 31
0.0
  0
LINE
  5
14F
330
1F
100
AcDbEntity
  8
0
  6
Continuous
 62
     7
370
    25
100
AcDbLine
 10
856.9193103291
 20
1779.3043978663
 30
0.0
 11
856.8579408335
 21
1779.3043978663
 31
0.0
  0
LINE
  5
150
330
1F
100
AcDbEntity
  8
0
  6
Continuous
 62
     7
370
    25
100
AcDbLine
 10
856.9193103291
 20
1794.2043978663
 30
0.0
 11
856.8579408335
 21
1794.2043978663
 31
0.0
  0
LINE
  5
151
330
1F
100
AcDbEntity
  8
0
  6
Continuous
 62
     7
370
    25
100
AcDbLine
 10
856.1292233787
 20
1073.2543978663
 30
0.0
 11
858.1292233787
 21
1073.2543978663
 31
0.0
  0
LINE
  5
152
330
1F
100
AcDbEntity
  8
0
  6
Continuous
 62
     7
370
    25
100
AcDbLine
 10
858.1292233787
 20
1060.2543978663
 30
0.0
 11
856.1292233787
 21
1060.2543978663
 31
0.0
  0
LINE
  5
153
330
1F
100
AcDbEntity
  8
0
  6
Continuous
 62
     7
370
    25
100
AcDbLine
 10
856.8579408335
 20
1059.3043978663
 30
0.0
 11
856.8579408335
 21
1060.2543978663
 31
0.0
  0
LINE
  5
154
330
1F
100
AcDbEntity
  8
0
  6
Continuous
 62
     7
370
    25
100
AcDbLine
 10
856.8579408335
 20
1073.2543978663
 30
0.0
 11
856.8579408335
 21
1074.2043978663
 31
0.0
  0
LINE
  5
155
330
1F
100
AcDbEntity
  8
0
  6
Continuous
 62
     7
370
    25
100
AcDbLine
 10
856.8579408335
 20
1059.3043978663
 30
0.0
 11
856.1292233787
 21
1059.3043978663
 31
0.0
  0
LINE
  5
156
330
1F
100
AcDbEntity
  8
0
  6
Continuous
 62
     7
370
    25
100
AcDbLine
 10
856.8579408335
 20
1074.2043978663
 30
0.0
 11
856.1292233787
 21
1074.2043978663
 31
0.0
  0
LINE
  5
157
330
1F
100
AcDbEntity
  8
0
  6
Continuous
 62
     7
370
    25
100
AcDbLine
 10
856.9193103291
 20
1059.3043978663
 30
0.0
 11
856.9193103291
 21
1060.2543978663
 31
0.0
  0
LINE
  5
158
330
1F
100
AcDbEntity
  8
0
  6
Continuous
 62
     7
370
    25
100
AcDbLine
 10
856.9193103291
 20
1073.2543978663
 30
0.0
 11
856.9193103291
 21
1074.2043978663
 31
0.0
  0
LINE
  5
159
330
1F
100
AcDbEntity
  8
0
  6
Continuous
 62
     7
370
    25
100
AcDbLine
 10
856.9193103291
 20
1059.3043978663
 30
0.0
 11
856.8579408335
 21
1059.3043978663
 31
0.0
  0
LINE
  5
15A
330
1F
100
AcDbEntity
  8
0
  6
Continuous
 62
     7
370
    25
100
AcDbLine
 10
856.9193103291
 20
1074.2043978663
 30
0.0
 11
856.8579408335
 21
1074.2043978663
 31
0.0
  0
LINE
  5
15B
330
1F
100
AcDbEntity
  8
0
  6
Continuous
 62
     7
370
    25
100
AcDbLine
 10
857.6292233787
 20
1059.2793978663
 30
0.0
 11
857.3176575759
 21
1059.2793978663
 31
0.0
  0
LINE
  5
15C
330
1F
100
AcDbEntity
  8
0
  6
Continuous
 62
     7
370
    25
100
AcDbLine
 10
857.3176575759
 20
1074.2293978663
 30
0.0
 11
857.3176575759
 21
1073.2543978663
 31
0.0
  0
LINE
  5
15D
330
1F
100
AcDbEntity
  8
0
  6
Continuous
 62
     7
370
    25
100
AcDbLine
 10
857.3176575759
 20
1060.2543978663
 30
0.0
 11
857.3176575759
 21
1059.2793978663
 31
0.0
  0
LINE
  5
15E
330
1F
100
AcDbEntity
  8
0
  6
Continuous
 62
     7
370
    25
100
AcDbLine
 10
857.6292233787
 20
1074.2293978663
 30
0.0
 11
857.3176575759
 21
1074.2293978663
 31
0.0
  0
LINE
  5
15F
330
1F
100
AcDbEntity
  8
0
  6
Continuous
 62
     7
370
    25
100
AcDbLine
 10
857.3176575759
 20
1059.2793978663
 30
0.0
 11
857.2785149814
 21
1059.2793978663
 31
0.0
  0
LINE
  5
160
330
1F
100
AcDbEntity
  8
0
  6
Continuous
 62
     7
370
    25
100
AcDbLine
 10
857.3176575759
 20
1074.2293978663
 30
0.0
 11
857.2785149814
 21
1074.2293978663
 31
0.0
  0
LINE
  5
161
330
1F
100
AcDbEntity
  8
0
  6
Continuous
 62
     7
370
    25
100
AcDbLine
 10
857.6292233787
 20
1419.2793978663
 30
0.0
 11
857.3176575759
 21
1419.2793978663
 31
0.0
  0
LINE
  5
162
330
1F
100
AcDbEntity
  8
0
  6
Continuous
 62
     7
370
    25
100
AcDbLine
 10
857.3176575759
 20
1434.2293978663
 30
0.0
 11
857.3176575759
 21
1433.2543978663
 31
0.0
  0
LINE
  5
163
330
1F
100
AcDbEntity
  8
0
  6
Continuous
 62
     7
370
    25
100
AcDbLine
 10
857.3176575759
 20
1420.2543978663
 30
0.0
 11
857.3176575759
 21
1419.2793978663
 31
0.0
  0
LINE
  5
164
330
1F
100
AcDbEntity
  8
0
  6
Continuous
 62
     7
370
    25
100
AcDbLine
 10
857.6292233787
 20
1434.2293978663
 30
0.0
 11
857.3176575759
 21
1434.2293978663
 31
0.0
  0
LINE
  5
165
330
1F
100
AcDbEntity
  8
0
  6
Continuous
 62
     7
370
    25
100
AcDbLine
 10
857.3176575759
 20
1419.2793978663
 30
0.0
 11
857.2785149814
 21
1419.2793978663
 31
0.0
  0
LINE
  5
166
330
1F
100
AcDbEntity
  8
0
  6
Continuous
 62
     7
370
    25
100
AcDbLine
 10
857.3176575759
 20
1434.2293978663
 30
0.0
 11
857.2785149814
 21
1434.2293978663
 31
0.0
  0
LINE
  5
167
330
1F
100
AcDbEntity
  8
0
  6
Continuous
 62
     7
370
    25
100
AcDbLine
 10
857.6292233787
 20
1779.2793978663
 30
0.0
 11
857.3176575759
 21
1779.2793978663
 31
0.0
  0
LINE
  5
168
330
1F
100
AcDbEntity
  8
0
  6
Continuous
 62
     7
370
    25
100
AcDbLine
 10
857.3176575759
 20
1794.2293978663
 30
0.0
 11
857.3176575759
 21
1793.2543978663
 31
0.0
  0
LINE
  5
169
330
1F
100
AcDbEntity
  8
0
  6
Continuous
 62
     7
370
    25
100
AcDbLine
 10
857.3176575759
 20
1780.2543978663
 30
0.0
 11
857.3176575759
 21
1779.2793978663
 31
0.0
  0
LINE
  5
16A
330
1F
100
AcDbEntity
  8
0
  6
Continuous
 62
     7
370
    25
100
AcDbLine
 10
857.6292233787
 20
1794.2293978663
 30
0.0
 11
857.3176575759
 21
1794.2293978663
 31
0.0
  0
LINE
  5
16B
330
1F
100
AcDbEntity
  8
0
  6
Continuous
 62
     7
370
    25
100
AcDbLine
 10
857.3176575759
 20
1779.2793978663
 30
0.0
 11
857.2785149814
 21
1779.2793978663
 31
0.0
  0
LINE
  5
16C
330
1F
100
AcDbEntity
  8
0
  6
Continuous
 62
     7
370
    25
100
AcDbLine
 10
857.3176575759
 20
1794.2293978663
 30
0.0
 11
857.2785149814
 21
1794.2293978663
 31
0.0
  0
LINE
  5
16D
330
1F
100
AcDbEntity
  8
0
  6
Continuous
 62
     7
370
    25
100
AcDbLine
 10
858.1292233787
 20
1866.7543978663
 30
0.0
 11
858.1292233787
 21
1020.2543978663
 31
0.0
  0
LINE
  5
16E
330
1F
100
AcDbEntity
  8
0
  6
Continuous
 62
     7
370
    25
100
AcDbLine
 10
876.1292233787
 20
1866.7543978663
 30
0.0
 11
858.1292233787
 21
1866.7543978663
 31
0.0
  0
LINE
  5
16F
330
1F
100
AcDbEntity
  8
0
  6
Continuous
 62
     7
370
    25
100
AcDbLine
 10
876.1292233787
 20
1866.7543978663
 30
0.0
 11
876.1292233787
 21
986.7543978663
 31
0.0
  0
LINE
  5
170
330
1F
100
AcDbEntity
  8
0
  6
Continuous
 62
     7
370
    25
100
AcDbLine
 10
876.1292233787
 20
986.7543978663
 30
0.0
 11
872.1292233787
 21
986.7543978663
 31
0.0
  0
LINE
  5
171
330
1F
100
AcDbEntity
  8
0
  6
Continuous
 62
     7
370
    25
100
AcDbLine
 10
872.1292233787
 20
999.7543978663
 30
0.0
 11
872.1292233787
 21
986.7543978663
 31
0.0
  0
LINE
  5
172
330
1F
100
AcDbEntity
  8
0
  6
Continuous
 62
     7
370
    25
100
AcDbLine
 10
859.6292233787
 20
999.7543978663
 30
0.0
 11
872.1292233787
 21
999.7543978663
 31
0.0
  0
LINE
  5
173
330
1F
100
AcDbEntity
  8
0
  6
Continuous
 62
     7
370
    25
100
AcDbLine
 10
859.6292233787
 20
1020.2543978663
 30
0.0
 11
859.6292233787
 21
999.7543978663
 31
0.0
  0
LINE
  5
174
330
1F
100
AcDbEntity
  8
0
  6
Continuous
 62
     7
370
    25
100
AcDbLine
 10
858.1292233787
 20
1020.2543978663
 30
0.0
 11
859.6292233787
 21
1020.2543978663
 31
0.0
  0
LINE
  5
175
330
1F
100
AcDbEntity
  8
0
  6
Continuous
 62
     7
370
    25
100
AcDbLine
 10
856.1292233787
 20
1848.2543978663
 30
0.0
 11
856.1292233787
 21
976.7543978663
 31
0.0
  0
LINE
  5
176
330
1F
100
AcDbEntity
  8
0
  6
Continuous
 62
     7
370
    25
100
AcDbLine
 10
856.1292233787
 20
976.7543978663
 30
0.0
 11
477.6292233787
 21
976.7543978663
 31
0.0
  0
LINE
  5
177
330
1F
100
AcDbEntity
  8
0
  6
Continuous
 62
     7
370
    25
100
AcDbLine
 10
477.6292233787
 20
1848.2543978663
 30
0.0
 11
477.6292233787
 21
976.7543978663
 31
0.0
  0
LINE
  5
178
330
1F
100
AcDbEntity
  8
0
  6
Continuous
 62
     7
370
    25
100
AcDbLine
 10
477.6292233787
 20
1876.7543978663
 30
0.0
 11
856.6292233787
 21
1876.7543978663
 31
0.0
  0
LINE
  5
179
330
1F
100
AcDbEntity
  8
0
  6
Continuous
 62
     7
370
    25
100
AcDbLine
 10
856.6292233787
 20
1876.7543978663
 30
0.0
 11
856.6292233787
 21
1848.2543978663
 31
0.0
  0
LINE
  5
17A
330
1F
100
AcDbEntity
  8
0
  6
Continuous
 62
     7
370
    25
100
AcDbLine
 10
477.6292233787
 20
1848.2543978663
 30
0.0
 11
477.6292233787
 21
1876.7543978663
 31
0.0
  0
LINE
  5
17B
330
1F
100
AcDbEntity
  8
0
  6
Continuous
 62
     7
370
    25
100
AcDbLine
 10
856.6292233787
 20
1848.2543978663
 30
0.0
 11
477.6292233787
 21
1848.2543978663
 31
0.0
  0
LINE
  5
17C
330
1F
100
AcDbEntity
  8
0
  6
Continuous
 62
     7
370
    25
100
AcDbLine
 10
475.7954764323
 20
1784.7748720752
 30
0.0
 11
475.6515032166
 21
1779.2767567878
 31
0.0
  0
LINE
  5
17D
330
1F
100
AcDbEntity
  8
0
  6
Continuous
 62
     7
370
    25
100
AcDbLine
 10
474.1805906639
 20
1809.0754720652
 30
0.0
 11
473.6570516978
 21
1789.0823255657
 31
0.0
  0
LINE
  5
17E
330
1F
100
AcDbEntity
  8
0
  6
Continuous
 62
     7
370
    25
100
AcDbLine
 10
472.4907022777
 20
1790.2086561082
 30
0.0
 11
472.9568920992
 21
1808.0117271316
 31
0.0
  0
LINE
  5
17F
330
1F
100
AcDbEntity
  8
0
  6
Continuous
 62
     7
370
    25
100
AcDbLine
 10
474.6764915164
 20
1799.3448871838
 30
0.0
 11
474.9307814413
 21
1809.0558276283
 31
0.0
  0
LINE
  5
180
330
1F
100
AcDbEntity
  8
0
  6
Continuous
 62
     7
370
    25
100
AcDbLine
 10
472.7751043047
 20
1806.4161961367
 30
0.0
 11
472.3926672574
 21
1791.8115145215
 31
0.0
  0
LINE
  5
181
330
1F
100
AcDbEntity
  8
0
  6
Continuous
 62
     7
370
    25
100
AcDbLine
 10
475.4865683072
 20
1803.5393867276
 30
0.0
 11
475.3649024678
 21
1798.8931557708
 31
0.0
  0
LINE
  5
182
330
1F
100
AcDbEntity
  8
0
  6
Continuous
 62
     7
370
    25
100
AcDbLine
 10
475.3649024678
 20
1798.8931557708
 30
0.0
 11
475.250975856
 21
1794.5424739934
 31
0.0
  0
LINE
  5
183
330
1F
100
AcDbEntity
  8
0
  6
Continuous
 62
     7
370
    25
100
AcDbLine
 10
857.9292233787
 20
1814.2543978663
 30
0.0
 11
856.1292233787
 21
1814.2543978663
 31
0.0
  0
LINE
  5
184
330
1F
100
AcDbEntity
  8
0
  6
Continuous
 62
     7
370
    25
100
AcDbLine
 10
857.9292233787
 20
1759.2543978663
 30
0.0
 11
856.1292233787
 21
1759.2543978663
 31
0.0
  0
LINE
  5
185
330
1F
100
AcDbEntity
  8
0
  6
Continuous
 62
     7
370
    25
100
AcDbLine
 10
856.7792233787
 20
1795.1293978663
 30
0.0
 11
856.7792233787
 21
1796.7543978663
 31
0.0
  0
LINE
  5
186
330
1F
100
AcDbEntity
  8
0
  6
Continuous
 62
     7
370
    25
100
AcDbLine
 10
856.7792233787
 20
1776.7543978663
 30
0.0
 11
856.7792233787
 21
1778.3793978663
 31
0.0
  0
LINE
  5
187
330
1F
100
AcDbEntity
  8
0
  6
Continuous
 62
     7
370
    25
100
AcDbLine
 10
857.9292233787
 20
1094.2543978663
 30
0.0
 11
856.1292233787
 21
1094.2543978663
 31
0.0
  0
LINE
  5
188
330
1F
100
AcDbEntity
  8
0
  6
Continuous
 62
     7
370
    25
100
AcDbLine
 10
857.9292233787
 20
1039.2543978663
 30
0.0
 11
856.1292233787
 21
1039.2543978663
 31
0.0
  0
LINE
  5
189
330
1F
100
AcDbEntity
  8
0
  6
Continuous
 62
     7
370
    25
100
AcDbLine
 10
856.7792233787
 20
1075.1293978663
 30
0.0
 11
856.7792233787
 21
1076.7543978663
 31
0.0
  0
LINE
  5
18A
330
1F
100
AcDbEntity
  8
0
  6
Continuous
 62
     7
370
    25
100
AcDbLine
 10
856.7792233787
 20
1056.7543978663
 30
0.0
 11
856.7792233787
 21
1058.3793978663
 31
0.0
  0
LINE
  5
18B
330
1F
100
AcDbEntity
  8
0
  6
Continuous
 62
     7
370
    25
100
AcDbLine
 10
857.9292233787
 20
1454.2543978663
 30
0.0
 11
856.1292233787
 21
1454.2543978663
 31
0.0
  0
LINE
  5
18C
330
1F
100
AcDbEntity
  8
0
  6
Continuous
 62
     7
370
    25
100
AcDbLine
 10
857.9292233787
 20
1399.2543978663
 30
0.0
 11
856.1292233787
 21
1399.2543978663
 31
0.0
  0
LINE
  5
18D
330
1F
100
AcDbEntity
  8
0
  6
Continuous
 62
     7
370
    25
100
AcDbLine
 10
856.7792233787
 20
1435.1293978663
 30
0.0
 11
856.7792233787
 21
1436.7543978663
 31
0.0
  0
LINE
  5
18E
330
1F
100
AcDbEntity
  8
0
  6
Continuous
 62
     7
370
    25
100
AcDbLine
 10
856.7792233787
 20
1416.7543978663
 30
0.0
 11
856.7792233787
 21
1418.3793978663
 31
0.0
  0
LINE
  5
18F
330
1F
100
AcDbEntity
  8
0
  6
Continuous
 62
     7
370
    25
100
AcDbLine
 10
4517.7500479585
 20
1784.7748720752
 30
0.0
 11
4515.9163010121
 21
1784.7268537215
 31
0.0
  0
LINE
  5
190
330
1F
100
AcDbEntity
  8
0
  6
Continuous
 62
     7
370
    25
100
AcDbLine
 10
4515.9163010121
 20
1779.2249683628
 30
0.0
 11
4517.8940211741
 21
1779.2767567878
 31
0.0
  0
ARC
  5
191
330
1F
100
AcDbEntity
  8
0
  6
Continuous
 62
     7
370
    25
100
AcDbCircle
 10
4517.757901043
 20
1784.4749748777
 30
0.0
 40
0.3000000000001092
100
AcDbArc
 50
1.5
 51
91.5
  0
ARC
  5
192
330
1F
100
AcDbEntity
  8
0
  6
Continuous
 62
     7
370
    25
100
AcDbCircle
 10
4517.8861680897
 20
1779.5766539853
 30
0.0
 40
0.3000000000001092
100
AcDbArc
 50
271.5
 51
1.5
  0
LINE
  5
193
330
1F
100
AcDbEntity
  8
0
  6
Continuous
 62
     7
370
    25
100
AcDbLine
 10
4519.1382819156
 20
1789.0626811288
 30
0.0
 11
4519.8884726929
 21
1789.0823255656
 31
0.0
  0
LINE
  5
194
330
1F
100
AcDbEntity
  8
0
  6
Continuous
 62
     7
370
    25
100
AcDbLine
 10
4519.3649337268
 20
1809.0754720652
 30
0.0
 11
4518.6147429495
 21
1809.0558276283
 31
0.0
  0
ARC
  5
195
330
1F
100
AcDbEntity
  8
0
  6
Continuous
 62
     7
370
    25
100
AcDbCircle
 10
4519.133046526
 20
1789.2626125938
 30
0.0
 40
0.2000000000000808
100
AcDbArc
 50
181.4999999999
 51
271.5
  0
ARC
  5
196
330
1F
100
AcDbEntity
  8
0
  6
Continuous
 62
     7
370
    25
100
AcDbCircle
 10
4518.6199783391
 20
1808.8558961633
 30
0.0
 40
0.1999999999998297
100
AcDbArc
 50
91.4999999998
 51
181.5
  0
ARC
  5
197
330
1F
100
AcDbEntity
  8
0
  6
Continuous
 62
     7
370
    25
100
AcDbCircle
 10
4519.857060355
 20
1790.2819143556
 30
0.0
 40
1.200000000000298
100
AcDbArc
 50
271.5
 51
356.5000000032
  0
ARC
  5
198
330
1F
100
AcDbEntity
  8
0
  6
Continuous
 62
     7
370
    25
100
AcDbCircle
 10
4519.3963460648
 20
1807.8758832752
 30
0.0
 40
1.200000000000554
100
AcDbArc
 50
6.4999999967
 51
91.4999999999
  0
LINE
  5
199
330
1F
100
AcDbEntity
  8
0
  6
Continuous
 62
     7
370
    25
100
AcDbLine
 10
4521.0548221131
 20
1790.2086561082
 30
0.0
 11
4521.1528571334
 21
1791.8115145215
 31
0.0
  0
LINE
  5
19A
330
1F
100
AcDbEntity
  8
0
  6
Continuous
 62
     7
370
    25
100
AcDbLine
 10
4520.7704200861
 20
1806.4161961367
 30
0.0
 11
4520.5886322916
 21
1808.0117271316
 31
0.0
  0
ARC
  5
19B
330
1F
100
AcDbEntity
  8
0
  6
Continuous
 62
     7
370
    25
100
AcDbCircle
 10
4491.2088131807
 20
1793.6429707076
 30
0.0
 40
30.00000000000287
100
AcDbArc
 50
356.4999999999
 51
1.4999999999
  0
ARC
  5
19C
330
1F
100
AcDbEntity
  8
0
  6
Continuous
 62
     7
370
    25
100
AcDbCircle
 10
4490.9632644158
 20
1803.0200997237
 30
0.0
 40
30.00000000000258
100
AcDbArc
 50
1.4999999999
 51
6.4999999999
  0
LINE
  5
19D
330
1F
100
AcDbEntity
  8
0
  6
Continuous
 62
     7
370
    25
100
AcDbLine
 10
4521.0782320384
 20
1799.0223848583
 30
0.0
 11
4521.0757585475
 21
1799.1168436648
 31
0.0
  0
SPLINE
  5
19E
330
1F
100
AcDbEntity
  8
0
  6
Continuous
 62
     7
370
    25
100
AcDbSpline
210
0.0
220
0.0
230
1.0
 70
     8
 71
     3
 72
    11
 73
     7
 74
     0
 42
0.00000001
 43
0.00000001
 40
0.0
 40
0.0
 40
0.0
 40
0.0
 40
0.2706712709044435
 40
0.5632120728001712
 40
0.7903891635244985
 40
1.0
 40
1.0
 40
1.0
 40
1.0
 10
4518.294548572448
 20
1794.542472552352
 30
0.0
 10
4518.366361280959
 20
1794.535344805511
 30
0.0
 10
4518.515788977064
 20
1794.52051340852
 30
0.0
 10
4518.687900202777
 20
1794.387093926348
 30
0.0
 10
4518.788951168402
 20
1794.218965531409
 30
0.0
 10
4518.801586985961
 20
1794.103888307106
 30
0.0
 10
4518.807650808066
 20
1794.048663719284
 30
0.0
  0
SPLINE
  5
19F
330
1F
100
AcDbEntity
  8
0
  6
Continuous
 62
     7
370
    25
100
AcDbSpline
210
0.0
220
0.0
230
1.0
 70
     8
 71
     3
 72
    11
 73
     7
 74
     0
 42
0.00000001
 43
0.00000001
 40
0.0
 40
0.0
 40
0.0
 40
0.0
 40
0.269510503598417
 40
0.5617364405775617
 40
0.7894224931279753
 40
1.0
 40
1.0
 40
1.0
 40
1.0
 10
4518.545511127044
 20
1804.059374258501
 30
0.0
 10
4518.539444966037
 20
1803.987784817778
 30
0.0
 10
4518.526801363483
 20
1803.838572089226
 30
0.0
 10
4518.396408797246
 20
1803.664552517792
 30
0.0
 10
4518.229638749764
 20
1803.560590211834
 30
0.0
 10
4518.114350096174
 20
1803.546269373957
 30
0.0
 10
4518.058956037687
 20
1803.539388477127
 30
0.0
  0
LINE
  5
1A0
330
1F
100
AcDbEntity
  8
0
  6
Continuous
 62
     7
370
    25
100
AcDbLine
 10
4515.9163010121
 20
1794.4801959483
 30
0.0
 11
4518.2945485724
 21
1794.5424725523
 31
0.0
  0
LINE
  5
1A1
330
1F
100
AcDbEntity
  8
0
  6
Continuous
 62
     7
370
    25
100
AcDbLine
 10
4518.0589560377
 20
1803.5393884771
 30
0.0
 11
4515.9163010121
 21
1803.4832810807
 31
0.0
  0
SPLINE
  5
1A2
330
1F
100
AcDbEntity
  8
0
  6
Continuous
 62
     7
370
    25
100
AcDbSpline
210
0.0
220
0.0
230
1.0
 70
    24
 71
     3
 72
    12
 73
     8
 74
     0
 42
0.00000001
 43
0.00000001
 40
0.0
 40
0.0
 40
0.0
 40
0.0
 40
0.2460973337390758
 40
0.4921955654196141
 40
0.7383025770441444
 40
0.9844160040482904
 40
0.9999999999999999
 40
0.9999999999999999
 40
0.9999999999999999
 40
0.9999999999999999
 10
4518.121931763797
 20
1782.033667515996
 30
0.0
 10
4518.130161240797
 20
1781.719396468498
 30
0.0
 10
4518.146620224826
 20
1781.090853226814
 30
0.0
 10
4518.167936227936
 20
1780.276827909652
 30
0.0
 10
4518.181476490682
 20
1779.759746136903
 30
0.0
 10
4518.187395967764
 20
1779.53369042725
 30
0.0
 10
4518.185875737426
 20
1779.591745681662
 30
0.0
 10
4518.185785208206
 20
1779.595202853076
 30
0.0
  0
SPLINE
  5
1A3
330
1F
100
AcDbEntity
  8
0
  6
Continuous
 62
     7
370
    25
100
AcDbSpline
210
0.0
220
0.0
230
1.0
 70
     8
 71
     3
 72
    11
 73
     7
 74
     0
 42
0.00000001
 43
0.00000001
 40
0.0
 40
0.0
 40
0.0
 40
0.0
 40
0.2382247349852627
 40
0.4921376904596949
 40
0.7460575595479312
 40
1.0
 40
1.0
 40
1.0
 40
1.0
 10
4518.058072034718
 20
1784.472372180739
 30
0.0
 10
4518.058744419021
 20
1784.446694861225
 30
0.0
 10
4518.060133467299
 20
1784.393649249804
 30
0.0
 10
4518.073671064536
 20
1783.876669251058
 30
0.0
 10
4518.09377165587
 20
1783.109058705194
 30
0.0
 10
4518.110155297262
 20
1782.483392512937
 30
0.0
 10
4518.118347482035
 20
1782.170545513297
 30
0.0
  0
LINE
  5
1A4
330
1F
100
AcDbEntity
  8
0
  6
Continuous
 62
     7
370
    25
100
AcDbLine
 10
4518.118347482
 20
1782.1705455133
 30
0.0
 11
4518.1219317638
 21
1782.033667516
 31
0.0
  0
SPLINE
  5
1A5
330
1F
100
AcDbEntity
  8
0
  6
Continuous
 62
     7
370
    25
100
AcDbSpline
210
0.0
220
0.0
230
1.0
 70
    24
 71
     3
 72
    13
 73
     9
 74
     0
 42
0.00000001
 43
0.00000001
 40
0.0
 40
0.0
 40
0.0
 40
0.0
 40
0.1813201537907938
 40
0.4101468448380624
 40
0.5438150184965149
 40
0.6886421238875816
 40
0.8419966874126962
 40
1.0
 40
1.0
 40
1.0
 40
1.0
 10
4518.676580967555
 20
1799.054018988886
 30
0.0
 10
4518.652354093912
 20
1799.979205966927
 30
0.0
 10
4518.597552817953
 20
1802.071982263415
 30
0.0
 10
4518.531192586931
 20
1804.606177244851
 30
0.0
 10
4518.481221570378
 20
1806.514493376593
 30
0.0
 10
4518.448299481662
 20
1807.771737221525
 30
0.0
 10
4518.425017322936
 20
1808.660846992431
 30
0.0
 10
4518.421725129527
 20
1808.786570786429
 30
0.0
 10
4518.420054455668
 20
1808.850371247079
 30
0.0
  0
SPLINE
  5
1A6
330
1F
100
AcDbEntity
  8
0
  6
Continuous
 62
     7
370
    25
100
AcDbSpline
210
0.0
220
0.0
230
1.0
 70
    24
 71
     3
 72
    13
 73
     9
 74
     0
 42
0.00000001
 43
0.00000001
 40
0.0
 40
0.0
 40
0.0
 40
0.0
 40
0.1538581583652023
 40
0.3079676862452796
 40
0.4535077802385038
 40
0.587834007834562
 40
0.8177872163813505
 40
0.9999999999999999
 40
0.9999999999999999
 40
0.9999999999999999
 40
0.9999999999999999
 10
4518.932881372516
 20
1789.266301405848
 30
0.0
 10
4518.931561895873
 20
1789.316690185941
 30
0.0
 10
4518.928920786859
 20
1789.417550070022
 30
0.0
 10
4518.906694001447
 20
1790.266356760077
 30
0.0
 10
4518.87452599115
 20
1791.494803511992
 30
0.0
 10
4518.825263059563
 20
1793.376078969865
 30
0.0
 10
4518.759443730822
 20
1795.889617726496
 30
0.0
 10
4518.704718667676
 20
1797.979483573086
 30
0.0
 10
4518.680525487551
 20
1798.903383847575
 30
0.0
  0
LINE
  5
1A7
330
1F
100
AcDbEntity
  8
0
  6
Continuous
 62
     7
370
    25
100
AcDbLine
 10
4521.0782320384
 20
1799.0223848582
 30
0.0
 11
4521.19853293
 21
1794.4282791568
 31
0.0
  0
LINE
  5
1A8
330
1F
100
AcDbEntity
  8
0
  6
Continuous
 62
     7
370
    25
100
AcDbLine
 10
4520.952984165
 20
1803.8054081729
 30
0.0
 11
4521.0757585475
 21
1799.1168436648
 31
0.0
  0
SPLINE
  5
1A9
330
1F
100
AcDbEntity
  8
0
  6
Continuous
 62
     7
370
    25
100
AcDbSpline
210
0.0
220
0.0
230
1.0
 70
     8
 71
     3
 72
    11
 73
     7
 74
     0
 42
0.00000001
 43
0.00000001
 40
0.0
 40
0.0
 40
0.0
 40
0.0
 40
0.2702602051691628
 40
0.5624283659902483
 40
0.7897359586727692
 40
1.0
 40
1.0
 40
1.0
 40
1.0
 10
4518.672281383431
 20
1799.218213482242
 30
0.0
 10
4518.663531975718
 20
1799.215656025557
 30
0.0
 10
4518.645323911826
 20
1799.21033379847
 30
0.0
 10
4518.510265639422
 20
1799.20128582409
 30
0.0
 10
4518.342203449889
 20
1799.193677152425
 30
0.0
 10
4518.227838085996
 20
1799.190318953095
 30
0.0
 10
4518.172882687312
 20
1799.188705254885
 30
0.0
  0
SPLINE
  5
1AA
330
1F
100
AcDbEntity
  8
0
  6
Continuous
 62
     7
370
    25
100
AcDbSpline
210
0.0
220
0.0
230
1.0
 70
     8
 71
     3
 72
    10
 73
     6
 74
     0
 42
0.00000001
 43
0.00000001
 40
0.0
 40
0.0
 40
0.0
 40
0.0
 40
0.369868246393256
 40
0.7394183665249191
 40
1.0
 40
1.0
 40
1.0
 40
1.0
 10
4518.400161334802
 20
1798.53160938049
 30
0.0
 10
4518.396941611833
 20
1798.655185441901
 30
0.0
 10
4518.390504935202
 20
1798.902231276091
 30
0.0
 10
4518.381012383301
 20
1799.268343236764
 30
0.0
 10
4518.375485084352
 20
1799.475556144413
 30
0.0
 10
4518.373199351913
 20
1799.56124596665
 30
0.0
  0
LINE
  5
1AB
330
1F
100
AcDbEntity
  8
0
  6
Continuous
 62
     7
370
    25
100
AcDbLine
 10
4121.4163010121
 20
986.7543978663
 30
0.0
 11
4121.6163010121
 21
986.5543978663
 31
0.0
  0
LINE
  5
1AC
330
1F
100
AcDbEntity
  8
0
  6
Continuous
 62
     7
370
    25
100
AcDbLine
 10
4121.6163010121
 20
986.5543978663
 30
0.0
 11
4121.1990893286
 21
986.5543978663
 31
0.0
  0
SPLINE
  5
1AD
330
1F
100
AcDbEntity
  8
0
  6
Continuous
 62
     7
370
    25
100
AcDbSpline
210
0.0
220
0.0
230
1.0
 70
     8
 71
     3
 72
    13
 73
     9
 74
     0
 42
0.00000001
 43
0.00000001
 40
0.0
 40
0.0
 40
0.0
 40
0.0
 40
0.0075029974113226
 40
0.3818974549657843
 40
0.6070018873268582
 40
0.7653769096342224
 40
0.8824605049807476
 40
1.0
 40
1.0
 40
1.0
 40
1.0
 10
4121.1990893286
 20
986.554397866315
 30
0.0
 10
4121.198071551984
 20
986.5548358642101
 30
0.0
 10
4121.146267415845
 20
986.5771296585793
 30
0.0
 10
4121.067682050478
 20
986.624014046795
 30
0.0
 10
4120.985042586445
 20
986.6902984838313
 30
0.0
 10
4120.942946468347
 20
986.728560043004
 30
0.0
 10
4120.920423041511
 20
986.7503158187391
 30
0.0
 10
4120.917683615398
 20
986.7530354222888
 30
0.0
 10
4120.91631124083
 20
986.7543978663149
 30
0.0
  0
ARC
  5
1AE
330
1F
100
AcDbEntity
  8
0
  6
Continuous
 62
     7
370
    25
100
AcDbCircle
 10
4121.4994456096
 20
987.2543978663
 30
0.0
 40
0.7999999999999814
100
AcDbArc
 50
260.4234115189
 51
355.0300534053
  0
LINE
  5
1AF
330
1F
100
AcDbEntity
  8
0
  6
Continuous
 62
     7
370
    25
100
AcDbLine
 10
4122.2964378311
 20
987.1850913096
 30
0.0
 11
4122.4956858865
 21
987.1677646704
 31
0.0
  0
ARC
  5
1B0
330
1F
100
AcDbEntity
  8
0
  6
Continuous
 62
     7
370
    25
100
AcDbCircle
 10
4121.4994456096
 20
987.2543978663
 30
0.0
 40
1.000000000000051
100
AcDbArc
 50
260.4234115189
 51
355.0300534053
  0
LINE
  5
1B1
330
1F
100
AcDbEntity
  8
0
  6
Continuous
 62
     7
370
    25
100
AcDbLine
 10
4121.3663529321
 20
986.4655465881
 30
0.0
 11
4121.3330797627
 21
986.2683337685
 31
0.0
  0
ARC
  5
1B2
330
1F
100
AcDbEntity
  8
0
  6
Continuous
 62
     7
370
    25
100
AcDbCircle
 10
4121.4162626861
 20
986.7613658174
 30
0.0
 40
0.2999999999998998
100
AcDbArc
 50
223.6216529673
 51
260.4234115189
  0
ARC
  5
1B3
330
1F
100
AcDbEntity
  8
0
  6
Continuous
 62
     7
370
    25
100
AcDbCircle
 10
4121.4162626861
 20
986.7613658174
 30
0.0
 40
0.5000000000001907
100
AcDbArc
 50
180.7984942261
 51
260.4234115189
  0
LINE
  5
1B4
330
1F
100
AcDbEntity
  8
0
  6
Continuous
 62
     7
370
    25
100
AcDbLine
 10
4121.4163010121
 20
999.7543978663
 30
0.0
 11
4121.6163010121
 21
999.5543978663
 31
0.0
  0
LINE
  5
1B5
330
1F
100
AcDbEntity
  8
0
  6
Continuous
 62
     7
370
    25
100
AcDbLine
 10
4121.6163010121
 20
999.5543978663
 30
0.0
 11
4121.6163010121
 21
986.5543978663
 31
0.0
  0
LINE
  5
1B6
330
1F
100
AcDbEntity
  8
0
  6
Continuous
 62
     7
370
    25
100
AcDbLine
 10
4122.2964378311
 20
987.1850913096
 30
0.0
 11
4123.1376264497
 21
996.8583577014
 31
0.0
  0
LINE
  5
1B7
330
1F
100
AcDbEntity
  8
0
  6
Continuous
 62
     7
370
    25
100
AcDbLine
 10
4123.1376264497
 20
996.8583577014
 30
0.0
 11
4123.3368745051
 21
996.8410310622
 31
0.0
  0
LINE
  5
1B8
330
1F
100
AcDbEntity
  8
0
  6
Continuous
 62
     7
370
    25
100
AcDbLine
 10
4123.3368745051
 20
996.8410310622
 30
0.0
 11
4122.4956858865
 21
987.1677646704
 31
0.0
  0
ARC
  5
1B9
330
1F
100
AcDbEntity
  8
0
  6
Continuous
 62
     7
370
    25
100
AcDbCircle
 10
4124.333114782
 20
996.7543978663
 30
0.0
 40
1.200000000000045
100
AcDbArc
 50
90.0
 51
175.0300534053
  0
LINE
  5
1BA
330
1F
100
AcDbEntity
  8
0
  6
Continuous
 62
     7
370
    25
100
AcDbLine
 10
4134.1163010121
 20
999.5543978663
 30
0.0
 11
4121.6163010121
 21
999.5543978663
 31
0.0
  0
LINE
  5
1BB
330
1F
100
AcDbEntity
  8
0
  6
Continuous
 62
     7
370
    25
100
AcDbLine
 10
4134.1163010121
 20
1019.5543978663
 30
0.0
 11
4134.1163010121
 21
999.5543978663
 31
0.0
  0
LINE
  5
1BC
330
1F
100
AcDbEntity
  8
0
  6
Continuous
 62
     7
370
    25
100
AcDbLine
 10
4135.5163010121
 20
1019.5543978663
 30
0.0
 11
4134.1163010121
 21
1019.5543978663
 31
0.0
  0
LINE
  5
1BD
330
1F
100
AcDbEntity
  8
0
  6
Continuous
 62
     7
370
    25
100
AcDbLine
 10
4135.5163010121
 20
998.7543978663
 30
0.0
 11
4135.5163010121
 21
1019.5543978663
 31
0.0
  0
ARC
  5
1BE
330
1F
100
AcDbEntity
  8
0
  6
Continuous
 62
     7
370
    25
100
AcDbCircle
 10
4134.7163010121
 20
998.7543978663
 30
0.0
 40
0.8000000000001819
100
AcDbArc
 50
270.0
 51
0.0
  0
LINE
  5
1BF
330
1F
100
AcDbEntity
  8
0
  6
Continuous
 62
     7
370
    25
100
AcDbLine
 10
4124.333114782
 20
997.9543978663
 30
0.0
 11
4134.7163010121
 21
997.9543978663
 31
0.0
  0
LINE
  5
1C0
330
1F
100
AcDbEntity
  8
0
  6
Continuous
 62
     7
370
    25
100
AcDbLine
 10
4135.7163010121
 20
998.7543978663
 30
0.0
 11
4135.5163010121
 21
998.7543978663
 31
0.0
  0
ARC
  5
1C1
330
1F
100
AcDbEntity
  8
0
  6
Continuous
 62
     7
370
    25
100
AcDbCircle
 10
4134.7163010121
 20
998.7543978663
 30
0.0
 40
1.0
100
AcDbArc
 50
270.0
 51
0.0
  0
LINE
  5
1C2
330
1F
100
AcDbEntity
  8
0
  6
Continuous
 62
     7
370
    25
100
AcDbLine
 10
4134.7163010121
 20
997.9543978663
 30
0.0
 11
4134.7163010121
 21
997.7543978663
 31
0.0
  0
LINE
  5
1C3
330
1F
100
AcDbEntity
  8
0
  6
Continuous
 62
     7
370
    25
100
AcDbLine
 10
4133.9163010121
 20
1019.7543978663
 30
0.0
 11
4134.1163010121
 21
1019.5543978663
 31
0.0
  0
LINE
  5
1C4
330
1F
100
AcDbEntity
  8
0
  6
Continuous
 62
     7
370
    25
100
AcDbLine
 10
4133.9163010121
 20
999.7543978663
 30
0.0
 11
4134.1163010121
 21
999.5543978663
 31
0.0
  0
LINE
  5
1C5
330
1F
100
AcDbEntity
  8
0
  6
Continuous
 62
     7
370
    25
100
AcDbLine
 10
4135.7163010121
 20
1019.5543978663
 30
0.0
 11
4135.7163010121
 21
998.7543978663
 31
0.0
  0
LINE
  5
1C6
330
1F
100
AcDbEntity
  8
0
  6
Continuous
 62
     7
370
    25
100
AcDbLine
 10
4135.7163010121
 20
1019.5543978663
 30
0.0
 11
4135.5163010121
 21
1019.5543978663
 31
0.0
  0
LINE
  5
1C7
330
1F
100
AcDbEntity
  8
0
  6
Continuous
 62
     7
370
    25
100
AcDbLine
 10
4124.333114782
 20
997.9543978663
 30
0.0
 11
4124.333114782
 21
997.7543978663
 31
0.0
  0
ARC
  5
1C8
330
1F
100
AcDbEntity
  8
0
  6
Continuous
 62
     7
370
    25
100
AcDbCircle
 10
4124.333114782
 20
996.7543978663
 30
0.0
 40
1.000000000000424
100
AcDbArc
 50
90.0
 51
175.0300534053
  0
LINE
  5
1C9
330
1F
100
AcDbEntity
  8
0
  6
Continuous
 62
     7
370
    25
100
AcDbLine
 10
4135.5163010121
 20
1019.7543978663
 30
0.0
 11
4135.5163010121
 21
1019.5543978663
 31
0.0
  0
ARC
  5
1CA
330
1F
100
AcDbEntity
  8
0
  6
Continuous
 62
     7
370
    25
100
AcDbCircle
 10
4135.5163010121
 20
1019.5543978663
 30
0.0
 40
0.1999999999999318
100
AcDbArc
 50
0.0
 51
90.0
  0
LINE
  5
1CB
330
1F
100
AcDbEntity
  8
0
  6
Continuous
 62
     7
370
    25
100
AcDbLine
 10
4133.9163010121
 20
1019.7543978663
 30
0.0
 11
4135.5163010121
 21
1019.7543978663
 31
0.0
  0
LINE
  5
1CC
330
1F
100
AcDbEntity
  8
0
  6
Continuous
 62
     7
370
    25
100
AcDbLine
 10
4134.7163010121
 20
997.7543978663
 30
0.0
 11
4124.333114782
 21
997.7543978663
 31
0.0
  0
LINE
  5
1CD
330
1F
100
AcDbEntity
  8
0
  6
Continuous
 62
     7
370
    25
100
AcDbLine
 10
4136.6163010121
 20
1834.0543978663
 30
0.0
 11
4136.6163010121
 21
1835.2543978663
 31
0.0
  0
LINE
  5
1CE
330
1F
100
AcDbEntity
  8
0
  6
Continuous
 62
     7
370
    25
100
AcDbLine
 10
4136.6163010121
 20
1834.0543978663
 30
0.0
 11
4137.4163010121
 21
1834.0543978663
 31
0.0
  0
LINE
  5
1CF
330
1F
100
AcDbEntity
  8
0
  6
Continuous
 62
     7
370
    25
100
AcDbLine
 10
4136.6163010121
 20
1835.2543978663
 30
0.0
 11
4137.4163010121
 21
1835.2543978663
 31
0.0
  0
LINE
  5
1D0
330
1F
100
AcDbEntity
  8
0
  6
Continuous
 62
     7
370
    25
100
AcDbLine
 10
4135.4163010121
 20
1834.0543978663
 30
0.0
 11
4136.6163010121
 21
1834.0543978663
 31
0.0
  0
LINE
  5
1D1
330
1F
100
AcDbEntity
  8
0
  6
Continuous
 62
     7
370
    25
100
AcDbLine
 10
4135.4163010121
 20
1835.2543978663
 30
0.0
 11
4136.6163010121
 21
1835.2543978663
 31
0.0
  0
LINE
  5
1D2
330
1F
100
AcDbEntity
  8
0
  6
Continuous
 62
     7
370
    25
100
AcDbLine
 10
4136.6163010121
 20
1816.2543978663
 30
0.0
 11
4136.6163010121
 21
1834.0543978663
 31
0.0
  0
LINE
  5
1D3
330
1F
100
AcDbEntity
  8
0
  6
Continuous
 62
     7
370
    25
100
AcDbLine
 10
4135.4163010121
 20
1816.2543978663
 30
0.0
 11
4136.6163010121
 21
1816.2543978663
 31
0.0
  0
LINE
  5
1D4
330
1F
100
AcDbEntity
  8
0
  6
Continuous
 62
     7
370
    25
100
AcDbLine
 10
4136.6163010121
 20
1813.2543978663
 30
0.0
 11
4135.4163010121
 21
1813.2543978663
 31
0.0
  0
LINE
  5
1D5
330
1F
100
AcDbEntity
  8
0
  6
Continuous
 62
     7
370
    25
100
AcDbLine
 10
4136.6163010121
 20
1816.2543978663
 30
0.0
 11
4136.6163010121
 21
1813.2543978663
 31
0.0
  0
SPLINE
  5
1D6
330
1F
100
AcDbEntity
  8
0
  6
Continuous
 62
     7
370
    25
100
AcDbSpline
210
0.0
220
0.0
230
1.0
 70
    24
 71
     3
 72
    12
 73
     8
 74
     0
 42
0.00000001
 43
0.00000001
 40
0.0
 40
0.0
 40
0.0
 40
0.0
 40
0.1234882189602918
 40
0.304757477606116
 40
0.4857888495154006
 40
0.6670582153978845
 40
1.0
 40
1.0
 40
1.0
 40
1.0
 10
4137.416301012057
 20
1758.254397866312
 30
0.0
 10
4137.37655444302
 20
1758.254397866312
 30
0.0
 10
4137.278463594963
 20
1758.254397866312
 30
0.0
 10
4137.038490306603
 20
1758.254397866312
 30
0.0
 10
4136.722876118108
 20
1758.254397866312
 30
0.0
 10
4136.255966029006
 20
1758.254397866312
 30
0.0
 10
4135.867697428768
 20
1758.254397866312
 30
0.0
 10
4135.61630101205
 20
1758.254397866313
 30
0.0
  0
LINE
  5
1D7
330
1F
100
AcDbEntity
  8
0
  6
Continuous
 62
     7
370
    25
100
AcDbLine
 10
4135.6163010121
 20
1759.2543978663
 30
0.0
 11
4135.6163010121
 21
1758.2543978663
 31
0.0
  0
SPLINE
  5
1D8
330
1F
100
AcDbEntity
  8
0
  6
Continuous
 62
     7
370
    25
100
AcDbSpline
210
0.0
220
0.0
230
1.0
 70
    24
 71
     3
 72
    11
 73
     7
 74
     0
 42
0.00000001
 43
0.00000001
 40
0.0
 40
0.0
 40
0.0
 40
0.0
 40
0.0916613905670253
 40
0.4304264786872302
 40
0.7687469921361463
 40
1.0
 40
1.0
 40
1.0
 40
1.0
 10
4136.61630101206
 20
1815.254397866311
 30
0.0
 10
4136.649366844539
 20
1815.254397866311
 30
0.0
 10
4136.804638434365
 20
1815.254397866311
 30
0.0
 10
4137.036178632067
 20
1815.254397866311
 30
0.0
 10
4137.278690659663
 20
1815.254397866311
 30
0.0
 10
4137.376563557384
 20
1815.254397866311
 30
0.0
 10
4137.416301012057
 20
1815.254397866311
 30
0.0
  0
LINE
  5
1D9
330
1F
100
AcDbEntity
  8
0
  6
Continuous
 62
     7
370
    25
100
AcDbLine
 10
4135.4163010121
 20
1759.2543978663
 30
0.0
 11
4135.6163010121
 21
1759.2543978663
 31
0.0
  0
LINE
  5
1DA
330
1F
100
AcDbEntity
  8
0
  6
Continuous
 62
     7
370
    25
100
AcDbLine
 10
4135.416301012
 20
1758.2543978663
 30
0.0
 11
4135.6163010121
 21
1758.2543978663
 31
0.0
  0
SPLINE
  5
1DB
330
1F
100
AcDbEntity
  8
0
  6
Continuous
 62
     7
370
    25
100
AcDbSpline
210
0.0
220
0.0
230
1.0
 70
    24
 71
     3
 72
    12
 73
     8
 74
     0
 42
0.00000001
 43
0.00000001
 40
0.0
 40
0.0
 40
0.0
 40
0.0
 40
0.1234882189617473
 40
0.304757477607269
 40
0.4857888495162539
 40
0.6670582153984362
 40
1.0
 40
1.0
 40
1.0
 40
1.0
 10
4137.416301012059
 20
1038.254397866312
 30
0.0
 10
4137.376554443021
 20
1038.254397866312
 30
0.0
 10
4137.278463594963
 20
1038.254397866312
 30
0.0
 10
4137.038490306602
 20
1038.254397866312
 30
0.0
 10
4136.722876118107
 20
1038.254397866312
 30
0.0
 10
4136.255966029006
 20
1038.254397866312
 30
0.0
 10
4135.867697428767
 20
1038.254397866312
 30
0.0
 10
4135.616301012049
 20
1038.254397866313
 30
0.0
  0
LINE
  5
1DC
330
1F
100
AcDbEntity
  8
0
  6
Continuous
 62
     7
370
    25
100
AcDbLine
 10
4135.6163010121
 20
1039.2543978663
 30
0.0
 11
4135.616301012
 21
1038.2543978663
 31
0.0
  0
LINE
  5
1DD
330
1F
100
AcDbEntity
  8
0
  6
Continuous
 62
     7
370
    25
100
AcDbLine
 10
4135.6163010121
 20
1095.2543978663
 30
0.0
 11
4135.6163010121
 21
1094.2543978663
 31
0.0
  0
SPLINE
  5
1DE
330
1F
100
AcDbEntity
  8
0
  6
Continuous
 62
     7
370
    25
100
AcDbSpline
210
0.0
220
0.0
230
1.0
 70
    24
 71
     3
 72
    12
 73
     8
 74
     0
 42
0.00000001
 43
0.00000001
 40
0.0
 40
0.0
 40
0.0
 40
0.0
 40
0.3329369653767262
 40
0.5139656098173508
 40
0.695232244648488
 40
0.8762609961869788
 40
1.0
 40
1.0
 40
1.0
 40
1.0
 10
4135.616301012054
 20
1095.254397866311
 30
0.0
 10
4135.867698425196
 20
1095.254397866311
 30
0.0
 10
4136.255788779197
 20
1095.254397866311
 30
0.0
 10
4136.722718048871
 20
1095.254397866311
 30
0.0
 10
4137.038236937892
 20
1095.254397866311
 30
0.0
 10
4137.278361156405
 20
1095.254397866311
 30
0.0
 10
4137.376468407415
 20
1095.254397866311
 30
0.0
 10
4137.416301012059
 20
1095.254397866311
 30
0.0
  0
LINE
  5
1DF
330
1F
100
AcDbEntity
  8
0
  6
Continuous
 62
     7
370
    25
100
AcDbLine
 10
4135.6163010121
 20
1039.2543978663
 30
0.0
 11
4135.6163010121
 21
1094.2543978663
 31
0.0
  0
LINE
  5
1E0
330
1F
100
AcDbEntity
  8
0
  6
Continuous
 62
     7
370
    25
100
AcDbLine
 10
4135.4163010121
 20
1094.2543978663
 30
0.0
 11
4135.6163010121
 21
1094.2543978663
 31
0.0
  0
LINE
  5
1E1
330
1F
100
AcDbEntity
  8
0
  6
Continuous
 62
     7
370
    25
100
AcDbLine
 10
4135.416301012
 20
1039.2543978663
 30
0.0
 11
4135.6163010121
 21
1039.2543978663
 31
0.0
  0
LINE
  5
1E2
330
1F
100
AcDbEntity
  8
0
  6
Continuous
 62
     7
370
    25
100
AcDbLine
 10
4135.416301012
 20
1038.2543978663
 30
0.0
 11
4135.616301012
 21
1038.2543978663
 31
0.0
  0
LINE
  5
1E3
330
1F
100
AcDbEntity
  8
0
  6
Continuous
 62
     7
370
    25
100
AcDbLine
 10
4135.6163010121
 20
1095.2543978663
 30
0.0
 11
4135.4163010121
 21
1095.2543978663
 31
0.0
  0
SPLINE
  5
1E4
330
1F
100
AcDbEntity
  8
0
  6
Continuous
 62
     7
370
    25
100
AcDbSpline
210
0.0
220
0.0
230
1.0
 70
    24
 71
     3
 72
    12
 73
     8
 74
     0
 42
0.00000001
 43
0.00000001
 40
0.0
 40
0.0
 40
0.0
 40
0.0
 40
0.1234882189617471
 40
0.3047574776072708
 40
0.4857888495162553
 40
0.6670582153984372
 40
0.9999999999999999
 40
0.9999999999999999
 40
0.9999999999999999
 40
0.9999999999999999
 10
4137.416301012059
 20
1398.254397866312
 30
0.0
 10
4137.376554443021
 20
1398.254397866312
 30
0.0
 10
4137.278463594963
 20
1398.254397866312
 30
0.0
 10
4137.038490306602
 20
1398.254397866312
 30
0.0
 10
4136.722876118107
 20
1398.254397866312
 30
0.0
 10
4136.255966029006
 20
1398.254397866312
 30
0.0
 10
4135.867697428767
 20
1398.254397866313
 30
0.0
 10
4135.616301012049
 20
1398.254397866313
 30
0.0
  0
LINE
  5
1E5
330
1F
100
AcDbEntity
  8
0
  6
Continuous
 62
     7
370
    25
100
AcDbLine
 10
4135.6163010121
 20
1399.2543978663
 30
0.0
 11
4135.616301012
 21
1398.2543978663
 31
0.0
  0
LINE
  5
1E6
330
1F
100
AcDbEntity
  8
0
  6
Continuous
 62
     7
370
    25
100
AcDbLine
 10
4135.6163010121
 20
1455.2543978663
 30
0.0
 11
4135.6163010121
 21
1454.2543978663
 31
0.0
  0
SPLINE
  5
1E7
330
1F
100
AcDbEntity
  8
0
  6
Continuous
 62
     7
370
    25
100
AcDbSpline
210
0.0
220
0.0
230
1.0
 70
    24
 71
     3
 72
    12
 73
     8
 74
     0
 42
0.00000001
 43
0.00000001
 40
0.0
 40
0.0
 40
0.0
 40
0.0
 40
0.3329369653767257
 40
0.5139656098173487
 40
0.6952322446484857
 40
0.8762609961869762
 40
1.0
 40
1.0
 40
1.0
 40
1.0
 10
4135.616301012054
 20
1455.254397866312
 30
0.0
 10
4135.867698425196
 20
1455.254397866312
 30
0.0
 10
4136.255788779197
 20
1455.254397866311
 30
0.0
 10
4136.722718048871
 20
1455.254397866311
 30
0.0
 10
4137.038236937892
 20
1455.254397866311
 30
0.0
 10
4137.278361156405
 20
1455.254397866311
 30
0.0
 10
4137.376468407415
 20
1455.254397866311
 30
0.0
 10
4137.416301012059
 20
1455.254397866311
 30
0.0
  0
LINE
  5
1E8
330
1F
100
AcDbEntity
  8
0
  6
Continuous
 62
     7
370
    25
100
AcDbLine
 10
4135.6163010121
 20
1399.2543978663
 30
0.0
 11
4135.6163010121
 21
1454.2543978663
 31
0.0
  0
LINE
  5
1E9
330
1F
100
AcDbEntity
  8
0
  6
Continuous
 62
     7
370
    25
100
AcDbLine
 10
4135.4163010121
 20
1454.2543978663
 30
0.0
 11
4135.6163010121
 21
1454.2543978663
 31
0.0
  0
LINE
  5
1EA
330
1F
100
AcDbEntity
  8
0
  6
Continuous
 62
     7
370
    25
100
AcDbLine
 10
4135.416301012
 20
1399.2543978663
 30
0.0
 11
4135.6163010121
 21
1399.2543978663
 31
0.0
  0
LINE
  5
1EB
330
1F
100
AcDbEntity
  8
0
  6
Continuous
 62
     7
370
    25
100
AcDbLine
 10
4135.416301012
 20
1398.2543978663
 30
0.0
 11
4135.616301012
 21
1398.2543978663
 31
0.0
  0
LINE
  5
1EC
330
1F
100
AcDbEntity
  8
0
  6
Continuous
 62
     7
370
    25
100
AcDbLine
 10
4135.6163010121
 20
1455.2543978663
 30
0.0
 11
4135.4163010121
 21
1455.2543978663
 31
0.0
  0
LINE
  5
1ED
330
1F
100
AcDbEntity
  8
0
  6
Continuous
 62
     7
370
    25
100
AcDbLine
 10
4133.9163010121
 20
999.7543978663
 30
0.0
 11
4133.9163010121
 21
1020.2543978663
 31
0.0
  0
LINE
  5
1EE
330
1F
100
AcDbEntity
  8
0
  6
Continuous
 62
     7
370
    25
100
AcDbLine
 10
4121.4163010121
 20
999.7543978663
 30
0.0
 11
4133.9163010121
 21
999.7543978663
 31
0.0
  0
LINE
  5
1EF
330
1F
100
AcDbEntity
  8
0
  6
Continuous
 62
     7
370
    25
100
AcDbLine
 10
4121.4163010121
 20
986.7543978663
 30
0.0
 11
4121.4163010121
 21
999.7543978663
 31
0.0
  0
LINE
  5
1F0
330
1F
100
AcDbEntity
  8
0
  6
Continuous
 62
     7
370
    25
100
AcDbLine
 10
4117.4163010121
 20
986.7543978663
 30
0.0
 11
4121.4163010121
 21
986.7543978663
 31
0.0
  0
LINE
  5
1F1
330
1F
100
AcDbEntity
  8
0
  6
Continuous
 62
     7
370
    25
100
AcDbLine
 10
4117.4163010121
 20
986.7543978663
 30
0.0
 11
4117.4163010121
 21
1866.7543978663
 31
0.0
  0
LINE
  5
1F2
330
1F
100
AcDbEntity
  8
0
  6
Continuous
 62
     7
370
    25
100
AcDbLine
 10
4117.4163010121
 20
1866.7543978663
 30
0.0
 11
4135.4163010121
 21
1866.7543978663
 31
0.0
  0
LINE
  5
1F3
330
1F
100
AcDbEntity
  8
0
  6
Continuous
 62
     7
370
    25
100
AcDbLine
 10
4135.4163010121
 20
1020.2543978663
 30
0.0
 11
4135.4163010121
 21
1866.7543978663
 31
0.0
  0
LINE
  5
1F4
330
1F
100
AcDbEntity
  8
0
  6
Continuous
 62
     7
370
    25
100
AcDbLine
 10
4133.9163010121
 20
1020.2543978663
 30
0.0
 11
4135.4163010121
 21
1020.2543978663
 31
0.0
  0
LINE
  5
1F5
330
1F
100
AcDbEntity
  8
0
  6
Continuous
 62
     7
370
    25
100
AcDbLine
 10
4137.4163010121
 20
976.7543978663
 30
0.0
 11
4515.9163010121
 21
976.7543978663
 31
0.0
  0
LINE
  5
1F6
330
1F
100
AcDbEntity
  8
0
  6
Continuous
 62
     7
370
    25
100
AcDbLine
 10
4137.4163010121
 20
976.7543978663
 30
0.0
 11
4137.4163010121
 21
1848.2543978663
 31
0.0
  0
LINE
  5
1F7
330
1F
100
AcDbEntity
  8
0
  6
Continuous
 62
     7
370
    25
100
AcDbLine
 10
4515.9163010121
 20
976.7543978663
 30
0.0
 11
4515.9163010121
 21
1848.2543978663
 31
0.0
  0
LINE
  5
1F8
330
1F
100
AcDbEntity
  8
0
  6
Continuous
 62
     7
370
    25
100
AcDbLine
 10
4136.9163010121
 20
1876.7543978663
 30
0.0
 11
4136.9163010121
 21
1848.2543978663
 31
0.0
  0
LINE
  5
1F9
330
1F
100
AcDbEntity
  8
0
  6
Continuous
 62
     7
370
    25
100
AcDbLine
 10
4515.9163010121
 20
1876.7543978663
 30
0.0
 11
4136.9163010121
 21
1876.7543978663
 31
0.0
  0
LINE
  5
1FA
330
1F
100
AcDbEntity
  8
0
  6
Continuous
 62
     7
370
    25
100
AcDbLine
 10
4515.9163010121
 20
1848.2543978663
 30
0.0
 11
4515.9163010121
 21
1876.7543978663
 31
0.0
  0
LINE
  5
1FB
330
1F
100
AcDbEntity
  8
0
  6
Continuous
 62
     7
370
    25
100
AcDbLine
 10
4136.9163010121
 20
1848.2543978663
 30
0.0
 11
4515.9163010121
 21
1848.2543978663
 31
0.0
  0
LINE
  5
1FC
330
1F
100
AcDbEntity
  8
0
  6
Continuous
 62
     7
370
    25
100
AcDbLine
 10
4517.8940211741
 20
1779.2767567878
 30
0.0
 11
4517.7500479585
 21
1784.7748720752
 31
0.0
  0
LINE
  5
1FD
330
1F
100
AcDbEntity
  8
0
  6
Continuous
 62
     7
370
    25
100
AcDbLine
 10
4518.8843458927
 20
1798.7601066029
 30
0.0
 11
4519.1382819156
 21
1789.0626811288
 31
0.0
  0
LINE
  5
1FE
330
1F
100
AcDbEntity
  8
0
  6
Continuous
 62
     7
370
    25
100
AcDbLine
 10
4519.8884726929
 20
1789.0823255656
 30
0.0
 11
4519.3649337268
 21
1809.0754720652
 31
0.0
  0
LINE
  5
1FF
330
1F
100
AcDbEntity
  8
0
  6
Continuous
 62
     7
370
    25
100
AcDbLine
 10
4520.5886322916
 20
1808.0117271316
 30
0.0
 11
4521.0548221131
 21
1790.2086561082
 31
0.0
  0
LINE
  5
200
330
1F
100
AcDbEntity
  8
0
  6
Continuous
 62
     7
370
    25
100
AcDbLine
 10
4521.1528571334
 20
1791.8115145215
 30
0.0
 11
4520.7704200861
 21
1806.4161961367
 31
0.0
  0
LINE
  5
201
330
1F
100
AcDbEntity
  8
0
  6
Continuous
 62
     7
370
    25
100
AcDbLine
 10
4518.2945485266
 20
1794.5424743019
 30
0.0
 11
4518.1728826872
 21
1799.1887052586
 31
0.0
  0
LINE
  5
202
330
1F
100
AcDbEntity
  8
0
  6
Continuous
 62
     7
370
    25
100
AcDbLine
 10
4518.1728826872
 20
1799.1887052586
 30
0.0
 11
4518.0589560754
 21
1803.539387036
 31
0.0
  0
LINE
  5
203
330
1F
100
AcDbEntity
  8
0
  6
Continuous
 62
     7
370
    25
100
AcDbLine
 10
4135.6163010121
 20
1759.2543978663
 30
0.0
 11
4137.4163010121
 21
1759.2543978663
 31
0.0
  0
LINE
  5
204
330
1F
100
AcDbEntity
  8
0
  6
Continuous
 62
     7
370
    25
100
AcDbLine
 10
4137.4163010121
 20
1814.2543978663
 30
0.0
 11
4136.6163010121
 21
1814.2543978663
 31
0.0
  0
LINE
  5
205
330
1F
100
AcDbEntity
  8
0
  6
Continuous
 62
     7
370
    25
100
AcDbLine
 10
4135.6163010121
 20
1759.2543978663
 30
0.0
 11
4135.6163010121
 21
1813.2543978663
 31
0.0
  0
LINE
  5
206
330
1F
100
AcDbEntity
  8
0
  6
Continuous
 62
     7
370
    25
100
AcDbLine
 10
4135.6163010121
 20
1039.2543978663
 30
0.0
 11
4137.4163010121
 21
1039.2543978663
 31
0.0
  0
LINE
  5
207
330
1F
100
AcDbEntity
  8
0
  6
Continuous
 62
     7
370
    25
100
AcDbLine
 10
4137.4163010121
 20
1094.2543978663
 30
0.0
 11
4135.6163010121
 21
1094.2543978663
 31
0.0
  0
LINE
  5
208
330
1F
100
AcDbEntity
  8
0
  6
Continuous
 62
     7
370
    25
100
AcDbLine
 10
4135.6163010121
 20
1399.2543978663
 30
0.0
 11
4137.4163010121
 21
1399.2543978663
 31
0.0
  0
LINE
  5
209
330
1F
100
AcDbEntity
  8
0
  6
Continuous
 62
     7
370
    25
100
AcDbLine
 10
4137.4163010121
 20
1454.2543978663
 30
0.0
 11
4135.6163010121
 21
1454.2543978663
 31
0.0
  0
SPLINE
  5
20A
330
1F
100
AcDbEntity
  8
0
  6
Continuous
 62
     7
370
    25
100
AcDbSpline
210
0.0
220
0.0
230
1.0
 70
     8
 71
     3
 72
    16
 73
    12
 74
     0
 42
0.00000001
 43
0.00000001
 40
0.0
 40
0.0
 40
0.0
 40
0.0
 40
0.0490847390187439
 40
0.1518473045647042
 40
0.2358684990992601
 40
0.3090519161655127
 40
0.3734786142110945
 40
0.4370328180328396
 40
0.5258016248251247
 40
0.7068629655468527
 40
0.9999999999999999
 40
0.9999999999999999
 40
0.9999999999999999
 40
0.9999999999999999
 10
2241.425074168674
 20
2753.664749109272
 30
0.0
 10
2241.429765765408
 20
2753.730939501492
 30
0.0
 10
2241.444279570157
 20
2753.935704421256
 30
0.0
 10
2241.317101818787
 20
2754.239921080902
 30
0.0
 10
2241.112885409261
 20
2754.515984719924
 30
0.0
 10
2240.891873803395
 20
2754.689323194564
 30
0.0
 10
2240.700107235653
 20
2754.786327207066
 30
0.0
 10
2240.542893347469
 20
2754.840400572423
 30
0.0
 10
2240.377542172415
 20
2754.879033393795
 30
0.0
 10
2240.18182823749
 20
2754.908770279315
 30
0.0
 10
2239.954213845383
 20
2754.925985948586
 30
0.0
 10
2239.81350858068
 20
2754.936628225111
 30
0.0
  0
SPLINE
  5
20B
330
1F
100
AcDbEntity
  8
0
  6
Continuous
 62
     7
370
    25
100
AcDbSpline
210
0.0
220
0.0
230
1.0
 70
     8
 71
     3
 72
    14
 73
    10
 74
     0
 42
0.00000001
 43
0.00000001
 40
0.0
 40
0.0
 40
0.0
 40
0.0
 40
0.4380448777707705
 40
0.588907202115623
 40
0.6648524542794919
 40
0.7505291071917491
 40
0.8517030556681087
 40
0.9620267314756121
 40
1.0
 40
1.0
 40
1.0
 40
1.0
 10
2223.029691039084
 20
2754.935504543185
 30
0.0
 10
2222.857587419205
 20
2754.920813519866
 30
0.0
 10
2222.626211442906
 20
2754.901062919236
 30
0.0
 10
2222.326901395453
 20
2754.840915253046
 30
0.0
 10
2222.053382146909
 20
2754.724397548356
 30
0.0
 10
2221.789180317125
 20
2754.534471220179
 30
0.0
 10
2221.560956382531
 20
2754.221975085901
 30
0.0
 10
2221.4369103925
 20
2753.900010100722
 30
0.0
 10
2221.458389890539
 20
2753.704696279349
 30
0.0
 10
2221.46388998193
 20
2753.654683757386
 30
0.0
  0
LINE
  5
20C
330
1F
100
AcDbEntity
  8
0
  6
Continuous
 62
     7
370
    25
100
AcDbLine
 10
2241.4454585654
 20
2752.914092518
 30
0.0
 11
2241.4454585654
 21
2753.6642832953
 31
0.0
  0
LINE
  5
20D
330
1F
100
AcDbEntity
  8
0
  6
Continuous
 62
     7
370
    25
100
AcDbLine
 10
2221.4454585654
 20
2753.6642832953
 30
0.0
 11
2221.4454585654
 21
2752.914092518
 31
0.0
  0
LINE
  5
20E
330
1F
100
AcDbEntity
  8
0
  6
Continuous
 62
     7
370
    25
100
AcDbLine
 10
2239.9418327899
 20
2754.9290740988
 30
0.0
 11
2238.4154268517
 21
2755.0564516333
 31
0.0
  0
LINE
  5
20F
330
1F
100
AcDbEntity
  8
0
  6
Continuous
 62
     7
370
    25
100
AcDbLine
 10
2224.475490279
 20
2755.0564516333
 30
0.0
 11
2222.9490843408
 21
2754.9290740988
 31
0.0
  0
SPLINE
  5
210
330
1F
100
AcDbEntity
  8
0
  6
Continuous
 62
     7
370
    25
100
AcDbSpline
210
0.0
220
0.0
230
1.0
 70
     8
 71
     3
 72
    14
 73
    10
 74
     0
 42
0.00000001
 43
0.00000001
 40
0.0
 40
0.0
 40
0.0
 40
0.0
 40
0.0907475556428583
 40
0.2288563839002836
 40
0.4128530542465871
 40
0.607142000433268
 40
0.7878282318392428
 40
0.9626611221742766
 40
1.0
 40
1.0
 40
1.0
 40
1.0
 10
2238.325460923731
 20
2755.061553406061
 30
0.0
 10
2238.113909756883
 20
2755.078385939609
 30
0.0
 10
2237.580398581713
 20
2755.12083592884
 30
0.0
 10
2236.719912941163
 20
2755.162796219051
 30
0.0
 10
2235.670112580981
 20
2755.199728364269
 30
0.0
 10
2234.435496063458
 20
2755.225453930891
 30
0.0
 10
2233.098989846256
 20
2755.241299849525
 30
0.0
 10
2232.088959722668
 20
2755.246111519764
 30
0.0
 10
2231.541757506832
 20
2755.24635110326
 30
0.0
 10
2231.445458565365
 20
2755.246393266169
 30
0.0
  0
SPLINE
  5
211
330
1F
100
AcDbEntity
  8
0
  6
Continuous
 62
     7
370
    25
100
AcDbSpline
210
0.0
220
0.0
230
1.0
 70
     8
 71
     3
 72
    13
 73
     9
 74
     0
 42
0.00000001
 43
0.00000001
 40
0.0
 40
0.0
 40
0.0
 40
0.0
 40
0.0971790056423953
 40
0.2845710337029651
 40
0.477519277848805
 40
0.6890792027697119
 40
0.8771625243238597
 40
1.0
 40
1.0
 40
1.0
 40
1.0
 10
2231.445458565365
 20
2755.246393266169
 30
0.0
 10
2231.198437493656
 20
2755.246131497293
 30
0.0
 10
2230.47508123725
 20
2755.245364954774
 30
0.0
 10
2229.282482825122
 20
2755.23649048271
 30
0.0
 10
2227.912409207467
 20
2755.216251138441
 30
0.0
 10
2226.678104082208
 20
2755.182234192517
 30
0.0
 10
2225.648335398515
 20
2755.142730979272
 30
0.0
 10
2224.941932094419
 20
2755.089110818867
 30
0.0
 10
2224.6628488055
 20
2755.06792675782
 30
0.0
  0
LINE
  5
212
330
1F
100
AcDbEntity
  8
0
  6
Continuous
 62
     7
370
    25
100
AcDbLine
 10
2235.9454585654
 20
2749.9538810975
 30
0.0
 11
2235.9454585654
 21
2752.2143323905
 31
0.0
  0
LINE
  5
213
330
1F
100
AcDbEntity
  8
0
  6
Continuous
 62
     7
370
    25
100
AcDbLine
 10
2226.9454585654
 20
2752.2143323905
 30
0.0
 11
2226.9454585654
 21
2749.9538810975
 31
0.0
  0
SPLINE
  5
214
330
1F
100
AcDbEntity
  8
0
  6
Continuous
 62
     7
370
    25
100
AcDbSpline
210
0.0
220
0.0
230
1.0
 70
     8
 71
     3
 72
    16
 73
    12
 74
     0
 42
0.00000001
 43
0.00000001
 40
0.0
 40
0.0
 40
0.0
 40
0.0
 40
0.0490847390187496
 40
0.1518473045647078
 40
0.2358684990992624
 40
0.3090519161655182
 40
0.3734786142110806
 40
0.4370328180328234
 40
0.5258016248251333
 40
0.70686296554683
 40
1.0
 40
1.0
 40
1.0
 40
1.0
 10
2567.925074168675
 20
2753.664749109271
 30
0.0
 10
2567.929765765409
 20
2753.730939501491
 30
0.0
 10
2567.944279570158
 20
2753.935704421255
 30
0.0
 10
2567.817101818787
 20
2754.239921080901
 30
0.0
 10
2567.612885409262
 20
2754.515984719923
 30
0.0
 10
2567.391873803396
 20
2754.689323194562
 30
0.0
 10
2567.200107235653
 20
2754.786327207065
 30
0.0
 10
2567.042893347469
 20
2754.840400572422
 30
0.0
 10
2566.877542172416
 20
2754.879033393793
 30
0.0
 10
2566.68182823749
 20
2754.908770279313
 30
0.0
 10
2566.454213845384
 20
2754.925985948585
 30
0.0
 10
2566.31350858068
 20
2754.936628225111
 30
0.0
  0
SPLINE
  5
215
330
1F
100
AcDbEntity
  8
0
  6
Continuous
 62
     7
370
    25
100
AcDbSpline
210
0.0
220
0.0
230
1.0
 70
     8
 71
     3
 72
    14
 73
    10
 74
     0
 42
0.00000001
 43
0.00000001
 40
0.0
 40
0.0
 40
0.0
 40
0.0
 40
0.4380448777707725
 40
0.5889072021156257
 40
0.6648524542794931
 40
0.7505291071917575
 40
0.8517030556681126
 40
0.9620267314756141
 40
1.0
 40
1.0
 40
1.0
 40
1.0
 10
2549.529691039085
 20
2754.935504543184
 30
0.0
 10
2549.357587419205
 20
2754.920813519865
 30
0.0
 10
2549.126211442906
 20
2754.901062919236
 30
0.0
 10
2548.826901395453
 20
2754.840915253046
 30
0.0
 10
2548.55338214691
 20
2754.724397548355
 30
0.0
 10
2548.289180317125
 20
2754.534471220178
 30
0.0
 10
2548.060956382531
 20
2754.221975085901
 30
0.0
 10
2547.936910392501
 20
2753.900010100721
 30
0.0
 10
2547.95838989054
 20
2753.704696279348
 30
0.0
 10
2547.96388998193
 20
2753.654683757385
 30
0.0
  0
LINE
  5
216
330
1F
100
AcDbEntity
  8
0
  6
Continuous
 62
     7
370
    25
100
AcDbLine
 10
2567.9454585654
 20
2752.914092518
 30
0.0
 11
2567.9454585654
 21
2753.6642832953
 31
0.0
  0
LINE
  5
217
330
1F
100
AcDbEntity
  8
0
  6
Continuous
 62
     7
370
    25
100
AcDbLine
 10
2547.9454585654
 20
2753.6642832953
 30
0.0
 11
2547.9454585654
 21
2752.914092518
 31
0.0
  0
LINE
  5
218
330
1F
100
AcDbEntity
  8
0
  6
Continuous
 62
     7
370
    25
100
AcDbLine
 10
2566.4418327899
 20
2754.9290740988
 30
0.0
 11
2564.9154268517
 21
2755.0564516333
 31
0.0
  0
LINE
  5
219
330
1F
100
AcDbEntity
  8
0
  6
Continuous
 62
     7
370
    25
100
AcDbLine
 10
2550.975490279
 20
2755.0564516333
 30
0.0
 11
2549.4490843408
 21
2754.9290740988
 31
0.0
  0
SPLINE
  5
21A
330
1F
100
AcDbEntity
  8
0
  6
Continuous
 62
     7
370
    25
100
AcDbSpline
210
0.0
220
0.0
230
1.0
 70
     8
 71
     3
 72
    14
 73
    10
 74
     0
 42
0.00000001
 43
0.00000001
 40
0.0
 40
0.0
 40
0.0
 40
0.0
 40
0.090747555642808
 40
0.2288563839002346
 40
0.4128530542465043
 40
0.6071420004331852
 40
0.787828231839169
 40
0.9626611221742037
 40
1.0
 40
1.0
 40
1.0
 40
1.0
 10
2564.825460923731
 20
2755.061553406059
 30
0.0
 10
2564.613909756883
 20
2755.078385939607
 30
0.0
 10
2564.080398581714
 20
2755.120835928839
 30
0.0
 10
2563.219912941164
 20
2755.16279621905
 30
0.0
 10
2562.170112580982
 20
2755.199728364267
 30
0.0
 10
2560.935496063459
 20
2755.22545393089
 30
0.0
 10
2559.598989846257
 20
2755.241299849524
 30
0.0
 10
2558.588959722669
 20
2755.246111519763
 30
0.0
 10
2558.041757506833
 20
2755.246351103259
 30
0.0
 10
2557.945458565365
 20
2755.246393266168
 30
0.0
  0
SPLINE
  5
21B
330
1F
100
AcDbEntity
  8
0
  6
Continuous
 62
     7
370
    25
100
AcDbSpline
210
0.0
220
0.0
230
1.0
 70
     8
 71
     3
 72
    13
 73
     9
 74
     0
 42
0.00000001
 43
0.00000001
 40
0.0
 40
0.0
 40
0.0
 40
0.0
 40
0.0971790056423984
 40
0.2845710337029661
 40
0.477519277848797
 40
0.6890792027697116
 40
0.8771625243238589
 40
1.0
 40
1.0
 40
1.0
 40
1.0
 10
2557.945458565365
 20
2755.246393266168
 30
0.0
 10
2557.698437493656
 20
2755.246131497292
 30
0.0
 10
2556.97508123725
 20
2755.245364954772
 30
0.0
 10
2555.782482825123
 20
2755.236490482708
 30
0.0
 10
2554.412409207467
 20
2755.21625113844
 30
0.0
 10
2553.178104082208
 20
2755.182234192517
 30
0.0
 10
2552.148335398515
 20
2755.142730979271
 30
0.0
 10
2551.44193209442
 20
2755.089110818866
 30
0.0
 10
2551.162848805501
 20
2755.067926757818
 30
0.0
  0
LINE
  5
21C
330
1F
100
AcDbEntity
  8
0
  6
Continuous
 62
     7
370
    25
100
AcDbLine
 10
2562.4454585654
 20
2749.9538810975
 30
0.0
 11
2562.4454585654
 21
2752.2143323905
 31
0.0
  0
LINE
  5
21D
330
1F
100
AcDbEntity
  8
0
  6
Continuous
 62
     7
370
    25
100
AcDbLine
 10
2553.4454585654
 20
2752.2143323905
 30
0.0
 11
2553.4454585654
 21
2749.9538810975
 31
0.0
  0
ARC
  5
21E
330
1F
100
AcDbEntity
  8
0
  6
Continuous
 62
     7
370
    25
100
AcDbCircle
 10
2232.4487994322
 20
2944.9300038256
 30
0.0
 40
190.3064363929423
100
AcDbArc
 50
269.6979216021
 51
271.9898299979
  0
ARC
  5
21F
330
1F
100
AcDbEntity
  8
0
  6
Continuous
 62
     7
370
    25
100
AcDbCircle
 10
2230.8807674915
 20
2989.2063632802
 30
0.0
 40
234.5808305760749
100
AcDbArc
 50
268.5008299502
 51
270.1379245117
  0
ARC
  5
220
330
1F
100
AcDbEntity
  8
0
  6
Continuous
 62
     7
370
    25
100
AcDbCircle
 10
2234.2883976532
 20
2835.1862780978
 30
0.0
 40
82.58290404781046
100
AcDbArc
 50
268.0271873052
 51
274.971785139
  0
ARC
  5
221
330
1F
100
AcDbEntity
  8
0
  6
Continuous
 62
     7
370
    25
100
AcDbCircle
 10
2228.8258447337
 20
2843.7176490436
 30
0.0
 40
91.10299653518842
100
AcDbArc
 50
265.3532935281
 51
271.6477340277
  0
SPLINE
  5
222
330
1F
100
AcDbEntity
  8
0
  6
Continuous
 62
     7
370
    25
100
AcDbSpline
210
0.0
220
0.0
230
1.0
 70
     8
 71
     3
 72
    19
 73
    15
 74
     0
 42
0.00000001
 43
0.00000001
 40
0.0
 40
0.0
 40
0.0
 40
0.0
 40
0.090660073128077
 40
0.205073413897339
 40
0.2719074979493193
 40
0.3443210476357551
 40
0.4209983262120374
 40
0.4999999792228284
 40
0.5790016347260517
 40
0.6556789199260388
 40
0.7280924783131313
 40
0.7949265709542862
 40
0.9093399235674633
 40
1.0
 40
1.0
 40
1.0
 40
1.0
 10
2241.245458565366
 20
2752.714161053021
 30
0.0
 10
2241.168604520698
 20
2752.689935507785
 30
0.0
 10
2240.9947603932
 20
2752.635137236686
 30
0.0
 10
2239.674903170726
 20
2752.568753953305
 30
0.0
 10
2237.918984010529
 20
2752.518841342658
 30
0.0
 10
2236.095890405647
 20
2752.48571047738
 30
0.0
 10
2233.914524317423
 20
2752.463277619616
 30
0.0
 10
2231.521572113836
 20
2752.455015509583
 30
0.0
 10
2229.124049624953
 20
2752.462313475468
 30
0.0
 10
2226.929764294539
 20
2752.483865677209
 30
0.0
 10
2225.087425031514
 20
2752.516258826641
 30
0.0
 10
2223.302394606039
 20
2752.565458774841
 30
0.0
 10
2221.943699588438
 20
2752.631302962634
 30
0.0
 10
2221.737687244347
 20
2752.686024785419
 30
0.0
 10
2221.646612086788
 20
2752.710216533026
 30
0.0
  0
LINE
  5
223
330
1F
100
AcDbEntity
  8
0
  6
Continuous
 62
     7
370
    25
100
AcDbLine
 10
2224.475490279
 20
2755.0564516333
 30
0.0
 11
2224.5274519143
 21
2755.0606198496
 31
0.0
  0
LINE
  5
224
330
1F
100
AcDbEntity
  8
0
  6
Continuous
 62
     7
370
    25
100
AcDbLine
 10
2236.1356302781
 20
2755.113338633
 30
0.0
 11
2236.1346783417
 21
2755.1158121239
 31
0.0
  0
LWPOLYLINE
  5
225
330
1F
100
AcDbEntity
  8
0
  6
Continuous
 62
     7
370
    25
100
AcDbPolyline
 90
       23
 70
   128
 43
0.0
 10
2236.1346783417
 20
2755.1158121239
 10
2235.9194017973
 20
2755.1501872105
 10
2235.3439780752
 20
2755.18159603
 10
2234.4547281093
 20
2755.2075102091
 10
2233.3232354781
 20
2755.2258436869
 10
2232.04058401
 20
2755.2351206399
 10
2230.7100256422
 20
2755.2345942843
 10
2229.4386687613
 20
2755.2243069912
 10
2228.3288561037
 20
2755.2050868755
 10
2227.4699262854
 20
2755.178481134
 10
2226.9310221483
 20
2755.1466314976
 10
2226.7555248428
 20
2755.1121018248
 10
2226.9575616959
 20
2755.0776717135
 10
2227.5208689783
 20
2755.0461127473
 10
2228.4001011149
 20
2755.0199653861
 10
2229.5244809511
 20
2755.0013344616
 10
2230.8034972299
 20
2754.9917197414
 10
2232.1341906426
 20
2754.9918951992
 10
2233.4094419316
 20
2755.0018467108
 10
2234.5265948654
 20
2755.0207731913
 10
2235.3957199443
 20
2755.0471510811
 10
2235.9468536198
 20
2755.0788569912
 10
2236.1356302781
 20
2755.113338633
  0
LINE
  5
226
330
1F
100
AcDbEntity
  8
0
  6
Continuous
 62
     7
370
    25
100
AcDbLine
 10
2228.9996091614
 20
2755.0998575046
 30
0.0
 11
2230.9304585654
 21
2755.0998575046
 31
0.0
  0
LINE
  5
227
330
1F
100
AcDbEntity
  8
0
  6
Continuous
 62
     7
370
    25
100
AcDbLine
 10
2230.9304585654
 20
2755.0998575046
 30
0.0
 11
2230.9304585654
 21
2755.0493137596
 31
0.0
  0
ARC
  5
228
330
1F
100
AcDbEntity
  8
0
  6
Continuous
 62
     7
370
    25
100
AcDbCircle
 10
2231.4454585654
 20
2849.3371748629
 30
0.0
 40
94.2892675570498
100
AcDbArc
 50
269.687053745
 51
270.312946255
  0
LINE
  5
229
330
1F
100
AcDbEntity
  8
0
  6
Continuous
 62
     7
370
    25
100
AcDbLine
 10
2231.9604585654
 20
2755.0493137596
 30
0.0
 11
2231.9604585654
 21
2755.0998575046
 31
0.0
  0
LINE
  5
22A
330
1F
100
AcDbEntity
  8
0
  6
Continuous
 62
     7
370
    25
100
AcDbLine
 10
2231.9604585654
 20
2755.0998575046
 30
0.0
 11
2233.8913079693
 21
2755.0998575046
 31
0.0
  0
LWPOLYLINE
  5
22B
330
1F
100
AcDbEntity
  8
0
  6
Continuous
 62
     7
370
    25
100
AcDbPolyline
 90
        9
 70
   128
 43
0.0
 10
2233.8913079693
 20
2755.1268197613
 10
2233.9147242752
 20
2755.123481353
 10
2233.9314953662
 20
2755.1201156488
 10
2233.9415761084
 20
2755.1167317065
 10
2233.9449393728
 20
2755.1133386329
 10
2233.9415761084
 20
2755.1099455594
 10
2233.9314953662
 20
2755.1065616171
 10
2233.9147242752
 20
2755.1031959129
 10
2233.8913079693
 20
2755.0998575046
  0
LINE
  5
22C
330
1F
100
AcDbEntity
  8
0
  6
Continuous
 62
     7
370
    25
100
AcDbLine
 10
2233.8913079693
 20
2755.1268197613
 30
0.0
 11
2231.9604585654
 21
2755.1268197613
 31
0.0
  0
LINE
  5
22D
330
1F
100
AcDbEntity
  8
0
  6
Continuous
 62
     7
370
    25
100
AcDbLine
 10
2231.9604585654
 20
2755.1268197613
 30
0.0
 11
2231.9604585654
 21
2755.1773635064
 31
0.0
  0
ARC
  5
22E
330
1F
100
AcDbEntity
  8
0
  6
Continuous
 62
     7
370
    25
100
AcDbCircle
 10
2231.4454585654
 20
2660.8895023759
 30
0.0
 40
94.2892675841978
100
AcDbArc
 50
89.6870537451
 51
90.3129462549
  0
LINE
  5
22F
330
1F
100
AcDbEntity
  8
0
  6
Continuous
 62
     7
370
    25
100
AcDbLine
 10
2230.9304585654
 20
2755.1773635064
 30
0.0
 11
2230.9304585654
 21
2755.1268197613
 31
0.0
  0
LINE
  5
230
330
1F
100
AcDbEntity
  8
0
  6
Continuous
 62
     7
370
    25
100
AcDbLine
 10
2230.9304585654
 20
2755.1268197613
 30
0.0
 11
2228.9996091614
 21
2755.1268197613
 31
0.0
  0
LWPOLYLINE
  5
231
330
1F
100
AcDbEntity
  8
0
  6
Continuous
 62
     7
370
    25
100
AcDbPolyline
 90
        9
 70
   128
 43
0.0
 10
2228.9996091614
 20
2755.0998575046
 10
2228.9761928556
 20
2755.1031959129
 10
2228.9594217646
 20
2755.1065616171
 10
2228.9493410224
 20
2755.1099455594
 10
2228.9459777579
 20
2755.1133386329
 10
2228.9493410224
 20
2755.1167317065
 10
2228.9594217646
 20
2755.1201156488
 10
2228.9761928556
 20
2755.123481353
 10
2228.9996091614
 20
2755.1268197613
  0
LINE
  5
232
330
1F
100
AcDbEntity
  8
0
  6
Continuous
 62
     7
370
    25
100
AcDbLine
 10
2229.0133329309
 20
2755.0998575046
 30
0.0
 11
2228.9996091614
 21
2755.1268197613
 31
0.0
  0
LINE
  5
233
330
1F
100
AcDbEntity
  8
0
  6
Continuous
 62
     7
370
    25
100
AcDbLine
 10
2231.9604585654
 20
2755.1268197613
 30
0.0
 11
2231.9604585654
 21
2755.0998575046
 31
0.0
  0
LINE
  5
234
330
1F
100
AcDbEntity
  8
0
  6
Continuous
 62
     7
370
    25
100
AcDbLine
 10
2230.9304585654
 20
2755.1268197613
 30
0.0
 11
2230.9304585654
 21
2755.0998575046
 31
0.0
  0
ARC
  5
235
330
1F
100
AcDbEntity
  8
0
  6
Continuous
 62
     7
370
    25
100
AcDbCircle
 10
2558.9487994325
 20
2944.9300038088
 30
0.0
 40
190.3064363761391
100
AcDbArc
 50
269.697921602
 51
271.989829998
  0
ARC
  5
236
330
1F
100
AcDbEntity
  8
0
  6
Continuous
 62
     7
370
    25
100
AcDbCircle
 10
2557.3807674914
 20
2989.2063632788
 30
0.0
 40
234.5808305746503
100
AcDbArc
 50
268.5008299502
 51
270.1379245117
  0
ARC
  5
237
330
1F
100
AcDbEntity
  8
0
  6
Continuous
 62
     7
370
    25
100
AcDbCircle
 10
2560.7883976532
 20
2835.1862780978
 30
0.0
 40
82.58290404787404
100
AcDbArc
 50
268.0271873052
 51
274.971785139
  0
ARC
  5
238
330
1F
100
AcDbEntity
  8
0
  6
Continuous
 62
     7
370
    25
100
AcDbCircle
 10
2555.3258447337
 20
2843.7176490436
 30
0.0
 40
91.10299653522567
100
AcDbArc
 50
265.3532935281
 51
271.6477340277
  0
SPLINE
  5
239
330
1F
100
AcDbEntity
  8
0
  6
Continuous
 62
     7
370
    25
100
AcDbSpline
210
0.0
220
0.0
230
1.0
 70
     8
 71
     3
 72
    19
 73
    15
 74
     0
 42
0.00000001
 43
0.00000001
 40
0.0
 40
0.0
 40
0.0
 40
0.0
 40
0.0906600731280769
 40
0.2050734138973396
 40
0.2719074979493193
 40
0.3443210476357549
 40
0.4209983262120381
 40
0.499999979222828
 40
0.579001634726052
 40
0.6556789199260386
 40
0.7280924783131314
 40
0.7949265709542858
 40
0.9093399235674633
 40
1.0
 40
1.0
 40
1.0
 40
1.0
 10
2567.745458565366
 20
2752.71416105302
 30
0.0
 10
2567.668604520698
 20
2752.689935507784
 30
0.0
 10
2567.494760393201
 20
2752.635137236685
 30
0.0
 10
2566.174903170726
 20
2752.568753953304
 30
0.0
 10
2564.41898401053
 20
2752.518841342657
 30
0.0
 10
2562.595890405647
 20
2752.485710477378
 30
0.0
 10
2560.414524317424
 20
2752.463277619614
 30
0.0
 10
2558.021572113836
 20
2752.455015509582
 30
0.0
 10
2555.624049624953
 20
2752.462313475466
 30
0.0
 10
2553.429764294539
 20
2752.483865677208
 30
0.0
 10
2551.587425031515
 20
2752.51625882664
 30
0.0
 10
2549.802394606039
 20
2752.565458774839
 30
0.0
 10
2548.443699588438
 20
2752.631302962633
 30
0.0
 10
2548.237687244346
 20
2752.686024785418
 30
0.0
 10
2548.146612086788
 20
2752.710216533025
 30
0.0
  0
LINE
  5
23A
330
1F
100
AcDbEntity
  8
0
  6
Continuous
 62
     7
370
    25
100
AcDbLine
 10
2550.975490279
 20
2755.0564516333
 30
0.0
 11
2551.0274519143
 21
2755.0606198496
 31
0.0
  0
LINE
  5
23B
330
1F
100
AcDbEntity
  8
0
  6
Continuous
 62
     7
370
    25
100
AcDbLine
 10
2562.6356302781
 20
2755.113338633
 30
0.0
 11
2562.6346783417
 21
2755.1158121239
 31
0.0
  0
LWPOLYLINE
  5
23C
330
1F
100
AcDbEntity
  8
0
  6
Continuous
 62
     7
370
    25
100
AcDbPolyline
 90
       23
 70
   128
 43
0.0
 10
2562.6346783417
 20
2755.1158121239
 10
2562.4194017973
 20
2755.1501872105
 10
2561.8439780752
 20
2755.18159603
 10
2560.9547281093
 20
2755.2075102091
 10
2559.8232354781
 20
2755.2258436869
 10
2558.54058401
 20
2755.2351206399
 10
2557.2100256422
 20
2755.2345942843
 10
2555.9386687613
 20
2755.2243069912
 10
2554.8288561037
 20
2755.2050868755
 10
2553.9699262854
 20
2755.178481134
 10
2553.4310221483
 20
2755.1466314976
 10
2553.2555248428
 20
2755.1121018248
 10
2553.4575616959
 20
2755.0776717135
 10
2554.0208689783
 20
2755.0461127473
 10
2554.9001011149
 20
2755.0199653861
 10
2556.0244809511
 20
2755.0013344616
 10
2557.3034972299
 20
2754.9917197414
 10
2558.6341906426
 20
2754.9918951992
 10
2559.9094419316
 20
2755.0018467108
 10
2561.0265948654
 20
2755.0207731913
 10
2561.8957199443
 20
2755.0471510811
 10
2562.4468536198
 20
2755.0788569912
 10
2562.6356302781
 20
2755.113338633
  0
LINE
  5
23D
330
1F
100
AcDbEntity
  8
0
  6
Continuous
 62
     7
370
    25
100
AcDbLine
 10
2555.4996091614
 20
2755.0998575046
 30
0.0
 11
2557.4304585654
 21
2755.0998575046
 31
0.0
  0
LINE
  5
23E
330
1F
100
AcDbEntity
  8
0
  6
Continuous
 62
     7
370
    25
100
AcDbLine
 10
2557.4304585654
 20
2755.0998575046
 30
0.0
 11
2557.4304585654
 21
2755.0493137595
 31
0.0
  0
ARC
  5
23F
330
1F
100
AcDbEntity
  8
0
  6
Continuous
 62
     7
370
    25
100
AcDbCircle
 10
2557.9454585654
 20
2849.3371748901
 30
0.0
 40
94.28926758422463
100
AcDbArc
 50
269.6870537451
 51
270.3129462549
  0
LINE
  5
240
330
1F
100
AcDbEntity
  8
0
  6
Continuous
 62
     7
370
    25
100
AcDbLine
 10
2558.4604585654
 20
2755.0493137595
 30
0.0
 11
2558.4604585654
 21
2755.0998575046
 31
0.0
  0
LINE
  5
241
330
1F
100
AcDbEntity
  8
0
  6
Continuous
 62
     7
370
    25
100
AcDbLine
 10
2558.4604585654
 20
2755.0998575046
 30
0.0
 11
2560.3913079693
 21
2755.0998575046
 31
0.0
  0
LWPOLYLINE
  5
242
330
1F
100
AcDbEntity
  8
0
  6
Continuous
 62
     7
370
    25
100
AcDbPolyline
 90
        9
 70
   128
 43
0.0
 10
2560.3913079693
 20
2755.1268197613
 10
2560.4147242752
 20
2755.123481353
 10
2560.4314953662
 20
2755.1201156488
 10
2560.4415761084
 20
2755.1167317065
 10
2560.4449393728
 20
2755.1133386329
 10
2560.4415761084
 20
2755.1099455593
 10
2560.4314953662
 20
2755.1065616171
 10
2560.4147242752
 20
2755.1031959129
 10
2560.3913079693
 20
2755.0998575046
  0
LINE
  5
243
330
1F
100
AcDbEntity
  8
0
  6
Continuous
 62
     7
370
    25
100
AcDbLine
 10
2560.3913079693
 20
2755.1268197613
 30
0.0
 11
2558.4604585654
 21
2755.1268197613
 31
0.0
  0
LINE
  5
244
330
1F
100
AcDbEntity
  8
0
  6
Continuous
 62
     7
370
    25
100
AcDbLine
 10
2558.4604585654
 20
2755.1268197613
 30
0.0
 11
2558.4604585654
 21
2755.1773635064
 31
0.0
  0
ARC
  5
245
330
1F
100
AcDbEntity
  8
0
  6
Continuous
 62
     7
370
    25
100
AcDbCircle
 10
2557.9454585654
 20
2660.8895023521
 30
0.0
 40
94.28926760799801
100
AcDbArc
 50
89.6870537452
 51
90.3129462548
  0
LINE
  5
246
330
1F
100
AcDbEntity
  8
0
  6
Continuous
 62
     7
370
    25
100
AcDbLine
 10
2557.4304585654
 20
2755.1773635064
 30
0.0
 11
2557.4304585654
 21
2755.1268197613
 31
0.0
  0
LINE
  5
247
330
1F
100
AcDbEntity
  8
0
  6
Continuous
 62
     7
370
    25
100
AcDbLine
 10
2557.4304585654
 20
2755.1268197613
 30
0.0
 11
2555.4996091614
 21
2755.1268197613
 31
0.0
  0
LWPOLYLINE
  5
248
330
1F
100
AcDbEntity
  8
0
  6
Continuous
 62
     7
370
    25
100
AcDbPolyline
 90
        9
 70
   128
 43
0.0
 10
2555.4996091614
 20
2755.0998575046
 10
2555.4761928556
 20
2755.1031959129
 10
2555.4594217646
 20
2755.1065616171
 10
2555.4493410224
 20
2755.1099455593
 10
2555.4459777579
 20
2755.1133386329
 10
2555.4493410224
 20
2755.1167317065
 10
2555.4594217646
 20
2755.1201156488
 10
2555.4761928556
 20
2755.123481353
 10
2555.4996091614
 20
2755.1268197613
  0
LINE
  5
249
330
1F
100
AcDbEntity
  8
0
  6
Continuous
 62
     7
370
    25
100
AcDbLine
 10
2555.5133329309
 20
2755.0998575046
 30
0.0
 11
2555.4996091614
 21
2755.1268197613
 31
0.0
  0
LINE
  5
24A
330
1F
100
AcDbEntity
  8
0
  6
Continuous
 62
     7
370
    25
100
AcDbLine
 10
2558.4604585654
 20
2755.1268197613
 30
0.0
 11
2558.4604585654
 21
2755.0998575046
 31
0.0
  0
LINE
  5
24B
330
1F
100
AcDbEntity
  8
0
  6
Continuous
 62
     7
370
    25
100
AcDbLine
 10
2557.4304585654
 20
2755.1268197613
 30
0.0
 11
2557.4304585654
 21
2755.0998575046
 31
0.0
  0
LINE
  5
24C
330
1F
100
AcDbEntity
  8
0
  6
Continuous
 62
     7
370
    25
100
AcDbLine
 10
2196.9454585654
 20
2369.4538810975
 30
0.0
 11
2196.9454585654
 21
2369.5538810975
 31
0.0
  0
LINE
  5
24D
330
1F
100
AcDbEntity
  8
0
  6
Continuous
 62
     7
370
    25
100
AcDbLine
 10
2197.1454585654
 20
2369.5538810975
 30
0.0
 11
2196.9454585654
 21
2369.5538810975
 31
0.0
  0
LINE
  5
24E
330
1F
100
AcDbEntity
  8
0
  6
Continuous
 62
     7
370
    25
100
AcDbLine
 10
2198.9454585654
 20
2369.4538810975
 30
0.0
 11
2198.9454585654
 21
2369.5538810975
 31
0.0
  0
LINE
  5
24F
330
1F
100
AcDbEntity
  8
0
  6
Continuous
 62
     7
370
    25
100
AcDbLine
 10
2198.9454585654
 20
2369.5538810975
 30
0.0
 11
2197.1454585654
 21
2369.5538810975
 31
0.0
  0
LINE
  5
250
330
1F
100
AcDbEntity
  8
0
  6
Continuous
 62
     7
370
    25
100
AcDbLine
 10
2197.1454585654
 20
2369.7538810975
 30
0.0
 11
2197.1454585654
 21
2369.5538810975
 31
0.0
  0
LINE
  5
251
330
1F
100
AcDbEntity
  8
0
  6
Continuous
 62
     7
370
    25
100
AcDbLine
 10
2197.1454585654
 20
2369.7538810975
 30
0.0
 11
2198.9454585654
 21
2369.7538810975
 31
0.0
  0
LINE
  5
252
330
1F
100
AcDbEntity
  8
0
  6
Continuous
 62
     7
370
    25
100
AcDbLine
 10
2198.9454585654
 20
2369.7538810975
 30
0.0
 11
2198.9454585654
 21
2369.5538810975
 31
0.0
  0
ARC
  5
253
330
1F
100
AcDbEntity
  8
0
  6
Continuous
 62
     7
370
    25
100
AcDbCircle
 10
2197.1454585654
 20
2369.5538810975
 30
0.0
 40
0.2000000000002728
100
AcDbArc
 50
90.0
 51
180.0
  0
LINE
  5
254
330
1F
100
AcDbEntity
  8
0
  6
Continuous
 62
     7
370
    25
100
AcDbLine
 10
2590.9454585654
 20
2369.5538810975
 30
0.0
 11
2590.9454585654
 21
2369.4538810975
 31
0.0
  0
LINE
  5
255
330
1F
100
AcDbEntity
  8
0
  6
Continuous
 62
     7
370
    25
100
AcDbLine
 10
2198.9454585654
 20
2369.7538810975
 30
0.0
 11
2201.2577838159
 21
2369.7538810975
 31
0.0
  0
LINE
  5
256
330
1F
100
AcDbEntity
  8
0
  6
Continuous
 62
     7
370
    25
100
AcDbLine
 10
2237.4437914398
 20
2369.7538810975
 30
0.0
 11
2379.9454585654
 21
2369.7538810975
 31
0.0
  0
LINE
  5
257
330
1F
100
AcDbEntity
  8
0
  6
Continuous
 62
     7
370
    25
100
AcDbLine
 10
2409.9454585654
 20
2369.7538810975
 30
0.0
 11
2590.9454585654
 21
2369.7538810975
 31
0.0
  0
LINE
  5
258
330
1F
100
AcDbEntity
  8
0
  6
Continuous
 62
     7
370
    25
100
AcDbLine
 10
2590.9454585654
 20
2369.5538810975
 30
0.0
 11
2590.9454585654
 21
2369.7538810975
 31
0.0
  0
LINE
  5
259
330
1F
100
AcDbEntity
  8
0
  6
Continuous
 62
     7
370
    25
100
AcDbLine
 10
2590.9454585654
 20
2369.7538810975
 30
0.0
 11
2592.7454585654
 21
2369.7538810975
 31
0.0
  0
LINE
  5
25A
330
1F
100
AcDbEntity
  8
0
  6
Continuous
 62
     7
370
    25
100
AcDbLine
 10
2592.7454585654
 20
2369.5538810975
 30
0.0
 11
2592.7454585654
 21
2369.7538810975
 31
0.0
  0
LINE
  5
25B
330
1F
100
AcDbEntity
  8
0
  6
Continuous
 62
     7
370
    25
100
AcDbLine
 10
2592.7454585654
 20
2369.5538810975
 30
0.0
 11
2590.9454585654
 21
2369.5538810975
 31
0.0
  0
ARC
  5
25C
330
1F
100
AcDbEntity
  8
0
  6
Continuous
 62
     7
370
    25
100
AcDbCircle
 10
2592.7454585654
 20
2369.5538810975
 30
0.0
 40
0.2000000000002728
100
AcDbArc
 50
0.0
 51
90.0
  0
LINE
  5
25D
330
1F
100
AcDbEntity
  8
0
  6
Continuous
 62
     7
370
    25
100
AcDbLine
 10
2592.7454585654
 20
2369.5538810975
 30
0.0
 11
2592.9454585654
 21
2369.5538810975
 31
0.0
  0
LINE
  5
25E
330
1F
100
AcDbEntity
  8
0
  6
Continuous
 62
     7
370
    25
100
AcDbLine
 10
2592.9454585654
 20
2369.5538810975
 30
0.0
 11
2592.9454585654
 21
2369.4538810975
 31
0.0
  0
LINE
  5
25F
330
1F
100
AcDbEntity
  8
0
  6
Continuous
 62
     7
370
    25
100
AcDbLine
 10
2409.9454585654
 20
2369.4538810975
 30
0.0
 11
2409.9454585654
 21
2370.6538810975
 31
0.0
  0
LINE
  5
260
330
1F
100
AcDbEntity
  8
0
  6
Continuous
 62
     7
370
    25
100
AcDbLine
 10
2379.9454585654
 20
2370.6538810975
 30
0.0
 11
2379.9454585654
 21
2369.4538810975
 31
0.0
  0
LINE
  5
261
330
1F
100
AcDbEntity
  8
0
  6
Continuous
 62
     7
370
    25
100
AcDbLine
 10
2379.966408286
 20
2370.9538810975
 30
0.0
 11
2379.9454585654
 21
2370.6538810975
 31
0.0
  0
LINE
  5
262
330
1F
100
AcDbEntity
  8
0
  6
Continuous
 62
     7
370
    25
100
AcDbLine
 10
2384.5670931167
 20
2370.9538810975
 30
0.0
 11
2384.5468228464
 21
2370.6538810975
 31
0.0
  0
LINE
  5
263
330
1F
100
AcDbEntity
  8
0
  6
Continuous
 62
     7
370
    25
100
AcDbLine
 10
2384.5468228464
 20
2370.6538810975
 30
0.0
 11
2405.3440942843
 21
2370.6538810975
 31
0.0
  0
LINE
  5
264
330
1F
100
AcDbEntity
  8
0
  6
Continuous
 62
     7
370
    25
100
AcDbLine
 10
2405.3440942843
 20
2370.6538810975
 30
0.0
 11
2405.323824014
 21
2370.9538810975
 31
0.0
  0
LINE
  5
265
330
1F
100
AcDbEntity
  8
0
  6
Continuous
 62
     7
370
    25
100
AcDbLine
 10
2409.9454585654
 20
2370.6538810975
 30
0.0
 11
2409.9245088447
 21
2370.9538810975
 31
0.0
  0
LINE
  5
266
330
1F
100
AcDbEntity
  8
0
  6
Continuous
 62
     7
370
    25
100
AcDbLine
 10
2236.4454585697
 20
2369.6538810975
 30
0.0
 11
2236.4454585697
 21
2369.4538810975
 31
0.0
  0
LINE
  5
267
330
1F
100
AcDbEntity
  8
0
  6
Continuous
 62
     7
370
    25
100
AcDbLine
 10
2216.4454585697
 20
2369.4538810975
 30
0.0
 11
2216.4454585697
 21
2369.6538810975
 31
0.0
  0
LINE
  5
268
330
1F
100
AcDbEntity
  8
0
  6
Continuous
 62
     7
370
    25
100
AcDbLine
 10
2215.4454585697
 20
2369.4538810975
 30
0.0
 11
2215.4454585697
 21
2369.6538810975
 31
0.0
  0
LINE
  5
269
330
1F
100
AcDbEntity
  8
0
  6
Continuous
 62
     7
370
    25
100
AcDbLine
 10
2215.4454585697
 20
2369.6538810975
 30
0.0
 11
2216.4454585697
 21
2369.6538810975
 31
0.0
  0
LINE
  5
26A
330
1F
100
AcDbEntity
  8
0
  6
Continuous
 62
     7
370
    25
100
AcDbLine
 10
2237.4454585697
 20
2369.4538810975
 30
0.0
 11
2237.4454585697
 21
2369.6538810975
 31
0.0
  0
LINE
  5
26B
330
1F
100
AcDbEntity
  8
0
  6
Continuous
 62
     7
370
    25
100
AcDbLine
 10
2236.4454585697
 20
2369.6538810975
 30
0.0
 11
2237.4454585697
 21
2369.6538810975
 31
0.0
  0
ARC
  5
26C
330
1F
100
AcDbEntity
  8
0
  6
Continuous
 62
     7
370
    25
100
AcDbCircle
 10
2218.4454585697
 20
2369.6538810975
 30
0.0
 40
3.000000000000136
100
AcDbArc
 50
154.3207113805
 51
180.0
  0
ARC
  5
26D
330
1F
100
AcDbEntity
  8
0
  6
Continuous
 62
     7
370
    25
100
AcDbCircle
 10
2234.4454585697
 20
2369.6538810975
 30
0.0
 40
3.000000000000089
100
AcDbArc
 50
0.0
 51
25.6792886195
  0
LINE
  5
26E
330
1F
100
AcDbEntity
  8
0
  6
Continuous
 62
     7
370
    25
100
AcDbLine
 10
2215.4454585697
 20
2369.9538810975
 30
0.0
 11
2201.2577838159
 21
2369.9538810975
 31
0.0
  0
LINE
  5
26F
330
1F
100
AcDbEntity
  8
0
  6
Continuous
 62
     7
370
    25
100
AcDbLine
 10
2201.2577838159
 20
2369.9538810975
 30
0.0
 11
2201.2577838159
 21
2369.4538810975
 31
0.0
  0
LINE
  5
270
330
1F
100
AcDbEntity
  8
0
  6
Continuous
 62
     7
370
    25
100
AcDbLine
 10
2215.4454585697
 20
2369.6538810975
 30
0.0
 11
2215.4454585697
 21
2369.9538810975
 31
0.0
  0
LINE
  5
271
330
1F
100
AcDbEntity
  8
0
  6
Continuous
 62
     7
370
    25
100
AcDbLine
 10
2213.3859106131
 20
2370.9538810975
 30
0.0
 11
2213.3628582571
 21
2369.9538810975
 31
0.0
  0
LINE
  5
272
330
1F
100
AcDbEntity
  8
0
  6
Continuous
 62
     7
370
    25
100
AcDbLine
 10
2214.6632036285
 20
2369.9538810975
 30
0.0
 11
2214.6862559845
 21
2370.9538810975
 31
0.0
  0
LINE
  5
273
330
1F
100
AcDbEntity
  8
0
  6
Continuous
 62
     7
370
    25
100
AcDbLine
 10
2592.9454585654
 20
2351.4538810975
 30
0.0
 11
2196.9454585654
 21
2351.4538810975
 31
0.0
  0
LINE
  5
274
330
1F
100
AcDbEntity
  8
0
  6
Continuous
 62
     7
370
    25
100
AcDbLine
 10
2196.9454585654
 20
2351.4538810975
 30
0.0
 11
2196.9454585654
 21
2369.4538810975
 31
0.0
  0
LINE
  5
275
330
1F
100
AcDbEntity
  8
0
  6
Continuous
 62
     7
370
    25
100
AcDbLine
 10
2592.9454585654
 20
2369.4538810975
 30
0.0
 11
2196.9454585654
 21
2369.4538810975
 31
0.0
  0
LINE
  5
276
330
1F
100
AcDbEntity
  8
0
  6
Continuous
 62
     7
370
    25
100
AcDbLine
 10
2592.9454585654
 20
2351.4538810975
 30
0.0
 11
2592.9454585654
 21
2369.4538810975
 31
0.0
  0
LINE
  5
277
330
1F
100
AcDbEntity
  8
0
  6
Continuous
 62
     7
370
    25
100
AcDbLine
 10
2594.9454585654
 20
2749.9538810975
 30
0.0
 11
2194.4454585654
 21
2749.9538810975
 31
0.0
  0
LINE
  5
278
330
1F
100
AcDbEntity
  8
0
  6
Continuous
 62
     7
370
    25
100
AcDbLine
 10
2594.9454585654
 20
2749.9538810975
 30
0.0
 11
2594.9454585654
 21
2370.9538810975
 31
0.0
  0
LINE
  5
279
330
1F
100
AcDbEntity
  8
0
  6
Continuous
 62
     7
370
    25
100
AcDbLine
 10
2594.9454585654
 20
2370.9538810975
 30
0.0
 11
2194.4454585654
 21
2370.9538810975
 31
0.0
  0
LINE
  5
27A
330
1F
100
AcDbEntity
  8
0
  6
Continuous
 62
     7
370
    25
100
AcDbLine
 10
2194.4454585654
 20
2749.9538810975
 30
0.0
 11
2194.4454585654
 21
2370.9538810975
 31
0.0
  0
ARC
  5
27B
330
1F
100
AcDbEntity
  8
0
  6
Continuous
 62
     7
370
    25
100
AcDbCircle
 10
2231.4448257767
 20
2900.33202581
 30
0.0
 40
147.0082502474958
100
AcDbArc
 50
266.0997819289
 51
273.9007124515
  0
LWPOLYLINE
  5
27C
330
1F
100
AcDbEntity
  8
0
  6
Continuous
 62
     7
370
    25
100
AcDbPolyline
 90
        6
 70
   128
 43
0.0
 10
2239.056639358
 20
2754.7383210839
 10
2239.7957539085
 20
2754.7783522009
 10
2240.2473606486
 20
2754.8240102435
 10
2240.3386164832
 20
2754.8711133513
 10
2240.0657853877
 20
2754.9177331174
 10
2239.9418327899
 20
2754.9290740988
  0
LWPOLYLINE
  5
27D
330
1F
100
AcDbEntity
  8
0
  6
Continuous
 62
     7
370
    25
100
AcDbPolyline
 90
        7
 70
   128
 43
0.0
 10
2222.9490843408
 20
2754.9290740988
 10
2222.825131743
 20
2754.9177331174
 10
2222.5523006476
 20
2754.8711133513
 10
2222.6435564822
 20
2754.8240102435
 10
2223.0951632222
 20
2754.7783522009
 10
2223.8886320348
 20
2754.736008469
 10
2224.7435540402
 20
2754.7058287716
  0
LWPOLYLINE
  5
27E
330
1F
100
AcDbEntity
  8
0
  6
Continuous
 62
     7
370
    25
100
AcDbPolyline
 90
       19
 70
   128
 43
0.0
 10
2238.4154268517
 20
2755.0564516333
 10
2238.5671548704
 20
2755.0417688196
 10
2238.7503025605
 20
2754.9992186952
 10
2238.5671548704
 20
2754.9566685707
 10
2238.0268955899
 20
2754.9162520871
 10
2237.1566155753
 20
2754.8799958958
 10
2235.9999543005
 20
2754.8497180334
 10
2234.6149115917
 20
2754.8269367584
 10
2233.0709392736
 20
2754.8127944191
 10
2231.4454585654
 20
2754.8080001715
 10
2229.8199778572
 20
2754.8127944191
 10
2228.2760055391
 20
2754.8269367584
 10
2226.8909628302
 20
2754.8497180334
 10
2225.7343015554
 20
2754.8799958958
 10
2224.8640215408
 20
2754.9162520871
 10
2224.3237622603
 20
2754.9566685707
 10
2224.1406145702
 20
2754.9992186952
 10
2224.3237622603
 20
2755.0417688196
 10
2224.475490279
 20
2755.0564516333
  0
SPLINE
  5
27F
330
1F
100
AcDbEntity
  8
0
  6
Continuous
 62
     7
370
    25
100
AcDbSpline
210
0.0
220
0.0
230
1.0
 70
     8
 71
     3
 72
    10
 73
     6
 74
     0
 42
0.00000001
 43
0.00000001
 40
0.0
 40
0.0
 40
0.0
 40
0.0
 40
0.0219459922138406
 40
0.5300207501365929
 40
1.0
 40
1.0
 40
1.0
 40
1.0
 10
2236.062172969179
 20
2752.531668758934
 30
0.0
 10
2236.060135481754
 20
2752.530130453348
 30
0.0
 10
2236.010927835858
 20
2752.492978618408
 30
0.0
 10
2235.962555166667
 20
2752.375907282437
 30
0.0
 10
2235.949367076368
 20
2752.26416007989
 30
0.0
 10
2235.94302987133
 20
2752.210462772778
 30
0.0
  0
ARC
  5
280
330
1F
100
AcDbEntity
  8
0
  6
Continuous
 62
     7
370
    25
100
AcDbCircle
 10
2231.4727661044
 20
2818.5310144336
 30
0.0
 40
66.47103753329517
100
AcDbArc
 50
266.0945910318
 51
273.8561261673
  0
LINE
  5
281
330
1F
100
AcDbEntity
  8
0
  6
Continuous
 62
     7
370
    25
100
AcDbLine
 10
2235.9454585654
 20
2752.2143323905
 30
0.0
 11
2235.9430298712
 21
2752.2104627727
 31
0.0
  0
ARC
  5
282
330
1F
100
AcDbEntity
  8
0
  6
Continuous
 62
     7
370
    25
100
AcDbCircle
 10
2557.9448257767
 20
2900.33202581
 30
0.0
 40
147.0082502475067
100
AcDbArc
 50
266.0997819289
 51
273.9007124515
  0
LWPOLYLINE
  5
283
330
1F
100
AcDbEntity
  8
0
  6
Continuous
 62
     7
370
    25
100
AcDbPolyline
 90
        6
 70
   128
 43
0.0
 10
2565.556639358
 20
2754.7383210839
 10
2566.2957539085
 20
2754.7783522009
 10
2566.7473606486
 20
2754.8240102435
 10
2566.8386164832
 20
2754.8711133513
 10
2566.5657853877
 20
2754.9177331174
 10
2566.4418327899
 20
2754.9290740988
  0
LWPOLYLINE
  5
284
330
1F
100
AcDbEntity
  8
0
  6
Continuous
 62
     7
370
    25
100
AcDbPolyline
 90
        7
 70
   128
 43
0.0
 10
2549.4490843408
 20
2754.9290740988
 10
2549.325131743
 20
2754.9177331174
 10
2549.0523006476
 20
2754.8711133513
 10
2549.1435564822
 20
2754.8240102435
 10
2549.5951632222
 20
2754.7783522009
 10
2550.3886320348
 20
2754.736008469
 10
2551.2435540402
 20
2754.7058287716
  0
LWPOLYLINE
  5
285
330
1F
100
AcDbEntity
  8
0
  6
Continuous
 62
     7
370
    25
100
AcDbPolyline
 90
       19
 70
   128
 43
0.0
 10
2564.9154268517
 20
2755.0564516333
 10
2565.0671548704
 20
2755.0417688196
 10
2565.2503025605
 20
2754.9992186952
 10
2565.0671548704
 20
2754.9566685707
 10
2564.5268955899
 20
2754.9162520871
 10
2563.6566155753
 20
2754.8799958958
 10
2562.4999543005
 20
2754.8497180334
 10
2561.1149115917
 20
2754.8269367584
 10
2559.5709392736
 20
2754.8127944191
 10
2557.9454585654
 20
2754.8080001715
 10
2556.3199778572
 20
2754.8127944191
 10
2554.7760055391
 20
2754.8269367584
 10
2553.3909628302
 20
2754.8497180334
 10
2552.2343015554
 20
2754.8799958958
 10
2551.3640215408
 20
2754.9162520871
 10
2550.8237622603
 20
2754.9566685707
 10
2550.6406145702
 20
2754.9992186952
 10
2550.8237622603
 20
2755.0417688196
 10
2550.975490279
 20
2755.0564516333
  0
SPLINE
  5
286
330
1F
100
AcDbEntity
  8
0
  6
Continuous
 62
     7
370
    25
100
AcDbSpline
210
0.0
220
0.0
230
1.0
 70
     8
 71
     3
 72
    10
 73
     6
 74
     0
 42
0.00000001
 43
0.00000001
 40
0.0
 40
0.0
 40
0.0
 40
0.0
 40
0.0219459922138955
 40
0.5300207501366095
 40
1.0
 40
1.0
 40
1.0
 40
1.0
 10
2562.56217296918
 20
2752.531668758932
 30
0.0
 10
2562.560135481754
 20
2752.530130453347
 30
0.0
 10
2562.51092783586
 20
2752.492978618406
 30
0.0
 10
2562.462555166667
 20
2752.375907282435
 30
0.0
 10
2562.449367076369
 20
2752.264160079889
 30
0.0
 10
2562.443029871331
 20
2752.210462772777
 30
0.0
  0
ARC
  5
287
330
1F
100
AcDbEntity
  8
0
  6
Continuous
 62
     7
370
    25
100
AcDbCircle
 10
2557.9727661044
 20
2818.5310144337
 30
0.0
 40
66.47103753336891
100
AcDbArc
 50
266.0945910318
 51
273.8561261673
  0
LINE
  5
288
330
1F
100
AcDbEntity
  8
0
  6
Continuous
 62
     7
370
    25
100
AcDbLine
 10
2562.4454585654
 20
2752.2143323905
 30
0.0
 11
2562.4430298712
 21
2752.2104627727
 31
0.0
  0
LINE
  5
289
330
1F
100
AcDbEntity
  8
0
  6
Continuous
 62
     7
370
    25
100
AcDbLine
 10
2197.1454585654
 20
2369.5538810975
 30
0.0
 11
2197.1454585654
 21
2369.4538810975
 31
0.0
  0
LINE
  5
28A
330
1F
100
AcDbEntity
  8
0
  6
Continuous
 62
     7
370
    25
100
AcDbLine
 10
2590.9454585654
 20
2369.5538810975
 30
0.0
 11
2409.9454585654
 21
2369.5538810975
 31
0.0
  0
LINE
  5
28B
330
1F
100
AcDbEntity
  8
0
  6
Continuous
 62
     7
370
    25
100
AcDbLine
 10
2379.9454585654
 20
2369.5538810975
 30
0.0
 11
2237.4454585697
 21
2369.5538810975
 31
0.0
  0
LINE
  5
28C
330
1F
100
AcDbEntity
  8
0
  6
Continuous
 62
     7
370
    25
100
AcDbLine
 10
2201.2577838159
 20
2369.5538810975
 30
0.0
 11
2198.9454585654
 21
2369.5538810975
 31
0.0
  0
LINE
  5
28D
330
1F
100
AcDbEntity
  8
0
  6
Continuous
 62
     7
370
    25
100
AcDbLine
 10
2592.7454585654
 20
2369.4538810975
 30
0.0
 11
2592.7454585654
 21
2369.5538810975
 31
0.0
  0
SPLINE
  5
28E
330
1F
100
AcDbEntity
  8
0
  6
Continuous
 62
     7
370
    25
100
AcDbSpline
210
0.0
220
0.0
230
1.0
 70
     8
 71
     3
 72
    10
 73
     6
 74
     0
 42
0.00000001
 43
0.00000001
 40
0.0
 40
0.0
 40
0.0
 40
0.0
 40
0.1834740337130575
 40
0.4713152133472123
 40
1.0
 40
1.0
 40
1.0
 40
1.0
 10
2216.938044120535
 20
2370.953881097523
 30
0.0
 10
2216.881017377284
 20
2370.888430563511
 30
0.0
 10
2216.734524867591
 20
2370.720298693422
 30
0.0
 10
2216.516685233476
 20
2370.291298749882
 30
0.0
 10
2216.473451546609
 20
2369.904394271619
 30
0.0
 10
2216.445458569703
 20
2369.653881097524
 30
0.0
  0
SPLINE
  5
28F
330
1F
100
AcDbEntity
  8
0
  6
Continuous
 62
     7
370
    25
100
AcDbSpline
210
0.0
220
0.0
230
1.0
 70
     8
 71
     3
 72
    10
 73
     6
 74
     0
 42
0.00000001
 43
0.00000001
 40
0.0
 40
0.0
 40
0.0
 40
0.0
 40
0.5286786081633353
 40
0.8161383429881266
 40
1.0
 40
1.0
 40
1.0
 40
1.0
 10
2236.445458569704
 20
2369.653881097518
 30
0.0
 10
2236.417467933859
 20
2369.904395604495
 30
0.0
 10
2236.374257879954
 20
2370.291122987563
 30
0.0
 10
2236.156475972971
 20
2370.720139553952
 30
0.0
 10
2236.009989980866
 20
2370.888287050807
 30
0.0
 10
2235.95284604956
 20
2370.953881097523
 30
0.0
  0
ENDSEC
  0
SECTION
  2
OBJECTS
  0
DICTIONARY
  5
C
330
0
100
AcDbDictionary
281
     1
  3
ACAD_GROUP
350
D
  3
ACAD_LAYOUT
350
1A
  3
ACAD_MLINESTYLE
350
17
  3
ACAD_PLOTSETTINGS
350
19
  3
ACAD_PLOTSTYLENAME
350
E
  3
ACAD_SCALELIST
350
47
  3
DWGPROPS
350
290
  0
DICTIONARY
  5
D
102
{ACAD_REACTORS
330
C
102
}
330
C
100
AcDbDictionary
281
     1
  0
DICTIONARY
  5
1A
102
{ACAD_REACTORS
330
C
102
}
330
C
100
AcDbDictionary
281
     1
  3
Layout1
350
1E
  3
Layout2
350
26
  3
Model
350
22
  0
DICTIONARY
  5
17
102
{ACAD_REACTORS
330
C
102
}
330
C
100
AcDbDictionary
281
     1
  3
Standard
350
18
  0
DICTIONARY
  5
19
102
{ACAD_REACTORS
330
C
102
}
330
C
100
AcDbDictionary
281
     1
  0
ACDBDICTIONARYWDFLT
  5
E
102
{ACAD_REACTORS
330
C
102
}
330
C
100
AcDbDictionary
281
     1
  3
Normal
350
F
100
AcDbDictionaryWithDefault
340
F
  0
DICTIONARY
  5
47
102
{ACAD_REACTORS
330
C
102
}
330
C
100
AcDbDictionary
281
     1
  3
A0
350
48
  3
A1
350
49
  3
A2
350
4A
  3
A3
350
4B
  3
A4
350
4C
  3
A5
350
4D
  3
A6
350
4E
  3
A7
350
4F
  3
A8
350
50
  3
A9
350
51
  3
B0
350
52
  3
B1
350
53
  3
B2
350
54
  3
B3
350
55
  3
B4
350
56
  3
B5
350
57
  3
B6
350
58
  0
XRECORD
  5
290
102
{ACAD_REACTORS
330
C
102
}
330
C
100
AcDbXrecord
280
     1
  1
DWGPROPS COOKIE
  2

  3

  4

  6

  7

  8
b
  9

300
=
301
=
302
=
303
=
304
=
305
=
306
=
307
=
308
=
309
=
 40
0.0
 41
2460383.272709815
 42
2460383.272709989
  1

 90
        0
  0
LAYOUT
  5
1E
102
{ACAD_REACTORS
330
1A
102
}
330
1A
100
AcDbPlotSettings
  1

  2
none_device
  4

  6

 40
0.0
 41
0.0
 42
0.0
 43
0.0
 44
0.0
 45
0.0
 46
0.0
 47
0.0
 48
0.0
 49
0.0
140
0.0
141
0.0
142
1.0
143
1.0
 70
   688
 72
     1
 73
     0
 74
     5
  7

 75
    16
147
1.0
148
0.0
149
0.0
100
AcDbLayout
  1
Layout1
 70
     1
 71
     1
 10
0.0
 20
0.0
 11
420.0
 21
297.0
 12
0.0
 22
0.0
 32
0.0
 14
1.0000000000E+20
 24
1.0000000000E+20
 34
1.0000000000E+20
 15
-1.0000000000E+20
 25
-1.0000000000E+20
 35
-1.0000000000E+20
146
0.0
 13
0.0
 23
0.0
 33
0.0
 16
1.0
 26
0.0
 36
0.0
 17
0.0
 27
1.0
 37
0.0
 76
     0
330
1B
  0
LAYOUT
  5
26
102
{ACAD_REACTORS
330
1A
102
}
330
1A
100
AcDbPlotSettings
  1

  2
none_device
  4

  6

 40
0.0
 41
0.0
 42
0.0
 43
0.0
 44
0.0
 45
0.0
 46
0.0
 47
0.0
 48
0.0
 49
0.0
140
0.0
141
0.0
142
1.0
143
1.0
 70
   688
 72
     1
 73
     0
 74
     5
  7

 75
    16
147
1.0
148
0.0
149
0.0
100
AcDbLayout
  1
Layout2
 70
     1
 71
     2
 10
0.0
 20
0.0
 11
0.0
 21
0.0
 12
0.0
 22
0.0
 32
0.0
 14
0.0
 24
0.0
 34
0.0
 15
0.0
 25
0.0
 35
0.0
146
0.0
 13
0.0
 23
0.0
 33
0.0
 16
1.0
 26
0.0
 36
0.0
 17
0.0
 27
1.0
 37
0.0
 76
     0
330
23
  0
LAYOUT
  5
22
102
{ACAD_REACTORS
330
1A
102
}
330
1A
100
AcDbPlotSettings
  1

  2
none_device
  4
Letter_(8.50_x_11.00_Inches)
  6

 40
6.35
 41
6.35
 42
6.35000508
 43
6.35000508
 44
215.9
 45
279.4
 46
0.0
 47
0.0
 48
0.0
 49
0.0
140
0.0
141
0.0
142
1.0
143
1.0
 70
  1712
 72
     1
 73
     0
 74
     0
  7

 75
     0
147
1.0
148
0.0
149
0.0
100
AcDbLayout
  1
Model
 70
     1
 71
     0
 10
0.0
 20
0.0
 11
5000.0
 21
3500.0
 12
0.0
 22
0.0
 32
0.0
 14
0.0
 24
0.0
 34
0.0
 15
5000.0
 25
3500.0
 35
0.0
146
0.0
 13
0.0
 23
0.0
 33
0.0
 16
1.0
 26
0.0
 36
0.0
 17
0.0
 27
1.0
 37
0.0
 76
     0
330
1F
331
29
  0
MLINESTYLE
  5
18
102
{ACAD_REACTORS
330
17
102
}
330
17
100
AcDbMlineStyle
  2
Standard
 70
     0
  3

 62
   256
 51
90.0
 52
90.0
 71
     2
 49
0.5
 62
   256
  6
BYLAYER
 49
-0.5
 62
   256
  6
BYLAYER
  0
ACDBPLACEHOLDER
  5
F
102
{ACAD_REACTORS
330
E
102
}
330
E
  0
SCALE
  5
48
102
{ACAD_REACTORS
330
47
102
}
330
47
100
AcDbScale
 70
     0
300
1:1
140
1.0
141
1.0
290
     1
  0
SCALE
  5
49
102
{ACAD_REACTORS
330
47
102
}
330
47
100
AcDbScale
 70
     0
300
1:2
140
1.0
141
2.0
290
     0
  0
SCALE
  5
4A
102
{ACAD_REACTORS
330
47
102
}
330
47
100
AcDbScale
 70
     0
300
1:4
140
1.0
141
4.0
290
     0
  0
SCALE
  5
4B
102
{ACAD_REACTORS
330
47
102
}
330
47
100
AcDbScale
 70
     0
300
1:5
140
1.0
141
5.0
290
     0
  0
SCALE
  5
4C
102
{ACAD_REACTORS
330
47
102
}
330
47
100
AcDbScale
 70
     0
300
1:8
140
1.0
141
8.0
290
     0
  0
SCALE
  5
4D
102
{ACAD_REACTORS
330
47
102
}
330
47
100
AcDbScale
 70
     0
300
1:10
140
1.0
141
10.0
290
     0
  0
SCALE
  5
4E
102
{ACAD_REACTORS
330
47
102
}
330
47
100
AcDbScale
 70
     0
300
1:16
140
1.0
141
16.0
290
     0
  0
SCALE
  5
4F
102
{ACAD_REACTORS
330
47
102
}
330
47
100
AcDbScale
 70
     0
300
1:20
140
1.0
141
20.0
290
     0
  0
SCALE
  5
50
102
{ACAD_REACTORS
330
47
102
}
330
47
100
AcDbScale
 70
     0
300
1:30
140
1.0
141
30.0
290
     0
  0
SCALE
  5
51
102
{ACAD_REACTORS
330
47
102
}
330
47
100
AcDbScale
 70
     0
300
1:40
140
1.0
141
40.0
290
     0
  0
SCALE
  5
52
102
{ACAD_REACTORS
330
47
102
}
330
47
100
AcDbScale
 70
     0
300
1:50
140
1.0
141
50.0
290
     0
  0
SCALE
  5
53
102
{ACAD_REACTORS
330
47
102
}
330
47
100
AcDbScale
 70
     0
300
1:100
140
1.0
141
100.0
290
     0
  0
SCALE
  5
54
102
{ACAD_REACTORS
330
47
102
}
330
47
100
AcDbScale
 70
     0
300
2:1
140
2.0
141
1.0
290
     0
  0
SCALE
  5
55
102
{ACAD_REACTORS
330
47
102
}
330
47
100
AcDbScale
 70
     0
300
4:1
140
4.0
141
1.0
290
     0
  0
SCALE
  5
56
102
{ACAD_REACTORS
330
47
102
}
330
47
100
AcDbScale
 70
     0
300
8:1
140
8.0
141
1.0
290
     0
  0
SCALE
  5
57
102
{ACAD_REACTORS
330
47
102
}
330
47
100
AcDbScale
 70
     0
300
10:1
140
10.0
141
1.0
290
     0
  0
SCALE
  5
58
102
{ACAD_REACTORS
330
47
102
}
330
47
100
AcDbScale
 70
     0
300
100:1
140
100.0
141
1.0
290
     0
  0
ENDSEC
  0
EOF
