  0
SECTION
  2
HEADER
  9
$ACADVER
  1
AC1015
  9
$ACADMAINTVER
 70
     6
  9
$DWGCODEPAGE
  3
DOS932
  9
$INSBASE
 10
0.0
 20
0.0
 30
0.0
  9
$EXTMIN
 10
0.0
 20
0.0
 30
0.0
  9
$EXTMAX
 10
5000.0
 20
3500.0
 30
0.0
  9
$LIMMIN
 10
0.0
 20
0.0
  9
$LIMMAX
 10
5000.0
 20
3500.0
  9
$ORTHOMODE
 70
     0
  9
$REGENMODE
 70
     1
  9
$FILLMODE
 70
     1
  9
$QTEXTMODE
 70
     0
  9
$MIRRTEXT
 70
     1
  9
$LTSCALE
 40
1.0
  9
$ATTMODE
 70
     1
  9
$TEXTSIZE
 40
3.5
  9
$TRACEWID
 40
1.0
  9
$TEXTSTYLE
  7
Standard
  9
$CLAYER
  8
0
  9
$CELTYPE
  6
ByLayer
  9
$CECOLOR
 62
   256
  9
$CELTSCALE
 40
1.0
  9
$DISPSILH
 70
     0
  9
$DIMSCALE
 40
1.0
  9
$DIMASZ
 40
3.302
  9
$DIMEXO
 40
1.0
  9
$DIMDLI
 40
3.75
  9
$DIMRND
 40
0.0
  9
$DIMDLE
 40
0.0
  9
$DIMEXE
 40
1.0
  9
$DIMTP
 40
0.0
  9
$DIMTM
 40
0.0
  9
$DIMTXT
 40
3.5
  9
$DIMCEN
 40
2.5
  9
$DIMTSZ
 40
0.0
  9
$DIMTOL
 70
     0
  9
$DIMLIM
 70
     0
  9
$DIMTIH
 70
     1
  9
$DIMTOH
 70
     1
  9
$DIMSE1
 70
     0
  9
$DIMSE2
 70
     0
  9
$DIMTAD
 70
     1
  9
$DIMZIN
 70
     0
  9
$DIMBLK
  1

  9
$DIMASO
 70
     1
  9
$DIMSHO
 70
     1
  9
$DIMPOST
  1

  9
$DIMAPOST
  1

  9
$DIMALT
 70
     0
  9
$DIMALTD
 70
     3
  9
$DIMALTF
 40
0.0393700787
  9
$DIMLFAC
 40
1.0
  9
$DIMTOFL
 70
     1
  9
$DIMTVP
 40
0.0
  9
$DIMTIX
 70
     0
  9
$DIMSOXD
 70
     0
  9
$DIMSAH
 70
     0
  9
$DIMBLK1
  1

  9
$DIMBLK2
  1

  9
$DIMSTYLE
  2
ISO-25
  9
$DIMCLRD
 70
     0
  9
$DIMCLRE
 70
     0
  9
$DIMCLRT
 70
     0
  9
$DIMTFAC
 40
1.0
  9
$DIMGAP
 40
1.524
  9
$DIMJUST
 70
     0
  9
$DIMSD1
 70
     0
  9
$DIMSD2
 70
     0
  9
$DIMTOLJ
 70
     0
  9
$DIMTZIN
 70
     0
  9
$DIMALTZ
 70
     0
  9
$DIMALTTZ
 70
     0
  9
$DIMUPT
 70
     0
  9
$DIMDEC
 70
     2
  9
$DIMTDEC
 70
     2
  9
$DIMALTU
 70
     2
  9
$DIMALTTD
 70
     3
  9
$DIMTXSTY
  7
Standard
  9
$DIMAUNIT
 70
     0
  9
$DIMADEC
 70
     2
  9
$DIMALTRND
 40
0.0
  9
$DIMAZIN
 70
     0
  9
$DIMDSEP
 70
    44
  9
$DIMATFIT
 70
     3
  9
$DIMFRAC
 70
     0
  9
$DIMLDRBLK
  1

  9
$DIMLUNIT
 70
     2
  9
$DIMLWD
 70
    -2
  9
$DIMLWE
 70
    -2
  9
$DIMTMOVE
 70
     0
  9
$LUNITS
 70
     2
  9
$LUPREC
 70
     3
  9
$SKETCHINC
 40
1.0
  9
$FILLETRAD
 40
0.0
  9
$AUNITS
 70
     0
  9
$AUPREC
 70
     2
  9
$MENU
  1
.
  9
$ELEVATION
 40
0.0
  9
$PELEVATION
 40
0.0
  9
$THICKNESS
 40
0.0
  9
$LIMCHECK
 70
     0
  9
$CHAMFERA
 40
0.0
  9
$CHAMFERB
 40
0.0
  9
$CHAMFERC
 40
0.0
  9
$CHAMFERD
 40
0.0
  9
$SKPOLY
 70
     0
  9
$TDCREATE
 40
2460383.707613495
  9
$TDUCREATE
 40
2460383.332613495
  9
$TDUPDATE
 40
2460383.707613854
  9
$TDUUPDATE
 40
2460383.332613854
  9
$TDINDWG
 40
0.0000000116
  9
$TDUSRTIMER
 40
0.0000000116
  9
$USRTIMER
 70
     1
  9
$ANGBASE
 50
0.0
  9
$ANGDIR
 70
     0
  9
$PDMODE
 70
     0
  9
$PDSIZE
 40
-1.0
  9
$PLINEWID
 40
0.0
  9
$SPLFRAME
 70
     0
  9
$SPLINETYPE
 70
     6
  9
$SPLINESEGS
 70
     8
  9
$HANDSEED
  5
2DF
  9
$SURFTAB1
 70
     6
  9
$SURFTAB2
 70
     6
  9
$SURFTYPE
 70
     6
  9
$SURFU
 70
     6
  9
$SURFV
 70
     6
  9
$UCSBASE
  2

  9
$UCSNAME
  2

  9
$UCSORG
 10
0.0
 20
0.0
 30
0.0
  9
$UCSXDIR
 10
1.0
 20
0.0
 30
0.0
  9
$UCSYDIR
 10
0.0
 20
1.0
 30
0.0
  9
$UCSORTHOREF
  2

  9
$UCSORTHOVIEW
 70
     0
  9
$UCSORGTOP
 10
0.0
 20
0.0
 30
0.0
  9
$UCSORGBOTTOM
 10
0.0
 20
0.0
 30
0.0
  9
$UCSORGLEFT
 10
0.0
 20
0.0
 30
0.0
  9
$UCSORGRIGHT
 10
0.0
 20
0.0
 30
0.0
  9
$UCSORGFRONT
 10
0.0
 20
0.0
 30
0.0
  9
$UCSORGBACK
 10
0.0
 20
0.0
 30
0.0
  9
$PUCSBASE
  2

  9
$PUCSNAME
  2

  9
$PUCSORG
 10
0.0
 20
0.0
 30
0.0
  9
$PUCSXDIR
 10
1.0
 20
0.0
 30
0.0
  9
$PUCSYDIR
 10
0.0
 20
1.0
 30
0.0
  9
$PUCSORTHOREF
  2

  9
$PUCSORTHOVIEW
 70
     0
  9
$PUCSORGTOP
 10
0.0
 20
0.0
 30
0.0
  9
$PUCSORGBOTTOM
 10
0.0
 20
0.0
 30
0.0
  9
$PUCSORGLEFT
 10
0.0
 20
0.0
 30
0.0
  9
$PUCSORGRIGHT
 10
0.0
 20
0.0
 30
0.0
  9
$PUCSORGFRONT
 10
0.0
 20
0.0
 30
0.0
  9
$PUCSORGBACK
 10
0.0
 20
0.0
 30
0.0
  9
$USERI1
 70
     0
  9
$USERI2
 70
     0
  9
$USERI3
 70
     0
  9
$USERI4
 70
     0
  9
$USERI5
 70
     0
  9
$USERR1
 40
0.0
  9
$USERR2
 40
0.0
  9
$USERR3
 40
0.0
  9
$USERR4
 40
0.0
  9
$USERR5
 40
0.0
  9
$WORLDVIEW
 70
     1
  9
$SHADEDGE
 70
     3
  9
$SHADEDIF
 70
    70
  9
$TILEMODE
 70
     1
  9
$MAXACTVP
 70
    64
  9
$PINSBASE
 10
0.0
 20
0.0
 30
0.0
  9
$PLIMCHECK
 70
     0
  9
$PEXTMIN
 10
1.0000000000E+20
 20
1.0000000000E+20
 30
1.0000000000E+20
  9
$PEXTMAX
 10
-1.0000000000E+20
 20
-1.0000000000E+20
 30
-1.0000000000E+20
  9
$PLIMMIN
 10
0.0
 20
0.0
  9
$PLIMMAX
 10
420.0
 20
297.0
  9
$UNITMODE
 70
     0
  9
$VISRETAIN
 70
     1
  9
$PLINEGEN
 70
     0
  9
$PSLTSCALE
 70
     1
  9
$TREEDEPTH
 70
  3020
  9
$CMLSTYLE
  2
Standard
  9
$CMLJUST
 70
     0
  9
$CMLSCALE
 40
20.0
  9
$PROXYGRAPHICS
 70
     1
  9
$MEASUREMENT
 70
     1
  9
$CELWEIGHT
370
    -1
  9
$ENDCAPS
280
     0
  9
$JOINSTYLE
280
     0
  9
$LWDISPLAY
290
     1
  9
$INSUNITS
 70
     4
  9
$HYPERLINKBASE
  1

  9
$STYLESHEET
  1

  9
$XEDIT
290
     1
  9
$CEPSNTYPE
380
     0
  9
$PSTYLEMODE
290
     1
  9
$FINGERPRINTGUID
  2
{f493859b-8c15-4a3e-9d94-696382678890}
  9
$VERSIONGUID
  2
{FAEB1C32-E019-11D5-929B-00C0DF256EC4}
  9
$EXTNAMES
290
     1
  9
$PSVPSCALE
 40
0.0
  9
$OLESTARTUP
290
     0
  0
ENDSEC
  0
SECTION
  2
CLASSES
  0
CLASS
  1
ACDBDICTIONARYWDFLT
  2
AcDbDictionaryWithDefault
  3
ObjectDBX Classes
 90
        0
280
     0
281
     0
  0
CLASS
  1
VISUALSTYLE
  2
AcDbVisualStyle
  3
ObjectDBX Classes
 90
     4095
280
     0
281
     0
  0
CLASS
  1
MATERIAL
  2
AcDbMaterial
  3
ObjectDBX Classes
 90
     1153
280
     0
281
     0
  0
CLASS
  1
SCALE
  2
AcDbScale
  3
ObjectDBX Classes
 90
     1153
280
     0
281
     0
  0
CLASS
  1
TABLESTYLE
  2
AcDbTableStyle
  3
ObjectDBX Classes
 90
     4095
280
     0
281
     0
  0
CLASS
  1
MLEADERSTYLE
  2
AcDbMLeaderStyle
  3
ACDB_MLEADERSTYLE_CLASS
 90
     4095
280
     0
281
     0
  0
CLASS
  1
SUN
  2
AcDbSun
  3
SCENEOE
 90
     1153
280
     0
281
     0
  0
CLASS
  1
ACDBPLACEHOLDER
  2
AcDbPlaceHolder
  3
ObjectDBX Classes
 90
        0
280
     0
281
     0
  0
CLASS
  1
LAYOUT
  2
AcDbLayout
  3
ObjectDBX Classes
 90
        0
280
     0
281
     0
  0
ENDSEC
  0
SECTION
  2
TABLES
  0
TABLE
  2
VPORT
  5
8
330
0
100
AcDbSymbolTable
 70
     1
  0
VPORT
  5
29
330
8
100
AcDbSymbolTableRecord
100
AcDbViewportTableRecord
  2
*Active
 70
     0
 10
0.0
 20
0.0
 11
1.0
 21
1.0
 12
2500.0
 22
1750.0
 13
0.0
 23
0.0
 14
10.0
 24
10.0
 15
10.0
 25
10.0
 16
0.0
 26
0.0
 36
1.0
 17
0.0
 27
0.0
 37
0.0
 40
3500.0
 41
1.4285714286
 42
50.0
 43
0.0
 44
0.0
 50
0.0
 51
0.0
 71
     0
 72
  2000
 73
     1
 74
     3
 75
     0
 76
     0
 77
     0
 78
     0
281
     0
 65
     1
110
0.0
120
0.0
130
0.0
111
1.0
121
0.0
131
0.0
112
0.0
122
1.0
132
0.0
 79
     0
146
0.0
  0
ENDTAB
  0
TABLE
  2
LTYPE
  5
5
330
0
100
AcDbSymbolTable
 70
     6
  0
LTYPE
  5
14
330
5
100
AcDbSymbolTableRecord
100
AcDbLinetypeTableRecord
  2
ByBlock
 70
     0
  3

 72
    65
 73
     0
 40
0.0
  0
LTYPE
  5
15
330
5
100
AcDbSymbolTableRecord
100
AcDbLinetypeTableRecord
  2
ByLayer
 70
     0
  3

 72
    65
 73
     0
 40
0.0
  0
LTYPE
  5
16
330
5
100
AcDbSymbolTableRecord
100
AcDbLinetypeTableRecord
  2
Continuous
 70
     0
  3
Solid line
 72
    65
 73
     0
 40
0.0
  0
LTYPE
  5
5E
330
5
100
AcDbSymbolTableRecord
100
AcDbLinetypeTableRecord
  2
HIDDEN
 70
     0
  3
Hidden __ __ __ __ __ __ __ __ __ __ __ __ __ __
 72
    65
 73
     2
 40
1.905
 49
1.27
 74
     0
 49
-0.635
 74
     0
  0
LTYPE
  5
5F
330
5
100
AcDbSymbolTableRecord
100
AcDbLinetypeTableRecord
  2
PHANTOM
 70
     0
  3
Phantom ______  __  __  ______  __  __  ______
 72
    65
 73
     6
 40
12.7
 49
6.35
 74
     0
 49
-1.27
 74
     0
 49
1.27
 74
     0
 49
-1.27
 74
     0
 49
1.27
 74
     0
 49
-1.27
 74
     0
  0
LTYPE
  5
60
330
5
100
AcDbSymbolTableRecord
100
AcDbLinetypeTableRecord
  2
CENTER
 70
     0
  3
Center ____ _ ____ _ ____ _ ____ _ ____ _ ____
 72
    65
 73
     4
 40
10.16
 49
6.35
 74
     0
 49
-1.27
 74
     0
 49
1.27
 74
     0
 49
-1.27
 74
     0
  0
LTYPE
  5
61
330
5
100
AcDbSymbolTableRecord
100
AcDbLinetypeTableRecord
  2
CENTERX2
 70
     0
  3
Center (2x) ________  __  ________  __  _____
 72
    65
 73
     4
 40
20.32
 49
12.7
 74
     0
 49
-2.54
 74
     0
 49
2.54
 74
     0
 49
-2.54
 74
     0
  0
LTYPE
  5
62
330
5
100
AcDbSymbolTableRecord
100
AcDbLinetypeTableRecord
  2
DOT2
 70
     0
  3
Dot (.5x) ........................................
 72
    65
 73
     2
 40
0.635
 49
0.0
 74
     0
 49
-0.635
 74
     0
  0
ENDTAB
  0
TABLE
  2
LAYER
  5
2
330
0
100
AcDbSymbolTable
 70
     3
  0
LAYER
  5
10
330
2
100
AcDbSymbolTableRecord
100
AcDbLayerTableRecord
  2
0
 70
     0
 62
     7
  6
Continuous
370
    -3
390
F
  0
LAYER
  5
63
330
2
100
AcDbSymbolTableRecord
100
AcDbLayerTableRecord
  2
SLD-0
 70
     0
 62
   179
  6
Continuous
370
    -3
390
F
  0
LAYER
  5
64
330
2
100
AcDbSymbolTableRecord
100
AcDbLayerTableRecord
  2
寸法
 70
     0
 62
   179
  6
Continuous
370
    -3
390
F
  0
ENDTAB
  0
TABLE
  2
STYLE
  5
3
330
0
100
AcDbSymbolTable
 70
     2
  0
STYLE
  5
11
330
3
100
AcDbSymbolTableRecord
100
AcDbTextStyleTableRecord
  2
Standard
 70
     0
 40
0.0
 41
1.0
 50
0.0
 71
     0
 42
3.5
  3
txt
  4
bigfont
  0
STYLE
  5
66
330
3
100
AcDbSymbolTableRecord
100
AcDbTextStyleTableRecord
  2
SLDTEXTSTYLE0
 70
     0
 40
0.0
 41
0.75
 50
0.0
 71
     0
 42
3.5
  3
TXT
  4
bigfont
  0
ENDTAB
  0
TABLE
  2
VIEW
  5
6
330
0
100
AcDbSymbolTable
 70
     0
  0
ENDTAB
  0
TABLE
  2
UCS
  5
7
330
0
100
AcDbSymbolTable
 70
     0
  0
ENDTAB
  0
TABLE
  2
APPID
  5
9
330
0
100
AcDbSymbolTable
 70
     1
  0
APPID
  5
12
330
9
100
AcDbSymbolTableRecord
100
AcDbRegAppTableRecord
  2
ACAD
 70
     0
  0
ENDTAB
  0
TABLE
  2
DIMSTYLE
  5
A
330
0
100
AcDbSymbolTable
 70
     1
100
AcDbDimStyleTable
  0
DIMSTYLE
105
27
330
A
100
AcDbSymbolTableRecord
100
AcDbDimStyleTableRecord
  2
ISO-25
 70
     0
 41
2.5
 42
0.625
 43
3.75
 44
1.25
 73
     0
 74
     0
 77
     1
 78
     8
140
2.5
141
2.5
143
0.0393700787
147
0.625
171
     3
172
     1
178
     0
271
     2
272
     2
274
     3
278
    44
283
     0
284
     8
340
11
  0
ENDTAB
  0
TABLE
  2
BLOCK_RECORD
  5
1
330
0
100
AcDbSymbolTable
 70
     1
  0
BLOCK_RECORD
  5
1F
330
1
100
AcDbSymbolTableRecord
100
AcDbBlockTableRecord
  2
*Model_Space
340
22
  0
BLOCK_RECORD
  5
1B
330
1
100
AcDbSymbolTableRecord
100
AcDbBlockTableRecord
  2
*Paper_Space
340
1E
  0
BLOCK_RECORD
  5
23
330
1
100
AcDbSymbolTableRecord
100
AcDbBlockTableRecord
  2
*Paper_Space0
340
26
  0
ENDTAB
  0
ENDSEC
  0
SECTION
  2
BLOCKS
  0
BLOCK
  5
20
330
1F
100
AcDbEntity
  8
0
100
AcDbBlockBegin
  2
*Model_Space
 70
     0
 10
0.0
 20
0.0
 30
0.0
  3
*Model_Space
  1

  0
ENDBLK
  5
21
330
1F
100
AcDbEntity
  8
0
100
AcDbBlockEnd
  0
BLOCK
  5
1C
330
1B
100
AcDbEntity
 67
     1
  8
0
100
AcDbBlockBegin
  2
*Paper_Space
 70
     0
 10
0.0
 20
0.0
 30
0.0
  3
*Paper_Space
  1

  0
ENDBLK
  5
1D
330
1B
100
AcDbEntity
 67
     1
  8
0
100
AcDbBlockEnd
  0
BLOCK
  5
24
330
23
100
AcDbEntity
  8
0
100
AcDbBlockBegin
  2
*Paper_Space0
 70
     0
 10
0.0
 20
0.0
 30
0.0
  3
*Paper_Space0
  1

  0
ENDBLK
  5
25
330
23
100
AcDbEntity
  8
0
100
AcDbBlockEnd
  0
ENDSEC
  0
SECTION
  2
ENTITIES
  0
LINE
  5
65
330
1F
100
AcDbEntity
  8
0
  6
Continuous
 62
     7
370
    18
100
AcDbLine
 10
4801.663086451
 20
279.1403827252
 30
0.0
 11
3345.9062220501
 21
279.1403827252
 31
0.0
  0
MTEXT
  5
67
330
1F
100
AcDbEntity
  8
0
  6
Continuous
 62
     7
370
     0
100
AcDbMText
 10
2072.8324799637
 20
2519.2846179971
 30
0.0
 40
52.9166666667
 41
0.0
 71
     1
 72
     1
  1
＜正面＞
  7
SLDTEXTSTYLE0
 73
     1
 44
1.0
  0
MTEXT
  5
68
330
1F
100
AcDbEntity
  8
0
  6
Continuous
 62
     7
370
     0
100
AcDbMText
 10
3377.8142431891
 20
379.4057208634
 30
0.0
 40
52.9166666667
 41
0.0
 71
     1
 72
     1
  1
品名：
  7
SLDTEXTSTYLE0
 73
     1
 44
1.0
  0
MTEXT
  5
69
330
1F
100
AcDbEntity
  8
0
  6
Continuous
 62
     7
370
     0
100
AcDbMText
 10
4446.6634374817
 20
385.2343854145
 30
0.0
 40
52.9166666667
 41
0.0
 71
     1
 72
     1
  1
Pamouna
  7
SLDTEXTSTYLE0
 73
     1
 44
1.0
  0
MTEXT
  5
6A
330
1F
100
AcDbEntity
  8
寸法
 62
     7
100
AcDbMText
 10
4688.0073048854
 20
218.6255182943
 30
0.0
 40
52.9166666667
 41
0.0
 71
     1
 72
     1
  1
1/1
  7
SLDTEXTSTYLE0
 73
     1
 44
1.0
  0
MTEXT
  5
6B
330
1F
100
AcDbEntity
  8
寸法
 62
     7
100
AcDbMText
 10
3611.2831293492
 20
398.3924235142
 30
0.0
 40
66.1458333333
 41
0.0
 71
     1
 72
     1
  1
MAG400L
  7
SLDTEXTSTYLE0
 73
     1
 44
1.0
  0
MTEXT
  5
6C
330
1F
100
AcDbEntity
  8
寸法
 62
     7
100
AcDbMText
 10
4198.7969392118
 20
218.6255210883
 30
0.0
 40
52.9166666667
 41
0.0
 71
     1
 72
     1
  1
2024/03/13
  7
SLDTEXTSTYLE0
 73
     1
 44
1.0
  0
MTEXT
  5
6D
330
1F
100
AcDbEntity
  8
寸法
 62
     7
100
AcDbMText
 10
3972.4665930518
 20
2520.4136708187
 30
0.0
 40
52.9166666667
 41
0.0
 71
     1
 72
     1
  1
＜右側面＞
  7
SLDTEXTSTYLE0
 73
     1
 44
1.0
  0
MTEXT
  5
6E
330
1F
100
AcDbEntity
  8
0
  6
Continuous
 62
     7
370
     0
100
AcDbMText
 10
669.5723251208
 20
2520.6918468275
 30
0.0
 40
52.9166666667
 41
0.0
 71
     1
 72
     1
  1
＜左側面＞
  7
SLDTEXTSTYLE0
 73
     1
 44
1.0
  0
MTEXT
  5
6F
330
1F
100
AcDbEntity
  8
0
  6
Continuous
 62
     7
370
     0
100
AcDbMText
 10
2075.2858929776
 20
3225.5678091759
 30
0.0
 40
52.9166666667
 41
0.0
 71
     1
 72
     1
  1
＜上面＞
  7
SLDTEXTSTYLE0
 73
     1
 44
1.0
  0
ARC
  5
70
330
1F
100
AcDbEntity
  8
0
  6
Continuous
 62
     7
370
    25
100
AcDbCircle
 10
2257.1454585654
 20
616.4543978663
 30
0.0
 40
0.2000000000002728
100
AcDbArc
 50
180.0
 51
270.0
  0
LINE
  5
71
330
1F
100
AcDbEntity
  8
0
  6
Continuous
 62
     7
370
    25
100
AcDbLine
 10
2257.1454585654
 20
616.2543978663
 30
0.0
 11
2258.9454585654
 21
616.2543978663
 31
0.0
  0
LINE
  5
72
330
1F
100
AcDbEntity
  8
0
  6
Continuous
 62
     7
370
    25
100
AcDbLine
 10
2258.9454585654
 20
616.2543978663
 30
0.0
 11
2650.9454585654
 21
616.2543978663
 31
0.0
  0
LINE
  5
73
330
1F
100
AcDbEntity
  8
0
  6
Continuous
 62
     7
370
    25
100
AcDbLine
 10
2650.9454585654
 20
616.2543978663
 30
0.0
 11
2652.7454585654
 21
616.2543978663
 31
0.0
  0
ARC
  5
74
330
1F
100
AcDbEntity
  8
0
  6
Continuous
 62
     7
370
    25
100
AcDbCircle
 10
2652.7454585654
 20
616.4543978663
 30
0.0
 40
0.2000000000002728
100
AcDbArc
 50
270.0
 51
0.0
  0
LINE
  5
75
330
1F
100
AcDbEntity
  8
0
  6
Continuous
 62
     7
370
    25
100
AcDbLine
 10
2653.9454585654
 20
606.7543978663
 30
0.0
 11
2653.9454585654
 21
2378.2543978663
 31
0.0
  0
LINE
  5
76
330
1F
100
AcDbEntity
  8
0
  6
Continuous
 62
     7
370
    25
100
AcDbLine
 10
2636.4454585654
 20
606.7543978663
 30
0.0
 11
2653.9454585654
 21
606.7543978663
 31
0.0
  0
LINE
  5
77
330
1F
100
AcDbEntity
  8
0
  6
Continuous
 62
     7
370
    25
100
AcDbLine
 10
2636.4454585654
 20
616.2543978663
 30
0.0
 11
2636.4454585654
 21
606.7543978663
 31
0.0
  0
LINE
  5
78
330
1F
100
AcDbEntity
  8
0
  6
Continuous
 62
     7
370
    25
100
AcDbLine
 10
2654.9454585654
 20
2378.2543978663
 30
0.0
 11
2652.9454585654
 21
2378.2543978663
 31
0.0
  0
LINE
  5
79
330
1F
100
AcDbEntity
  8
0
  6
Continuous
 62
     7
370
    25
100
AcDbLine
 10
2256.9454585654
 20
2378.2543978663
 30
0.0
 11
2254.4454585654
 21
2378.2543978663
 31
0.0
  0
LINE
  5
7A
330
1F
100
AcDbEntity
  8
0
  6
Continuous
 62
     7
370
    25
100
AcDbLine
 10
2254.4454585654
 20
2406.7543978663
 30
0.0
 11
2254.4454585654
 21
2378.2543978663
 31
0.0
  0
LINE
  5
7B
330
1F
100
AcDbEntity
  8
0
  6
Continuous
 62
     7
370
    25
100
AcDbLine
 10
2654.9454585654
 20
2406.7543978663
 30
0.0
 11
2654.9454585654
 21
2378.2543978663
 31
0.0
  0
LINE
  5
7C
330
1F
100
AcDbEntity
  8
0
  6
Continuous
 62
     7
370
    25
100
AcDbLine
 10
2654.9454585654
 20
2406.7543978663
 30
0.0
 11
2254.4454585654
 21
2406.7543978663
 31
0.0
  0
LINE
  5
7D
330
1F
100
AcDbEntity
  8
0
  6
Continuous
 62
     7
370
    25
100
AcDbLine
 10
2652.9454585654
 20
2396.7543978663
 30
0.0
 11
2256.9454585654
 21
2396.7543978663
 31
0.0
  0
LINE
  5
7E
330
1F
100
AcDbEntity
  8
0
  6
Continuous
 62
     7
370
    25
100
AcDbLine
 10
2652.9454585654
 20
616.7543978663
 30
0.0
 11
2652.9454585654
 21
2396.7543978663
 31
0.0
  0
LINE
  5
7F
330
1F
100
AcDbEntity
  8
0
  6
Continuous
 62
     7
370
    25
100
AcDbLine
 10
2256.9454585654
 20
616.7543978663
 30
0.0
 11
2652.9454585654
 21
616.7543978663
 31
0.0
  0
LINE
  5
80
330
1F
100
AcDbEntity
  8
0
  6
Continuous
 62
     7
370
    25
100
AcDbLine
 10
2256.9454585654
 20
2396.7543978663
 30
0.0
 11
2256.9454585654
 21
616.7543978663
 31
0.0
  0
LINE
  5
81
330
1F
100
AcDbEntity
  8
0
  6
Continuous
 62
     7
370
    25
100
AcDbLine
 10
2272.9454585654
 20
606.7543978663
 30
0.0
 11
2272.9454585654
 21
616.2543978663
 31
0.0
  0
LINE
  5
82
330
1F
100
AcDbEntity
  8
0
  6
Continuous
 62
     7
370
    25
100
AcDbLine
 10
2255.4454585654
 20
606.7543978663
 30
0.0
 11
2272.9454585654
 21
606.7543978663
 31
0.0
  0
LINE
  5
83
330
1F
100
AcDbEntity
  8
0
  6
Continuous
 62
     7
370
    25
100
AcDbLine
 10
2255.4454585654
 20
2378.2543978663
 30
0.0
 11
2255.4454585654
 21
606.7543978663
 31
0.0
  0
LINE
  5
84
330
1F
100
AcDbEntity
  8
0
  6
Continuous
 62
     7
370
    25
100
AcDbLine
 10
2636.4454585654
 20
607.7543978663
 30
0.0
 11
2272.9454585654
 21
607.7543978663
 31
0.0
  0
LINE
  5
85
330
1F
100
AcDbEntity
  8
0
  6
Continuous
 62
     7
370
    25
100
AcDbLine
 10
2256.9454585654
 20
616.4655465881
 30
0.0
 11
2256.9454585654
 21
616.5543978663
 31
0.0
  0
LINE
  5
86
330
1F
100
AcDbEntity
  8
0
  6
Continuous
 62
     7
370
    25
100
AcDbLine
 10
2257.1454585654
 20
616.7543978663
 30
0.0
 11
2257.1454585654
 21
616.2683337685
 31
0.0
  0
ARC
  5
87
330
1F
100
AcDbEntity
  8
0
  6
Continuous
 62
     7
370
    25
100
AcDbCircle
 10
2257.1440746856
 20
616.466950026
 30
0.0
 40
0.1986210785922512
100
AcDbArc
 50
180.4048499762
 51
270.3992079348
  0
SPLINE
  5
88
330
1F
100
AcDbEntity
  8
0
  6
Continuous
 62
     7
370
    25
100
AcDbSpline
210
0.0
220
0.0
230
1.0
 70
     8
 71
     3
 72
    13
 73
     9
 74
     0
 42
0.00000001
 43
0.00000001
 40
0.0
 40
0.0
 40
0.0
 40
0.0
 40
0.0075029974113208
 40
0.3818974549663102
 40
0.6070018873270905
 40
0.7653769096342375
 40
0.882460504980979
 40
1.0
 40
1.0
 40
1.0
 40
1.0
 10
2256.945458565359
 20
616.5543978663137
 30
0.0
 10
2256.945459520963
 20
616.554835864209
 30
0.0
 10
2256.945508160578
 20
616.5771296585782
 30
0.0
 10
2256.951630265317
 20
616.6240140467938
 30
0.0
 10
2256.993646370792
 20
616.6902984838301
 30
0.0
 10
2257.042457172757
 20
616.7285600430029
 30
0.0
 10
2257.093187820072
 20
616.7503158187378
 30
0.0
 10
2257.128012427523
 20
616.7530354222876
 30
0.0
 10
2257.145458565359
 20
616.7543978663138
 30
0.0
  0
LINE
  5
89
330
1F
100
AcDbEntity
  8
0
  6
Continuous
 62
     7
370
    25
100
AcDbLine
 10
2258.9454585654
 20
616.2683337685
 30
0.0
 11
2258.9454585654
 21
616.7543978663
 31
0.0
  0
LINE
  5
8A
330
1F
100
AcDbEntity
  8
0
  6
Continuous
 62
     7
370
    25
100
AcDbLine
 10
2257.1454585654
 20
616.2683337685
 30
0.0
 11
2258.9454585654
 21
616.2683337685
 31
0.0
  0
LINE
  5
8B
330
1F
100
AcDbEntity
  8
0
  6
Continuous
 62
     7
370
    25
100
AcDbLine
 10
2256.9454585654
 20
616.4543978663
 30
0.0
 11
2256.9454585654
 21
616.4655465881
 31
0.0
  0
LINE
  5
8C
330
1F
100
AcDbEntity
  8
0
  6
Continuous
 62
     7
370
    25
100
AcDbLine
 10
2258.9454585654
 20
616.2543978663
 30
0.0
 11
2258.9454585654
 21
616.2683337685
 31
0.0
  0
LINE
  5
8D
330
1F
100
AcDbEntity
  8
0
  6
Continuous
 62
     7
370
    25
100
AcDbLine
 10
2256.9454585654
 20
616.5543978663
 30
0.0
 11
2256.9454585654
 21
616.7543978663
 31
0.0
  0
LINE
  5
8E
330
1F
100
AcDbEntity
  8
0
  6
Continuous
 62
     7
370
    25
100
AcDbLine
 10
2258.9454585654
 20
616.2683337685
 30
0.0
 11
2650.9454585654
 21
616.2683337685
 31
0.0
  0
LINE
  5
8F
330
1F
100
AcDbEntity
  8
0
  6
Continuous
 62
     7
370
    25
100
AcDbLine
 10
2650.9454585654
 20
616.7543978663
 30
0.0
 11
2650.9454585654
 21
616.2683337685
 31
0.0
  0
LINE
  5
90
330
1F
100
AcDbEntity
  8
0
  6
Continuous
 62
     7
370
    25
100
AcDbLine
 10
2650.9454585654
 20
616.2683337685
 30
0.0
 11
2650.9454585654
 21
616.2543978663
 31
0.0
  0
LINE
  5
91
330
1F
100
AcDbEntity
  8
0
  6
Continuous
 62
     7
370
    25
100
AcDbLine
 10
2652.9454585654
 20
616.5543978663
 30
0.0
 11
2652.9454585654
 21
616.4655465881
 31
0.0
  0
ARC
  5
92
330
1F
100
AcDbEntity
  8
0
  6
Continuous
 62
     7
370
    25
100
AcDbCircle
 10
2652.7468424451
 20
616.466950026
 30
0.0
 40
0.1986210785930915
100
AcDbArc
 50
269.6007920655
 51
359.5951500236
  0
LINE
  5
93
330
1F
100
AcDbEntity
  8
0
  6
Continuous
 62
     7
370
    25
100
AcDbLine
 10
2652.7454585654
 20
616.2683337685
 30
0.0
 11
2652.7454585654
 21
616.7543978663
 31
0.0
  0
SPLINE
  5
94
330
1F
100
AcDbEntity
  8
0
  6
Continuous
 62
     7
370
    25
100
AcDbSpline
210
0.0
220
0.0
230
1.0
 70
     8
 71
     3
 72
    13
 73
     9
 74
     0
 42
0.00000001
 43
0.00000001
 40
0.0
 40
0.0
 40
0.0
 40
0.0
 40
0.0075029974113214
 40
0.3818974549657648
 40
0.6070018873267128
 40
0.7653769096342216
 40
0.8824605049805154
 40
1.0
 40
1.0
 40
1.0
 40
1.0
 10
2652.945458565366
 20
616.5543978663146
 30
0.0
 10
2652.945457609761
 20
616.5548358642098
 30
0.0
 10
2652.94540897015
 20
616.577129658579
 30
0.0
 10
2652.939286865407
 20
616.6240140467946
 30
0.0
 10
2652.897270759933
 20
616.690298483831
 30
0.0
 10
2652.848459957967
 20
616.7285600430037
 30
0.0
 10
2652.797729310652
 20
616.7503158187388
 30
0.0
 10
2652.762904703202
 20
616.7530354222886
 30
0.0
 10
2652.745458565366
 20
616.7543978663147
 30
0.0
  0
LINE
  5
95
330
1F
100
AcDbEntity
  8
0
  6
Continuous
 62
     7
370
    25
100
AcDbLine
 10
2650.9454585654
 20
616.2683337685
 30
0.0
 11
2652.7454585654
 21
616.2683337685
 31
0.0
  0
LINE
  5
96
330
1F
100
AcDbEntity
  8
0
  6
Continuous
 62
     7
370
    25
100
AcDbLine
 10
2652.9454585654
 20
616.4655465881
 30
0.0
 11
2652.9454585654
 21
616.4543978663
 31
0.0
  0
LINE
  5
97
330
1F
100
AcDbEntity
  8
0
  6
Continuous
 62
     7
370
    25
100
AcDbLine
 10
2652.9454585654
 20
616.7543978663
 30
0.0
 11
2652.9454585654
 21
616.5543978663
 31
0.0
  0
LINE
  5
98
330
1F
100
AcDbEntity
  8
0
  6
Continuous
 62
     7
370
    25
100
AcDbLine
 10
2257.1454585654
 20
616.2683337685
 30
0.0
 11
2257.1454585654
 21
616.2543978663
 31
0.0
  0
LINE
  5
99
330
1F
100
AcDbEntity
  8
0
  6
Continuous
 62
     7
370
    25
100
AcDbLine
 10
2652.7454585654
 20
616.2543978663
 30
0.0
 11
2652.7454585654
 21
616.2683337685
 31
0.0
  0
LINE
  5
9A
330
1F
100
AcDbEntity
  8
0
  6
Continuous
 62
     7
370
    25
100
AcDbLine
 10
858.1292233787
 20
1796.2543978663
 30
0.0
 11
856.1292233787
 21
1796.2543978663
 31
0.0
  0
LINE
  5
9B
330
1F
100
AcDbEntity
  8
0
  6
Continuous
 62
     7
370
    25
100
AcDbLine
 10
856.1292233787
 20
1761.2543978663
 30
0.0
 11
858.1292233787
 21
1761.2543978663
 31
0.0
  0
LINE
  5
9C
330
1F
100
AcDbEntity
  8
0
  6
Continuous
 62
     7
370
    25
100
AcDbLine
 10
856.1292233787
 20
2250.7543978663
 30
0.0
 11
858.1292233787
 21
2250.7543978663
 31
0.0
  0
LINE
  5
9D
330
1F
100
AcDbEntity
  8
0
  6
Continuous
 62
     7
370
    25
100
AcDbLine
 10
858.1292233787
 20
822.7543978663
 30
0.0
 11
856.1292233787
 21
822.7543978663
 31
0.0
  0
LINE
  5
9E
330
1F
100
AcDbEntity
  8
0
  6
Continuous
 62
     7
370
    25
100
AcDbLine
 10
858.1292233787
 20
1313.2543978663
 30
0.0
 11
856.1292233787
 21
1313.2543978663
 31
0.0
  0
LINE
  5
9F
330
1F
100
AcDbEntity
  8
0
  6
Continuous
 62
     7
370
    25
100
AcDbLine
 10
856.1292233787
 20
1278.2543978663
 30
0.0
 11
858.1292233787
 21
1278.2543978663
 31
0.0
  0
LINE
  5
A0
330
1F
100
AcDbEntity
  8
0
  6
Continuous
 62
     7
370
    25
100
AcDbLine
 10
475.6515032166
 20
2309.2767567878
 30
0.0
 11
477.6292233787
 21
2309.2249683628
 31
0.0
  0
LINE
  5
A1
330
1F
100
AcDbEntity
  8
0
  6
Continuous
 62
     7
370
    25
100
AcDbLine
 10
477.6292233787
 20
2314.7268537215
 30
0.0
 11
475.7954764323
 21
2314.7748720752
 31
0.0
  0
ARC
  5
A2
330
1F
100
AcDbEntity
  8
0
  6
Continuous
 62
     7
370
    25
100
AcDbCircle
 10
475.6593563011
 20
2309.5766539853
 30
0.0
 40
0.3000000000003351
100
AcDbArc
 50
178.5000000001
 51
268.5000000001
  0
ARC
  5
A3
330
1F
100
AcDbEntity
  8
0
  6
Continuous
 62
     7
370
    25
100
AcDbCircle
 10
475.7876233478
 20
2314.4749748777
 30
0.0
 40
0.3000000000003336
100
AcDbArc
 50
88.5000000001
 51
178.5
  0
ARC
  5
A4
330
1F
100
AcDbEntity
  8
0
  6
Continuous
 62
     7
370
    25
100
AcDbCircle
 10
474.149178326
 20
2337.8758832752
 30
0.0
 40
1.199999999999938
100
AcDbArc
 50
88.5000000001
 51
173.5000000033
  0
ARC
  5
A5
330
1F
100
AcDbEntity
  8
0
  6
Continuous
 62
     7
370
    25
100
AcDbCircle
 10
473.6884640358
 20
2320.2819143556
 30
0.0
 40
1.200000000000028
100
AcDbArc
 50
183.4999999969
 51
268.5000000001
  0
LINE
  5
A6
330
1F
100
AcDbEntity
  8
0
  6
Continuous
 62
     7
370
    25
100
AcDbLine
 10
474.9307814413
 20
2339.0558276283
 30
0.0
 11
474.180590664
 21
2339.0754720652
 31
0.0
  0
LINE
  5
A7
330
1F
100
AcDbEntity
  8
0
  6
Continuous
 62
     7
370
    25
100
AcDbLine
 10
473.6570516978
 20
2319.0823255657
 30
0.0
 11
474.4072424751
 21
2319.0626811288
 31
0.0
  0
ARC
  5
A8
330
1F
100
AcDbEntity
  8
0
  6
Continuous
 62
     7
370
    25
100
AcDbCircle
 10
474.9255460516
 20
2338.8558961633
 30
0.0
 40
0.1999999999999552
100
AcDbArc
 50
358.5000000001
 51
88.5000000001
  0
ARC
  5
A9
330
1F
100
AcDbEntity
  8
0
  6
Continuous
 62
     7
370
    25
100
AcDbCircle
 10
474.4124778648
 20
2319.2626125938
 30
0.0
 40
0.2000000000000718
100
AcDbArc
 50
268.5000000001
 51
358.5000000001
  0
LINE
  5
AA
330
1F
100
AcDbEntity
  8
0
  6
Continuous
 62
     7
370
    25
100
AcDbLine
 10
472.9568920992
 20
2338.0117271316
 30
0.0
 11
472.7751043047
 21
2336.4161961367
 31
0.0
  0
LINE
  5
AB
330
1F
100
AcDbEntity
  8
0
  6
Continuous
 62
     7
370
    25
100
AcDbLine
 10
472.3926672574
 20
2321.8115145215
 30
0.0
 11
472.4907022777
 21
2320.2086561082
 31
0.0
  0
ARC
  5
AC
330
1F
100
AcDbEntity
  8
0
  6
Continuous
 62
     7
370
    25
100
AcDbCircle
 10
502.582259975
 20
2333.0200997237
 30
0.0
 40
30.00000000000215
100
AcDbArc
 50
173.5000000001
 51
178.5000000001
  0
ARC
  5
AD
330
1F
100
AcDbEntity
  8
0
  6
Continuous
 62
     7
370
    25
100
AcDbCircle
 10
502.33671121
 20
2323.6429707076
 30
0.0
 40
30.00000000000215
100
AcDbArc
 50
178.5000000001
 51
183.5000000001
  0
SPLINE
  5
AE
330
1F
100
AcDbEntity
  8
0
  6
Continuous
 62
     7
370
    25
100
AcDbSpline
210
0.0
220
0.0
230
1.0
 70
     8
 71
     3
 72
    11
 73
     7
 74
     0
 42
0.00000001
 43
0.00000001
 40
0.0
 40
0.0
 40
0.0
 40
0.0
 40
0.2706712709043879
 40
0.5632120728000524
 40
0.7903891635243521
 40
1.0
 40
1.0
 40
1.0
 40
1.0
 10
475.4865683530603
 20
2333.539388477128
 30
0.0
 10
475.4152270988183
 20
2333.550264842409
 30
0.0
 10
475.2667804035206
 20
2333.57289635485
 30
0.0
 10
475.1018876864413
 20
2333.715140595837
 30
0.0
 10
475.0097743679735
 20
2333.888327175569
 30
0.0
 10
475.0031785439385
 20
2334.00390799813
 30
0.0
 10
475.0000132637026
 20
2334.059374258503
 30
0.0
  0
SPLINE
  5
AF
330
1F
100
AcDbEntity
  8
0
  6
Continuous
 62
     7
370
    25
100
AcDbSpline
210
0.0
220
0.0
230
1.0
 70
     8
 71
     3
 72
    11
 73
     7
 74
     0
 42
0.00000001
 43
0.00000001
 40
0.0
 40
0.0
 40
0.0
 40
0.0
 40
0.2695105035984221
 40
0.5617364405774963
 40
0.789422493127888
 40
1.0
 40
1.0
 40
1.0
 40
1.0
 10
474.7378735826807
 20
2324.048663719286
 30
0.0
 10
474.7476781320617
 20
2324.119837570833
 30
0.0
 10
474.7681135978307
 20
2324.268184093495
 30
0.0
 10
474.9074349462628
 20
2324.435140957514
 30
0.0
 10
475.0794174078847
 20
2324.530232716836
 30
0.0
 10
475.1952975571271
 20
2324.538500186575
 30
0.0
 10
475.2509758182985
 20
2324.542472552354
 30
0.0
  0
LINE
  5
B0
330
1F
100
AcDbEntity
  8
0
  6
Continuous
 62
     7
370
    25
100
AcDbLine
 10
477.6292233787
 20
2333.4832810807
 30
0.0
 11
475.4865683531
 21
2333.5393884771
 31
0.0
  0
LINE
  5
B1
330
1F
100
AcDbEntity
  8
0
  6
Continuous
 62
     7
370
    25
100
AcDbLine
 10
475.2509758183
 20
2324.5424725523
 30
0.0
 11
477.6292233787
 21
2324.4801959483
 31
0.0
  0
LINE
  5
B2
330
1F
100
AcDbEntity
  8
0
  6
Continuous
 62
     7
370
    25
100
AcDbLine
 10
856.6292233787
 20
2406.7543978663
 30
0.0
 11
856.6292233787
 21
2378.2543978663
 31
0.0
  0
LINE
  5
B3
330
1F
100
AcDbEntity
  8
0
  6
Continuous
 62
     7
370
    25
100
AcDbLine
 10
477.6292233787
 20
2406.7543978663
 30
0.0
 11
856.6292233787
 21
2406.7543978663
 31
0.0
  0
LINE
  5
B4
330
1F
100
AcDbEntity
  8
0
  6
Continuous
 62
     7
370
    25
100
AcDbLine
 10
477.6292233787
 20
2378.2543978663
 30
0.0
 11
477.6292233787
 21
2406.7543978663
 31
0.0
  0
LINE
  5
B5
330
1F
100
AcDbEntity
  8
0
  6
Continuous
 62
     7
370
    25
100
AcDbLine
 10
856.6292233787
 20
2378.2543978663
 30
0.0
 11
477.6292233787
 21
2378.2543978663
 31
0.0
  0
LINE
  5
B6
330
1F
100
AcDbEntity
  8
0
  6
Continuous
 62
     7
370
    25
100
AcDbLine
 10
856.1292233787
 20
2270.7543978663
 30
0.0
 11
858.1292233787
 21
2270.7543978663
 31
0.0
  0
LINE
  5
B7
330
1F
100
AcDbEntity
  8
0
  6
Continuous
 62
     7
370
    25
100
AcDbLine
 10
856.1292233787
 20
742.7543978663
 30
0.0
 11
858.1292233787
 21
742.7543978663
 31
0.0
  0
LINE
  5
B8
330
1F
100
AcDbEntity
  8
0
  6
Continuous
 62
     7
370
    25
100
AcDbLine
 10
856.1292233787
 20
802.7543978663
 30
0.0
 11
858.1292233787
 21
802.7543978663
 31
0.0
  0
LINE
  5
B9
330
1F
100
AcDbEntity
  8
0
  6
Continuous
 62
     7
370
    25
100
AcDbLine
 10
876.1292233787
 20
2396.7543978663
 30
0.0
 11
876.1292233787
 21
616.7543978663
 31
0.0
  0
LINE
  5
BA
330
1F
100
AcDbEntity
  8
0
  6
Continuous
 62
     7
370
    25
100
AcDbLine
 10
876.1292233787
 20
616.7543978663
 30
0.0
 11
872.1292233787
 21
616.7543978663
 31
0.0
  0
LINE
  5
BB
330
1F
100
AcDbEntity
  8
0
  6
Continuous
 62
     7
370
    25
100
AcDbLine
 10
872.1292233787
 20
629.7543978663
 30
0.0
 11
872.1292233787
 21
616.7543978663
 31
0.0
  0
LINE
  5
BC
330
1F
100
AcDbEntity
  8
0
  6
Continuous
 62
     7
370
    25
100
AcDbLine
 10
859.6292233787
 20
629.7543978663
 30
0.0
 11
872.1292233787
 21
629.7543978663
 31
0.0
  0
LINE
  5
BD
330
1F
100
AcDbEntity
  8
0
  6
Continuous
 62
     7
370
    25
100
AcDbLine
 10
859.6292233787
 20
650.2543978663
 30
0.0
 11
859.6292233787
 21
629.7543978663
 31
0.0
  0
LINE
  5
BE
330
1F
100
AcDbEntity
  8
0
  6
Continuous
 62
     7
370
    25
100
AcDbLine
 10
858.1292233787
 20
650.2543978663
 30
0.0
 11
859.6292233787
 21
650.2543978663
 31
0.0
  0
LINE
  5
BF
330
1F
100
AcDbEntity
  8
0
  6
Continuous
 62
     7
370
    25
100
AcDbLine
 10
858.1292233787
 20
2396.7543978663
 30
0.0
 11
858.1292233787
 21
650.2543978663
 31
0.0
  0
LINE
  5
C0
330
1F
100
AcDbEntity
  8
0
  6
Continuous
 62
     7
370
    25
100
AcDbLine
 10
876.1292233787
 20
2396.7543978663
 30
0.0
 11
858.1292233787
 21
2396.7543978663
 31
0.0
  0
LINE
  5
C1
330
1F
100
AcDbEntity
  8
0
  6
Continuous
 62
     7
370
    25
100
AcDbLine
 10
856.1292233787
 20
2378.2543978663
 30
0.0
 11
856.1292233787
 21
606.7543978663
 31
0.0
  0
LINE
  5
C2
330
1F
100
AcDbEntity
  8
0
  6
Continuous
 62
     7
370
    25
100
AcDbLine
 10
856.1292233787
 20
606.7543978663
 30
0.0
 11
477.6292233787
 21
606.7543978663
 31
0.0
  0
LINE
  5
C3
330
1F
100
AcDbEntity
  8
0
  6
Continuous
 62
     7
370
    25
100
AcDbLine
 10
477.6292233787
 20
2378.2543978663
 30
0.0
 11
477.6292233787
 21
606.7543978663
 31
0.0
  0
SPLINE
  5
C4
330
1F
100
AcDbEntity
  8
0
  6
Continuous
 62
     7
370
    25
100
AcDbSpline
210
0.0
220
0.0
230
1.0
 70
     8
 71
     3
 72
    11
 73
     7
 74
     0
 42
0.00000001
 43
0.00000001
 40
0.0
 40
0.0
 40
0.0
 40
0.0
 40
0.2382247349852598
 40
0.4921376904597299
 40
0.7460575595480442
 40
1.0
 40
1.0
 40
1.0
 40
1.0
 10
475.3597328978715
 20
2309.594962851255
 30
0.0
 10
475.3604052821179
 20
2309.62064017077
 30
0.0
 10
475.3617943302793
 20
2309.673685782194
 30
0.0
 10
475.3753319284421
 20
2310.190665780915
 30
0.0
 10
475.3954325162078
 20
2310.958276326873
 30
0.0
 10
475.4118161664861
 20
2311.583942518897
 30
0.0
 10
475.4200083557017
 20
2311.896789518421
 30
0.0
  0
LINE
  5
C5
330
1F
100
AcDbEntity
  8
0
  6
Continuous
 62
     7
370
    25
100
AcDbLine
 10
475.4200083557
 20
2311.8967895184
 30
0.0
 11
475.423592627
 21
2312.033667516
 31
0.0
  0
SPLINE
  5
C6
330
1F
100
AcDbEntity
  8
0
  6
Continuous
 62
     7
370
    25
100
AcDbSpline
210
0.0
220
0.0
230
1.0
 70
    24
 71
     3
 72
    12
 73
     8
 74
     0
 42
0.00000001
 43
0.00000001
 40
0.0
 40
0.0
 40
0.0
 40
0.0
 40
0.2460973337390808
 40
0.492195565419561
 40
0.7383025770440372
 40
0.984416004048171
 40
0.9999999999999999
 40
0.9999999999999999
 40
0.9999999999999999
 40
0.9999999999999999
 10
475.4235926269504
 20
2312.033667515997
 30
0.0
 10
475.4318221039513
 20
2312.347938563496
 30
0.0
 10
475.4482810879803
 20
2312.97648180518
 30
0.0
 10
475.46959709109
 20
2313.790507122342
 30
0.0
 10
475.4831373538354
 20
2314.307588895092
 30
0.0
 10
475.4890568309185
 20
2314.533644604739
 30
0.0
 10
475.4875366005799
 20
2314.475589350331
 30
0.0
 10
475.4874460713604
 20
2314.472132178917
 30
0.0
  0
SPLINE
  5
C7
330
1F
100
AcDbEntity
  8
0
  6
Continuous
 62
     7
370
    25
100
AcDbSpline
210
0.0
220
0.0
230
1.0
 70
    24
 71
     3
 72
    13
 73
     9
 74
     0
 42
0.00000001
 43
0.00000001
 40
0.0
 40
0.0
 40
0.0
 40
0.0
 40
0.1538581583652804
 40
0.3079676862453928
 40
0.4535077802386541
 40
0.58783400783475
 40
0.8177872163815916
 40
0.9999999999999999
 40
0.9999999999999999
 40
0.9999999999999999
 40
0.9999999999999999
 10
475.1252438281522
 20
2338.841736571925
 30
0.0
 10
475.1239243515088
 20
2338.791347791833
 30
0.0
 10
475.1212832424949
 20
2338.690487907751
 30
0.0
 10
475.0990564570826
 20
2337.841681217697
 30
0.0
 10
475.0668884467863
 20
2336.61323446578
 30
0.0
 10
475.0176255151983
 20
2334.731959007908
 30
0.0
 10
474.9518061864587
 20
2332.218420251279
 30
0.0
 10
474.8970811233118
 20
2330.128554404691
 30
0.0
 10
474.8728879431872
 20
2329.204654130203
 30
0.0
  0
SPLINE
  5
C8
330
1F
100
AcDbEntity
  8
0
  6
Continuous
 62
     7
370
    25
100
AcDbSpline
210
0.0
220
0.0
230
1.0
 70
    24
 71
     3
 72
    13
 73
     9
 74
     0
 42
0.00000001
 43
0.00000001
 40
0.0
 40
0.0
 40
0.0
 40
0.0
 40
0.1813201537909065
 40
0.4101468448381367
 40
0.5438150184965784
 40
0.6886421238876221
 40
0.8419966874127143
 40
0.9999999999999999
 40
0.9999999999999999
 40
0.9999999999999999
 40
0.9999999999999999
 10
474.8689434231914
 20
2329.054018988889
 30
0.0
 10
474.8447165495485
 20
2328.128832010848
 30
0.0
 10
474.789915273589
 20
2326.03605571436
 30
0.0
 10
474.7235550425667
 20
2323.501860732923
 30
0.0
 10
474.6735840260136
 20
2321.59354460118
 30
0.0
 10
474.6406619372981
 20
2320.336300756249
 30
0.0
 10
474.6173797785717
 20
2319.447190985343
 30
0.0
 10
474.6140875851628
 20
2319.321467191345
 30
0.0
 10
474.6124169113043
 20
2319.257666730695
 30
0.0
  0
LINE
  5
C9
330
1F
100
AcDbEntity
  8
0
  6
Continuous
 62
     7
370
    25
100
AcDbLine
 10
472.3469914608
 20
2324.4282791568
 30
0.0
 11
472.5925402257
 21
2333.8054081729
 31
0.0
  0
SPLINE
  5
CA
330
1F
100
AcDbEntity
  8
0
  6
Continuous
 62
     7
370
    25
100
AcDbSpline
210
0.0
220
0.0
230
1.0
 70
     8
 71
     3
 72
    11
 73
     7
 74
     0
 42
0.00000001
 43
0.00000001
 40
0.0
 40
0.0
 40
0.0
 40
0.0
 40
0.2702619356875542
 40
0.5624305486173117
 40
0.7897374073711221
 40
1.0
 40
1.0
 40
1.0
 40
1.0
 10
475.364902467924
 20
2328.893155774585
 30
0.0
 10
475.2940652736362
 20
2328.894721041429
 30
0.0
 10
475.1466490200511
 20
2328.897978451272
 30
0.0
 10
474.9788778048949
 20
2328.897927095683
 30
0.0
 10
474.8811543747952
 20
2328.894958610162
 30
0.0
 10
474.870002555234
 20
2328.891490841407
 30
0.0
 10
474.8646438390666
 20
2328.889824495535
 30
0.0
  0
LINE
  5
CB
330
1F
100
AcDbEntity
  8
0
  6
Continuous
 62
     7
370
    25
100
AcDbLine
 10
871.9292233787
 20
616.5543978663
 30
0.0
 11
871.9292233787
 21
629.5543978663
 31
0.0
  0
LINE
  5
CC
330
1F
100
AcDbEntity
  8
0
  6
Continuous
 62
     7
370
    25
100
AcDbLine
 10
872.3464350621
 20
616.5543978663
 30
0.0
 11
871.9292233787
 21
616.5543978663
 31
0.0
  0
ARC
  5
CD
330
1F
100
AcDbEntity
  8
0
  6
Continuous
 62
     7
370
    25
100
AcDbCircle
 10
872.1292617046
 20
616.7613658174
 30
0.0
 40
0.3000000000001111
100
AcDbArc
 50
279.5765884811
 51
316.3783470327
  0
ARC
  5
CE
330
1F
100
AcDbEntity
  8
0
  6
Continuous
 62
     7
370
    25
100
AcDbCircle
 10
872.0460787812
 20
617.2543978663
 30
0.0
 40
0.8000000000000936
100
AcDbArc
 50
184.9699465947
 51
279.5765884811
  0
LINE
  5
CF
330
1F
100
AcDbEntity
  8
0
  6
Continuous
 62
     7
370
    25
100
AcDbLine
 10
870.407897941
 20
626.8583577014
 30
0.0
 11
871.2490865597
 21
617.1850913096
 31
0.0
  0
ARC
  5
D0
330
1F
100
AcDbEntity
  8
0
  6
Continuous
 62
     7
370
    25
100
AcDbCircle
 10
869.2124096087
 20
626.7543978663
 30
0.0
 40
1.199999999999932
100
AcDbArc
 50
4.9699465947
 51
90.0
  0
LINE
  5
D1
330
1F
100
AcDbEntity
  8
0
  6
Continuous
 62
     7
370
    25
100
AcDbLine
 10
858.8292233787
 20
627.9543978663
 30
0.0
 11
869.2124096087
 21
627.9543978663
 31
0.0
  0
ARC
  5
D2
330
1F
100
AcDbEntity
  8
0
  6
Continuous
 62
     7
370
    25
100
AcDbCircle
 10
858.8292233787
 20
628.7543978663
 30
0.0
 40
0.8000000000001819
100
AcDbArc
 50
180.0
 51
270.0
  0
LINE
  5
D3
330
1F
100
AcDbEntity
  8
0
  6
Continuous
 62
     7
370
    25
100
AcDbLine
 10
858.0292233787
 20
649.5543978663
 30
0.0
 11
858.0292233787
 21
628.7543978663
 31
0.0
  0
LINE
  5
D4
330
1F
100
AcDbEntity
  8
0
  6
Continuous
 62
     7
370
    25
100
AcDbLine
 10
859.4292233787
 20
649.5543978663
 30
0.0
 11
858.0292233787
 21
649.5543978663
 31
0.0
  0
LINE
  5
D5
330
1F
100
AcDbEntity
  8
0
  6
Continuous
 62
     7
370
    25
100
AcDbLine
 10
859.4292233787
 20
629.5543978663
 30
0.0
 11
859.4292233787
 21
649.5543978663
 31
0.0
  0
LINE
  5
D6
330
1F
100
AcDbEntity
  8
0
  6
Continuous
 62
     7
370
    25
100
AcDbLine
 10
871.9292233787
 20
629.5543978663
 30
0.0
 11
859.4292233787
 21
629.5543978663
 31
0.0
  0
LINE
  5
D7
330
1F
100
AcDbEntity
  8
0
  6
Continuous
 62
     7
370
    25
100
AcDbLine
 10
871.0498385043
 20
617.1677646704
 30
0.0
 11
870.2086498856
 21
626.8410310622
 31
0.0
  0
LINE
  5
D8
330
1F
100
AcDbEntity
  8
0
  6
Continuous
 62
     7
370
    25
100
AcDbLine
 10
870.2086498856
 20
626.8410310622
 30
0.0
 11
870.407897941
 21
626.8583577014
 31
0.0
  0
LINE
  5
D9
330
1F
100
AcDbEntity
  8
0
  6
Continuous
 62
     7
370
    25
100
AcDbLine
 10
871.2490865597
 20
617.1850913096
 30
0.0
 11
871.0498385043
 21
617.1677646704
 31
0.0
  0
LINE
  5
DA
330
1F
100
AcDbEntity
  8
0
  6
Continuous
 62
     7
370
    25
100
AcDbLine
 10
871.9292233787
 20
629.5543978663
 30
0.0
 11
872.1292233787
 21
629.7543978663
 31
0.0
  0
LINE
  5
DB
330
1F
100
AcDbEntity
  8
0
  6
Continuous
 62
     7
370
    25
100
AcDbLine
 10
871.9292233787
 20
616.5543978663
 30
0.0
 11
872.1292233787
 21
616.7543978663
 31
0.0
  0
LINE
  5
DC
330
1F
100
AcDbEntity
  8
0
  6
Continuous
 62
     7
370
    25
100
AcDbLine
 10
872.1791714587
 20
616.4655465881
 30
0.0
 11
872.212444628
 21
616.2683337685
 31
0.0
  0
ARC
  5
DD
330
1F
100
AcDbEntity
  8
0
  6
Continuous
 62
     7
370
    25
100
AcDbCircle
 10
872.0460787812
 20
617.2543978663
 30
0.0
 40
1.000000000000084
100
AcDbArc
 50
184.9699465947
 51
279.5765884811
  0
SPLINE
  5
DE
330
1F
100
AcDbEntity
  8
0
  6
Continuous
 62
     7
370
    25
100
AcDbSpline
210
0.0
220
0.0
230
1.0
 70
     8
 71
     3
 72
    13
 73
     9
 74
     0
 42
0.00000001
 43
0.00000001
 40
0.0
 40
0.0
 40
0.0
 40
0.0
 40
0.0075029974113208
 40
0.3818974549663102
 40
0.6070018873270905
 40
0.7653769096342375
 40
0.882460504980979
 40
1.0
 40
1.0
 40
1.0
 40
1.0
 10
872.3464350621468
 20
616.5543978663137
 30
0.0
 10
872.3474528387627
 20
616.554835864209
 30
0.0
 10
872.3992569749041
 20
616.5771296585782
 30
0.0
 10
872.4778423402685
 20
616.6240140467938
 30
0.0
 10
872.5604818043016
 20
616.6902984838301
 30
0.0
 10
872.6025779224001
 20
616.7285600430029
 30
0.0
 10
872.6251013492354
 20
616.7503158187378
 30
0.0
 10
872.6278407753498
 20
616.7530354222876
 30
0.0
 10
872.629213149917
 20
616.7543978663138
 30
0.0
  0
ARC
  5
DF
330
1F
100
AcDbEntity
  8
0
  6
Continuous
 62
     7
370
    25
100
AcDbCircle
 10
872.1292617046
 20
616.7613658174
 30
0.0
 40
0.5000000000000755
100
AcDbArc
 50
279.5765884811
 51
359.2015057739
  0
LINE
  5
E0
330
1F
100
AcDbEntity
  8
0
  6
Continuous
 62
     7
370
    25
100
AcDbLine
 10
859.6292233787
 20
649.7543978663
 30
0.0
 11
859.4292233787
 21
649.5543978663
 31
0.0
  0
LINE
  5
E1
330
1F
100
AcDbEntity
  8
0
  6
Continuous
 62
     7
370
    25
100
AcDbLine
 10
859.4292233787
 20
629.5543978663
 30
0.0
 11
859.6292233787
 21
629.7543978663
 31
0.0
  0
ARC
  5
E2
330
1F
100
AcDbEntity
  8
0
  6
Continuous
 62
     7
370
    25
100
AcDbCircle
 10
858.8292233787
 20
628.7543978663
 30
0.0
 40
1.0
100
AcDbArc
 50
180.0
 51
270.0
  0
LINE
  5
E3
330
1F
100
AcDbEntity
  8
0
  6
Continuous
 62
     7
370
    25
100
AcDbLine
 10
857.8292233787
 20
628.7543978663
 30
0.0
 11
858.0292233787
 21
628.7543978663
 31
0.0
  0
LINE
  5
E4
330
1F
100
AcDbEntity
  8
0
  6
Continuous
 62
     7
370
    25
100
AcDbLine
 10
858.8292233787
 20
627.7543978663
 30
0.0
 11
858.8292233787
 21
627.9543978663
 31
0.0
  0
LINE
  5
E5
330
1F
100
AcDbEntity
  8
0
  6
Continuous
 62
     7
370
    25
100
AcDbLine
 10
869.2124096087
 20
627.7543978663
 30
0.0
 11
858.8292233787
 21
627.7543978663
 31
0.0
  0
LINE
  5
E6
330
1F
100
AcDbEntity
  8
0
  6
Continuous
 62
     7
370
    25
100
AcDbLine
 10
869.2124096087
 20
627.7543978663
 30
0.0
 11
869.2124096087
 21
627.9543978663
 31
0.0
  0
ARC
  5
E7
330
1F
100
AcDbEntity
  8
0
  6
Continuous
 62
     7
370
    25
100
AcDbCircle
 10
869.2124096087
 20
626.7543978663
 30
0.0
 40
1.0
100
AcDbArc
 50
4.9699465947
 51
90.0
  0
LINE
  5
E8
330
1F
100
AcDbEntity
  8
0
  6
Continuous
 62
     7
370
    25
100
AcDbLine
 10
857.8292233787
 20
628.7543978663
 30
0.0
 11
857.8292233787
 21
649.5543978663
 31
0.0
  0
LINE
  5
E9
330
1F
100
AcDbEntity
  8
0
  6
Continuous
 62
     7
370
    25
100
AcDbLine
 10
857.8292233787
 20
649.5543978663
 30
0.0
 11
858.0292233787
 21
649.5543978663
 31
0.0
  0
LINE
  5
EA
330
1F
100
AcDbEntity
  8
0
  6
Continuous
 62
     7
370
    25
100
AcDbLine
 10
858.0292233787
 20
649.7543978663
 30
0.0
 11
858.0292233787
 21
649.5543978663
 31
0.0
  0
ARC
  5
EB
330
1F
100
AcDbEntity
  8
0
  6
Continuous
 62
     7
370
    25
100
AcDbCircle
 10
858.0292233787
 20
649.5543978663
 30
0.0
 40
0.2000000000000455
100
AcDbArc
 50
90.0
 51
180.0
  0
LINE
  5
EC
330
1F
100
AcDbEntity
  8
0
  6
Continuous
 62
     7
370
    25
100
AcDbLine
 10
858.0292233787
 20
649.7543978663
 30
0.0
 11
859.6292233787
 21
649.7543978663
 31
0.0
  0
LINE
  5
ED
330
1F
100
AcDbEntity
  8
0
  6
Continuous
 62
     7
370
    25
100
AcDbLine
 10
856.9292233787
 20
2364.0543978663
 30
0.0
 11
856.9292233787
 21
2365.2543978663
 31
0.0
  0
LINE
  5
EE
330
1F
100
AcDbEntity
  8
0
  6
Continuous
 62
     7
370
    25
100
AcDbLine
 10
856.1292233787
 20
2364.0543978663
 30
0.0
 11
856.9292233787
 21
2364.0543978663
 31
0.0
  0
LINE
  5
EF
330
1F
100
AcDbEntity
  8
0
  6
Continuous
 62
     7
370
    25
100
AcDbLine
 10
856.1292233787
 20
2365.2543978663
 30
0.0
 11
856.9292233787
 21
2365.2543978663
 31
0.0
  0
LINE
  5
F0
330
1F
100
AcDbEntity
  8
0
  6
Continuous
 62
     7
370
    25
100
AcDbLine
 10
856.9292233787
 20
2364.0543978663
 30
0.0
 11
858.1292233787
 21
2364.0543978663
 31
0.0
  0
LINE
  5
F1
330
1F
100
AcDbEntity
  8
0
  6
Continuous
 62
     7
370
    25
100
AcDbLine
 10
856.9292233787
 20
2365.2543978663
 30
0.0
 11
858.1292233787
 21
2365.2543978663
 31
0.0
  0
LINE
  5
F2
330
1F
100
AcDbEntity
  8
0
  6
Continuous
 62
     7
370
    25
100
AcDbLine
 10
856.9292233787
 20
2345.2510784443
 30
0.0
 11
856.9292233787
 21
2346.2543978663
 31
0.0
  0
LINE
  5
F3
330
1F
100
AcDbEntity
  8
0
  6
Continuous
 62
     7
370
    25
100
AcDbLine
 10
856.9292233787
 20
2346.2543978663
 30
0.0
 11
858.1292233787
 21
2346.2543978663
 31
0.0
  0
LINE
  5
F4
330
1F
100
AcDbEntity
  8
0
  6
Continuous
 62
     7
370
    25
100
AcDbLine
 10
856.9292233787
 20
2346.2543978663
 30
0.0
 11
856.9292233787
 21
2364.0543978663
 31
0.0
  0
LINE
  5
F5
330
1F
100
AcDbEntity
  8
0
  6
Continuous
 62
     7
370
    25
100
AcDbLine
 10
857.6292233787
 20
1955.7103560054
 30
0.0
 11
858.1292233787
 21
1955.7103560054
 31
0.0
  0
LINE
  5
F6
330
1F
100
AcDbEntity
  8
0
  6
Continuous
 62
     7
370
    25
100
AcDbLine
 10
857.6292233787
 20
1954.1543978661
 30
0.0
 11
858.1292233787
 21
1954.1543978661
 31
0.0
  0
LINE
  5
F7
330
1F
100
AcDbEntity
  8
0
  6
Continuous
 62
     7
370
    25
100
AcDbLine
 10
857.6292233787
 20
1954.1543978661
 30
0.0
 11
857.6292233787
 21
1955.7103560054
 31
0.0
  0
LINE
  5
F8
330
1F
100
AcDbEntity
  8
0
  6
Continuous
 62
     7
370
    25
100
AcDbLine
 10
858.1292233787
 20
1937.7984397272
 30
0.0
 11
857.6292233787
 21
1937.7984397272
 31
0.0
  0
LINE
  5
F9
330
1F
100
AcDbEntity
  8
0
  6
Continuous
 62
     7
370
    25
100
AcDbLine
 10
857.6292233787
 20
1937.7984397272
 30
0.0
 11
857.6292233787
 21
1939.3543978665
 31
0.0
  0
LINE
  5
FA
330
1F
100
AcDbEntity
  8
0
  6
Continuous
 62
     7
370
    25
100
AcDbLine
 10
858.1292233787
 20
1939.3543978665
 30
0.0
 11
857.6292233787
 21
1939.3543978665
 31
0.0
  0
LINE
  5
FB
330
1F
100
AcDbEntity
  8
0
  6
Continuous
 62
     7
370
    25
100
AcDbLine
 10
857.9292233787
 20
1965.1459720241
 30
0.0
 11
857.6292233787
 21
1965.1459720241
 31
0.0
  0
LINE
  5
FC
330
1F
100
AcDbEntity
  8
0
  6
Continuous
 62
     7
370
    25
100
AcDbLine
 10
858.1292233787
 20
1965.1459720241
 30
0.0
 11
857.9292233787
 21
1965.1459720241
 31
0.0
  0
LINE
  5
FD
330
1F
100
AcDbEntity
  8
0
  6
Continuous
 62
     7
370
    25
100
AcDbLine
 10
857.6292233787
 20
1965.1459720241
 30
0.0
 11
857.6292233787
 21
1955.7103560054
 31
0.0
  0
LINE
  5
FE
330
1F
100
AcDbEntity
  8
0
  6
Continuous
 62
     7
370
    25
100
AcDbLine
 10
857.9292233787
 20
1928.3628237086
 30
0.0
 11
858.1292233787
 21
1928.3628237086
 31
0.0
  0
LINE
  5
FF
330
1F
100
AcDbEntity
  8
0
  6
Continuous
 62
     7
370
    25
100
AcDbLine
 10
857.6292233787
 20
1928.3628237086
 30
0.0
 11
857.9292233787
 21
1928.3628237086
 31
0.0
  0
LINE
  5
100
330
1F
100
AcDbEntity
  8
0
  6
Continuous
 62
     7
370
    25
100
AcDbLine
 10
857.6292233787
 20
1937.7984397272
 30
0.0
 11
857.6292233787
 21
1928.3628237086
 31
0.0
  0
SPLINE
  5
101
330
1F
100
AcDbEntity
  8
0
  6
Continuous
 62
     7
370
    25
100
AcDbSpline
210
0.0
220
0.0
230
1.0
 70
    24
 71
     3
 72
    12
 73
     8
 74
     0
 42
0.00000001
 43
0.00000001
 40
0.0
 40
0.0
 40
0.0
 40
0.0
 40
0.1234882189588405
 40
0.304757477605291
 40
0.485788849514754
 40
0.6670582153988125
 40
0.9999999999999999
 40
0.9999999999999999
 40
0.9999999999999999
 40
0.9999999999999999
 10
856.1292233786888
 20
1975.254397866311
 30
0.0
 10
856.1689699477243
 20
1975.254397866312
 30
0.0
 10
856.2670607957817
 20
1975.254397866312
 30
0.0
 10
856.5070340841407
 20
1975.254397866312
 30
0.0
 10
856.8226482726351
 20
1975.254397866312
 30
0.0
 10
857.2895583617346
 20
1975.254397866311
 30
0.0
 10
857.6778269619717
 20
1975.254397866313
 30
0.0
 10
857.9292233786879
 20
1975.254397866314
 30
0.0
  0
LINE
  5
102
330
1F
100
AcDbEntity
  8
0
  6
Continuous
 62
     7
370
    25
100
AcDbLine
 10
857.9292233787
 20
1974.2543978663
 30
0.0
 11
857.9292233787
 21
1975.2543978663
 31
0.0
  0
SPLINE
  5
103
330
1F
100
AcDbEntity
  8
0
  6
Continuous
 62
     7
370
    25
100
AcDbSpline
210
0.0
220
0.0
230
1.0
 70
    24
 71
     3
 72
    12
 73
     8
 74
     0
 42
0.00000001
 43
0.00000001
 40
0.0
 40
0.0
 40
0.0
 40
0.0
 40
0.3329369653750519
 40
0.5139656098140856
 40
0.6952322446461479
 40
0.8762609961871548
 40
1.0
 40
1.0
 40
1.0
 40
1.0
 10
857.9292233786941
 20
1918.254397866315
 30
0.0
 10
857.6778259655517
 20
1918.254397866314
 30
0.0
 10
857.2897356115537
 20
1918.254397866311
 30
0.0
 10
856.8228063418788
 20
1918.254397866312
 30
0.0
 10
856.5072874528577
 20
1918.254397866313
 30
0.0
 10
856.2671632343413
 20
1918.254397866312
 30
0.0
 10
856.1690559833313
 20
1918.254397866312
 30
0.0
 10
856.1292233786888
 20
1918.254397866312
 30
0.0
  0
LINE
  5
104
330
1F
100
AcDbEntity
  8
0
  6
Continuous
 62
     7
370
    25
100
AcDbLine
 10
857.9292233787
 20
1919.2543978663
 30
0.0
 11
857.9292233787
 21
1918.2543978663
 31
0.0
  0
SPLINE
  5
105
330
1F
100
AcDbEntity
  8
0
  6
Continuous
 62
     7
370
    25
100
AcDbSpline
210
0.0
220
0.0
230
1.0
 70
     8
 71
     3
 72
    10
 73
     6
 74
     0
 42
0.00000001
 43
0.00000001
 40
0.0
 40
0.0
 40
0.0
 40
0.0
 40
0.0371311943329456
 40
0.5486628195544258
 40
1.0
 40
1.0
 40
1.0
 40
1.0
 10
856.1292233786888
 20
1957.000162206481
 30
0.0
 10
856.1348462309011
 20
1956.993443859056
 30
0.0
 10
856.2179313566061
 20
1956.894171333435
 30
0.0
 10
856.4394873291897
 20
1956.793742420243
 30
0.0
 10
856.6707982184357
 20
1956.766954495413
 30
0.0
 10
856.7792233786904
 20
1956.754397866315
 30
0.0
  0
LINE
  5
106
330
1F
100
AcDbEntity
  8
0
  6
Continuous
 62
     7
370
    25
100
AcDbLine
 10
857.9292233787
 20
1974.2543978663
 30
0.0
 11
857.9292233787
 21
1965.1459720241
 31
0.0
  0
LINE
  5
107
330
1F
100
AcDbEntity
  8
0
  6
Continuous
 62
     7
370
    25
100
AcDbLine
 10
857.6292233787
 20
1956.7543978663
 30
0.0
 11
856.7792233787
 21
1956.7543978663
 31
0.0
  0
LINE
  5
108
330
1F
100
AcDbEntity
  8
0
  6
Continuous
 62
     7
370
    25
100
AcDbLine
 10
858.1292233787
 20
1974.2543978663
 30
0.0
 11
857.9292233787
 21
1974.2543978663
 31
0.0
  0
LINE
  5
109
330
1F
100
AcDbEntity
  8
0
  6
Continuous
 62
     7
370
    25
100
AcDbLine
 10
858.1292233787
 20
1919.2543978663
 30
0.0
 11
857.9292233787
 21
1919.2543978663
 31
0.0
  0
LINE
  5
10A
330
1F
100
AcDbEntity
  8
0
  6
Continuous
 62
     7
370
    25
100
AcDbLine
 10
857.9292233787
 20
1928.3628237086
 30
0.0
 11
857.9292233787
 21
1919.2543978663
 31
0.0
  0
SPLINE
  5
10B
330
1F
100
AcDbEntity
  8
0
  6
Continuous
 62
     7
370
    25
100
AcDbSpline
210
0.0
220
0.0
230
1.0
 70
     8
 71
     3
 72
     9
 73
     5
 74
     0
 42
0.00000001
 43
0.00000001
 40
0.0
 40
0.0
 40
0.0
 40
0.0
 40
0.5050081268960211
 40
1.0
 40
1.0
 40
1.0
 40
1.0
 10
856.7792233786922
 20
1936.754397866314
 30
0.0
 10
856.6559271068246
 20
1936.74217800693
 30
0.0
 10
856.4117800024497
 20
1936.717980654981
 30
0.0
 10
856.2227778888969
 20
1936.580904581719
 30
0.0
 10
856.1292233786888
 20
1936.513053039458
 30
0.0
  0
LINE
  5
10C
330
1F
100
AcDbEntity
  8
0
  6
Continuous
 62
     7
370
    25
100
AcDbLine
 10
856.7792233787
 20
1936.7543978663
 30
0.0
 11
857.6292233787
 21
1936.7543978663
 31
0.0
  0
LINE
  5
10D
330
1F
100
AcDbEntity
  8
0
  6
Continuous
 62
     7
370
    25
100
AcDbLine
 10
858.1292233787
 20
1975.2543978663
 30
0.0
 11
857.9292233787
 21
1975.2543978663
 31
0.0
  0
LINE
  5
10E
330
1F
100
AcDbEntity
  8
0
  6
Continuous
 62
     7
370
    25
100
AcDbLine
 10
858.1292233787
 20
1918.2543978663
 30
0.0
 11
857.9292233787
 21
1918.2543978663
 31
0.0
  0
LINE
  5
10F
330
1F
100
AcDbEntity
  8
0
  6
Continuous
 62
     7
370
    25
100
AcDbLine
 10
857.6292233787
 20
705.7103560054
 30
0.0
 11
858.1292233787
 21
705.7103560054
 31
0.0
  0
LINE
  5
110
330
1F
100
AcDbEntity
  8
0
  6
Continuous
 62
     7
370
    25
100
AcDbLine
 10
857.6292233787
 20
704.1543978661
 30
0.0
 11
858.1292233787
 21
704.1543978661
 31
0.0
  0
LINE
  5
111
330
1F
100
AcDbEntity
  8
0
  6
Continuous
 62
     7
370
    25
100
AcDbLine
 10
857.6292233787
 20
704.1543978661
 30
0.0
 11
857.6292233787
 21
705.7103560054
 31
0.0
  0
LINE
  5
112
330
1F
100
AcDbEntity
  8
0
  6
Continuous
 62
     7
370
    25
100
AcDbLine
 10
858.1292233787
 20
687.7984397272
 30
0.0
 11
857.6292233787
 21
687.7984397272
 31
0.0
  0
LINE
  5
113
330
1F
100
AcDbEntity
  8
0
  6
Continuous
 62
     7
370
    25
100
AcDbLine
 10
857.6292233787
 20
687.7984397272
 30
0.0
 11
857.6292233787
 21
689.3543978665
 31
0.0
  0
LINE
  5
114
330
1F
100
AcDbEntity
  8
0
  6
Continuous
 62
     7
370
    25
100
AcDbLine
 10
858.1292233787
 20
689.3543978665
 30
0.0
 11
857.6292233787
 21
689.3543978665
 31
0.0
  0
LINE
  5
115
330
1F
100
AcDbEntity
  8
0
  6
Continuous
 62
     7
370
    25
100
AcDbLine
 10
857.9292233787
 20
715.1459720241
 30
0.0
 11
857.6292233787
 21
715.1459720241
 31
0.0
  0
LINE
  5
116
330
1F
100
AcDbEntity
  8
0
  6
Continuous
 62
     7
370
    25
100
AcDbLine
 10
858.1292233787
 20
715.1459720241
 30
0.0
 11
857.9292233787
 21
715.1459720241
 31
0.0
  0
LINE
  5
117
330
1F
100
AcDbEntity
  8
0
  6
Continuous
 62
     7
370
    25
100
AcDbLine
 10
857.6292233787
 20
715.1459720241
 30
0.0
 11
857.6292233787
 21
705.7103560054
 31
0.0
  0
LINE
  5
118
330
1F
100
AcDbEntity
  8
0
  6
Continuous
 62
     7
370
    25
100
AcDbLine
 10
857.9292233787
 20
678.3628237086
 30
0.0
 11
858.1292233787
 21
678.3628237086
 31
0.0
  0
LINE
  5
119
330
1F
100
AcDbEntity
  8
0
  6
Continuous
 62
     7
370
    25
100
AcDbLine
 10
857.6292233787
 20
678.3628237086
 30
0.0
 11
857.9292233787
 21
678.3628237086
 31
0.0
  0
LINE
  5
11A
330
1F
100
AcDbEntity
  8
0
  6
Continuous
 62
     7
370
    25
100
AcDbLine
 10
857.6292233787
 20
687.7984397272
 30
0.0
 11
857.6292233787
 21
678.3628237086
 31
0.0
  0
SPLINE
  5
11B
330
1F
100
AcDbEntity
  8
0
  6
Continuous
 62
     7
370
    25
100
AcDbSpline
210
0.0
220
0.0
230
1.0
 70
    24
 71
     3
 72
    12
 73
     8
 74
     0
 42
0.00000001
 43
0.00000001
 40
0.0
 40
0.0
 40
0.0
 40
0.0
 40
0.1234882189588782
 40
0.3047574776053201
 40
0.4857888495147755
 40
0.6670582153988265
 40
1.0
 40
1.0
 40
1.0
 40
1.0
 10
856.1292233786888
 20
725.2543978663113
 30
0.0
 10
856.1689699477243
 20
725.2543978663113
 30
0.0
 10
856.2670607957816
 20
725.2543978663113
 30
0.0
 10
856.5070340841407
 20
725.2543978663113
 30
0.0
 10
856.822648272635
 20
725.2543978663113
 30
0.0
 10
857.2895583617347
 20
725.2543978663108
 30
0.0
 10
857.6778269619717
 20
725.2543978663128
 30
0.0
 10
857.9292233786879
 20
725.2543978663142
 30
0.0
  0
LINE
  5
11C
330
1F
100
AcDbEntity
  8
0
  6
Continuous
 62
     7
370
    25
100
AcDbLine
 10
857.9292233787
 20
724.2543978663
 30
0.0
 11
857.9292233787
 21
725.2543978663
 31
0.0
  0
SPLINE
  5
11D
330
1F
100
AcDbEntity
  8
0
  6
Continuous
 62
     7
370
    25
100
AcDbSpline
210
0.0
220
0.0
230
1.0
 70
    24
 71
     3
 72
    12
 73
     8
 74
     0
 42
0.00000001
 43
0.00000001
 40
0.0
 40
0.0
 40
0.0
 40
0.0
 40
0.3329369653750519
 40
0.5139656098140847
 40
0.6952322446461467
 40
0.8762609961871536
 40
1.0
 40
1.0
 40
1.0
 40
1.0
 10
857.9292233786941
 20
668.2543978663151
 30
0.0
 10
857.6778259655517
 20
668.2543978663138
 30
0.0
 10
857.2897356115539
 20
668.2543978663116
 30
0.0
 10
856.8228063418788
 20
668.2543978663122
 30
0.0
 10
856.5072874528574
 20
668.254397866312
 30
0.0
 10
856.2671632343415
 20
668.254397866312
 30
0.0
 10
856.1690559833313
 20
668.254397866312
 30
0.0
 10
856.1292233786888
 20
668.254397866312
 30
0.0
  0
LINE
  5
11E
330
1F
100
AcDbEntity
  8
0
  6
Continuous
 62
     7
370
    25
100
AcDbLine
 10
857.9292233787
 20
669.2543978663
 30
0.0
 11
857.9292233787
 21
668.2543978663
 31
0.0
  0
SPLINE
  5
11F
330
1F
100
AcDbEntity
  8
0
  6
Continuous
 62
     7
370
    25
100
AcDbSpline
210
0.0
220
0.0
230
1.0
 70
     8
 71
     3
 72
    10
 73
     6
 74
     0
 42
0.00000001
 43
0.00000001
 40
0.0
 40
0.0
 40
0.0
 40
0.0
 40
0.0371311943328896
 40
0.5486628195543996
 40
1.0
 40
1.0
 40
1.0
 40
1.0
 10
856.1292233786888
 20
707.0001622064808
 30
0.0
 10
856.1348462309011
 20
706.9934438590561
 30
0.0
 10
856.2179313566064
 20
706.8941713334358
 30
0.0
 10
856.4394873291897
 20
706.7937424202429
 30
0.0
 10
856.6707982184358
 20
706.7669544954127
 30
0.0
 10
856.7792233786904
 20
706.7543978663147
 30
0.0
  0
LINE
  5
120
330
1F
100
AcDbEntity
  8
0
  6
Continuous
 62
     7
370
    25
100
AcDbLine
 10
857.9292233787
 20
724.2543978663
 30
0.0
 11
857.9292233787
 21
715.1459720241
 31
0.0
  0
LINE
  5
121
330
1F
100
AcDbEntity
  8
0
  6
Continuous
 62
     7
370
    25
100
AcDbLine
 10
857.6292233787
 20
706.7543978663
 30
0.0
 11
856.7792233787
 21
706.7543978663
 31
0.0
  0
LINE
  5
122
330
1F
100
AcDbEntity
  8
0
  6
Continuous
 62
     7
370
    25
100
AcDbLine
 10
858.1292233787
 20
724.2543978663
 30
0.0
 11
857.9292233787
 21
724.2543978663
 31
0.0
  0
SPLINE
  5
123
330
1F
100
AcDbEntity
  8
0
  6
Continuous
 62
     7
370
    25
100
AcDbSpline
210
0.0
220
0.0
230
1.0
 70
     8
 71
     3
 72
     9
 73
     5
 74
     0
 42
0.00000001
 43
0.00000001
 40
0.0
 40
0.0
 40
0.0
 40
0.0
 40
0.5050081268960388
 40
1.0
 40
1.0
 40
1.0
 40
1.0
 10
856.7792233786922
 20
686.7543978663142
 30
0.0
 10
856.6559271068246
 20
686.7421780069304
 30
0.0
 10
856.4117800024497
 20
686.717980654981
 30
0.0
 10
856.2227778888969
 20
686.5809045817191
 30
0.0
 10
856.1292233786888
 20
686.5130530394574
 30
0.0
  0
LINE
  5
124
330
1F
100
AcDbEntity
  8
0
  6
Continuous
 62
     7
370
    25
100
AcDbLine
 10
857.9292233787
 20
678.3628237086
 30
0.0
 11
857.9292233787
 21
669.2543978663
 31
0.0
  0
LINE
  5
125
330
1F
100
AcDbEntity
  8
0
  6
Continuous
 62
     7
370
    25
100
AcDbLine
 10
856.7792233787
 20
686.7543978663
 30
0.0
 11
857.6292233787
 21
686.7543978663
 31
0.0
  0
LINE
  5
126
330
1F
100
AcDbEntity
  8
0
  6
Continuous
 62
     7
370
    25
100
AcDbLine
 10
858.1292233787
 20
669.2543978663
 30
0.0
 11
857.9292233787
 21
669.2543978663
 31
0.0
  0
LINE
  5
127
330
1F
100
AcDbEntity
  8
0
  6
Continuous
 62
     7
370
    25
100
AcDbLine
 10
858.1292233787
 20
725.2543978663
 30
0.0
 11
857.9292233787
 21
725.2543978663
 31
0.0
  0
LINE
  5
128
330
1F
100
AcDbEntity
  8
0
  6
Continuous
 62
     7
370
    25
100
AcDbLine
 10
858.1292233787
 20
668.2543978663
 30
0.0
 11
857.9292233787
 21
668.2543978663
 31
0.0
  0
LINE
  5
129
330
1F
100
AcDbEntity
  8
0
  6
Continuous
 62
     7
370
    25
100
AcDbLine
 10
857.6292233787
 20
2325.7103560054
 30
0.0
 11
858.1292233787
 21
2325.7103560054
 31
0.0
  0
LINE
  5
12A
330
1F
100
AcDbEntity
  8
0
  6
Continuous
 62
     7
370
    25
100
AcDbLine
 10
857.6292233787
 20
2324.1543978661
 30
0.0
 11
858.1292233787
 21
2324.1543978661
 31
0.0
  0
LINE
  5
12B
330
1F
100
AcDbEntity
  8
0
  6
Continuous
 62
     7
370
    25
100
AcDbLine
 10
857.6292233787
 20
2324.1543978661
 30
0.0
 11
857.6292233787
 21
2325.7103560054
 31
0.0
  0
LINE
  5
12C
330
1F
100
AcDbEntity
  8
0
  6
Continuous
 62
     7
370
    25
100
AcDbLine
 10
858.1292233787
 20
2307.7984397272
 30
0.0
 11
857.6292233787
 21
2307.7984397272
 31
0.0
  0
LINE
  5
12D
330
1F
100
AcDbEntity
  8
0
  6
Continuous
 62
     7
370
    25
100
AcDbLine
 10
857.6292233787
 20
2307.7984397272
 30
0.0
 11
857.6292233787
 21
2309.3543978665
 31
0.0
  0
LINE
  5
12E
330
1F
100
AcDbEntity
  8
0
  6
Continuous
 62
     7
370
    25
100
AcDbLine
 10
858.1292233787
 20
2309.3543978665
 30
0.0
 11
857.6292233787
 21
2309.3543978665
 31
0.0
  0
LINE
  5
12F
330
1F
100
AcDbEntity
  8
0
  6
Continuous
 62
     7
370
    25
100
AcDbLine
 10
857.9292233787
 20
2335.1459720241
 30
0.0
 11
857.6292233787
 21
2335.1459720241
 31
0.0
  0
LINE
  5
130
330
1F
100
AcDbEntity
  8
0
  6
Continuous
 62
     7
370
    25
100
AcDbLine
 10
858.1292233787
 20
2335.1459720241
 30
0.0
 11
857.9292233787
 21
2335.1459720241
 31
0.0
  0
LINE
  5
131
330
1F
100
AcDbEntity
  8
0
  6
Continuous
 62
     7
370
    25
100
AcDbLine
 10
857.6292233787
 20
2335.1459720241
 30
0.0
 11
857.6292233787
 21
2325.7103560054
 31
0.0
  0
LINE
  5
132
330
1F
100
AcDbEntity
  8
0
  6
Continuous
 62
     7
370
    25
100
AcDbLine
 10
857.9292233787
 20
2298.3628237086
 30
0.0
 11
858.1292233787
 21
2298.3628237086
 31
0.0
  0
LINE
  5
133
330
1F
100
AcDbEntity
  8
0
  6
Continuous
 62
     7
370
    25
100
AcDbLine
 10
857.6292233787
 20
2298.3628237086
 30
0.0
 11
857.9292233787
 21
2298.3628237086
 31
0.0
  0
LINE
  5
134
330
1F
100
AcDbEntity
  8
0
  6
Continuous
 62
     7
370
    25
100
AcDbLine
 10
857.6292233787
 20
2307.7984397272
 30
0.0
 11
857.6292233787
 21
2298.3628237086
 31
0.0
  0
SPLINE
  5
135
330
1F
100
AcDbEntity
  8
0
  6
Continuous
 62
     7
370
    25
100
AcDbSpline
210
0.0
220
0.0
230
1.0
 70
    24
 71
     3
 72
    12
 73
     8
 74
     0
 42
0.00000001
 43
0.00000001
 40
0.0
 40
0.0
 40
0.0
 40
0.0
 40
0.1234882189587103
 40
0.3047574776051712
 40
0.4857888495146793
 40
0.6670582153987634
 40
1.0
 40
1.0
 40
1.0
 40
1.0
 10
856.1292233786888
 20
2345.254397866311
 30
0.0
 10
856.1689699477242
 20
2345.254397866311
 30
0.0
 10
856.2670607957816
 20
2345.254397866311
 30
0.0
 10
856.5070340841405
 20
2345.254397866311
 30
0.0
 10
856.8226482726349
 20
2345.254397866311
 30
0.0
 10
857.2895583617346
 20
2345.25439786631
 30
0.0
 10
857.6778269619715
 20
2345.254397866312
 30
0.0
 10
857.9292233786878
 20
2345.254397866314
 30
0.0
  0
LINE
  5
136
330
1F
100
AcDbEntity
  8
0
  6
Continuous
 62
     7
370
    25
100
AcDbLine
 10
857.9292233787
 20
2344.2543978663
 30
0.0
 11
857.9292233787
 21
2345.2543978663
 31
0.0
  0
SPLINE
  5
137
330
1F
100
AcDbEntity
  8
0
  6
Continuous
 62
     7
370
    25
100
AcDbSpline
210
0.0
220
0.0
230
1.0
 70
    24
 71
     3
 72
    12
 73
     8
 74
     0
 42
0.00000001
 43
0.00000001
 40
0.0
 40
0.0
 40
0.0
 40
0.0
 40
0.3329369653751157
 40
0.5139656098141838
 40
0.6952322446462801
 40
0.8762609961873209
 40
1.0
 40
1.0
 40
1.0
 40
1.0
 10
857.9292233786939
 20
2288.254397866315
 30
0.0
 10
857.6778259655515
 20
2288.254397866314
 30
0.0
 10
857.2897356115536
 20
2288.254397866311
 30
0.0
 10
856.8228063418786
 20
2288.254397866312
 30
0.0
 10
856.5072874528573
 20
2288.254397866312
 30
0.0
 10
856.2671632343413
 20
2288.254397866312
 30
0.0
 10
856.1690559833313
 20
2288.254397866312
 30
0.0
 10
856.1292233786888
 20
2288.254397866312
 30
0.0
  0
LINE
  5
138
330
1F
100
AcDbEntity
  8
0
  6
Continuous
 62
     7
370
    25
100
AcDbLine
 10
857.9292233787
 20
2289.2543978663
 30
0.0
 11
857.9292233787
 21
2288.2543978663
 31
0.0
  0
SPLINE
  5
139
330
1F
100
AcDbEntity
  8
0
  6
Continuous
 62
     7
370
    25
100
AcDbSpline
210
0.0
220
0.0
230
1.0
 70
     8
 71
     3
 72
    10
 73
     6
 74
     0
 42
0.00000001
 43
0.00000001
 40
0.0
 40
0.0
 40
0.0
 40
0.0
 40
0.0371311943325751
 40
0.5486628195542521
 40
1.0
 40
1.0
 40
1.0
 40
1.0
 10
856.1292233786888
 20
2327.00016220648
 30
0.0
 10
856.1348462309011
 20
2326.993443859056
 30
0.0
 10
856.2179313566068
 20
2326.894171333436
 30
0.0
 10
856.4394873291894
 20
2326.793742420242
 30
0.0
 10
856.6707982184356
 20
2326.766954495412
 30
0.0
 10
856.7792233786903
 20
2326.754397866315
 30
0.0
  0
LINE
  5
13A
330
1F
100
AcDbEntity
  8
0
  6
Continuous
 62
     7
370
    25
100
AcDbLine
 10
857.9292233787
 20
2344.2543978663
 30
0.0
 11
857.9292233787
 21
2335.1459720241
 31
0.0
  0
LINE
  5
13B
330
1F
100
AcDbEntity
  8
0
  6
Continuous
 62
     7
370
    25
100
AcDbLine
 10
857.6292233787
 20
2326.7543978663
 30
0.0
 11
856.7792233787
 21
2326.7543978663
 31
0.0
  0
LINE
  5
13C
330
1F
100
AcDbEntity
  8
0
  6
Continuous
 62
     7
370
    25
100
AcDbLine
 10
858.1292233787
 20
2344.2543978663
 30
0.0
 11
857.9292233787
 21
2344.2543978663
 31
0.0
  0
SPLINE
  5
13D
330
1F
100
AcDbEntity
  8
0
  6
Continuous
 62
     7
370
    25
100
AcDbSpline
210
0.0
220
0.0
230
1.0
 70
     8
 71
     3
 72
     9
 73
     5
 74
     0
 42
0.00000001
 43
0.00000001
 40
0.0
 40
0.0
 40
0.0
 40
0.0
 40
0.5050081268961976
 40
1.0
 40
1.0
 40
1.0
 40
1.0
 10
856.779223378692
 20
2306.754397866314
 30
0.0
 10
856.6559271068246
 20
2306.74217800693
 30
0.0
 10
856.4117800024496
 20
2306.717980654981
 30
0.0
 10
856.2227778888969
 20
2306.580904581719
 30
0.0
 10
856.1292233786888
 20
2306.513053039457
 30
0.0
  0
LINE
  5
13E
330
1F
100
AcDbEntity
  8
0
  6
Continuous
 62
     7
370
    25
100
AcDbLine
 10
857.9292233787
 20
2298.3628237086
 30
0.0
 11
857.9292233787
 21
2289.2543978663
 31
0.0
  0
LINE
  5
13F
330
1F
100
AcDbEntity
  8
0
  6
Continuous
 62
     7
370
    25
100
AcDbLine
 10
856.7792233787
 20
2306.7543978663
 30
0.0
 11
857.6292233787
 21
2306.7543978663
 31
0.0
  0
LINE
  5
140
330
1F
100
AcDbEntity
  8
0
  6
Continuous
 62
     7
370
    25
100
AcDbLine
 10
858.1292233787
 20
2289.2543978663
 30
0.0
 11
857.9292233787
 21
2289.2543978663
 31
0.0
  0
LINE
  5
141
330
1F
100
AcDbEntity
  8
0
  6
Continuous
 62
     7
370
    25
100
AcDbLine
 10
858.1292233787
 20
2345.2543978663
 30
0.0
 11
857.9292233787
 21
2345.2543978663
 31
0.0
  0
LINE
  5
142
330
1F
100
AcDbEntity
  8
0
  6
Continuous
 62
     7
370
    25
100
AcDbLine
 10
858.1292233787
 20
2288.2543978663
 30
0.0
 11
857.9292233787
 21
2288.2543978663
 31
0.0
  0
LINE
  5
143
330
1F
100
AcDbEntity
  8
0
  6
Continuous
 62
     7
370
    25
100
AcDbLine
 10
857.6292233787
 20
1425.7103560054
 30
0.0
 11
858.1292233787
 21
1425.7103560054
 31
0.0
  0
LINE
  5
144
330
1F
100
AcDbEntity
  8
0
  6
Continuous
 62
     7
370
    25
100
AcDbLine
 10
857.6292233787
 20
1424.1543978661
 30
0.0
 11
858.1292233787
 21
1424.1543978661
 31
0.0
  0
LINE
  5
145
330
1F
100
AcDbEntity
  8
0
  6
Continuous
 62
     7
370
    25
100
AcDbLine
 10
857.6292233787
 20
1424.1543978661
 30
0.0
 11
857.6292233787
 21
1425.7103560054
 31
0.0
  0
LINE
  5
146
330
1F
100
AcDbEntity
  8
0
  6
Continuous
 62
     7
370
    25
100
AcDbLine
 10
858.1292233787
 20
1407.7984397272
 30
0.0
 11
857.6292233787
 21
1407.7984397272
 31
0.0
  0
LINE
  5
147
330
1F
100
AcDbEntity
  8
0
  6
Continuous
 62
     7
370
    25
100
AcDbLine
 10
857.6292233787
 20
1407.7984397272
 30
0.0
 11
857.6292233787
 21
1409.3543978665
 31
0.0
  0
LINE
  5
148
330
1F
100
AcDbEntity
  8
0
  6
Continuous
 62
     7
370
    25
100
AcDbLine
 10
858.1292233787
 20
1409.3543978665
 30
0.0
 11
857.6292233787
 21
1409.3543978665
 31
0.0
  0
LINE
  5
149
330
1F
100
AcDbEntity
  8
0
  6
Continuous
 62
     7
370
    25
100
AcDbLine
 10
857.9292233787
 20
1435.1459720241
 30
0.0
 11
857.6292233787
 21
1435.1459720241
 31
0.0
  0
LINE
  5
14A
330
1F
100
AcDbEntity
  8
0
  6
Continuous
 62
     7
370
    25
100
AcDbLine
 10
858.1292233787
 20
1435.1459720241
 30
0.0
 11
857.9292233787
 21
1435.1459720241
 31
0.0
  0
LINE
  5
14B
330
1F
100
AcDbEntity
  8
0
  6
Continuous
 62
     7
370
    25
100
AcDbLine
 10
857.6292233787
 20
1435.1459720241
 30
0.0
 11
857.6292233787
 21
1425.7103560054
 31
0.0
  0
LINE
  5
14C
330
1F
100
AcDbEntity
  8
0
  6
Continuous
 62
     7
370
    25
100
AcDbLine
 10
857.9292233787
 20
1398.3628237086
 30
0.0
 11
858.1292233787
 21
1398.3628237086
 31
0.0
  0
LINE
  5
14D
330
1F
100
AcDbEntity
  8
0
  6
Continuous
 62
     7
370
    25
100
AcDbLine
 10
857.6292233787
 20
1398.3628237086
 30
0.0
 11
857.9292233787
 21
1398.3628237086
 31
0.0
  0
LINE
  5
14E
330
1F
100
AcDbEntity
  8
0
  6
Continuous
 62
     7
370
    25
100
AcDbLine
 10
857.6292233787
 20
1407.7984397272
 30
0.0
 11
857.6292233787
 21
1398.3628237086
 31
0.0
  0
SPLINE
  5
14F
330
1F
100
AcDbEntity
  8
0
  6
Continuous
 62
     7
370
    25
100
AcDbSpline
210
0.0
220
0.0
230
1.0
 70
    24
 71
     3
 72
    12
 73
     8
 74
     0
 42
0.00000001
 43
0.00000001
 40
0.0
 40
0.0
 40
0.0
 40
0.0
 40
0.1234882189589227
 40
0.3047574776053563
 40
0.4857888495148023
 40
0.6670582153988438
 40
1.0
 40
1.0
 40
1.0
 40
1.0
 10
856.1292233786888
 20
1445.254397866311
 30
0.0
 10
856.1689699477243
 20
1445.254397866311
 30
0.0
 10
856.2670607957816
 20
1445.254397866311
 30
0.0
 10
856.5070340841407
 20
1445.254397866312
 30
0.0
 10
856.8226482726353
 20
1445.254397866312
 30
0.0
 10
857.2895583617346
 20
1445.254397866311
 30
0.0
 10
857.6778269619716
 20
1445.254397866313
 30
0.0
 10
857.9292233786879
 20
1445.254397866314
 30
0.0
  0
LINE
  5
150
330
1F
100
AcDbEntity
  8
0
  6
Continuous
 62
     7
370
    25
100
AcDbLine
 10
857.9292233787
 20
1444.2543978663
 30
0.0
 11
857.9292233787
 21
1445.2543978663
 31
0.0
  0
SPLINE
  5
151
330
1F
100
AcDbEntity
  8
0
  6
Continuous
 62
     7
370
    25
100
AcDbSpline
210
0.0
220
0.0
230
1.0
 70
    24
 71
     3
 72
    12
 73
     8
 74
     0
 42
0.00000001
 43
0.00000001
 40
0.0
 40
0.0
 40
0.0
 40
0.0
 40
0.332936965375034
 40
0.5139656098140579
 40
0.6952322446461104
 40
0.8762609961871077
 40
1.0
 40
1.0
 40
1.0
 40
1.0
 10
857.9292233786941
 20
1388.254397866315
 30
0.0
 10
857.6778259655517
 20
1388.254397866314
 30
0.0
 10
857.2897356115537
 20
1388.254397866312
 30
0.0
 10
856.8228063418791
 20
1388.254397866312
 30
0.0
 10
856.5072874528574
 20
1388.254397866312
 30
0.0
 10
856.2671632343414
 20
1388.254397866312
 30
0.0
 10
856.1690559833313
 20
1388.254397866312
 30
0.0
 10
856.1292233786888
 20
1388.254397866312
 30
0.0
  0
LINE
  5
152
330
1F
100
AcDbEntity
  8
0
  6
Continuous
 62
     7
370
    25
100
AcDbLine
 10
857.9292233787
 20
1389.2543978663
 30
0.0
 11
857.9292233787
 21
1388.2543978663
 31
0.0
  0
LINE
  5
153
330
1F
100
AcDbEntity
  8
0
  6
Continuous
 62
     7
370
    25
100
AcDbLine
 10
858.1292233787
 20
1444.2543978663
 30
0.0
 11
857.9292233787
 21
1444.2543978663
 31
0.0
  0
LINE
  5
154
330
1F
100
AcDbEntity
  8
0
  6
Continuous
 62
     7
370
    25
100
AcDbLine
 10
857.9292233787
 20
1444.2543978663
 30
0.0
 11
857.9292233787
 21
1435.1459720241
 31
0.0
  0
SPLINE
  5
155
330
1F
100
AcDbEntity
  8
0
  6
Continuous
 62
     7
370
    25
100
AcDbSpline
210
0.0
220
0.0
230
1.0
 70
     8
 71
     3
 72
    10
 73
     6
 74
     0
 42
0.00000001
 43
0.00000001
 40
0.0
 40
0.0
 40
0.0
 40
0.0
 40
0.0371311943330113
 40
0.5486628195544546
 40
0.9999999999999999
 40
0.9999999999999999
 40
0.9999999999999999
 40
0.9999999999999999
 10
856.1292233786888
 20
1427.000162206481
 30
0.0
 10
856.1348462309011
 20
1426.993443859056
 30
0.0
 10
856.217931356607
 20
1426.894171333436
 30
0.0
 10
856.4394873291898
 20
1426.793742420243
 30
0.0
 10
856.6707982184357
 20
1426.766954495413
 30
0.0
 10
856.7792233786904
 20
1426.754397866315
 30
0.0
  0
LINE
  5
156
330
1F
100
AcDbEntity
  8
0
  6
Continuous
 62
     7
370
    25
100
AcDbLine
 10
857.6292233787
 20
1426.7543978663
 30
0.0
 11
856.7792233787
 21
1426.7543978663
 31
0.0
  0
LINE
  5
157
330
1F
100
AcDbEntity
  8
0
  6
Continuous
 62
     7
370
    25
100
AcDbLine
 10
858.1292233787
 20
1389.2543978663
 30
0.0
 11
857.9292233787
 21
1389.2543978663
 31
0.0
  0
LINE
  5
158
330
1F
100
AcDbEntity
  8
0
  6
Continuous
 62
     7
370
    25
100
AcDbLine
 10
857.9292233787
 20
1398.3628237086
 30
0.0
 11
857.9292233787
 21
1389.2543978663
 31
0.0
  0
SPLINE
  5
159
330
1F
100
AcDbEntity
  8
0
  6
Continuous
 62
     7
370
    25
100
AcDbSpline
210
0.0
220
0.0
230
1.0
 70
     8
 71
     3
 72
     9
 73
     5
 74
     0
 42
0.00000001
 43
0.00000001
 40
0.0
 40
0.0
 40
0.0
 40
0.0
 40
0.5050081268959828
 40
0.9999999999999999
 40
0.9999999999999999
 40
0.9999999999999999
 40
0.9999999999999999
 10
856.7792233786922
 20
1406.754397866314
 30
0.0
 10
856.6559271068246
 20
1406.74217800693
 30
0.0
 10
856.4117800024496
 20
1406.717980654981
 30
0.0
 10
856.2227778888969
 20
1406.580904581719
 30
0.0
 10
856.1292233786888
 20
1406.513053039458
 30
0.0
  0
LINE
  5
15A
330
1F
100
AcDbEntity
  8
0
  6
Continuous
 62
     7
370
    25
100
AcDbLine
 10
856.7792233787
 20
1406.7543978663
 30
0.0
 11
857.6292233787
 21
1406.7543978663
 31
0.0
  0
LINE
  5
15B
330
1F
100
AcDbEntity
  8
0
  6
Continuous
 62
     7
370
    25
100
AcDbLine
 10
858.1292233787
 20
1445.2543978663
 30
0.0
 11
857.9292233787
 21
1445.2543978663
 31
0.0
  0
LINE
  5
15C
330
1F
100
AcDbEntity
  8
0
  6
Continuous
 62
     7
370
    25
100
AcDbLine
 10
858.1292233787
 20
1388.2543978663
 30
0.0
 11
857.9292233787
 21
1388.2543978663
 31
0.0
  0
LINE
  5
15D
330
1F
100
AcDbEntity
  8
0
  6
Continuous
 62
     7
370
    25
100
AcDbLine
 10
856.2640384536
 20
2325.1293978663
 30
0.0
 11
856.2640384536
 21
2324.2043978663
 31
0.0
  0
LINE
  5
15E
330
1F
100
AcDbEntity
  8
0
  6
Continuous
 62
     7
370
    25
100
AcDbLine
 10
856.2640384536
 20
2309.3043978663
 30
0.0
 11
856.2640384536
 21
2308.3793978663
 31
0.0
  0
LINE
  5
15F
330
1F
100
AcDbEntity
  8
0
  6
Continuous
 62
     7
370
    25
100
AcDbLine
 10
856.2640384536
 20
2308.3793978663
 30
0.0
 11
856.1292233787
 21
2308.3793978663
 31
0.0
  0
LINE
  5
160
330
1F
100
AcDbEntity
  8
0
  6
Continuous
 62
     7
370
    25
100
AcDbLine
 10
856.1292233787
 20
2325.1293978663
 30
0.0
 11
856.2640384536
 21
2325.1293978663
 31
0.0
  0
LINE
  5
161
330
1F
100
AcDbEntity
  8
0
  6
Continuous
 62
     7
370
    25
100
AcDbLine
 10
857.6292233787
 20
2308.3793978663
 30
0.0
 11
856.2640384536
 21
2308.3793978663
 31
0.0
  0
LINE
  5
162
330
1F
100
AcDbEntity
  8
0
  6
Continuous
 62
     7
370
    25
100
AcDbLine
 10
856.2640384536
 20
2325.1293978663
 30
0.0
 11
857.6292233787
 21
2325.1293978663
 31
0.0
  0
LINE
  5
163
330
1F
100
AcDbEntity
  8
0
  6
Continuous
 62
     7
370
    25
100
AcDbLine
 10
856.2640384536
 20
1425.1293978663
 30
0.0
 11
856.2640384536
 21
1424.2043978663
 31
0.0
  0
LINE
  5
164
330
1F
100
AcDbEntity
  8
0
  6
Continuous
 62
     7
370
    25
100
AcDbLine
 10
856.2640384536
 20
1409.3043978663
 30
0.0
 11
856.2640384536
 21
1408.3793978663
 31
0.0
  0
LINE
  5
165
330
1F
100
AcDbEntity
  8
0
  6
Continuous
 62
     7
370
    25
100
AcDbLine
 10
856.2640384536
 20
1408.3793978663
 30
0.0
 11
856.1292233787
 21
1408.3793978663
 31
0.0
  0
LINE
  5
166
330
1F
100
AcDbEntity
  8
0
  6
Continuous
 62
     7
370
    25
100
AcDbLine
 10
856.1292233787
 20
1425.1293978663
 30
0.0
 11
856.2640384536
 21
1425.1293978663
 31
0.0
  0
LINE
  5
167
330
1F
100
AcDbEntity
  8
0
  6
Continuous
 62
     7
370
    25
100
AcDbLine
 10
857.6292233787
 20
1408.3793978663
 30
0.0
 11
856.2640384536
 21
1408.3793978663
 31
0.0
  0
LINE
  5
168
330
1F
100
AcDbEntity
  8
0
  6
Continuous
 62
     7
370
    25
100
AcDbLine
 10
856.2640384536
 20
1425.1293978663
 30
0.0
 11
857.6292233787
 21
1425.1293978663
 31
0.0
  0
LINE
  5
169
330
1F
100
AcDbEntity
  8
0
  6
Continuous
 62
     7
370
    25
100
AcDbLine
 10
856.2640384536
 20
1955.1293978663
 30
0.0
 11
856.2640384536
 21
1954.2043978663
 31
0.0
  0
LINE
  5
16A
330
1F
100
AcDbEntity
  8
0
  6
Continuous
 62
     7
370
    25
100
AcDbLine
 10
856.2640384536
 20
1939.3043978663
 30
0.0
 11
856.2640384536
 21
1938.3793978663
 31
0.0
  0
LINE
  5
16B
330
1F
100
AcDbEntity
  8
0
  6
Continuous
 62
     7
370
    25
100
AcDbLine
 10
856.2640384536
 20
1938.3793978663
 30
0.0
 11
856.1292233787
 21
1938.3793978663
 31
0.0
  0
LINE
  5
16C
330
1F
100
AcDbEntity
  8
0
  6
Continuous
 62
     7
370
    25
100
AcDbLine
 10
856.1292233787
 20
1955.1293978663
 30
0.0
 11
856.2640384536
 21
1955.1293978663
 31
0.0
  0
LINE
  5
16D
330
1F
100
AcDbEntity
  8
0
  6
Continuous
 62
     7
370
    25
100
AcDbLine
 10
857.6292233787
 20
1938.3793978663
 30
0.0
 11
856.2640384536
 21
1938.3793978663
 31
0.0
  0
LINE
  5
16E
330
1F
100
AcDbEntity
  8
0
  6
Continuous
 62
     7
370
    25
100
AcDbLine
 10
856.2640384536
 20
1955.1293978663
 30
0.0
 11
857.6292233787
 21
1955.1293978663
 31
0.0
  0
LINE
  5
16F
330
1F
100
AcDbEntity
  8
0
  6
Continuous
 62
     7
370
    25
100
AcDbLine
 10
856.2640384536
 20
705.1293978663
 30
0.0
 11
856.2640384536
 21
704.2043978663
 31
0.0
  0
LINE
  5
170
330
1F
100
AcDbEntity
  8
0
  6
Continuous
 62
     7
370
    25
100
AcDbLine
 10
856.2640384536
 20
689.3043978663
 30
0.0
 11
856.2640384536
 21
688.3793978663
 31
0.0
  0
LINE
  5
171
330
1F
100
AcDbEntity
  8
0
  6
Continuous
 62
     7
370
    25
100
AcDbLine
 10
856.2640384536
 20
688.3793978663
 30
0.0
 11
856.1292233787
 21
688.3793978663
 31
0.0
  0
LINE
  5
172
330
1F
100
AcDbEntity
  8
0
  6
Continuous
 62
     7
370
    25
100
AcDbLine
 10
856.1292233787
 20
705.1293978663
 30
0.0
 11
856.2640384536
 21
705.1293978663
 31
0.0
  0
LINE
  5
173
330
1F
100
AcDbEntity
  8
0
  6
Continuous
 62
     7
370
    25
100
AcDbLine
 10
857.6292233787
 20
688.3793978663
 30
0.0
 11
856.2640384536
 21
688.3793978663
 31
0.0
  0
LINE
  5
174
330
1F
100
AcDbEntity
  8
0
  6
Continuous
 62
     7
370
    25
100
AcDbLine
 10
856.2640384536
 20
705.1293978663
 30
0.0
 11
857.6292233787
 21
705.1293978663
 31
0.0
  0
LINE
  5
175
330
1F
100
AcDbEntity
  8
0
  6
Continuous
 62
     7
370
    25
100
AcDbLine
 10
856.1292233787
 20
1423.2543978663
 30
0.0
 11
858.1292233787
 21
1423.2543978663
 31
0.0
  0
LINE
  5
176
330
1F
100
AcDbEntity
  8
0
  6
Continuous
 62
     7
370
    25
100
AcDbLine
 10
858.1292233787
 20
1410.2543978663
 30
0.0
 11
856.1292233787
 21
1410.2543978663
 31
0.0
  0
LINE
  5
177
330
1F
100
AcDbEntity
  8
0
  6
Continuous
 62
     7
370
    25
100
AcDbLine
 10
856.8579408335
 20
1409.3043978663
 30
0.0
 11
856.8579408335
 21
1410.2543978663
 31
0.0
  0
LINE
  5
178
330
1F
100
AcDbEntity
  8
0
  6
Continuous
 62
     7
370
    25
100
AcDbLine
 10
856.8579408335
 20
1423.2543978663
 30
0.0
 11
856.8579408335
 21
1424.2043978663
 31
0.0
  0
LINE
  5
179
330
1F
100
AcDbEntity
  8
0
  6
Continuous
 62
     7
370
    25
100
AcDbLine
 10
856.8579408335
 20
1409.3043978663
 30
0.0
 11
856.1292233787
 21
1409.3043978663
 31
0.0
  0
LINE
  5
17A
330
1F
100
AcDbEntity
  8
0
  6
Continuous
 62
     7
370
    25
100
AcDbLine
 10
856.8579408335
 20
1424.2043978663
 30
0.0
 11
856.1292233787
 21
1424.2043978663
 31
0.0
  0
LINE
  5
17B
330
1F
100
AcDbEntity
  8
0
  6
Continuous
 62
     7
370
    25
100
AcDbLine
 10
856.9193103291
 20
1409.3043978663
 30
0.0
 11
856.9193103291
 21
1410.2543978663
 31
0.0
  0
LINE
  5
17C
330
1F
100
AcDbEntity
  8
0
  6
Continuous
 62
     7
370
    25
100
AcDbLine
 10
856.9193103291
 20
1423.2543978663
 30
0.0
 11
856.9193103291
 21
1424.2043978663
 31
0.0
  0
LINE
  5
17D
330
1F
100
AcDbEntity
  8
0
  6
Continuous
 62
     7
370
    25
100
AcDbLine
 10
856.9193103291
 20
1409.3043978663
 30
0.0
 11
856.8579408335
 21
1409.3043978663
 31
0.0
  0
LINE
  5
17E
330
1F
100
AcDbEntity
  8
0
  6
Continuous
 62
     7
370
    25
100
AcDbLine
 10
856.9193103291
 20
1424.2043978663
 30
0.0
 11
856.8579408335
 21
1424.2043978663
 31
0.0
  0
LINE
  5
17F
330
1F
100
AcDbEntity
  8
0
  6
Continuous
 62
     7
370
    25
100
AcDbLine
 10
856.1292233787
 20
703.2543978663
 30
0.0
 11
858.1292233787
 21
703.2543978663
 31
0.0
  0
LINE
  5
180
330
1F
100
AcDbEntity
  8
0
  6
Continuous
 62
     7
370
    25
100
AcDbLine
 10
858.1292233787
 20
690.2543978663
 30
0.0
 11
856.1292233787
 21
690.2543978663
 31
0.0
  0
LINE
  5
181
330
1F
100
AcDbEntity
  8
0
  6
Continuous
 62
     7
370
    25
100
AcDbLine
 10
856.8579408335
 20
689.3043978663
 30
0.0
 11
856.8579408335
 21
690.2543978663
 31
0.0
  0
LINE
  5
182
330
1F
100
AcDbEntity
  8
0
  6
Continuous
 62
     7
370
    25
100
AcDbLine
 10
856.8579408335
 20
703.2543978663
 30
0.0
 11
856.8579408335
 21
704.2043978663
 31
0.0
  0
LINE
  5
183
330
1F
100
AcDbEntity
  8
0
  6
Continuous
 62
     7
370
    25
100
AcDbLine
 10
856.8579408335
 20
689.3043978663
 30
0.0
 11
856.1292233787
 21
689.3043978663
 31
0.0
  0
LINE
  5
184
330
1F
100
AcDbEntity
  8
0
  6
Continuous
 62
     7
370
    25
100
AcDbLine
 10
856.8579408335
 20
704.2043978663
 30
0.0
 11
856.1292233787
 21
704.2043978663
 31
0.0
  0
LINE
  5
185
330
1F
100
AcDbEntity
  8
0
  6
Continuous
 62
     7
370
    25
100
AcDbLine
 10
856.9193103291
 20
689.3043978663
 30
0.0
 11
856.9193103291
 21
690.2543978663
 31
0.0
  0
LINE
  5
186
330
1F
100
AcDbEntity
  8
0
  6
Continuous
 62
     7
370
    25
100
AcDbLine
 10
856.9193103291
 20
703.2543978663
 30
0.0
 11
856.9193103291
 21
704.2043978663
 31
0.0
  0
LINE
  5
187
330
1F
100
AcDbEntity
  8
0
  6
Continuous
 62
     7
370
    25
100
AcDbLine
 10
856.9193103291
 20
689.3043978663
 30
0.0
 11
856.8579408335
 21
689.3043978663
 31
0.0
  0
LINE
  5
188
330
1F
100
AcDbEntity
  8
0
  6
Continuous
 62
     7
370
    25
100
AcDbLine
 10
856.9193103291
 20
704.2043978663
 30
0.0
 11
856.8579408335
 21
704.2043978663
 31
0.0
  0
LINE
  5
189
330
1F
100
AcDbEntity
  8
0
  6
Continuous
 62
     7
370
    25
100
AcDbLine
 10
856.1292233787
 20
2323.2543978663
 30
0.0
 11
858.1292233787
 21
2323.2543978663
 31
0.0
  0
LINE
  5
18A
330
1F
100
AcDbEntity
  8
0
  6
Continuous
 62
     7
370
    25
100
AcDbLine
 10
858.1292233787
 20
2310.2543978663
 30
0.0
 11
856.1292233787
 21
2310.2543978663
 31
0.0
  0
LINE
  5
18B
330
1F
100
AcDbEntity
  8
0
  6
Continuous
 62
     7
370
    25
100
AcDbLine
 10
856.8579408335
 20
2309.3043978663
 30
0.0
 11
856.8579408335
 21
2310.2543978663
 31
0.0
  0
LINE
  5
18C
330
1F
100
AcDbEntity
  8
0
  6
Continuous
 62
     7
370
    25
100
AcDbLine
 10
856.8579408335
 20
2323.2543978663
 30
0.0
 11
856.8579408335
 21
2324.2043978663
 31
0.0
  0
LINE
  5
18D
330
1F
100
AcDbEntity
  8
0
  6
Continuous
 62
     7
370
    25
100
AcDbLine
 10
856.8579408335
 20
2309.3043978663
 30
0.0
 11
856.1292233787
 21
2309.3043978663
 31
0.0
  0
LINE
  5
18E
330
1F
100
AcDbEntity
  8
0
  6
Continuous
 62
     7
370
    25
100
AcDbLine
 10
856.8579408335
 20
2324.2043978663
 30
0.0
 11
856.1292233787
 21
2324.2043978663
 31
0.0
  0
LINE
  5
18F
330
1F
100
AcDbEntity
  8
0
  6
Continuous
 62
     7
370
    25
100
AcDbLine
 10
856.9193103291
 20
2309.3043978663
 30
0.0
 11
856.9193103291
 21
2310.2543978663
 31
0.0
  0
LINE
  5
190
330
1F
100
AcDbEntity
  8
0
  6
Continuous
 62
     7
370
    25
100
AcDbLine
 10
856.9193103291
 20
2323.2543978663
 30
0.0
 11
856.9193103291
 21
2324.2043978663
 31
0.0
  0
LINE
  5
191
330
1F
100
AcDbEntity
  8
0
  6
Continuous
 62
     7
370
    25
100
AcDbLine
 10
856.9193103291
 20
2309.3043978663
 30
0.0
 11
856.8579408335
 21
2309.3043978663
 31
0.0
  0
LINE
  5
192
330
1F
100
AcDbEntity
  8
0
  6
Continuous
 62
     7
370
    25
100
AcDbLine
 10
856.9193103291
 20
2324.2043978663
 30
0.0
 11
856.8579408335
 21
2324.2043978663
 31
0.0
  0
LINE
  5
193
330
1F
100
AcDbEntity
  8
0
  6
Continuous
 62
     7
370
    25
100
AcDbLine
 10
856.1292233787
 20
1953.2543978663
 30
0.0
 11
858.1292233787
 21
1953.2543978663
 31
0.0
  0
LINE
  5
194
330
1F
100
AcDbEntity
  8
0
  6
Continuous
 62
     7
370
    25
100
AcDbLine
 10
858.1292233787
 20
1940.2543978663
 30
0.0
 11
856.1292233787
 21
1940.2543978663
 31
0.0
  0
LINE
  5
195
330
1F
100
AcDbEntity
  8
0
  6
Continuous
 62
     7
370
    25
100
AcDbLine
 10
856.8579408335
 20
1939.3043978663
 30
0.0
 11
856.8579408335
 21
1940.2543978663
 31
0.0
  0
LINE
  5
196
330
1F
100
AcDbEntity
  8
0
  6
Continuous
 62
     7
370
    25
100
AcDbLine
 10
856.8579408335
 20
1953.2543978663
 30
0.0
 11
856.8579408335
 21
1954.2043978663
 31
0.0
  0
LINE
  5
197
330
1F
100
AcDbEntity
  8
0
  6
Continuous
 62
     7
370
    25
100
AcDbLine
 10
856.8579408335
 20
1939.3043978663
 30
0.0
 11
856.1292233787
 21
1939.3043978663
 31
0.0
  0
LINE
  5
198
330
1F
100
AcDbEntity
  8
0
  6
Continuous
 62
     7
370
    25
100
AcDbLine
 10
856.8579408335
 20
1954.2043978663
 30
0.0
 11
856.1292233787
 21
1954.2043978663
 31
0.0
  0
LINE
  5
199
330
1F
100
AcDbEntity
  8
0
  6
Continuous
 62
     7
370
    25
100
AcDbLine
 10
856.9193103291
 20
1939.3043978663
 30
0.0
 11
856.9193103291
 21
1940.2543978663
 31
0.0
  0
LINE
  5
19A
330
1F
100
AcDbEntity
  8
0
  6
Continuous
 62
     7
370
    25
100
AcDbLine
 10
856.9193103291
 20
1953.2543978663
 30
0.0
 11
856.9193103291
 21
1954.2043978663
 31
0.0
  0
LINE
  5
19B
330
1F
100
AcDbEntity
  8
0
  6
Continuous
 62
     7
370
    25
100
AcDbLine
 10
856.9193103291
 20
1939.3043978663
 30
0.0
 11
856.8579408335
 21
1939.3043978663
 31
0.0
  0
LINE
  5
19C
330
1F
100
AcDbEntity
  8
0
  6
Continuous
 62
     7
370
    25
100
AcDbLine
 10
856.9193103291
 20
1954.2043978663
 30
0.0
 11
856.8579408335
 21
1954.2043978663
 31
0.0
  0
LINE
  5
19D
330
1F
100
AcDbEntity
  8
0
  6
Continuous
 62
     7
370
    25
100
AcDbLine
 10
857.6292233787
 20
1409.2793978663
 30
0.0
 11
857.3176575759
 21
1409.2793978663
 31
0.0
  0
LINE
  5
19E
330
1F
100
AcDbEntity
  8
0
  6
Continuous
 62
     7
370
    25
100
AcDbLine
 10
857.3176575759
 20
1424.2293978663
 30
0.0
 11
857.3176575759
 21
1423.2543978663
 31
0.0
  0
LINE
  5
19F
330
1F
100
AcDbEntity
  8
0
  6
Continuous
 62
     7
370
    25
100
AcDbLine
 10
857.3176575759
 20
1410.2543978663
 30
0.0
 11
857.3176575759
 21
1409.2793978663
 31
0.0
  0
LINE
  5
1A0
330
1F
100
AcDbEntity
  8
0
  6
Continuous
 62
     7
370
    25
100
AcDbLine
 10
857.6292233787
 20
1424.2293978663
 30
0.0
 11
857.3176575759
 21
1424.2293978663
 31
0.0
  0
LINE
  5
1A1
330
1F
100
AcDbEntity
  8
0
  6
Continuous
 62
     7
370
    25
100
AcDbLine
 10
857.3176575759
 20
1409.2793978663
 30
0.0
 11
857.2785149814
 21
1409.2793978663
 31
0.0
  0
LINE
  5
1A2
330
1F
100
AcDbEntity
  8
0
  6
Continuous
 62
     7
370
    25
100
AcDbLine
 10
857.3176575759
 20
1424.2293978663
 30
0.0
 11
857.2785149814
 21
1424.2293978663
 31
0.0
  0
LINE
  5
1A3
330
1F
100
AcDbEntity
  8
0
  6
Continuous
 62
     7
370
    25
100
AcDbLine
 10
857.6292233787
 20
1939.2793978663
 30
0.0
 11
857.3176575759
 21
1939.2793978663
 31
0.0
  0
LINE
  5
1A4
330
1F
100
AcDbEntity
  8
0
  6
Continuous
 62
     7
370
    25
100
AcDbLine
 10
857.3176575759
 20
1954.2293978663
 30
0.0
 11
857.3176575759
 21
1953.2543978663
 31
0.0
  0
LINE
  5
1A5
330
1F
100
AcDbEntity
  8
0
  6
Continuous
 62
     7
370
    25
100
AcDbLine
 10
857.3176575759
 20
1940.2543978663
 30
0.0
 11
857.3176575759
 21
1939.2793978663
 31
0.0
  0
LINE
  5
1A6
330
1F
100
AcDbEntity
  8
0
  6
Continuous
 62
     7
370
    25
100
AcDbLine
 10
857.6292233787
 20
1954.2293978663
 30
0.0
 11
857.3176575759
 21
1954.2293978663
 31
0.0
  0
LINE
  5
1A7
330
1F
100
AcDbEntity
  8
0
  6
Continuous
 62
     7
370
    25
100
AcDbLine
 10
857.3176575759
 20
1939.2793978663
 30
0.0
 11
857.2785149814
 21
1939.2793978663
 31
0.0
  0
LINE
  5
1A8
330
1F
100
AcDbEntity
  8
0
  6
Continuous
 62
     7
370
    25
100
AcDbLine
 10
857.3176575759
 20
1954.2293978663
 30
0.0
 11
857.2785149814
 21
1954.2293978663
 31
0.0
  0
LINE
  5
1A9
330
1F
100
AcDbEntity
  8
0
  6
Continuous
 62
     7
370
    25
100
AcDbLine
 10
857.6292233787
 20
689.2793978663
 30
0.0
 11
857.3176575759
 21
689.2793978663
 31
0.0
  0
LINE
  5
1AA
330
1F
100
AcDbEntity
  8
0
  6
Continuous
 62
     7
370
    25
100
AcDbLine
 10
857.3176575759
 20
704.2293978663
 30
0.0
 11
857.3176575759
 21
703.2543978663
 31
0.0
  0
LINE
  5
1AB
330
1F
100
AcDbEntity
  8
0
  6
Continuous
 62
     7
370
    25
100
AcDbLine
 10
857.3176575759
 20
690.2543978663
 30
0.0
 11
857.3176575759
 21
689.2793978663
 31
0.0
  0
LINE
  5
1AC
330
1F
100
AcDbEntity
  8
0
  6
Continuous
 62
     7
370
    25
100
AcDbLine
 10
857.6292233787
 20
704.2293978663
 30
0.0
 11
857.3176575759
 21
704.2293978663
 31
0.0
  0
LINE
  5
1AD
330
1F
100
AcDbEntity
  8
0
  6
Continuous
 62
     7
370
    25
100
AcDbLine
 10
857.3176575759
 20
689.2793978663
 30
0.0
 11
857.2785149814
 21
689.2793978663
 31
0.0
  0
LINE
  5
1AE
330
1F
100
AcDbEntity
  8
0
  6
Continuous
 62
     7
370
    25
100
AcDbLine
 10
857.3176575759
 20
704.2293978663
 30
0.0
 11
857.2785149814
 21
704.2293978663
 31
0.0
  0
LINE
  5
1AF
330
1F
100
AcDbEntity
  8
0
  6
Continuous
 62
     7
370
    25
100
AcDbLine
 10
857.6292233787
 20
2309.2793978663
 30
0.0
 11
857.3176575759
 21
2309.2793978663
 31
0.0
  0
LINE
  5
1B0
330
1F
100
AcDbEntity
  8
0
  6
Continuous
 62
     7
370
    25
100
AcDbLine
 10
857.3176575759
 20
2324.2293978663
 30
0.0
 11
857.3176575759
 21
2323.2543978663
 31
0.0
  0
LINE
  5
1B1
330
1F
100
AcDbEntity
  8
0
  6
Continuous
 62
     7
370
    25
100
AcDbLine
 10
857.3176575759
 20
2310.2543978663
 30
0.0
 11
857.3176575759
 21
2309.2793978663
 31
0.0
  0
LINE
  5
1B2
330
1F
100
AcDbEntity
  8
0
  6
Continuous
 62
     7
370
    25
100
AcDbLine
 10
857.6292233787
 20
2324.2293978663
 30
0.0
 11
857.3176575759
 21
2324.2293978663
 31
0.0
  0
LINE
  5
1B3
330
1F
100
AcDbEntity
  8
0
  6
Continuous
 62
     7
370
    25
100
AcDbLine
 10
857.3176575759
 20
2309.2793978663
 30
0.0
 11
857.2785149814
 21
2309.2793978663
 31
0.0
  0
LINE
  5
1B4
330
1F
100
AcDbEntity
  8
0
  6
Continuous
 62
     7
370
    25
100
AcDbLine
 10
857.3176575759
 20
2324.2293978663
 30
0.0
 11
857.2785149814
 21
2324.2293978663
 31
0.0
  0
LINE
  5
1B5
330
1F
100
AcDbEntity
  8
0
  6
Continuous
 62
     7
370
    25
100
AcDbLine
 10
475.7954764323
 20
2314.7748720752
 30
0.0
 11
475.6515032166
 21
2309.2767567878
 31
0.0
  0
LINE
  5
1B6
330
1F
100
AcDbEntity
  8
0
  6
Continuous
 62
     7
370
    25
100
AcDbLine
 10
474.180590664
 20
2339.0754720652
 30
0.0
 11
473.6570516978
 21
2319.0823255657
 31
0.0
  0
LINE
  5
1B7
330
1F
100
AcDbEntity
  8
0
  6
Continuous
 62
     7
370
    25
100
AcDbLine
 10
472.4907022777
 20
2320.2086561082
 30
0.0
 11
472.9568920992
 21
2338.0117271316
 31
0.0
  0
LINE
  5
1B8
330
1F
100
AcDbEntity
  8
0
  6
Continuous
 62
     7
370
    25
100
AcDbLine
 10
474.6764915164
 20
2329.3448871838
 30
0.0
 11
474.9307814413
 21
2339.0558276283
 31
0.0
  0
LINE
  5
1B9
330
1F
100
AcDbEntity
  8
0
  6
Continuous
 62
     7
370
    25
100
AcDbLine
 10
472.7751043047
 20
2336.4161961367
 30
0.0
 11
472.3926672574
 21
2321.8115145215
 31
0.0
  0
LINE
  5
1BA
330
1F
100
AcDbEntity
  8
0
  6
Continuous
 62
     7
370
    25
100
AcDbLine
 10
475.4865683072
 20
2333.5393867276
 30
0.0
 11
475.3649024678
 21
2328.8931557708
 31
0.0
  0
LINE
  5
1BB
330
1F
100
AcDbEntity
  8
0
  6
Continuous
 62
     7
370
    25
100
AcDbLine
 10
475.3649024678
 20
2328.8931557708
 30
0.0
 11
475.250975856
 21
2324.5424739934
 31
0.0
  0
LINE
  5
1BC
330
1F
100
AcDbEntity
  8
0
  6
Continuous
 62
     7
370
    25
100
AcDbLine
 10
857.9292233787
 20
1974.2543978663
 30
0.0
 11
856.1292233787
 21
1974.2543978663
 31
0.0
  0
LINE
  5
1BD
330
1F
100
AcDbEntity
  8
0
  6
Continuous
 62
     7
370
    25
100
AcDbLine
 10
857.9292233787
 20
1919.2543978663
 30
0.0
 11
856.1292233787
 21
1919.2543978663
 31
0.0
  0
LINE
  5
1BE
330
1F
100
AcDbEntity
  8
0
  6
Continuous
 62
     7
370
    25
100
AcDbLine
 10
856.7792233787
 20
1955.1293978663
 30
0.0
 11
856.7792233787
 21
1956.7543978663
 31
0.0
  0
LINE
  5
1BF
330
1F
100
AcDbEntity
  8
0
  6
Continuous
 62
     7
370
    25
100
AcDbLine
 10
856.7792233787
 20
1936.7543978663
 30
0.0
 11
856.7792233787
 21
1938.3793978663
 31
0.0
  0
LINE
  5
1C0
330
1F
100
AcDbEntity
  8
0
  6
Continuous
 62
     7
370
    25
100
AcDbLine
 10
857.9292233787
 20
724.2543978663
 30
0.0
 11
856.1292233787
 21
724.2543978663
 31
0.0
  0
LINE
  5
1C1
330
1F
100
AcDbEntity
  8
0
  6
Continuous
 62
     7
370
    25
100
AcDbLine
 10
857.9292233787
 20
669.2543978663
 30
0.0
 11
856.1292233787
 21
669.2543978663
 31
0.0
  0
LINE
  5
1C2
330
1F
100
AcDbEntity
  8
0
  6
Continuous
 62
     7
370
    25
100
AcDbLine
 10
856.7792233787
 20
705.1293978663
 30
0.0
 11
856.7792233787
 21
706.7543978663
 31
0.0
  0
LINE
  5
1C3
330
1F
100
AcDbEntity
  8
0
  6
Continuous
 62
     7
370
    25
100
AcDbLine
 10
856.7792233787
 20
686.7543978663
 30
0.0
 11
856.7792233787
 21
688.3793978663
 31
0.0
  0
LINE
  5
1C4
330
1F
100
AcDbEntity
  8
0
  6
Continuous
 62
     7
370
    25
100
AcDbLine
 10
857.9292233787
 20
2344.2543978663
 30
0.0
 11
856.1292233787
 21
2344.2543978663
 31
0.0
  0
LINE
  5
1C5
330
1F
100
AcDbEntity
  8
0
  6
Continuous
 62
     7
370
    25
100
AcDbLine
 10
857.9292233787
 20
2289.2543978663
 30
0.0
 11
856.1292233787
 21
2289.2543978663
 31
0.0
  0
LINE
  5
1C6
330
1F
100
AcDbEntity
  8
0
  6
Continuous
 62
     7
370
    25
100
AcDbLine
 10
856.7792233787
 20
2325.1293978663
 30
0.0
 11
856.7792233787
 21
2326.7543978663
 31
0.0
  0
LINE
  5
1C7
330
1F
100
AcDbEntity
  8
0
  6
Continuous
 62
     7
370
    25
100
AcDbLine
 10
856.7792233787
 20
2306.7543978663
 30
0.0
 11
856.7792233787
 21
2308.3793978663
 31
0.0
  0
LINE
  5
1C8
330
1F
100
AcDbEntity
  8
0
  6
Continuous
 62
     7
370
    25
100
AcDbLine
 10
857.9292233787
 20
1444.2543978663
 30
0.0
 11
856.1292233787
 21
1444.2543978663
 31
0.0
  0
LINE
  5
1C9
330
1F
100
AcDbEntity
  8
0
  6
Continuous
 62
     7
370
    25
100
AcDbLine
 10
857.9292233787
 20
1389.2543978663
 30
0.0
 11
856.1292233787
 21
1389.2543978663
 31
0.0
  0
LINE
  5
1CA
330
1F
100
AcDbEntity
  8
0
  6
Continuous
 62
     7
370
    25
100
AcDbLine
 10
856.7792233787
 20
1425.1293978663
 30
0.0
 11
856.7792233787
 21
1426.7543978663
 31
0.0
  0
LINE
  5
1CB
330
1F
100
AcDbEntity
  8
0
  6
Continuous
 62
     7
370
    25
100
AcDbLine
 10
856.7792233787
 20
1406.7543978663
 30
0.0
 11
856.7792233787
 21
1408.3793978663
 31
0.0
  0
LINE
  5
1CC
330
1F
100
AcDbEntity
  8
0
  6
Continuous
 62
     7
370
    25
100
AcDbLine
 10
4135.4163010121
 20
1761.2543978663
 30
0.0
 11
4137.4163010121
 21
1761.2543978663
 31
0.0
  0
LINE
  5
1CD
330
1F
100
AcDbEntity
  8
0
  6
Continuous
 62
     7
370
    25
100
AcDbLine
 10
4137.4163010121
 20
1796.2543978663
 30
0.0
 11
4135.4163010121
 21
1796.2543978663
 31
0.0
  0
LINE
  5
1CE
330
1F
100
AcDbEntity
  8
0
  6
Continuous
 62
     7
370
    25
100
AcDbLine
 10
4137.4163010121
 20
2312.7543978663
 30
0.0
 11
4135.4163010121
 21
2312.7543978663
 31
0.0
  0
LINE
  5
1CF
330
1F
100
AcDbEntity
  8
0
  6
Continuous
 62
     7
370
    25
100
AcDbLine
 10
4135.4163010121
 20
2250.7543978663
 30
0.0
 11
4137.4163010121
 21
2250.7543978663
 31
0.0
  0
LINE
  5
1D0
330
1F
100
AcDbEntity
  8
0
  6
Continuous
 62
     7
370
    25
100
AcDbLine
 10
4135.4163010121
 20
722.7543978663
 30
0.0
 11
4137.4163010121
 21
722.7543978663
 31
0.0
  0
LINE
  5
1D1
330
1F
100
AcDbEntity
  8
0
  6
Continuous
 62
     7
370
    25
100
AcDbLine
 10
4137.4163010121
 20
822.7543978663
 30
0.0
 11
4135.4163010121
 21
822.7543978663
 31
0.0
  0
LINE
  5
1D2
330
1F
100
AcDbEntity
  8
0
  6
Continuous
 62
     7
370
    25
100
AcDbLine
 10
4135.4163010121
 20
1278.2543978663
 30
0.0
 11
4137.4163010121
 21
1278.2543978663
 31
0.0
  0
LINE
  5
1D3
330
1F
100
AcDbEntity
  8
0
  6
Continuous
 62
     7
370
    25
100
AcDbLine
 10
4137.4163010121
 20
1313.2543978663
 30
0.0
 11
4135.4163010121
 21
1313.2543978663
 31
0.0
  0
LINE
  5
1D4
330
1F
100
AcDbEntity
  8
0
  6
Continuous
 62
     7
370
    25
100
AcDbLine
 10
4517.7500479585
 20
2314.7748720752
 30
0.0
 11
4515.9163010121
 21
2314.7268537215
 31
0.0
  0
LINE
  5
1D5
330
1F
100
AcDbEntity
  8
0
  6
Continuous
 62
     7
370
    25
100
AcDbLine
 10
4515.9163010121
 20
2309.2249683628
 30
0.0
 11
4517.8940211741
 21
2309.2767567878
 31
0.0
  0
ARC
  5
1D6
330
1F
100
AcDbEntity
  8
0
  6
Continuous
 62
     7
370
    25
100
AcDbCircle
 10
4517.757901043
 20
2314.4749748777
 30
0.0
 40
0.3000000000003485
100
AcDbArc
 50
1.5
 51
91.5
  0
ARC
  5
1D7
330
1F
100
AcDbEntity
  8
0
  6
Continuous
 62
     7
370
    25
100
AcDbCircle
 10
4517.8861680897
 20
2309.5766539853
 30
0.0
 40
0.2999999999998819
100
AcDbArc
 50
271.5
 51
1.5
  0
ARC
  5
1D8
330
1F
100
AcDbEntity
  8
0
  6
Continuous
 62
     7
370
    25
100
AcDbCircle
 10
4519.857060355
 20
2320.2819143556
 30
0.0
 40
1.200000000000284
100
AcDbArc
 50
271.5
 51
356.5000000032
  0
ARC
  5
1D9
330
1F
100
AcDbEntity
  8
0
  6
Continuous
 62
     7
370
    25
100
AcDbCircle
 10
4519.3963460648
 20
2337.8758832752
 30
0.0
 40
1.200000000000554
100
AcDbArc
 50
6.4999999967
 51
91.4999999999
  0
LINE
  5
1DA
330
1F
100
AcDbEntity
  8
0
  6
Continuous
 62
     7
370
    25
100
AcDbLine
 10
4519.1382819156
 20
2319.0626811288
 30
0.0
 11
4519.8884726929
 21
2319.0823255656
 31
0.0
  0
LINE
  5
1DB
330
1F
100
AcDbEntity
  8
0
  6
Continuous
 62
     7
370
    25
100
AcDbLine
 10
4519.3649337268
 20
2339.0754720652
 30
0.0
 11
4518.6147429495
 21
2339.0558276283
 31
0.0
  0
ARC
  5
1DC
330
1F
100
AcDbEntity
  8
0
  6
Continuous
 62
     7
370
    25
100
AcDbCircle
 10
4519.133046526
 20
2319.2626125938
 30
0.0
 40
0.2000000000000808
100
AcDbArc
 50
181.4999999999
 51
271.5
  0
ARC
  5
1DD
330
1F
100
AcDbEntity
  8
0
  6
Continuous
 62
     7
370
    25
100
AcDbCircle
 10
4518.6199783391
 20
2338.8558961633
 30
0.0
 40
0.200000000000057
100
AcDbArc
 50
91.4999999998
 51
181.4999999999
  0
LINE
  5
1DE
330
1F
100
AcDbEntity
  8
0
  6
Continuous
 62
     7
370
    25
100
AcDbLine
 10
4521.0548221131
 20
2320.2086561082
 30
0.0
 11
4521.1528571334
 21
2321.8115145215
 31
0.0
  0
LINE
  5
1DF
330
1F
100
AcDbEntity
  8
0
  6
Continuous
 62
     7
370
    25
100
AcDbLine
 10
4520.7704200861
 20
2336.4161961367
 30
0.0
 11
4520.5886322916
 21
2338.0117271316
 31
0.0
  0
ARC
  5
1E0
330
1F
100
AcDbEntity
  8
0
  6
Continuous
 62
     7
370
    25
100
AcDbCircle
 10
4491.2088131807
 20
2323.6429707076
 30
0.0
 40
30.00000000000288
100
AcDbArc
 50
356.4999999999
 51
1.4999999999
  0
ARC
  5
1E1
330
1F
100
AcDbEntity
  8
0
  6
Continuous
 62
     7
370
    25
100
AcDbCircle
 10
4490.9632644158
 20
2333.0200997237
 30
0.0
 40
30.00000000000259
100
AcDbArc
 50
1.4999999999
 51
6.4999999999
  0
LINE
  5
1E2
330
1F
100
AcDbEntity
  8
0
  6
Continuous
 62
     7
370
    25
100
AcDbLine
 10
4521.0782320384
 20
2329.0223848583
 30
0.0
 11
4521.0757585475
 21
2329.1168436648
 31
0.0
  0
SPLINE
  5
1E3
330
1F
100
AcDbEntity
  8
0
  6
Continuous
 62
     7
370
    25
100
AcDbSpline
210
0.0
220
0.0
230
1.0
 70
     8
 71
     3
 72
    11
 73
     7
 74
     0
 42
0.00000001
 43
0.00000001
 40
0.0
 40
0.0
 40
0.0
 40
0.0
 40
0.270671270904472
 40
0.5632120728001463
 40
0.7903891635246172
 40
1.0
 40
1.0
 40
1.0
 40
1.0
 10
4518.294548572448
 20
2324.542472552353
 30
0.0
 10
4518.366361280958
 20
2324.535344805512
 30
0.0
 10
4518.515788977064
 20
2324.520513408522
 30
0.0
 10
4518.687900202777
 20
2324.38709392635
 30
0.0
 10
4518.788951168401
 20
2324.218965531411
 30
0.0
 10
4518.80158698596
 20
2324.103888307108
 30
0.0
 10
4518.807650808066
 20
2324.048663719286
 30
0.0
  0
SPLINE
  5
1E4
330
1F
100
AcDbEntity
  8
0
  6
Continuous
 62
     7
370
    25
100
AcDbSpline
210
0.0
220
0.0
230
1.0
 70
     8
 71
     3
 72
    11
 73
     7
 74
     0
 42
0.00000001
 43
0.00000001
 40
0.0
 40
0.0
 40
0.0
 40
0.0
 40
0.2695105035985408
 40
0.56173644057767
 40
0.7894224931279971
 40
1.0
 40
1.0
 40
1.0
 40
1.0
 10
4518.545511127043
 20
2334.059374258502
 30
0.0
 10
4518.539444966037
 20
2333.987784817778
 30
0.0
 10
4518.526801363482
 20
2333.838572089227
 30
0.0
 10
4518.396408797245
 20
2333.664552517792
 30
0.0
 10
4518.229638749764
 20
2333.560590211835
 30
0.0
 10
4518.114350096174
 20
2333.546269373957
 30
0.0
 10
4518.058956037687
 20
2333.539388477127
 30
0.0
  0
LINE
  5
1E5
330
1F
100
AcDbEntity
  8
0
  6
Continuous
 62
     7
370
    25
100
AcDbLine
 10
4515.9163010121
 20
2324.4801959483
 30
0.0
 11
4518.2945485724
 21
2324.5424725523
 31
0.0
  0
LINE
  5
1E6
330
1F
100
AcDbEntity
  8
0
  6
Continuous
 62
     7
370
    25
100
AcDbLine
 10
4518.0589560377
 20
2333.5393884771
 30
0.0
 11
4515.9163010121
 21
2333.4832810807
 31
0.0
  0
LINE
  5
1E7
330
1F
100
AcDbEntity
  8
0
  6
Continuous
 62
     7
370
    25
100
AcDbLine
 10
4137.4163010121
 20
606.7543978663
 30
0.0
 11
4137.4163010121
 21
2378.2543978663
 31
0.0
  0
LINE
  5
1E8
330
1F
100
AcDbEntity
  8
0
  6
Continuous
 62
     7
370
    25
100
AcDbLine
 10
4137.4163010121
 20
606.7543978663
 30
0.0
 11
4515.9163010121
 21
606.7543978663
 31
0.0
  0
LINE
  5
1E9
330
1F
100
AcDbEntity
  8
0
  6
Continuous
 62
     7
370
    25
100
AcDbLine
 10
4515.9163010121
 20
606.7543978663
 30
0.0
 11
4515.9163010121
 21
2378.2543978663
 31
0.0
  0
LINE
  5
1EA
330
1F
100
AcDbEntity
  8
0
  6
Continuous
 62
     7
370
    25
100
AcDbLine
 10
4136.9163010121
 20
2406.7543978663
 30
0.0
 11
4136.9163010121
 21
2378.2543978663
 31
0.0
  0
LINE
  5
1EB
330
1F
100
AcDbEntity
  8
0
  6
Continuous
 62
     7
370
    25
100
AcDbLine
 10
4515.9163010121
 20
2406.7543978663
 30
0.0
 11
4136.9163010121
 21
2406.7543978663
 31
0.0
  0
LINE
  5
1EC
330
1F
100
AcDbEntity
  8
0
  6
Continuous
 62
     7
370
    25
100
AcDbLine
 10
4515.9163010121
 20
2378.2543978663
 30
0.0
 11
4515.9163010121
 21
2406.7543978663
 31
0.0
  0
LINE
  5
1ED
330
1F
100
AcDbEntity
  8
0
  6
Continuous
 62
     7
370
    25
100
AcDbLine
 10
4136.9163010121
 20
2378.2543978663
 30
0.0
 11
4515.9163010121
 21
2378.2543978663
 31
0.0
  0
LINE
  5
1EE
330
1F
100
AcDbEntity
  8
0
  6
Continuous
 62
     7
370
    25
100
AcDbLine
 10
4137.4163010121
 20
2292.7543978663
 30
0.0
 11
4135.4163010121
 21
2292.7543978663
 31
0.0
  0
LINE
  5
1EF
330
1F
100
AcDbEntity
  8
0
  6
Continuous
 62
     7
370
    25
100
AcDbLine
 10
4137.4163010121
 20
2270.7543978663
 30
0.0
 11
4135.4163010121
 21
2270.7543978663
 31
0.0
  0
LINE
  5
1F0
330
1F
100
AcDbEntity
  8
0
  6
Continuous
 62
     7
370
    25
100
AcDbLine
 10
4137.4163010121
 20
742.7543978663
 30
0.0
 11
4135.4163010121
 21
742.7543978663
 31
0.0
  0
LINE
  5
1F1
330
1F
100
AcDbEntity
  8
0
  6
Continuous
 62
     7
370
    25
100
AcDbLine
 10
4137.4163010121
 20
802.7543978663
 30
0.0
 11
4135.4163010121
 21
802.7543978663
 31
0.0
  0
LINE
  5
1F2
330
1F
100
AcDbEntity
  8
0
  6
Continuous
 62
     7
370
    25
100
AcDbLine
 10
4133.9163010121
 20
629.7543978663
 30
0.0
 11
4133.9163010121
 21
650.2543978663
 31
0.0
  0
LINE
  5
1F3
330
1F
100
AcDbEntity
  8
0
  6
Continuous
 62
     7
370
    25
100
AcDbLine
 10
4121.4163010121
 20
629.7543978663
 30
0.0
 11
4133.9163010121
 21
629.7543978663
 31
0.0
  0
LINE
  5
1F4
330
1F
100
AcDbEntity
  8
0
  6
Continuous
 62
     7
370
    25
100
AcDbLine
 10
4121.4163010121
 20
616.7543978663
 30
0.0
 11
4121.4163010121
 21
629.7543978663
 31
0.0
  0
LINE
  5
1F5
330
1F
100
AcDbEntity
  8
0
  6
Continuous
 62
     7
370
    25
100
AcDbLine
 10
4117.4163010121
 20
616.7543978663
 30
0.0
 11
4121.4163010121
 21
616.7543978663
 31
0.0
  0
LINE
  5
1F6
330
1F
100
AcDbEntity
  8
0
  6
Continuous
 62
     7
370
    25
100
AcDbLine
 10
4117.4163010121
 20
616.7543978663
 30
0.0
 11
4117.4163010121
 21
2396.7543978663
 31
0.0
  0
LINE
  5
1F7
330
1F
100
AcDbEntity
  8
0
  6
Continuous
 62
     7
370
    25
100
AcDbLine
 10
4117.4163010121
 20
2396.7543978663
 30
0.0
 11
4135.4163010121
 21
2396.7543978663
 31
0.0
  0
LINE
  5
1F8
330
1F
100
AcDbEntity
  8
0
  6
Continuous
 62
     7
370
    25
100
AcDbLine
 10
4135.4163010121
 20
650.2543978663
 30
0.0
 11
4135.4163010121
 21
2396.7543978663
 31
0.0
  0
LINE
  5
1F9
330
1F
100
AcDbEntity
  8
0
  6
Continuous
 62
     7
370
    25
100
AcDbLine
 10
4133.9163010121
 20
650.2543978663
 30
0.0
 11
4135.4163010121
 21
650.2543978663
 31
0.0
  0
SPLINE
  5
1FA
330
1F
100
AcDbEntity
  8
0
  6
Continuous
 62
     7
370
    25
100
AcDbSpline
210
0.0
220
0.0
230
1.0
 70
    24
 71
     3
 72
    12
 73
     8
 74
     0
 42
0.00000001
 43
0.00000001
 40
0.0
 40
0.0
 40
0.0
 40
0.0
 40
0.2460973337389802
 40
0.4921955654195614
 40
0.7383025770441104
 40
0.9844160040482749
 40
1.0
 40
1.0
 40
1.0
 40
1.0
 10
4518.121931763796
 20
2312.033667515996
 30
0.0
 10
4518.130161240797
 20
2311.719396468498
 30
0.0
 10
4518.146620224826
 20
2311.090853226814
 30
0.0
 10
4518.167936227936
 20
2310.276827909653
 30
0.0
 10
4518.181476490681
 20
2309.759746136903
 30
0.0
 10
4518.187395967763
 20
2309.533690427252
 30
0.0
 10
4518.185875737426
 20
2309.591745681664
 30
0.0
 10
4518.185785208206
 20
2309.595202853077
 30
0.0
  0
SPLINE
  5
1FB
330
1F
100
AcDbEntity
  8
0
  6
Continuous
 62
     7
370
    25
100
AcDbSpline
210
0.0
220
0.0
230
1.0
 70
     8
 71
     3
 72
    11
 73
     7
 74
     0
 42
0.00000001
 43
0.00000001
 40
0.0
 40
0.0
 40
0.0
 40
0.0
 40
0.2382247349852315
 40
0.4921376904596723
 40
0.7460575595478376
 40
1.0
 40
1.0
 40
1.0
 40
1.0
 10
4518.058072034717
 20
2314.472372180739
 30
0.0
 10
4518.058744419021
 20
2314.446694861226
 30
0.0
 10
4518.060133467299
 20
2314.393649249805
 30
0.0
 10
4518.073671064535
 20
2313.876669251059
 30
0.0
 10
4518.093771655869
 20
2313.109058705194
 30
0.0
 10
4518.110155297261
 20
2312.483392512938
 30
0.0
 10
4518.118347482034
 20
2312.170545513297
 30
0.0
  0
LINE
  5
1FC
330
1F
100
AcDbEntity
  8
0
  6
Continuous
 62
     7
370
    25
100
AcDbLine
 10
4518.118347482
 20
2312.1705455133
 30
0.0
 11
4518.1219317638
 21
2312.033667516
 31
0.0
  0
SPLINE
  5
1FD
330
1F
100
AcDbEntity
  8
0
  6
Continuous
 62
     7
370
    25
100
AcDbSpline
210
0.0
220
0.0
230
1.0
 70
    24
 71
     3
 72
    13
 73
     9
 74
     0
 42
0.00000001
 43
0.00000001
 40
0.0
 40
0.0
 40
0.0
 40
0.0
 40
0.1813201537907877
 40
0.4101468448380511
 40
0.5438150184965098
 40
0.6886421238875815
 40
0.8419966874126971
 40
1.0
 40
1.0
 40
1.0
 40
1.0
 10
4518.676580967555
 20
2329.054018988887
 30
0.0
 10
4518.652354093912
 20
2329.979205966928
 30
0.0
 10
4518.597552817952
 20
2332.071982263415
 30
0.0
 10
4518.53119258693
 20
2334.606177244852
 30
0.0
 10
4518.481221570377
 20
2336.514493376593
 30
0.0
 10
4518.448299481662
 20
2337.771737221525
 30
0.0
 10
4518.425017322935
 20
2338.660846992432
 30
0.0
 10
4518.421725129526
 20
2338.78657078643
 30
0.0
 10
4518.420054455667
 20
2338.850371247079
 30
0.0
  0
SPLINE
  5
1FE
330
1F
100
AcDbEntity
  8
0
  6
Continuous
 62
     7
370
    25
100
AcDbSpline
210
0.0
220
0.0
230
1.0
 70
    24
 71
     3
 72
    13
 73
     9
 74
     0
 42
0.00000001
 43
0.00000001
 40
0.0
 40
0.0
 40
0.0
 40
0.0
 40
0.1538581583651996
 40
0.3079676862452784
 40
0.4535077802385057
 40
0.5878340078345576
 40
0.8177872163813448
 40
1.0
 40
1.0
 40
1.0
 40
1.0
 10
4518.932881372516
 20
2319.266301405849
 30
0.0
 10
4518.931561895873
 20
2319.316690185941
 30
0.0
 10
4518.928920786858
 20
2319.417550070022
 30
0.0
 10
4518.906694001446
 20
2320.266356760078
 30
0.0
 10
4518.874525991149
 20
2321.494803511993
 30
0.0
 10
4518.825263059562
 20
2323.376078969866
 30
0.0
 10
4518.759443730822
 20
2325.889617726496
 30
0.0
 10
4518.704718667675
 20
2327.979483573087
 30
0.0
 10
4518.680525487551
 20
2328.903383847575
 30
0.0
  0
LINE
  5
1FF
330
1F
100
AcDbEntity
  8
0
  6
Continuous
 62
     7
370
    25
100
AcDbLine
 10
4521.0782320384
 20
2329.0223848582
 30
0.0
 11
4521.19853293
 21
2324.4282791568
 31
0.0
  0
LINE
  5
200
330
1F
100
AcDbEntity
  8
0
  6
Continuous
 62
     7
370
    25
100
AcDbLine
 10
4520.952984165
 20
2333.8054081729
 30
0.0
 11
4521.0757585475
 21
2329.1168436648
 31
0.0
  0
SPLINE
  5
201
330
1F
100
AcDbEntity
  8
0
  6
Continuous
 62
     7
370
    25
100
AcDbSpline
210
0.0
220
0.0
230
1.0
 70
     8
 71
     3
 72
    11
 73
     7
 74
     0
 42
0.00000001
 43
0.00000001
 40
0.0
 40
0.0
 40
0.0
 40
0.0
 40
0.2702602051691471
 40
0.562428365990229
 40
0.789735958672819
 40
1.0
 40
1.0
 40
1.0
 40
1.0
 10
4518.67228138343
 20
2329.218213482242
 30
0.0
 10
4518.663531975718
 20
2329.215656025557
 30
0.0
 10
4518.645323911826
 20
2329.210333798472
 30
0.0
 10
4518.510265639421
 20
2329.20128582409
 30
0.0
 10
4518.342203449888
 20
2329.193677152425
 30
0.0
 10
4518.227838085996
 20
2329.190318953096
 30
0.0
 10
4518.172882687311
 20
2329.188705254886
 30
0.0
  0
SPLINE
  5
202
330
1F
100
AcDbEntity
  8
0
  6
Continuous
 62
     7
370
    25
100
AcDbSpline
210
0.0
220
0.0
230
1.0
 70
     8
 71
     3
 72
    10
 73
     6
 74
     0
 42
0.00000001
 43
0.00000001
 40
0.0
 40
0.0
 40
0.0
 40
0.0
 40
0.369868246393449
 40
0.739418366524783
 40
1.0
 40
1.0
 40
1.0
 40
1.0
 10
4518.400161334801
 20
2328.531609380491
 30
0.0
 10
4518.396941611833
 20
2328.655185441902
 30
0.0
 10
4518.390504935202
 20
2328.902231276091
 30
0.0
 10
4518.3810123833
 20
2329.268343236765
 30
0.0
 10
4518.375485084351
 20
2329.475556144413
 30
0.0
 10
4518.373199351912
 20
2329.56124596665
 30
0.0
  0
ARC
  5
203
330
1F
100
AcDbEntity
  8
0
  6
Continuous
 62
     7
370
    25
100
AcDbCircle
 10
4121.4162626861
 20
616.7613658174
 30
0.0
 40
0.3000000000005226
100
AcDbArc
 50
223.6216529672
 51
260.4234115189
  0
LINE
  5
204
330
1F
100
AcDbEntity
  8
0
  6
Continuous
 62
     7
370
    25
100
AcDbLine
 10
4121.3663529321
 20
616.4655465881
 30
0.0
 11
4121.3330797627
 21
616.2683337685
 31
0.0
  0
ARC
  5
205
330
1F
100
AcDbEntity
  8
0
  6
Continuous
 62
     7
370
    25
100
AcDbCircle
 10
4121.4162626861
 20
616.7613658174
 30
0.0
 40
0.5000000000001907
100
AcDbArc
 50
180.7984942261
 51
260.4234115189
  0
SPLINE
  5
206
330
1F
100
AcDbEntity
  8
0
  6
Continuous
 62
     7
370
    25
100
AcDbSpline
210
0.0
220
0.0
230
1.0
 70
     8
 71
     3
 72
    13
 73
     9
 74
     0
 42
0.00000001
 43
0.00000001
 40
0.0
 40
0.0
 40
0.0
 40
0.0
 40
0.0075029974113214
 40
0.3818974549657648
 40
0.6070018873267128
 40
0.7653769096342216
 40
0.8824605049805154
 40
1.0
 40
1.0
 40
1.0
 40
1.0
 10
4121.1990893286
 20
616.5543978663146
 30
0.0
 10
4121.198071551984
 20
616.5548358642098
 30
0.0
 10
4121.146267415845
 20
616.577129658579
 30
0.0
 10
4121.067682050478
 20
616.6240140467946
 30
0.0
 10
4120.985042586445
 20
616.690298483831
 30
0.0
 10
4120.942946468347
 20
616.7285600430037
 30
0.0
 10
4120.920423041511
 20
616.7503158187388
 30
0.0
 10
4120.917683615397
 20
616.7530354222886
 30
0.0
 10
4120.91631124083
 20
616.7543978663147
 30
0.0
  0
ARC
  5
207
330
1F
100
AcDbEntity
  8
0
  6
Continuous
 62
     7
370
    25
100
AcDbCircle
 10
4121.4994456096
 20
617.2543978663
 30
0.0
 40
0.8000000000000935
100
AcDbArc
 50
260.4234115189
 51
355.0300534053
  0
LINE
  5
208
330
1F
100
AcDbEntity
  8
0
  6
Continuous
 62
     7
370
    25
100
AcDbLine
 10
4122.2964378311
 20
617.1850913096
 30
0.0
 11
4122.4956858865
 21
617.1677646704
 31
0.0
  0
ARC
  5
209
330
1F
100
AcDbEntity
  8
0
  6
Continuous
 62
     7
370
    25
100
AcDbCircle
 10
4121.4994456096
 20
617.2543978663
 30
0.0
 40
1.000000000000163
100
AcDbArc
 50
260.4234115189
 51
355.0300534053
  0
LINE
  5
20A
330
1F
100
AcDbEntity
  8
0
  6
Continuous
 62
     7
370
    25
100
AcDbLine
 10
4121.4163010121
 20
616.7543978663
 30
0.0
 11
4121.6163010121
 21
616.5543978663
 31
0.0
  0
LINE
  5
20B
330
1F
100
AcDbEntity
  8
0
  6
Continuous
 62
     7
370
    25
100
AcDbLine
 10
4121.6163010121
 20
616.5543978663
 30
0.0
 11
4121.1990893286
 21
616.5543978663
 31
0.0
  0
LINE
  5
20C
330
1F
100
AcDbEntity
  8
0
  6
Continuous
 62
     7
370
    25
100
AcDbLine
 10
4121.4163010121
 20
629.7543978663
 30
0.0
 11
4121.6163010121
 21
629.5543978663
 31
0.0
  0
LINE
  5
20D
330
1F
100
AcDbEntity
  8
0
  6
Continuous
 62
     7
370
    25
100
AcDbLine
 10
4121.6163010121
 20
629.5543978663
 30
0.0
 11
4121.6163010121
 21
616.5543978663
 31
0.0
  0
ARC
  5
20E
330
1F
100
AcDbEntity
  8
0
  6
Continuous
 62
     7
370
    25
100
AcDbCircle
 10
4124.333114782
 20
626.7543978663
 30
0.0
 40
1.200000000000045
100
AcDbArc
 50
90.0
 51
175.0300534053
  0
LINE
  5
20F
330
1F
100
AcDbEntity
  8
0
  6
Continuous
 62
     7
370
    25
100
AcDbLine
 10
4122.2964378311
 20
617.1850913096
 30
0.0
 11
4123.1376264497
 21
626.8583577014
 31
0.0
  0
LINE
  5
210
330
1F
100
AcDbEntity
  8
0
  6
Continuous
 62
     7
370
    25
100
AcDbLine
 10
4134.1163010121
 20
629.5543978663
 30
0.0
 11
4121.6163010121
 21
629.5543978663
 31
0.0
  0
LINE
  5
211
330
1F
100
AcDbEntity
  8
0
  6
Continuous
 62
     7
370
    25
100
AcDbLine
 10
4134.1163010121
 20
649.5543978663
 30
0.0
 11
4134.1163010121
 21
629.5543978663
 31
0.0
  0
LINE
  5
212
330
1F
100
AcDbEntity
  8
0
  6
Continuous
 62
     7
370
    25
100
AcDbLine
 10
4135.5163010121
 20
649.5543978663
 30
0.0
 11
4134.1163010121
 21
649.5543978663
 31
0.0
  0
LINE
  5
213
330
1F
100
AcDbEntity
  8
0
  6
Continuous
 62
     7
370
    25
100
AcDbLine
 10
4135.5163010121
 20
628.7543978663
 30
0.0
 11
4135.5163010121
 21
649.5543978663
 31
0.0
  0
ARC
  5
214
330
1F
100
AcDbEntity
  8
0
  6
Continuous
 62
     7
370
    25
100
AcDbCircle
 10
4134.7163010121
 20
628.7543978663
 30
0.0
 40
0.7999999999999545
100
AcDbArc
 50
270.0
 51
0.0
  0
LINE
  5
215
330
1F
100
AcDbEntity
  8
0
  6
Continuous
 62
     7
370
    25
100
AcDbLine
 10
4124.333114782
 20
627.9543978663
 30
0.0
 11
4134.7163010121
 21
627.9543978663
 31
0.0
  0
LINE
  5
216
330
1F
100
AcDbEntity
  8
0
  6
Continuous
 62
     7
370
    25
100
AcDbLine
 10
4123.1376264497
 20
626.8583577014
 30
0.0
 11
4123.3368745051
 21
626.8410310622
 31
0.0
  0
LINE
  5
217
330
1F
100
AcDbEntity
  8
0
  6
Continuous
 62
     7
370
    25
100
AcDbLine
 10
4123.3368745051
 20
626.8410310622
 30
0.0
 11
4122.4956858865
 21
617.1677646704
 31
0.0
  0
LINE
  5
218
330
1F
100
AcDbEntity
  8
0
  6
Continuous
 62
     7
370
    25
100
AcDbLine
 10
4134.7163010121
 20
627.9543978663
 30
0.0
 11
4134.7163010121
 21
627.7543978663
 31
0.0
  0
LINE
  5
219
330
1F
100
AcDbEntity
  8
0
  6
Continuous
 62
     7
370
    25
100
AcDbLine
 10
4134.7163010121
 20
627.7543978663
 30
0.0
 11
4124.333114782
 21
627.7543978663
 31
0.0
  0
LINE
  5
21A
330
1F
100
AcDbEntity
  8
0
  6
Continuous
 62
     7
370
    25
100
AcDbLine
 10
4124.333114782
 20
627.9543978663
 30
0.0
 11
4124.333114782
 21
627.7543978663
 31
0.0
  0
ARC
  5
21B
330
1F
100
AcDbEntity
  8
0
  6
Continuous
 62
     7
370
    25
100
AcDbCircle
 10
4124.333114782
 20
626.7543978663
 30
0.0
 40
0.9999999999998863
100
AcDbArc
 50
90.0
 51
175.0300534053
  0
LINE
  5
21C
330
1F
100
AcDbEntity
  8
0
  6
Continuous
 62
     7
370
    25
100
AcDbLine
 10
4133.9163010121
 20
629.7543978663
 30
0.0
 11
4134.1163010121
 21
629.5543978663
 31
0.0
  0
LINE
  5
21D
330
1F
100
AcDbEntity
  8
0
  6
Continuous
 62
     7
370
    25
100
AcDbLine
 10
4135.7163010121
 20
628.7543978663
 30
0.0
 11
4135.5163010121
 21
628.7543978663
 31
0.0
  0
ARC
  5
21E
330
1F
100
AcDbEntity
  8
0
  6
Continuous
 62
     7
370
    25
100
AcDbCircle
 10
4134.7163010121
 20
628.7543978663
 30
0.0
 40
1.0
100
AcDbArc
 50
270.0
 51
0.0
  0
LINE
  5
21F
330
1F
100
AcDbEntity
  8
0
  6
Continuous
 62
     7
370
    25
100
AcDbLine
 10
4135.7163010121
 20
649.5543978663
 30
0.0
 11
4135.7163010121
 21
628.7543978663
 31
0.0
  0
LINE
  5
220
330
1F
100
AcDbEntity
  8
0
  6
Continuous
 62
     7
370
    25
100
AcDbLine
 10
4135.7163010121
 20
649.5543978663
 30
0.0
 11
4135.5163010121
 21
649.5543978663
 31
0.0
  0
LINE
  5
221
330
1F
100
AcDbEntity
  8
0
  6
Continuous
 62
     7
370
    25
100
AcDbLine
 10
4133.9163010121
 20
649.7543978663
 30
0.0
 11
4134.1163010121
 21
649.5543978663
 31
0.0
  0
LINE
  5
222
330
1F
100
AcDbEntity
  8
0
  6
Continuous
 62
     7
370
    25
100
AcDbLine
 10
4135.5163010121
 20
649.7543978663
 30
0.0
 11
4135.5163010121
 21
649.5543978663
 31
0.0
  0
ARC
  5
223
330
1F
100
AcDbEntity
  8
0
  6
Continuous
 62
     7
370
    25
100
AcDbCircle
 10
4135.5163010121
 20
649.5543978663
 30
0.0
 40
0.2000000000000455
100
AcDbArc
 50
0.0
 51
90.0
  0
LINE
  5
224
330
1F
100
AcDbEntity
  8
0
  6
Continuous
 62
     7
370
    25
100
AcDbLine
 10
4133.9163010121
 20
649.7543978663
 30
0.0
 11
4135.5163010121
 21
649.7543978663
 31
0.0
  0
LINE
  5
225
330
1F
100
AcDbEntity
  8
0
  6
Continuous
 62
     7
370
    25
100
AcDbLine
 10
4136.6163010121
 20
2364.0543978663
 30
0.0
 11
4136.6163010121
 21
2365.2543978663
 31
0.0
  0
LINE
  5
226
330
1F
100
AcDbEntity
  8
0
  6
Continuous
 62
     7
370
    25
100
AcDbLine
 10
4136.6163010121
 20
2364.0543978663
 30
0.0
 11
4137.4163010121
 21
2364.0543978663
 31
0.0
  0
LINE
  5
227
330
1F
100
AcDbEntity
  8
0
  6
Continuous
 62
     7
370
    25
100
AcDbLine
 10
4136.6163010121
 20
2365.2543978663
 30
0.0
 11
4137.4163010121
 21
2365.2543978663
 31
0.0
  0
LINE
  5
228
330
1F
100
AcDbEntity
  8
0
  6
Continuous
 62
     7
370
    25
100
AcDbLine
 10
4135.4163010121
 20
2364.0543978663
 30
0.0
 11
4136.6163010121
 21
2364.0543978663
 31
0.0
  0
LINE
  5
229
330
1F
100
AcDbEntity
  8
0
  6
Continuous
 62
     7
370
    25
100
AcDbLine
 10
4135.4163010121
 20
2365.2543978663
 30
0.0
 11
4136.6163010121
 21
2365.2543978663
 31
0.0
  0
LINE
  5
22A
330
1F
100
AcDbEntity
  8
0
  6
Continuous
 62
     7
370
    25
100
AcDbLine
 10
4136.6163010121
 20
2346.2543978663
 30
0.0
 11
4136.6163010121
 21
2364.0543978663
 31
0.0
  0
LINE
  5
22B
330
1F
100
AcDbEntity
  8
0
  6
Continuous
 62
     7
370
    25
100
AcDbLine
 10
4135.4163010121
 20
2346.2543978663
 30
0.0
 11
4136.6163010121
 21
2346.2543978663
 31
0.0
  0
LINE
  5
22C
330
1F
100
AcDbEntity
  8
0
  6
Continuous
 62
     7
370
    25
100
AcDbLine
 10
4136.6163010121
 20
2343.2543978663
 30
0.0
 11
4135.4163010121
 21
2343.2543978663
 31
0.0
  0
LINE
  5
22D
330
1F
100
AcDbEntity
  8
0
  6
Continuous
 62
     7
370
    25
100
AcDbLine
 10
4136.6163010121
 20
2346.2543978663
 30
0.0
 11
4136.6163010121
 21
2343.2543978663
 31
0.0
  0
SPLINE
  5
22E
330
1F
100
AcDbEntity
  8
0
  6
Continuous
 62
     7
370
    25
100
AcDbSpline
210
0.0
220
0.0
230
1.0
 70
    24
 71
     3
 72
    12
 73
     8
 74
     0
 42
0.00000001
 43
0.00000001
 40
0.0
 40
0.0
 40
0.0
 40
0.0
 40
0.1234882189617497
 40
0.3047574776072748
 40
0.4857888495162632
 40
0.6670582153984489
 40
1.0
 40
1.0
 40
1.0
 40
1.0
 10
4137.416301012059
 20
1918.254397866312
 30
0.0
 10
4137.376554443021
 20
1918.254397866312
 30
0.0
 10
4137.278463594963
 20
1918.254397866312
 30
0.0
 10
4137.038490306602
 20
1918.254397866312
 30
0.0
 10
4136.722876118107
 20
1918.254397866312
 30
0.0
 10
4136.255966029006
 20
1918.254397866312
 30
0.0
 10
4135.867697428767
 20
1918.254397866313
 30
0.0
 10
4135.616301012049
 20
1918.254397866313
 30
0.0
  0
LINE
  5
22F
330
1F
100
AcDbEntity
  8
0
  6
Continuous
 62
     7
370
    25
100
AcDbLine
 10
4135.6163010121
 20
1919.2543978663
 30
0.0
 11
4135.616301012
 21
1918.2543978663
 31
0.0
  0
LINE
  5
230
330
1F
100
AcDbEntity
  8
0
  6
Continuous
 62
     7
370
    25
100
AcDbLine
 10
4135.6163010121
 20
1975.2543978663
 30
0.0
 11
4135.6163010121
 21
1974.2543978663
 31
0.0
  0
SPLINE
  5
231
330
1F
100
AcDbEntity
  8
0
  6
Continuous
 62
     7
370
    25
100
AcDbSpline
210
0.0
220
0.0
230
1.0
 70
    24
 71
     3
 72
    12
 73
     8
 74
     0
 42
0.00000001
 43
0.00000001
 40
0.0
 40
0.0
 40
0.0
 40
0.0
 40
0.3329369653767132
 40
0.5139656098173411
 40
0.6952322446484797
 40
0.8762609961869738
 40
1.0
 40
1.0
 40
1.0
 40
1.0
 10
4135.616301012054
 20
1975.254397866312
 30
0.0
 10
4135.867698425196
 20
1975.254397866311
 30
0.0
 10
4136.255788779197
 20
1975.254397866311
 30
0.0
 10
4136.722718048871
 20
1975.254397866312
 30
0.0
 10
4137.038236937892
 20
1975.254397866312
 30
0.0
 10
4137.278361156405
 20
1975.254397866311
 30
0.0
 10
4137.376468407415
 20
1975.254397866312
 30
0.0
 10
4137.416301012059
 20
1975.254397866312
 30
0.0
  0
LINE
  5
232
330
1F
100
AcDbEntity
  8
0
  6
Continuous
 62
     7
370
    25
100
AcDbLine
 10
4135.6163010121
 20
1919.2543978663
 30
0.0
 11
4135.6163010121
 21
1974.2543978663
 31
0.0
  0
LINE
  5
233
330
1F
100
AcDbEntity
  8
0
  6
Continuous
 62
     7
370
    25
100
AcDbLine
 10
4135.4163010121
 20
1974.2543978663
 30
0.0
 11
4135.6163010121
 21
1974.2543978663
 31
0.0
  0
LINE
  5
234
330
1F
100
AcDbEntity
  8
0
  6
Continuous
 62
     7
370
    25
100
AcDbLine
 10
4135.416301012
 20
1919.2543978663
 30
0.0
 11
4135.6163010121
 21
1919.2543978663
 31
0.0
  0
LINE
  5
235
330
1F
100
AcDbEntity
  8
0
  6
Continuous
 62
     7
370
    25
100
AcDbLine
 10
4135.416301012
 20
1918.2543978663
 30
0.0
 11
4135.616301012
 21
1918.2543978663
 31
0.0
  0
LINE
  5
236
330
1F
100
AcDbEntity
  8
0
  6
Continuous
 62
     7
370
    25
100
AcDbLine
 10
4135.6163010121
 20
1975.2543978663
 30
0.0
 11
4135.4163010121
 21
1975.2543978663
 31
0.0
  0
SPLINE
  5
237
330
1F
100
AcDbEntity
  8
0
  6
Continuous
 62
     7
370
    25
100
AcDbSpline
210
0.0
220
0.0
230
1.0
 70
    24
 71
     3
 72
    12
 73
     8
 74
     0
 42
0.00000001
 43
0.00000001
 40
0.0
 40
0.0
 40
0.0
 40
0.0
 40
0.1234882189617497
 40
0.3047574776072748
 40
0.4857888495162632
 40
0.6670582153984489
 40
1.0
 40
1.0
 40
1.0
 40
1.0
 10
4137.416301012059
 20
668.2543978663122
 30
0.0
 10
4137.376554443021
 20
668.2543978663122
 30
0.0
 10
4137.278463594963
 20
668.2543978663122
 30
0.0
 10
4137.038490306602
 20
668.254397866312
 30
0.0
 10
4136.722876118107
 20
668.2543978663122
 30
0.0
 10
4136.255966029006
 20
668.254397866312
 30
0.0
 10
4135.867697428767
 20
668.2543978663124
 30
0.0
 10
4135.616301012049
 20
668.2543978663126
 30
0.0
  0
LINE
  5
238
330
1F
100
AcDbEntity
  8
0
  6
Continuous
 62
     7
370
    25
100
AcDbLine
 10
4135.6163010121
 20
669.2543978663
 30
0.0
 11
4135.616301012
 21
668.2543978663
 31
0.0
  0
LINE
  5
239
330
1F
100
AcDbEntity
  8
0
  6
Continuous
 62
     7
370
    25
100
AcDbLine
 10
4135.416301012
 20
669.2543978663
 30
0.0
 11
4135.6163010121
 21
669.2543978663
 31
0.0
  0
LINE
  5
23A
330
1F
100
AcDbEntity
  8
0
  6
Continuous
 62
     7
370
    25
100
AcDbLine
 10
4135.416301012
 20
668.2543978663
 30
0.0
 11
4135.616301012
 21
668.2543978663
 31
0.0
  0
SPLINE
  5
23B
330
1F
100
AcDbEntity
  8
0
  6
Continuous
 62
     7
370
    25
100
AcDbSpline
210
0.0
220
0.0
230
1.0
 70
    24
 71
     3
 72
    11
 73
     7
 74
     0
 42
0.00000001
 43
0.00000001
 40
0.0
 40
0.0
 40
0.0
 40
0.0
 40
0.0916613905663343
 40
0.4304264786858993
 40
0.7687469921341765
 40
1.0
 40
1.0
 40
1.0
 40
1.0
 10
4136.61630101206
 20
2345.254397866311
 30
0.0
 10
4136.649366844539
 20
2345.254397866311
 30
0.0
 10
4136.804638434365
 20
2345.254397866311
 30
0.0
 10
4137.036178632068
 20
2345.254397866311
 30
0.0
 10
4137.278690659664
 20
2345.254397866311
 30
0.0
 10
4137.376563557385
 20
2345.254397866311
 30
0.0
 10
4137.416301012059
 20
2345.254397866311
 30
0.0
  0
SPLINE
  5
23C
330
1F
100
AcDbEntity
  8
0
  6
Continuous
 62
     7
370
    25
100
AcDbSpline
210
0.0
220
0.0
230
1.0
 70
    24
 71
     3
 72
    12
 73
     8
 74
     0
 42
0.00000001
 43
0.00000001
 40
0.0
 40
0.0
 40
0.0
 40
0.0
 40
0.1234882189617957
 40
0.3047574776073115
 40
0.4857888495162904
 40
0.6670582153984654
 40
1.0
 40
1.0
 40
1.0
 40
1.0
 10
4137.416301012059
 20
1388.254397866312
 30
0.0
 10
4137.376554443021
 20
1388.254397866312
 30
0.0
 10
4137.278463594963
 20
1388.254397866312
 30
0.0
 10
4137.038490306602
 20
1388.254397866312
 30
0.0
 10
4136.722876118107
 20
1388.254397866312
 30
0.0
 10
4136.255966029006
 20
1388.254397866312
 30
0.0
 10
4135.867697428768
 20
1388.254397866312
 30
0.0
 10
4135.616301012049
 20
1388.254397866313
 30
0.0
  0
LINE
  5
23D
330
1F
100
AcDbEntity
  8
0
  6
Continuous
 62
     7
370
    25
100
AcDbLine
 10
4135.6163010121
 20
1389.2543978663
 30
0.0
 11
4135.616301012
 21
1388.2543978663
 31
0.0
  0
LINE
  5
23E
330
1F
100
AcDbEntity
  8
0
  6
Continuous
 62
     7
370
    25
100
AcDbLine
 10
4135.6163010121
 20
1445.2543978663
 30
0.0
 11
4135.6163010121
 21
1444.2543978663
 31
0.0
  0
SPLINE
  5
23F
330
1F
100
AcDbEntity
  8
0
  6
Continuous
 62
     7
370
    25
100
AcDbSpline
210
0.0
220
0.0
230
1.0
 70
    24
 71
     3
 72
    12
 73
     8
 74
     0
 42
0.00000001
 43
0.00000001
 40
0.0
 40
0.0
 40
0.0
 40
0.0
 40
0.3329369653766759
 40
0.513965609817317
 40
0.6952322446484481
 40
0.8762609961869349
 40
0.9999999999999999
 40
0.9999999999999999
 40
0.9999999999999999
 40
0.9999999999999999
 10
4135.616301012054
 20
1445.254397866312
 30
0.0
 10
4135.867698425196
 20
1445.254397866312
 30
0.0
 10
4136.255788779197
 20
1445.254397866311
 30
0.0
 10
4136.722718048871
 20
1445.254397866311
 30
0.0
 10
4137.038236937892
 20
1445.254397866311
 30
0.0
 10
4137.278361156405
 20
1445.254397866311
 30
0.0
 10
4137.376468407415
 20
1445.254397866311
 30
0.0
 10
4137.416301012059
 20
1445.254397866311
 30
0.0
  0
LINE
  5
240
330
1F
100
AcDbEntity
  8
0
  6
Continuous
 62
     7
370
    25
100
AcDbLine
 10
4135.6163010121
 20
1389.2543978663
 30
0.0
 11
4135.6163010121
 21
1444.2543978663
 31
0.0
  0
LINE
  5
241
330
1F
100
AcDbEntity
  8
0
  6
Continuous
 62
     7
370
    25
100
AcDbLine
 10
4135.4163010121
 20
1444.2543978663
 30
0.0
 11
4135.6163010121
 21
1444.2543978663
 31
0.0
  0
LINE
  5
242
330
1F
100
AcDbEntity
  8
0
  6
Continuous
 62
     7
370
    25
100
AcDbLine
 10
4135.416301012
 20
1389.2543978663
 30
0.0
 11
4135.6163010121
 21
1389.2543978663
 31
0.0
  0
LINE
  5
243
330
1F
100
AcDbEntity
  8
0
  6
Continuous
 62
     7
370
    25
100
AcDbLine
 10
4135.416301012
 20
1388.2543978663
 30
0.0
 11
4135.616301012
 21
1388.2543978663
 31
0.0
  0
LINE
  5
244
330
1F
100
AcDbEntity
  8
0
  6
Continuous
 62
     7
370
    25
100
AcDbLine
 10
4135.6163010121
 20
1445.2543978663
 30
0.0
 11
4135.4163010121
 21
1445.2543978663
 31
0.0
  0
LINE
  5
245
330
1F
100
AcDbEntity
  8
0
  6
Continuous
 62
     7
370
    25
100
AcDbLine
 10
4517.8940211741
 20
2309.2767567878
 30
0.0
 11
4517.7500479585
 21
2314.7748720752
 31
0.0
  0
LINE
  5
246
330
1F
100
AcDbEntity
  8
0
  6
Continuous
 62
     7
370
    25
100
AcDbLine
 10
4519.8884726929
 20
2319.0823255657
 30
0.0
 11
4519.3649337268
 21
2339.0754720652
 31
0.0
  0
LINE
  5
247
330
1F
100
AcDbEntity
  8
0
  6
Continuous
 62
     7
370
    25
100
AcDbLine
 10
4520.5886322916
 20
2338.0117271316
 30
0.0
 11
4521.0548221131
 21
2320.2086561082
 31
0.0
  0
LINE
  5
248
330
1F
100
AcDbEntity
  8
0
  6
Continuous
 62
     7
370
    25
100
AcDbLine
 10
4518.8843458927
 20
2328.7601066029
 30
0.0
 11
4519.1382819156
 21
2319.0626811288
 31
0.0
  0
LINE
  5
249
330
1F
100
AcDbEntity
  8
0
  6
Continuous
 62
     7
370
    25
100
AcDbLine
 10
4521.1528571334
 20
2321.8115145215
 30
0.0
 11
4520.7704200861
 21
2336.4161961367
 31
0.0
  0
LINE
  5
24A
330
1F
100
AcDbEntity
  8
0
  6
Continuous
 62
     7
370
    25
100
AcDbLine
 10
4518.2945485266
 20
2324.5424743019
 30
0.0
 11
4518.1728826872
 21
2329.1887052586
 31
0.0
  0
LINE
  5
24B
330
1F
100
AcDbEntity
  8
0
  6
Continuous
 62
     7
370
    25
100
AcDbLine
 10
4518.1728826872
 20
2329.1887052586
 30
0.0
 11
4518.0589560754
 21
2333.539387036
 31
0.0
  0
LINE
  5
24C
330
1F
100
AcDbEntity
  8
0
  6
Continuous
 62
     7
370
    25
100
AcDbLine
 10
4135.6163010121
 20
1919.2543978663
 30
0.0
 11
4137.4163010121
 21
1919.2543978663
 31
0.0
  0
LINE
  5
24D
330
1F
100
AcDbEntity
  8
0
  6
Continuous
 62
     7
370
    25
100
AcDbLine
 10
4137.4163010121
 20
1974.2543978663
 30
0.0
 11
4135.6163010121
 21
1974.2543978663
 31
0.0
  0
LINE
  5
24E
330
1F
100
AcDbEntity
  8
0
  6
Continuous
 62
     7
370
    25
100
AcDbLine
 10
4135.6163010121
 20
669.2543978663
 30
0.0
 11
4137.4163010121
 21
669.2543978663
 31
0.0
  0
LINE
  5
24F
330
1F
100
AcDbEntity
  8
0
  6
Continuous
 62
     7
370
    25
100
AcDbLine
 10
4135.6163010121
 20
669.2543978663
 30
0.0
 11
4135.6163010121
 21
722.7543978663
 31
0.0
  0
LINE
  5
250
330
1F
100
AcDbEntity
  8
0
  6
Continuous
 62
     7
370
    25
100
AcDbLine
 10
4137.4163010121
 20
2344.2543978663
 30
0.0
 11
4136.6163010121
 21
2344.2543978663
 31
0.0
  0
LINE
  5
251
330
1F
100
AcDbEntity
  8
0
  6
Continuous
 62
     7
370
    25
100
AcDbLine
 10
4135.6163010121
 20
2312.7543978663
 30
0.0
 11
4135.6163010121
 21
2343.2543978663
 31
0.0
  0
LINE
  5
252
330
1F
100
AcDbEntity
  8
0
  6
Continuous
 62
     7
370
    25
100
AcDbLine
 10
4135.6163010121
 20
1389.2543978663
 30
0.0
 11
4137.4163010121
 21
1389.2543978663
 31
0.0
  0
LINE
  5
253
330
1F
100
AcDbEntity
  8
0
  6
Continuous
 62
     7
370
    25
100
AcDbLine
 10
4137.4163010121
 20
1444.2543978663
 30
0.0
 11
4135.6163010121
 21
1444.2543978663
 31
0.0
  0
SPLINE
  5
254
330
1F
100
AcDbEntity
  8
0
  6
Continuous
 62
     7
370
    25
100
AcDbSpline
210
0.0
220
0.0
230
1.0
 70
     8
 71
     3
 72
    16
 73
    12
 74
     0
 42
0.00000001
 43
0.00000001
 40
0.0
 40
0.0
 40
0.0
 40
0.0
 40
0.0490847390187718
 40
0.1518473045647187
 40
0.235868499099255
 40
0.3090519161655106
 40
0.3734786142110843
 40
0.4370328180328233
 40
0.5258016248251018
 40
0.7068629655468184
 40
1.0
 40
1.0
 40
1.0
 40
1.0
 10
2301.425074168674
 20
3123.664749109262
 30
0.0
 10
2301.429765765409
 20
3123.730939501483
 30
0.0
 10
2301.444279570158
 20
3123.935704421246
 30
0.0
 10
2301.317101818788
 20
3124.239921080893
 30
0.0
 10
2301.112885409261
 20
3124.515984719915
 30
0.0
 10
2300.891873803396
 20
3124.689323194554
 30
0.0
 10
2300.700107235653
 20
3124.786327207056
 30
0.0
 10
2300.54289334747
 20
3124.840400572414
 30
0.0
 10
2300.377542172416
 20
3124.879033393785
 30
0.0
 10
2300.18182823749
 20
3124.908770279305
 30
0.0
 10
2299.954213845383
 20
3124.925985948577
 30
0.0
 10
2299.81350858068
 20
3124.936628225102
 30
0.0
  0
SPLINE
  5
255
330
1F
100
AcDbEntity
  8
0
  6
Continuous
 62
     7
370
    25
100
AcDbSpline
210
0.0
220
0.0
230
1.0
 70
     8
 71
     3
 72
    15
 73
    11
 74
     0
 42
0.00000001
 43
0.00000001
 40
0.0
 40
0.0
 40
0.0
 40
0.0
 40
0.0366146332908409
 40
0.4586206584971197
 40
0.6039592141586554
 40
0.6771237587643621
 40
0.7596633924486776
 40
0.8571328939029752
 40
0.9634171087774944
 40
1.0
 40
1.0
 40
1.0
 40
1.0
 10
2283.095706343179
 20
3124.93932219425
 30
0.0
 10
2283.073357319801
 20
3124.93804974558
 30
0.0
 10
2282.79342214369
 20
3124.922111548346
 30
0.0
 10
2282.637947923131
 20
3124.901059449084
 30
0.0
 10
2282.326115586826
 20
3124.840915485378
 30
0.0
 10
2282.053551866989
 20
3124.724397498165
 30
0.0
 10
2281.78912293055
 20
3124.534471237137
 30
0.0
 10
2281.560974971923
 20
3124.221975080396
 30
0.0
 10
2281.436909000219
 20
3123.900010101124
 30
0.0
 10
2281.458389606708
 20
3123.704696279424
 30
0.0
 10
2281.463889981931
 20
3123.654683757376
 30
0.0
  0
LINE
  5
256
330
1F
100
AcDbEntity
  8
0
  6
Continuous
 62
     7
370
    25
100
AcDbLine
 10
2301.4454585654
 20
3122.914092518
 30
0.0
 11
2301.4454585654
 21
3123.6642832953
 31
0.0
  0
LINE
  5
257
330
1F
100
AcDbEntity
  8
0
  6
Continuous
 62
     7
370
    25
100
AcDbLine
 10
2281.4454585654
 20
3123.6642832953
 30
0.0
 11
2281.4454585654
 21
3122.914092518
 31
0.0
  0
LINE
  5
258
330
1F
100
AcDbEntity
  8
0
  6
Continuous
 62
     7
370
    25
100
AcDbLine
 10
2299.9418327899
 20
3124.9290740988
 30
0.0
 11
2298.4154268517
 21
3125.0564516332
 31
0.0
  0
LINE
  5
259
330
1F
100
AcDbEntity
  8
0
  6
Continuous
 62
     7
370
    25
100
AcDbLine
 10
2284.475490279
 20
3125.0564516332
 30
0.0
 11
2282.9490843408
 21
3124.9290740988
 31
0.0
  0
SPLINE
  5
25A
330
1F
100
AcDbEntity
  8
0
  6
Continuous
 62
     7
370
    25
100
AcDbSpline
210
0.0
220
0.0
230
1.0
 70
     8
 71
     3
 72
    14
 73
    10
 74
     0
 42
0.00000001
 43
0.00000001
 40
0.0
 40
0.0
 40
0.0
 40
0.0
 40
0.0907475556428169
 40
0.2288563839002405
 40
0.4128530542465182
 40
0.6071420004331978
 40
0.7878282318391774
 40
0.9626611221742144
 40
0.9999999999999999
 40
0.9999999999999999
 40
0.9999999999999999
 40
0.9999999999999999
 10
2298.325460923731
 20
3125.061553406051
 30
0.0
 10
2298.113909756883
 20
3125.078385939599
 30
0.0
 10
2297.580398581714
 20
3125.120835928831
 30
0.0
 10
2296.719912941164
 20
3125.162796219042
 30
0.0
 10
2295.670112580982
 20
3125.199728364259
 30
0.0
 10
2294.435496063459
 20
3125.225453930881
 30
0.0
 10
2293.098989846257
 20
3125.241299849516
 30
0.0
 10
2292.088959722669
 20
3125.246111519754
 30
0.0
 10
2291.541757506833
 20
3125.246351103251
 30
0.0
 10
2291.445458565366
 20
3125.24639326616
 30
0.0
  0
SPLINE
  5
25B
330
1F
100
AcDbEntity
  8
0
  6
Continuous
 62
     7
370
    25
100
AcDbSpline
210
0.0
220
0.0
230
1.0
 70
     8
 71
     3
 72
    13
 73
     9
 74
     0
 42
0.00000001
 43
0.00000001
 40
0.0
 40
0.0
 40
0.0
 40
0.0
 40
0.0971790056423956
 40
0.2845710337029692
 40
0.4775192778487967
 40
0.6890792027697046
 40
0.877162524323854
 40
0.9999999999999999
 40
0.9999999999999999
 40
0.9999999999999999
 40
0.9999999999999999
 10
2291.445458565366
 20
3125.24639326616
 30
0.0
 10
2291.198437493656
 20
3125.246131497283
 30
0.0
 10
2290.47508123725
 20
3125.245364954764
 30
0.0
 10
2289.282482825123
 20
3125.2364904827
 30
0.0
 10
2287.912409207468
 20
3125.216251138431
 30
0.0
 10
2286.678104082208
 20
3125.182234192508
 30
0.0
 10
2285.648335398515
 20
3125.142730979263
 30
0.0
 10
2284.94193209442
 20
3125.089110818858
 30
0.0
 10
2284.662848805501
 20
3125.06792675781
 30
0.0
  0
LINE
  5
25C
330
1F
100
AcDbEntity
  8
0
  6
Continuous
 62
     7
370
    25
100
AcDbLine
 10
2295.9454585654
 20
3119.9538810975
 30
0.0
 11
2295.9454585654
 21
3122.2143323905
 31
0.0
  0
LINE
  5
25D
330
1F
100
AcDbEntity
  8
0
  6
Continuous
 62
     7
370
    25
100
AcDbLine
 10
2286.9454585654
 20
3122.2143323905
 30
0.0
 11
2286.9454585654
 21
3119.9538810975
 31
0.0
  0
SPLINE
  5
25E
330
1F
100
AcDbEntity
  8
0
  6
Continuous
 62
     7
370
    25
100
AcDbSpline
210
0.0
220
0.0
230
1.0
 70
     8
 71
     3
 72
    16
 73
    12
 74
     0
 42
0.00000001
 43
0.00000001
 40
0.0
 40
0.0
 40
0.0
 40
0.0
 40
0.0490847390186966
 40
0.151847304564681
 40
0.235868499099269
 40
0.3090519161655195
 40
0.3734786142111224
 40
0.4370328180328761
 40
0.5258016248251708
 40
0.7068629655468716
 40
1.0
 40
1.0
 40
1.0
 40
1.0
 10
2627.925074168671
 20
3123.664749109262
 30
0.0
 10
2627.929765765406
 20
3123.730939501483
 30
0.0
 10
2627.944279570154
 20
3123.935704421246
 30
0.0
 10
2627.817101818784
 20
3124.239921080893
 30
0.0
 10
2627.612885409258
 20
3124.515984719915
 30
0.0
 10
2627.391873803392
 20
3124.689323194554
 30
0.0
 10
2627.200107235649
 20
3124.786327207056
 30
0.0
 10
2627.042893347466
 20
3124.840400572414
 30
0.0
 10
2626.877542172412
 20
3124.879033393785
 30
0.0
 10
2626.681828237487
 20
3124.908770279305
 30
0.0
 10
2626.45421384538
 20
3124.925985948577
 30
0.0
 10
2626.313508580676
 20
3124.936628225102
 30
0.0
  0
SPLINE
  5
25F
330
1F
100
AcDbEntity
  8
0
  6
Continuous
 62
     7
370
    25
100
AcDbSpline
210
0.0
220
0.0
230
1.0
 70
     8
 71
     3
 72
    15
 73
    11
 74
     0
 42
0.00000001
 43
0.00000001
 40
0.0
 40
0.0
 40
0.0
 40
0.0
 40
0.0366146332908439
 40
0.458620658497124
 40
0.6039592141586588
 40
0.6771237587643641
 40
0.7596633924486716
 40
0.8571328939029793
 40
0.9634171087774941
 40
1.0
 40
1.0
 40
1.0
 40
1.0
 10
2609.595706343176
 20
3124.93932219425
 30
0.0
 10
2609.573357319798
 20
3124.93804974558
 30
0.0
 10
2609.293422143686
 20
3124.922111548346
 30
0.0
 10
2609.137947923127
 20
3124.901059449084
 30
0.0
 10
2608.826115586822
 20
3124.840915485378
 30
0.0
 10
2608.553551866986
 20
3124.724397498165
 30
0.0
 10
2608.289122930547
 20
3124.534471237137
 30
0.0
 10
2608.06097497192
 20
3124.221975080396
 30
0.0
 10
2607.936909000216
 20
3123.900010101124
 30
0.0
 10
2607.958389606705
 20
3123.704696279424
 30
0.0
 10
2607.963889981927
 20
3123.654683757376
 30
0.0
  0
LINE
  5
260
330
1F
100
AcDbEntity
  8
0
  6
Continuous
 62
     7
370
    25
100
AcDbLine
 10
2627.9454585654
 20
3122.914092518
 30
0.0
 11
2627.9454585654
 21
3123.6642832953
 31
0.0
  0
LINE
  5
261
330
1F
100
AcDbEntity
  8
0
  6
Continuous
 62
     7
370
    25
100
AcDbLine
 10
2607.9454585654
 20
3123.6642832953
 30
0.0
 11
2607.9454585654
 21
3122.914092518
 31
0.0
  0
LINE
  5
262
330
1F
100
AcDbEntity
  8
0
  6
Continuous
 62
     7
370
    25
100
AcDbLine
 10
2626.4418327899
 20
3124.9290740988
 30
0.0
 11
2624.9154268517
 21
3125.0564516332
 31
0.0
  0
LINE
  5
263
330
1F
100
AcDbEntity
  8
0
  6
Continuous
 62
     7
370
    25
100
AcDbLine
 10
2610.975490279
 20
3125.0564516332
 30
0.0
 11
2609.4490843408
 21
3124.9290740988
 31
0.0
  0
SPLINE
  5
264
330
1F
100
AcDbEntity
  8
0
  6
Continuous
 62
     7
370
    25
100
AcDbSpline
210
0.0
220
0.0
230
1.0
 70
     8
 71
     3
 72
    14
 73
    10
 74
     0
 42
0.00000001
 43
0.00000001
 40
0.0
 40
0.0
 40
0.0
 40
0.0
 40
0.0907475556429102
 40
0.2288563839003358
 40
0.4128530542466731
 40
0.6071420004333528
 40
0.7878282318393203
 40
0.9626611221743545
 40
0.9999999999999999
 40
0.9999999999999999
 40
0.9999999999999999
 40
0.9999999999999999
 10
2624.825460923728
 20
3125.061553406051
 30
0.0
 10
2624.61390975688
 20
3125.078385939599
 30
0.0
 10
2624.08039858171
 20
3125.120835928831
 30
0.0
 10
2623.21991294116
 20
3125.162796219042
 30
0.0
 10
2622.170112580978
 20
3125.199728364259
 30
0.0
 10
2620.935496063455
 20
3125.225453930881
 30
0.0
 10
2619.598989846252
 20
3125.241299849516
 30
0.0
 10
2618.588959722664
 20
3125.246111519754
 30
0.0
 10
2618.041757506829
 20
3125.246351103251
 30
0.0
 10
2617.945458565363
 20
3125.24639326616
 30
0.0
  0
SPLINE
  5
265
330
1F
100
AcDbEntity
  8
0
  6
Continuous
 62
     7
370
    25
100
AcDbSpline
210
0.0
220
0.0
230
1.0
 70
     8
 71
     3
 72
    13
 73
     9
 74
     0
 42
0.00000001
 43
0.00000001
 40
0.0
 40
0.0
 40
0.0
 40
0.0
 40
0.0971790056423913
 40
0.2845710337029562
 40
0.4775192778487937
 40
0.6890792027697006
 40
0.8771625243238655
 40
1.0
 40
1.0
 40
1.0
 40
1.0
 10
2617.945458565363
 20
3125.24639326616
 30
0.0
 10
2617.698437493653
 20
3125.246131497283
 30
0.0
 10
2616.975081237247
 20
3125.245364954764
 30
0.0
 10
2615.782482825119
 20
3125.2364904827
 30
0.0
 10
2614.412409207464
 20
3125.216251138431
 30
0.0
 10
2613.178104082205
 20
3125.182234192508
 30
0.0
 10
2612.148335398512
 20
3125.142730979263
 30
0.0
 10
2611.441932094416
 20
3125.089110818857
 30
0.0
 10
2611.162848805497
 20
3125.06792675781
 30
0.0
  0
LINE
  5
266
330
1F
100
AcDbEntity
  8
0
  6
Continuous
 62
     7
370
    25
100
AcDbLine
 10
2622.4454585654
 20
3119.9538810975
 30
0.0
 11
2622.4454585654
 21
3122.2143323905
 31
0.0
  0
LINE
  5
267
330
1F
100
AcDbEntity
  8
0
  6
Continuous
 62
     7
370
    25
100
AcDbLine
 10
2613.4454585654
 20
3122.2143323905
 30
0.0
 11
2613.4454585654
 21
3119.9538810975
 31
0.0
  0
LINE
  5
268
330
1F
100
AcDbEntity
  8
0
  6
Continuous
 62
     7
370
    25
100
AcDbLine
 10
2654.9454585654
 20
2740.9538810975
 30
0.0
 11
2254.4454585654
 21
2740.9538810975
 31
0.0
  0
LINE
  5
269
330
1F
100
AcDbEntity
  8
0
  6
Continuous
 62
     7
370
    25
100
AcDbLine
 10
2654.9454585654
 20
3119.9538810975
 30
0.0
 11
2254.4454585654
 21
3119.9538810975
 31
0.0
  0
LINE
  5
26A
330
1F
100
AcDbEntity
  8
0
  6
Continuous
 62
     7
370
    25
100
AcDbLine
 10
2654.9454585654
 20
3119.9538810975
 30
0.0
 11
2654.9454585654
 21
2740.9538810975
 31
0.0
  0
LINE
  5
26B
330
1F
100
AcDbEntity
  8
0
  6
Continuous
 62
     7
370
    25
100
AcDbLine
 10
2254.4454585654
 20
3119.9538810975
 30
0.0
 11
2254.4454585654
 21
2740.9538810975
 31
0.0
  0
LINE
  5
26C
330
1F
100
AcDbEntity
  8
0
  6
Continuous
 62
     7
370
    25
100
AcDbLine
 10
2588.9454585654
 20
2740.9538810975
 30
0.0
 11
2588.9454585654
 21
2739.4538810975
 31
0.0
  0
LINE
  5
26D
330
1F
100
AcDbEntity
  8
0
  6
Continuous
 62
     7
370
    25
100
AcDbLine
 10
2628.9454585654
 20
2740.9538810975
 30
0.0
 11
2628.9454585654
 21
2739.4538810975
 31
0.0
  0
LINE
  5
26E
330
1F
100
AcDbEntity
  8
0
  6
Continuous
 62
     7
370
    25
100
AcDbLine
 10
2256.9454585654
 20
2721.4538810975
 30
0.0
 11
2256.9454585654
 21
2739.4538810975
 31
0.0
  0
LINE
  5
26F
330
1F
100
AcDbEntity
  8
0
  6
Continuous
 62
     7
370
    25
100
AcDbLine
 10
2652.9454585654
 20
2721.4538810975
 30
0.0
 11
2256.9454585654
 21
2721.4538810975
 31
0.0
  0
LINE
  5
270
330
1F
100
AcDbEntity
  8
0
  6
Continuous
 62
     7
370
    25
100
AcDbLine
 10
2652.9454585654
 20
2721.4538810975
 30
0.0
 11
2652.9454585654
 21
2739.4538810975
 31
0.0
  0
LINE
  5
271
330
1F
100
AcDbEntity
  8
0
  6
Continuous
 62
     7
370
    25
100
AcDbLine
 10
2652.9454585654
 20
2739.4538810975
 30
0.0
 11
2256.9454585654
 21
2739.4538810975
 31
0.0
  0
ARC
  5
272
330
1F
100
AcDbEntity
  8
0
  6
Continuous
 62
     7
370
    25
100
AcDbCircle
 10
2292.4487994324
 20
3314.9300038112
 30
0.0
 40
190.3064363785809
100
AcDbArc
 50
269.697921602
 51
271.989829998
  0
ARC
  5
273
330
1F
100
AcDbEntity
  8
0
  6
Continuous
 62
     7
370
    25
100
AcDbCircle
 10
2290.8807674914
 20
3359.2063632725
 30
0.0
 40
234.5808305683668
100
AcDbArc
 50
268.5008299502
 51
270.1379245117
  0
ARC
  5
274
330
1F
100
AcDbEntity
  8
0
  6
Continuous
 62
     7
370
    25
100
AcDbCircle
 10
2294.2883976532
 20
3205.1862780975
 30
0.0
 40
82.58290404755891
100
AcDbArc
 50
268.0271873052
 51
274.9717851391
  0
ARC
  5
275
330
1F
100
AcDbEntity
  8
0
  6
Continuous
 62
     7
370
    25
100
AcDbCircle
 10
2288.8258447337
 20
3213.7176490433
 30
0.0
 40
91.10299653486007
100
AcDbArc
 50
265.3532935281
 51
271.6477340277
  0
SPLINE
  5
276
330
1F
100
AcDbEntity
  8
0
  6
Continuous
 62
     7
370
    25
100
AcDbSpline
210
0.0
220
0.0
230
1.0
 70
     8
 71
     3
 72
    19
 73
    15
 74
     0
 42
0.00000001
 43
0.00000001
 40
0.0
 40
0.0
 40
0.0
 40
0.0
 40
0.090660073128074
 40
0.2050734138973335
 40
0.2719074979493168
 40
0.3443210476357554
 40
0.4209983262120378
 40
0.4999999792228286
 40
0.5790016347260519
 40
0.6556789199260384
 40
0.7280924783131334
 40
0.7949265709542888
 40
0.9093399235674697
 40
1.0
 40
1.0
 40
1.0
 40
1.0
 10
2301.245458565366
 20
3122.714161053012
 30
0.0
 10
2301.168604520698
 20
3122.689935507776
 30
0.0
 10
2300.9947603932
 20
3122.635137236676
 30
0.0
 10
2299.674903170727
 20
3122.568753953296
 30
0.0
 10
2297.918984010529
 20
3122.518841342649
 30
0.0
 10
2296.095890405647
 20
3122.48571047737
 30
0.0
 10
2293.914524317424
 20
3122.463277619606
 30
0.0
 10
2291.521572113836
 20
3122.455015509574
 30
0.0
 10
2289.124049624954
 20
3122.462313475458
 30
0.0
 10
2286.929764294539
 20
3122.483865677199
 30
0.0
 10
2285.087425031515
 20
3122.516258826631
 30
0.0
 10
2283.302394606039
 20
3122.565458774831
 30
0.0
 10
2281.943699588439
 20
3122.631302962625
 30
0.0
 10
2281.737687244347
 20
3122.68602478541
 30
0.0
 10
2281.646612086788
 20
3122.710216533016
 30
0.0
  0
LINE
  5
277
330
1F
100
AcDbEntity
  8
0
  6
Continuous
 62
     7
370
    25
100
AcDbLine
 10
2284.475490279
 20
3125.0564516332
 30
0.0
 11
2284.5274519143
 21
3125.0606198496
 31
0.0
  0
LINE
  5
278
330
1F
100
AcDbEntity
  8
0
  6
Continuous
 62
     7
370
    25
100
AcDbLine
 10
2296.1356302781
 20
3125.113338633
 30
0.0
 11
2296.1346783417
 21
3125.1158121239
 31
0.0
  0
LWPOLYLINE
  5
279
330
1F
100
AcDbEntity
  8
0
  6
Continuous
 62
     7
370
    25
100
AcDbPolyline
 90
       23
 70
   128
 43
0.0
 10
2296.1346783417
 20
3125.1158121239
 10
2295.9194017973
 20
3125.1501872105
 10
2295.3439780752
 20
3125.18159603
 10
2294.4547281093
 20
3125.2075102091
 10
2293.3232354781
 20
3125.2258436868
 10
2292.04058401
 20
3125.2351206399
 10
2290.7100256422
 20
3125.2345942843
 10
2289.4386687613
 20
3125.2243069912
 10
2288.3288561037
 20
3125.2050868755
 10
2287.4699262854
 20
3125.178481134
 10
2286.9310221483
 20
3125.1466314976
 10
2286.7555248428
 20
3125.1121018247
 10
2286.9575616959
 20
3125.0776717135
 10
2287.5208689783
 20
3125.0461127473
 10
2288.4001011149
 20
3125.0199653861
 10
2289.5244809511
 20
3125.0013344616
 10
2290.8034972299
 20
3124.9917197414
 10
2292.1341906426
 20
3124.9918951992
 10
2293.4094419316
 20
3125.0018467108
 10
2294.5265948654
 20
3125.0207731913
 10
2295.3957199443
 20
3125.0471510811
 10
2295.9468536198
 20
3125.0788569912
 10
2296.1356302781
 20
3125.113338633
  0
LINE
  5
27A
330
1F
100
AcDbEntity
  8
0
  6
Continuous
 62
     7
370
    25
100
AcDbLine
 10
2288.9996091614
 20
3125.0998575046
 30
0.0
 11
2290.9304585654
 21
3125.0998575046
 31
0.0
  0
LINE
  5
27B
330
1F
100
AcDbEntity
  8
0
  6
Continuous
 62
     7
370
    25
100
AcDbLine
 10
2290.9304585654
 20
3125.0998575046
 30
0.0
 11
2290.9304585654
 21
3125.0493137595
 31
0.0
  0
ARC
  5
27C
330
1F
100
AcDbEntity
  8
0
  6
Continuous
 62
     7
370
    25
100
AcDbCircle
 10
2291.4454585654
 20
3219.3371748358
 30
0.0
 40
94.28926752993043
100
AcDbArc
 50
269.687053745
 51
270.312946255
  0
LINE
  5
27D
330
1F
100
AcDbEntity
  8
0
  6
Continuous
 62
     7
370
    25
100
AcDbLine
 10
2291.9604585654
 20
3125.0493137595
 30
0.0
 11
2291.9604585654
 21
3125.0998575046
 31
0.0
  0
LINE
  5
27E
330
1F
100
AcDbEntity
  8
0
  6
Continuous
 62
     7
370
    25
100
AcDbLine
 10
2291.9604585654
 20
3125.0998575046
 30
0.0
 11
2293.8913079693
 21
3125.0998575046
 31
0.0
  0
LWPOLYLINE
  5
27F
330
1F
100
AcDbEntity
  8
0
  6
Continuous
 62
     7
370
    25
100
AcDbPolyline
 90
        9
 70
   128
 43
0.0
 10
2293.8913079693
 20
3125.1268197613
 10
2293.9147242752
 20
3125.123481353
 10
2293.9314953662
 20
3125.1201156488
 10
2293.9415761084
 20
3125.1167317065
 10
2293.9449393728
 20
3125.1133386329
 10
2293.9415761084
 20
3125.1099455593
 10
2293.9314953662
 20
3125.1065616171
 10
2293.9147242752
 20
3125.1031959129
 10
2293.8913079693
 20
3125.0998575046
  0
LINE
  5
280
330
1F
100
AcDbEntity
  8
0
  6
Continuous
 62
     7
370
    25
100
AcDbLine
 10
2293.8913079693
 20
3125.1268197613
 30
0.0
 11
2291.9604585654
 21
3125.1268197613
 31
0.0
  0
LINE
  5
281
330
1F
100
AcDbEntity
  8
0
  6
Continuous
 62
     7
370
    25
100
AcDbLine
 10
2291.9604585654
 20
3125.1268197613
 30
0.0
 11
2291.9604585654
 21
3125.1773635064
 31
0.0
  0
ARC
  5
282
330
1F
100
AcDbEntity
  8
0
  6
Continuous
 62
     7
370
    25
100
AcDbCircle
 10
2291.4454585654
 20
3030.8895023792
 30
0.0
 40
94.28926758088775
100
AcDbArc
 50
89.6870537451
 51
90.3129462549
  0
LINE
  5
283
330
1F
100
AcDbEntity
  8
0
  6
Continuous
 62
     7
370
    25
100
AcDbLine
 10
2290.9304585654
 20
3125.1773635064
 30
0.0
 11
2290.9304585654
 21
3125.1268197613
 31
0.0
  0
LINE
  5
284
330
1F
100
AcDbEntity
  8
0
  6
Continuous
 62
     7
370
    25
100
AcDbLine
 10
2290.9304585654
 20
3125.1268197613
 30
0.0
 11
2288.9996091614
 21
3125.1268197613
 31
0.0
  0
LWPOLYLINE
  5
285
330
1F
100
AcDbEntity
  8
0
  6
Continuous
 62
     7
370
    25
100
AcDbPolyline
 90
        9
 70
   128
 43
0.0
 10
2288.9996091614
 20
3125.0998575046
 10
2288.9761928556
 20
3125.1031959129
 10
2288.9594217646
 20
3125.1065616171
 10
2288.9493410224
 20
3125.1099455593
 10
2288.9459777579
 20
3125.1133386329
 10
2288.9493410224
 20
3125.1167317065
 10
2288.9594217646
 20
3125.1201156488
 10
2288.9761928556
 20
3125.123481353
 10
2288.9996091614
 20
3125.1268197613
  0
LINE
  5
286
330
1F
100
AcDbEntity
  8
0
  6
Continuous
 62
     7
370
    25
100
AcDbLine
 10
2289.0133329309
 20
3125.0998575046
 30
0.0
 11
2288.9996091614
 21
3125.1268197613
 31
0.0
  0
LINE
  5
287
330
1F
100
AcDbEntity
  8
0
  6
Continuous
 62
     7
370
    25
100
AcDbLine
 10
2291.9604585654
 20
3125.1268197613
 30
0.0
 11
2291.9604585654
 21
3125.0998575046
 31
0.0
  0
LINE
  5
288
330
1F
100
AcDbEntity
  8
0
  6
Continuous
 62
     7
370
    25
100
AcDbLine
 10
2290.9304585654
 20
3125.1268197613
 30
0.0
 11
2290.9304585654
 21
3125.0998575046
 31
0.0
  0
ARC
  5
289
330
1F
100
AcDbEntity
  8
0
  6
Continuous
 62
     7
370
    25
100
AcDbCircle
 10
2618.9487994324
 20
3314.9300038129
 30
0.0
 40
190.3064363802773
100
AcDbArc
 50
269.6979216021
 51
271.989829998
  0
ARC
  5
28A
330
1F
100
AcDbEntity
  8
0
  6
Continuous
 62
     7
370
    25
100
AcDbCircle
 10
2617.3807674914
 20
3359.2063632753
 30
0.0
 40
234.5808305711902
100
AcDbArc
 50
268.5008299502
 51
270.1379245117
  0
ARC
  5
28B
330
1F
100
AcDbEntity
  8
0
  6
Continuous
 62
     7
370
    25
100
AcDbCircle
 10
2620.7883976532
 20
3205.1862780975
 30
0.0
 40
82.58290404758937
100
AcDbArc
 50
268.0271873052
 51
274.9717851391
  0
ARC
  5
28C
330
1F
100
AcDbEntity
  8
0
  6
Continuous
 62
     7
370
    25
100
AcDbCircle
 10
2615.3258447337
 20
3213.7176490432
 30
0.0
 40
91.10299653474789
100
AcDbArc
 50
265.3532935281
 51
271.6477340277
  0
SPLINE
  5
28D
330
1F
100
AcDbEntity
  8
0
  6
Continuous
 62
     7
370
    25
100
AcDbSpline
210
0.0
220
0.0
230
1.0
 70
     8
 71
     3
 72
    19
 73
    15
 74
     0
 42
0.00000001
 43
0.00000001
 40
0.0
 40
0.0
 40
0.0
 40
0.0
 40
0.090660073128074
 40
0.2050734138973344
 40
0.2719074979493173
 40
0.3443210476357556
 40
0.4209983262120394
 40
0.4999999792228291
 40
0.5790016347260534
 40
0.6556789199260418
 40
0.7280924783131332
 40
0.7949265709542881
 40
0.9093399235674696
 40
0.9999999999999999
 40
0.9999999999999999
 40
0.9999999999999999
 40
0.9999999999999999
 10
2627.745458565362
 20
3122.714161053012
 30
0.0
 10
2627.668604520695
 20
3122.689935507776
 30
0.0
 10
2627.494760393197
 20
3122.635137236676
 30
0.0
 10
2626.174903170723
 20
3122.568753953296
 30
0.0
 10
2624.418984010526
 20
3122.518841342649
 30
0.0
 10
2622.595890405644
 20
3122.48571047737
 30
0.0
 10
2620.41452431742
 20
3122.463277619606
 30
0.0
 10
2618.021572113833
 20
3122.455015509574
 30
0.0
 10
2615.62404962495
 20
3122.462313475458
 30
0.0
 10
2613.429764294536
 20
3122.483865677199
 30
0.0
 10
2611.587425031511
 20
3122.516258826631
 30
0.0
 10
2609.802394606036
 20
3122.565458774831
 30
0.0
 10
2608.443699588435
 20
3122.631302962625
 30
0.0
 10
2608.237687244344
 20
3122.68602478541
 30
0.0
 10
2608.146612086785
 20
3122.710216533016
 30
0.0
  0
LINE
  5
28E
330
1F
100
AcDbEntity
  8
0
  6
Continuous
 62
     7
370
    25
100
AcDbLine
 10
2610.975490279
 20
3125.0564516332
 30
0.0
 11
2611.0274519143
 21
3125.0606198496
 31
0.0
  0
LINE
  5
28F
330
1F
100
AcDbEntity
  8
0
  6
Continuous
 62
     7
370
    25
100
AcDbLine
 10
2622.6356302781
 20
3125.113338633
 30
0.0
 11
2622.6346783417
 21
3125.1158121239
 31
0.0
  0
LWPOLYLINE
  5
290
330
1F
100
AcDbEntity
  8
0
  6
Continuous
 62
     7
370
    25
100
AcDbPolyline
 90
       23
 70
   128
 43
0.0
 10
2622.6346783417
 20
3125.1158121239
 10
2622.4194017973
 20
3125.1501872105
 10
2621.8439780751
 20
3125.18159603
 10
2620.9547281093
 20
3125.2075102091
 10
2619.8232354781
 20
3125.2258436868
 10
2618.54058401
 20
3125.2351206399
 10
2617.2100256422
 20
3125.2345942843
 10
2615.9386687613
 20
3125.2243069912
 10
2614.8288561037
 20
3125.2050868755
 10
2613.9699262854
 20
3125.178481134
 10
2613.4310221483
 20
3125.1466314976
 10
2613.2555248428
 20
3125.1121018247
 10
2613.4575616959
 20
3125.0776717135
 10
2614.0208689783
 20
3125.0461127473
 10
2614.9001011149
 20
3125.0199653861
 10
2616.0244809511
 20
3125.0013344616
 10
2617.3034972299
 20
3124.9917197414
 10
2618.6341906426
 20
3124.9918951992
 10
2619.9094419316
 20
3125.0018467108
 10
2621.0265948654
 20
3125.0207731913
 10
2621.8957199443
 20
3125.0471510811
 10
2622.4468536198
 20
3125.0788569912
 10
2622.6356302781
 20
3125.113338633
  0
LINE
  5
291
330
1F
100
AcDbEntity
  8
0
  6
Continuous
 62
     7
370
    25
100
AcDbLine
 10
2615.4996091614
 20
3125.0998575046
 30
0.0
 11
2617.4304585654
 21
3125.0998575046
 31
0.0
  0
LINE
  5
292
330
1F
100
AcDbEntity
  8
0
  6
Continuous
 62
     7
370
    25
100
AcDbLine
 10
2617.4304585654
 20
3125.0998575046
 30
0.0
 11
2617.4304585654
 21
3125.0493137595
 31
0.0
  0
ARC
  5
293
330
1F
100
AcDbEntity
  8
0
  6
Continuous
 62
     7
370
    25
100
AcDbCircle
 10
2617.9454585654
 20
3219.3371748358
 30
0.0
 40
94.289267529995
100
AcDbArc
 50
269.687053745
 51
270.312946255
  0
LINE
  5
294
330
1F
100
AcDbEntity
  8
0
  6
Continuous
 62
     7
370
    25
100
AcDbLine
 10
2618.4604585654
 20
3125.0493137595
 30
0.0
 11
2618.4604585654
 21
3125.0998575046
 31
0.0
  0
LINE
  5
295
330
1F
100
AcDbEntity
  8
0
  6
Continuous
 62
     7
370
    25
100
AcDbLine
 10
2618.4604585654
 20
3125.0998575046
 30
0.0
 11
2620.3913079693
 21
3125.0998575046
 31
0.0
  0
LWPOLYLINE
  5
296
330
1F
100
AcDbEntity
  8
0
  6
Continuous
 62
     7
370
    25
100
AcDbPolyline
 90
        9
 70
   128
 43
0.0
 10
2620.3913079693
 20
3125.1268197613
 10
2620.4147242752
 20
3125.123481353
 10
2620.4314953661
 20
3125.1201156488
 10
2620.4415761084
 20
3125.1167317065
 10
2620.4449393728
 20
3125.1133386329
 10
2620.4415761084
 20
3125.1099455593
 10
2620.4314953661
 20
3125.1065616171
 10
2620.4147242752
 20
3125.1031959129
 10
2620.3913079693
 20
3125.0998575046
  0
LINE
  5
297
330
1F
100
AcDbEntity
  8
0
  6
Continuous
 62
     7
370
    25
100
AcDbLine
 10
2620.3913079693
 20
3125.1268197613
 30
0.0
 11
2618.4604585654
 21
3125.1268197613
 31
0.0
  0
LINE
  5
298
330
1F
100
AcDbEntity
  8
0
  6
Continuous
 62
     7
370
    25
100
AcDbLine
 10
2618.4604585654
 20
3125.1268197613
 30
0.0
 11
2618.4604585654
 21
3125.1773635064
 31
0.0
  0
ARC
  5
299
330
1F
100
AcDbEntity
  8
0
  6
Continuous
 62
     7
370
    25
100
AcDbCircle
 10
2617.9454585654
 20
3030.8895023791
 30
0.0
 40
94.28926758091504
100
AcDbArc
 50
89.6870537451
 51
90.3129462549
  0
LINE
  5
29A
330
1F
100
AcDbEntity
  8
0
  6
Continuous
 62
     7
370
    25
100
AcDbLine
 10
2617.4304585654
 20
3125.1773635064
 30
0.0
 11
2617.4304585654
 21
3125.1268197613
 31
0.0
  0
LINE
  5
29B
330
1F
100
AcDbEntity
  8
0
  6
Continuous
 62
     7
370
    25
100
AcDbLine
 10
2617.4304585654
 20
3125.1268197613
 30
0.0
 11
2615.4996091614
 21
3125.1268197613
 31
0.0
  0
LWPOLYLINE
  5
29C
330
1F
100
AcDbEntity
  8
0
  6
Continuous
 62
     7
370
    25
100
AcDbPolyline
 90
        9
 70
   128
 43
0.0
 10
2615.4996091614
 20
3125.0998575046
 10
2615.4761928556
 20
3125.1031959129
 10
2615.4594217646
 20
3125.1065616171
 10
2615.4493410224
 20
3125.1099455593
 10
2615.4459777579
 20
3125.1133386329
 10
2615.4493410224
 20
3125.1167317065
 10
2615.4594217646
 20
3125.1201156488
 10
2615.4761928556
 20
3125.123481353
 10
2615.4996091614
 20
3125.1268197613
  0
LINE
  5
29D
330
1F
100
AcDbEntity
  8
0
  6
Continuous
 62
     7
370
    25
100
AcDbLine
 10
2615.5133329309
 20
3125.0998575046
 30
0.0
 11
2615.4996091614
 21
3125.1268197613
 31
0.0
  0
LINE
  5
29E
330
1F
100
AcDbEntity
  8
0
  6
Continuous
 62
     7
370
    25
100
AcDbLine
 10
2618.4604585654
 20
3125.1268197613
 30
0.0
 11
2618.4604585654
 21
3125.0998575046
 31
0.0
  0
LINE
  5
29F
330
1F
100
AcDbEntity
  8
0
  6
Continuous
 62
     7
370
    25
100
AcDbLine
 10
2617.4304585654
 20
3125.1268197613
 30
0.0
 11
2617.4304585654
 21
3125.0998575046
 31
0.0
  0
LINE
  5
2A0
330
1F
100
AcDbEntity
  8
0
  6
Continuous
 62
     7
370
    25
100
AcDbLine
 10
2256.9454585654
 20
2739.4538810975
 30
0.0
 11
2256.9454585654
 21
2739.5538810975
 31
0.0
  0
LINE
  5
2A1
330
1F
100
AcDbEntity
  8
0
  6
Continuous
 62
     7
370
    25
100
AcDbLine
 10
2257.1454585654
 20
2739.5538810975
 30
0.0
 11
2256.9454585654
 21
2739.5538810975
 31
0.0
  0
LINE
  5
2A2
330
1F
100
AcDbEntity
  8
0
  6
Continuous
 62
     7
370
    25
100
AcDbLine
 10
2258.9454585654
 20
2739.4538810975
 30
0.0
 11
2258.9454585654
 21
2739.5538810975
 31
0.0
  0
LINE
  5
2A3
330
1F
100
AcDbEntity
  8
0
  6
Continuous
 62
     7
370
    25
100
AcDbLine
 10
2258.9454585654
 20
2739.5538810975
 30
0.0
 11
2257.1454585654
 21
2739.5538810975
 31
0.0
  0
LINE
  5
2A4
330
1F
100
AcDbEntity
  8
0
  6
Continuous
 62
     7
370
    25
100
AcDbLine
 10
2257.1454585654
 20
2739.7538810975
 30
0.0
 11
2257.1454585654
 21
2739.5538810975
 31
0.0
  0
LINE
  5
2A5
330
1F
100
AcDbEntity
  8
0
  6
Continuous
 62
     7
370
    25
100
AcDbLine
 10
2257.1454585654
 20
2739.7538810975
 30
0.0
 11
2258.9454585654
 21
2739.7538810975
 31
0.0
  0
LINE
  5
2A6
330
1F
100
AcDbEntity
  8
0
  6
Continuous
 62
     7
370
    25
100
AcDbLine
 10
2258.9454585654
 20
2739.7538810975
 30
0.0
 11
2258.9454585654
 21
2739.5538810975
 31
0.0
  0
ARC
  5
2A7
330
1F
100
AcDbEntity
  8
0
  6
Continuous
 62
     7
370
    25
100
AcDbCircle
 10
2257.1454585654
 20
2739.5538810975
 30
0.0
 40
0.2000000000002728
100
AcDbArc
 50
90.0
 51
180.0
  0
LINE
  5
2A8
330
1F
100
AcDbEntity
  8
0
  6
Continuous
 62
     7
370
    25
100
AcDbLine
 10
2650.9454585654
 20
2739.5538810975
 30
0.0
 11
2650.9454585654
 21
2739.4538810975
 31
0.0
  0
LINE
  5
2A9
330
1F
100
AcDbEntity
  8
0
  6
Continuous
 62
     7
370
    25
100
AcDbLine
 10
2258.9454585654
 20
2739.7538810975
 30
0.0
 11
2261.2577838159
 21
2739.7538810975
 31
0.0
  0
LINE
  5
2AA
330
1F
100
AcDbEntity
  8
0
  6
Continuous
 62
     7
370
    25
100
AcDbLine
 10
2297.4437914398
 20
2739.7538810975
 30
0.0
 11
2439.9454585654
 21
2739.7538810975
 31
0.0
  0
LINE
  5
2AB
330
1F
100
AcDbEntity
  8
0
  6
Continuous
 62
     7
370
    25
100
AcDbLine
 10
2469.9454585654
 20
2739.7538810975
 30
0.0
 11
2588.9454585654
 21
2739.7538810975
 31
0.0
  0
LINE
  5
2AC
330
1F
100
AcDbEntity
  8
0
  6
Continuous
 62
     7
370
    25
100
AcDbLine
 10
2628.9454585654
 20
2739.7538810975
 30
0.0
 11
2650.9454585654
 21
2739.7538810975
 31
0.0
  0
LINE
  5
2AD
330
1F
100
AcDbEntity
  8
0
  6
Continuous
 62
     7
370
    25
100
AcDbLine
 10
2650.9454585654
 20
2739.5538810975
 30
0.0
 11
2650.9454585654
 21
2739.7538810975
 31
0.0
  0
LINE
  5
2AE
330
1F
100
AcDbEntity
  8
0
  6
Continuous
 62
     7
370
    25
100
AcDbLine
 10
2652.7454585654
 20
2739.5538810975
 30
0.0
 11
2650.9454585654
 21
2739.5538810975
 31
0.0
  0
LINE
  5
2AF
330
1F
100
AcDbEntity
  8
0
  6
Continuous
 62
     7
370
    25
100
AcDbLine
 10
2650.9454585654
 20
2739.7538810975
 30
0.0
 11
2652.7454585654
 21
2739.7538810975
 31
0.0
  0
LINE
  5
2B0
330
1F
100
AcDbEntity
  8
0
  6
Continuous
 62
     7
370
    25
100
AcDbLine
 10
2652.7454585654
 20
2739.5538810975
 30
0.0
 11
2652.7454585654
 21
2739.7538810975
 31
0.0
  0
LINE
  5
2B1
330
1F
100
AcDbEntity
  8
0
  6
Continuous
 62
     7
370
    25
100
AcDbLine
 10
2652.7454585654
 20
2739.5538810975
 30
0.0
 11
2652.9454585654
 21
2739.5538810975
 31
0.0
  0
LINE
  5
2B2
330
1F
100
AcDbEntity
  8
0
  6
Continuous
 62
     7
370
    25
100
AcDbLine
 10
2652.9454585654
 20
2739.5538810975
 30
0.0
 11
2652.9454585654
 21
2739.4538810975
 31
0.0
  0
ARC
  5
2B3
330
1F
100
AcDbEntity
  8
0
  6
Continuous
 62
     7
370
    25
100
AcDbCircle
 10
2652.7454585654
 20
2739.5538810975
 30
0.0
 40
0.2000000000002728
100
AcDbArc
 50
0.0000000001
 51
90.0
  0
LINE
  5
2B4
330
1F
100
AcDbEntity
  8
0
  6
Continuous
 62
     7
370
    25
100
AcDbLine
 10
2469.9454585654
 20
2740.6538810975
 30
0.0
 11
2469.9245088447
 21
2740.9538810975
 31
0.0
  0
LINE
  5
2B5
330
1F
100
AcDbEntity
  8
0
  6
Continuous
 62
     7
370
    25
100
AcDbLine
 10
2469.9454585654
 20
2739.4538810975
 30
0.0
 11
2469.9454585654
 21
2740.6538810975
 31
0.0
  0
LINE
  5
2B6
330
1F
100
AcDbEntity
  8
0
  6
Continuous
 62
     7
370
    25
100
AcDbLine
 10
2439.9454585654
 20
2740.6538810975
 30
0.0
 11
2439.9454585654
 21
2739.4538810975
 31
0.0
  0
LINE
  5
2B7
330
1F
100
AcDbEntity
  8
0
  6
Continuous
 62
     7
370
    25
100
AcDbLine
 10
2439.966408286
 20
2740.9538810975
 30
0.0
 11
2439.9454585654
 21
2740.6538810975
 31
0.0
  0
LINE
  5
2B8
330
1F
100
AcDbEntity
  8
0
  6
Continuous
 62
     7
370
    25
100
AcDbLine
 10
2444.5670931167
 20
2740.9538810975
 30
0.0
 11
2444.5468228464
 21
2740.6538810975
 31
0.0
  0
LINE
  5
2B9
330
1F
100
AcDbEntity
  8
0
  6
Continuous
 62
     7
370
    25
100
AcDbLine
 10
2444.5468228464
 20
2740.6538810975
 30
0.0
 11
2465.3440942843
 21
2740.6538810975
 31
0.0
  0
LINE
  5
2BA
330
1F
100
AcDbEntity
  8
0
  6
Continuous
 62
     7
370
    25
100
AcDbLine
 10
2465.3440942843
 20
2740.6538810975
 30
0.0
 11
2465.323824014
 21
2740.9538810975
 31
0.0
  0
LINE
  5
2BB
330
1F
100
AcDbEntity
  8
0
  6
Continuous
 62
     7
370
    25
100
AcDbLine
 10
2296.4454585697
 20
2739.6538810975
 30
0.0
 11
2296.4454585697
 21
2739.4538810975
 31
0.0
  0
LINE
  5
2BC
330
1F
100
AcDbEntity
  8
0
  6
Continuous
 62
     7
370
    25
100
AcDbLine
 10
2276.4454585697
 20
2739.4538810975
 30
0.0
 11
2276.4454585697
 21
2739.6538810975
 31
0.0
  0
LINE
  5
2BD
330
1F
100
AcDbEntity
  8
0
  6
Continuous
 62
     7
370
    25
100
AcDbLine
 10
2275.4454585697
 20
2739.4538810975
 30
0.0
 11
2275.4454585697
 21
2739.6538810975
 31
0.0
  0
LINE
  5
2BE
330
1F
100
AcDbEntity
  8
0
  6
Continuous
 62
     7
370
    25
100
AcDbLine
 10
2275.4454585697
 20
2739.6538810975
 30
0.0
 11
2276.4454585697
 21
2739.6538810975
 31
0.0
  0
LINE
  5
2BF
330
1F
100
AcDbEntity
  8
0
  6
Continuous
 62
     7
370
    25
100
AcDbLine
 10
2297.4454585697
 20
2739.4538810975
 30
0.0
 11
2297.4454585697
 21
2739.6538810975
 31
0.0
  0
LINE
  5
2C0
330
1F
100
AcDbEntity
  8
0
  6
Continuous
 62
     7
370
    25
100
AcDbLine
 10
2296.4454585697
 20
2739.6538810975
 30
0.0
 11
2297.4454585697
 21
2739.6538810975
 31
0.0
  0
ARC
  5
2C1
330
1F
100
AcDbEntity
  8
0
  6
Continuous
 62
     7
370
    25
100
AcDbCircle
 10
2278.4454585697
 20
2739.6538810975
 30
0.0
 40
3.0
100
AcDbArc
 50
154.3207113805
 51
180.0
  0
ARC
  5
2C2
330
1F
100
AcDbEntity
  8
0
  6
Continuous
 62
     7
370
    25
100
AcDbCircle
 10
2294.4454585697
 20
2739.6538810975
 30
0.0
 40
2.999999999999545
100
AcDbArc
 50
0.0
 51
25.6792886195
  0
LINE
  5
2C3
330
1F
100
AcDbEntity
  8
0
  6
Continuous
 62
     7
370
    25
100
AcDbLine
 10
2275.4454585697
 20
2739.9538810975
 30
0.0
 11
2261.2577838159
 21
2739.9538810975
 31
0.0
  0
LINE
  5
2C4
330
1F
100
AcDbEntity
  8
0
  6
Continuous
 62
     7
370
    25
100
AcDbLine
 10
2275.4454585697
 20
2739.6538810975
 30
0.0
 11
2275.4454585697
 21
2739.9538810975
 31
0.0
  0
LINE
  5
2C5
330
1F
100
AcDbEntity
  8
0
  6
Continuous
 62
     7
370
    25
100
AcDbLine
 10
2261.2577838159
 20
2739.9538810975
 30
0.0
 11
2261.2577838159
 21
2739.4538810975
 31
0.0
  0
LINE
  5
2C6
330
1F
100
AcDbEntity
  8
0
  6
Continuous
 62
     7
370
    25
100
AcDbLine
 10
2273.3859106131
 20
2740.9538810975
 30
0.0
 11
2273.3628582571
 21
2739.9538810975
 31
0.0
  0
LINE
  5
2C7
330
1F
100
AcDbEntity
  8
0
  6
Continuous
 62
     7
370
    25
100
AcDbLine
 10
2274.6632036285
 20
2739.9538810975
 30
0.0
 11
2274.6862559845
 21
2740.9538810975
 31
0.0
  0
ARC
  5
2C8
330
1F
100
AcDbEntity
  8
0
  6
Continuous
 62
     7
370
    25
100
AcDbCircle
 10
2291.4448257767
 20
3270.3320258099
 30
0.0
 40
147.0082502473855
100
AcDbArc
 50
266.0997819288
 51
273.9007124515
  0
LWPOLYLINE
  5
2C9
330
1F
100
AcDbEntity
  8
0
  6
Continuous
 62
     7
370
    25
100
AcDbPolyline
 90
        6
 70
   128
 43
0.0
 10
2299.056639358
 20
3124.7383210839
 10
2299.7957539085
 20
3124.7783522009
 10
2300.2473606486
 20
3124.8240102435
 10
2300.3386164832
 20
3124.8711133513
 10
2300.0657853877
 20
3124.9177331174
 10
2299.9418327899
 20
3124.9290740988
  0
LWPOLYLINE
  5
2CA
330
1F
100
AcDbEntity
  8
0
  6
Continuous
 62
     7
370
    25
100
AcDbPolyline
 90
        7
 70
   128
 43
0.0
 10
2282.9490843408
 20
3124.9290740988
 10
2282.825131743
 20
3124.9177331174
 10
2282.5523006476
 20
3124.8711133513
 10
2282.6435564822
 20
3124.8240102435
 10
2283.0951632222
 20
3124.7783522009
 10
2283.8886320348
 20
3124.736008469
 10
2284.7435540402
 20
3124.7058287716
  0
LWPOLYLINE
  5
2CB
330
1F
100
AcDbEntity
  8
0
  6
Continuous
 62
     7
370
    25
100
AcDbPolyline
 90
       19
 70
   128
 43
0.0
 10
2298.4154268517
 20
3125.0564516332
 10
2298.5671548704
 20
3125.0417688196
 10
2298.7503025605
 20
3124.9992186952
 10
2298.5671548704
 20
3124.9566685707
 10
2298.0268955899
 20
3124.9162520871
 10
2297.1566155753
 20
3124.8799958957
 10
2295.9999543005
 20
3124.8497180333
 10
2294.6149115917
 20
3124.8269367584
 10
2293.0709392736
 20
3124.8127944191
 10
2291.4454585654
 20
3124.8080001715
 10
2289.8199778572
 20
3124.8127944191
 10
2288.2760055391
 20
3124.8269367584
 10
2286.8909628302
 20
3124.8497180333
 10
2285.7343015554
 20
3124.8799958957
 10
2284.8640215408
 20
3124.9162520871
 10
2284.3237622603
 20
3124.9566685707
 10
2284.1406145702
 20
3124.9992186952
 10
2284.3237622603
 20
3125.0417688196
 10
2284.475490279
 20
3125.0564516332
  0
SPLINE
  5
2CC
330
1F
100
AcDbEntity
  8
0
  6
Continuous
 62
     7
370
    25
100
AcDbSpline
210
0.0
220
0.0
230
1.0
 70
     8
 71
     3
 72
    10
 73
     6
 74
     0
 42
0.00000001
 43
0.00000001
 40
0.0
 40
0.0
 40
0.0
 40
0.0
 40
0.0219459922066092
 40
0.5300207501332342
 40
0.9999999999999999
 40
0.9999999999999999
 40
0.9999999999999999
 40
0.9999999999999999
 10
2296.062172969177
 20
3122.531668758923
 30
0.0
 10
2296.060135481752
 20
3122.530130453338
 30
0.0
 10
2296.010927835858
 20
3122.492978618397
 30
0.0
 10
2295.962555166667
 20
3122.375907282427
 30
0.0
 10
2295.949367076368
 20
3122.26416007988
 30
0.0
 10
2295.94302987133
 20
3122.210462772769
 30
0.0
  0
ARC
  5
2CD
330
1F
100
AcDbEntity
  8
0
  6
Continuous
 62
     7
370
    25
100
AcDbCircle
 10
2291.4727661044
 20
3188.5310144338
 30
0.0
 40
66.4710375335615
100
AcDbArc
 50
266.0945910318
 51
273.8561261672
  0
LINE
  5
2CE
330
1F
100
AcDbEntity
  8
0
  6
Continuous
 62
     7
370
    25
100
AcDbLine
 10
2295.9454585654
 20
3122.2143323905
 30
0.0
 11
2295.9430298712
 21
3122.2104627727
 31
0.0
  0
ARC
  5
2CF
330
1F
100
AcDbEntity
  8
0
  6
Continuous
 62
     7
370
    25
100
AcDbCircle
 10
2617.9448257767
 20
3270.3320258099
 30
0.0
 40
147.0082502473896
100
AcDbArc
 50
266.0997819289
 51
273.9007124515
  0
LWPOLYLINE
  5
2D0
330
1F
100
AcDbEntity
  8
0
  6
Continuous
 62
     7
370
    25
100
AcDbPolyline
 90
        6
 70
   128
 43
0.0
 10
2625.556639358
 20
3124.7383210839
 10
2626.2957539085
 20
3124.7783522009
 10
2626.7473606486
 20
3124.8240102435
 10
2626.8386164832
 20
3124.8711133513
 10
2626.5657853877
 20
3124.9177331174
 10
2626.4418327899
 20
3124.9290740988
  0
LWPOLYLINE
  5
2D1
330
1F
100
AcDbEntity
  8
0
  6
Continuous
 62
     7
370
    25
100
AcDbPolyline
 90
        7
 70
   128
 43
0.0
 10
2609.4490843408
 20
3124.9290740988
 10
2609.325131743
 20
3124.9177331174
 10
2609.0523006475
 20
3124.8711133513
 10
2609.1435564822
 20
3124.8240102435
 10
2609.5951632222
 20
3124.7783522009
 10
2610.3886320348
 20
3124.736008469
 10
2611.2435540402
 20
3124.7058287716
  0
LWPOLYLINE
  5
2D2
330
1F
100
AcDbEntity
  8
0
  6
Continuous
 62
     7
370
    25
100
AcDbPolyline
 90
       19
 70
   128
 43
0.0
 10
2624.9154268517
 20
3125.0564516332
 10
2625.0671548704
 20
3125.0417688196
 10
2625.2503025605
 20
3124.9992186952
 10
2625.0671548704
 20
3124.9566685707
 10
2624.5268955899
 20
3124.9162520871
 10
2623.6566155753
 20
3124.8799958957
 10
2622.4999543005
 20
3124.8497180333
 10
2621.1149115917
 20
3124.8269367584
 10
2619.5709392736
 20
3124.8127944191
 10
2617.9454585654
 20
3124.8080001715
 10
2616.3199778572
 20
3124.8127944191
 10
2614.7760055391
 20
3124.8269367584
 10
2613.3909628302
 20
3124.8497180333
 10
2612.2343015554
 20
3124.8799958957
 10
2611.3640215408
 20
3124.9162520871
 10
2610.8237622603
 20
3124.9566685707
 10
2610.6406145702
 20
3124.9992186952
 10
2610.8237622603
 20
3125.0417688196
 10
2610.975490279
 20
3125.0564516332
  0
SPLINE
  5
2D3
330
1F
100
AcDbEntity
  8
0
  6
Continuous
 62
     7
370
    25
100
AcDbSpline
210
0.0
220
0.0
230
1.0
 70
     8
 71
     3
 72
    10
 73
     6
 74
     0
 42
0.00000001
 43
0.00000001
 40
0.0
 40
0.0
 40
0.0
 40
0.0
 40
0.0219459922062852
 40
0.5300207501330845
 40
1.0
 40
1.0
 40
1.0
 40
1.0
 10
2622.562172969174
 20
3122.531668758922
 30
0.0
 10
2622.560135481749
 20
3122.530130453338
 30
0.0
 10
2622.510927835855
 20
3122.492978618397
 30
0.0
 10
2622.462555166664
 20
3122.375907282427
 30
0.0
 10
2622.449367076365
 20
3122.26416007988
 30
0.0
 10
2622.443029871327
 20
3122.210462772769
 30
0.0
  0
ARC
  5
2D4
330
1F
100
AcDbEntity
  8
0
  6
Continuous
 62
     7
370
    25
100
AcDbCircle
 10
2617.9727661044
 20
3188.5310144338
 30
0.0
 40
66.47103753355694
100
AcDbArc
 50
266.0945910318
 51
273.8561261672
  0
LINE
  5
2D5
330
1F
100
AcDbEntity
  8
0
  6
Continuous
 62
     7
370
    25
100
AcDbLine
 10
2622.4454585654
 20
3122.2143323905
 30
0.0
 11
2622.4430298712
 21
3122.2104627727
 31
0.0
  0
LINE
  5
2D6
330
1F
100
AcDbEntity
  8
0
  6
Continuous
 62
     7
370
    25
100
AcDbLine
 10
2257.1454585654
 20
2739.5538810975
 30
0.0
 11
2257.1454585654
 21
2739.4538810975
 31
0.0
  0
LINE
  5
2D7
330
1F
100
AcDbEntity
  8
0
  6
Continuous
 62
     7
370
    25
100
AcDbLine
 10
2650.9454585654
 20
2739.5538810975
 30
0.0
 11
2628.9454585654
 21
2739.5538810975
 31
0.0
  0
LINE
  5
2D8
330
1F
100
AcDbEntity
  8
0
  6
Continuous
 62
     7
370
    25
100
AcDbLine
 10
2588.9454585654
 20
2739.5538810975
 30
0.0
 11
2469.9454585654
 21
2739.5538810975
 31
0.0
  0
LINE
  5
2D9
330
1F
100
AcDbEntity
  8
0
  6
Continuous
 62
     7
370
    25
100
AcDbLine
 10
2439.9454585654
 20
2739.5538810975
 30
0.0
 11
2297.4454585697
 21
2739.5538810975
 31
0.0
  0
LINE
  5
2DA
330
1F
100
AcDbEntity
  8
0
  6
Continuous
 62
     7
370
    25
100
AcDbLine
 10
2261.2577838159
 20
2739.5538810975
 30
0.0
 11
2258.9454585654
 21
2739.5538810975
 31
0.0
  0
LINE
  5
2DB
330
1F
100
AcDbEntity
  8
0
  6
Continuous
 62
     7
370
    25
100
AcDbLine
 10
2652.7454585654
 20
2739.4538810975
 30
0.0
 11
2652.7454585654
 21
2739.5538810975
 31
0.0
  0
SPLINE
  5
2DC
330
1F
100
AcDbEntity
  8
0
  6
Continuous
 62
     7
370
    25
100
AcDbSpline
210
0.0
220
0.0
230
1.0
 70
     8
 71
     3
 72
    10
 73
     6
 74
     0
 42
0.00000001
 43
0.00000001
 40
0.0
 40
0.0
 40
0.0
 40
0.0
 40
0.1834740337130504
 40
0.4713152133471932
 40
1.0
 40
1.0
 40
1.0
 40
1.0
 10
2276.938044120525
 20
2740.953881097514
 30
0.0
 10
2276.881017377273
 20
2740.888430563503
 30
0.0
 10
2276.73452486758
 20
2740.720298693414
 30
0.0
 10
2276.516685233465
 20
2740.291298749874
 30
0.0
 10
2276.473451546598
 20
2739.904394271611
 30
0.0
 10
2276.445458569692
 20
2739.653881097516
 30
0.0
  0
SPLINE
  5
2DD
330
1F
100
AcDbEntity
  8
0
  6
Continuous
 62
     7
370
    25
100
AcDbSpline
210
0.0
220
0.0
230
1.0
 70
     8
 71
     3
 72
    10
 73
     6
 74
     0
 42
0.00000001
 43
0.00000001
 40
0.0
 40
0.0
 40
0.0
 40
0.0
 40
0.5286786081633195
 40
0.8161383429881185
 40
1.0
 40
1.0
 40
1.0
 40
1.0
 10
2296.445458569693
 20
2739.653881097511
 30
0.0
 10
2296.417467933849
 20
2739.904395604487
 30
0.0
 10
2296.374257879944
 20
2740.291122987555
 30
0.0
 10
2296.156475972961
 20
2740.720139553943
 30
0.0
 10
2296.009989980854
 20
2740.888287050799
 30
0.0
 10
2295.95284604955
 20
2740.953881097514
 30
0.0
  0
ENDSEC
  0
SECTION
  2
OBJECTS
  0
DICTIONARY
  5
C
330
0
100
AcDbDictionary
281
     1
  3
ACAD_GROUP
350
D
  3
ACAD_LAYOUT
350
1A
  3
ACAD_MLINESTYLE
350
17
  3
ACAD_PLOTSETTINGS
350
19
  3
ACAD_PLOTSTYLENAME
350
E
  3
ACAD_SCALELIST
350
47
  3
DWGPROPS
350
2DE
  0
DICTIONARY
  5
D
102
{ACAD_REACTORS
330
C
102
}
330
C
100
AcDbDictionary
281
     1
  0
DICTIONARY
  5
1A
102
{ACAD_REACTORS
330
C
102
}
330
C
100
AcDbDictionary
281
     1
  3
Layout1
350
1E
  3
Layout2
350
26
  3
Model
350
22
  0
DICTIONARY
  5
17
102
{ACAD_REACTORS
330
C
102
}
330
C
100
AcDbDictionary
281
     1
  3
Standard
350
18
  0
DICTIONARY
  5
19
102
{ACAD_REACTORS
330
C
102
}
330
C
100
AcDbDictionary
281
     1
  0
ACDBDICTIONARYWDFLT
  5
E
102
{ACAD_REACTORS
330
C
102
}
330
C
100
AcDbDictionary
281
     1
  3
Normal
350
F
100
AcDbDictionaryWithDefault
340
F
  0
DICTIONARY
  5
47
102
{ACAD_REACTORS
330
C
102
}
330
C
100
AcDbDictionary
281
     1
  3
A0
350
48
  3
A1
350
49
  3
A2
350
4A
  3
A3
350
4B
  3
A4
350
4C
  3
A5
350
4D
  3
A6
350
4E
  3
A7
350
4F
  3
A8
350
50
  3
A9
350
51
  3
B0
350
52
  3
B1
350
53
  3
B2
350
54
  3
B3
350
55
  3
B4
350
56
  3
B5
350
57
  3
B6
350
58
  0
XRECORD
  5
2DE
102
{ACAD_REACTORS
330
C
102
}
330
C
100
AcDbXrecord
280
     1
  1
DWGPROPS COOKIE
  2

  3

  4

  6

  7

  8
b
  9

300
=
301
=
302
=
303
=
304
=
305
=
306
=
307
=
308
=
309
=
 40
0.0
 41
2460383.332613495
 42
2460383.332613854
  1

 90
        0
  0
LAYOUT
  5
1E
102
{ACAD_REACTORS
330
1A
102
}
330
1A
100
AcDbPlotSettings
  1

  2
none_device
  4

  6

 40
0.0
 41
0.0
 42
0.0
 43
0.0
 44
0.0
 45
0.0
 46
0.0
 47
0.0
 48
0.0
 49
0.0
140
0.0
141
0.0
142
1.0
143
1.0
 70
   688
 72
     1
 73
     0
 74
     5
  7

 75
    16
147
1.0
148
0.0
149
0.0
100
AcDbLayout
  1
Layout1
 70
     1
 71
     1
 10
0.0
 20
0.0
 11
420.0
 21
297.0
 12
0.0
 22
0.0
 32
0.0
 14
1.0000000000E+20
 24
1.0000000000E+20
 34
1.0000000000E+20
 15
-1.0000000000E+20
 25
-1.0000000000E+20
 35
-1.0000000000E+20
146
0.0
 13
0.0
 23
0.0
 33
0.0
 16
1.0
 26
0.0
 36
0.0
 17
0.0
 27
1.0
 37
0.0
 76
     0
330
1B
  0
LAYOUT
  5
26
102
{ACAD_REACTORS
330
1A
102
}
330
1A
100
AcDbPlotSettings
  1

  2
none_device
  4

  6

 40
0.0
 41
0.0
 42
0.0
 43
0.0
 44
0.0
 45
0.0
 46
0.0
 47
0.0
 48
0.0
 49
0.0
140
0.0
141
0.0
142
1.0
143
1.0
 70
   688
 72
     1
 73
     0
 74
     5
  7

 75
    16
147
1.0
148
0.0
149
0.0
100
AcDbLayout
  1
Layout2
 70
     1
 71
     2
 10
0.0
 20
0.0
 11
0.0
 21
0.0
 12
0.0
 22
0.0
 32
0.0
 14
0.0
 24
0.0
 34
0.0
 15
0.0
 25
0.0
 35
0.0
146
0.0
 13
0.0
 23
0.0
 33
0.0
 16
1.0
 26
0.0
 36
0.0
 17
0.0
 27
1.0
 37
0.0
 76
     0
330
23
  0
LAYOUT
  5
22
102
{ACAD_REACTORS
330
1A
102
}
330
1A
100
AcDbPlotSettings
  1

  2
none_device
  4
Letter_(8.50_x_11.00_Inches)
  6

 40
6.35
 41
6.35
 42
6.35000508
 43
6.35000508
 44
215.9
 45
279.4
 46
0.0
 47
0.0
 48
0.0
 49
0.0
140
0.0
141
0.0
142
1.0
143
1.0
 70
  1712
 72
     1
 73
     0
 74
     0
  7

 75
     0
147
1.0
148
0.0
149
0.0
100
AcDbLayout
  1
Model
 70
     1
 71
     0
 10
0.0
 20
0.0
 11
5000.0
 21
3500.0
 12
0.0
 22
0.0
 32
0.0
 14
0.0
 24
0.0
 34
0.0
 15
5000.0
 25
3500.0
 35
0.0
146
0.0
 13
0.0
 23
0.0
 33
0.0
 16
1.0
 26
0.0
 36
0.0
 17
0.0
 27
1.0
 37
0.0
 76
     0
330
1F
331
29
  0
MLINESTYLE
  5
18
102
{ACAD_REACTORS
330
17
102
}
330
17
100
AcDbMlineStyle
  2
Standard
 70
     0
  3

 62
   256
 51
90.0
 52
90.0
 71
     2
 49
0.5
 62
   256
  6
BYLAYER
 49
-0.5
 62
   256
  6
BYLAYER
  0
ACDBPLACEHOLDER
  5
F
102
{ACAD_REACTORS
330
E
102
}
330
E
  0
SCALE
  5
48
102
{ACAD_REACTORS
330
47
102
}
330
47
100
AcDbScale
 70
     0
300
1:1
140
1.0
141
1.0
290
     1
  0
SCALE
  5
49
102
{ACAD_REACTORS
330
47
102
}
330
47
100
AcDbScale
 70
     0
300
1:2
140
1.0
141
2.0
290
     0
  0
SCALE
  5
4A
102
{ACAD_REACTORS
330
47
102
}
330
47
100
AcDbScale
 70
     0
300
1:4
140
1.0
141
4.0
290
     0
  0
SCALE
  5
4B
102
{ACAD_REACTORS
330
47
102
}
330
47
100
AcDbScale
 70
     0
300
1:5
140
1.0
141
5.0
290
     0
  0
SCALE
  5
4C
102
{ACAD_REACTORS
330
47
102
}
330
47
100
AcDbScale
 70
     0
300
1:8
140
1.0
141
8.0
290
     0
  0
SCALE
  5
4D
102
{ACAD_REACTORS
330
47
102
}
330
47
100
AcDbScale
 70
     0
300
1:10
140
1.0
141
10.0
290
     0
  0
SCALE
  5
4E
102
{ACAD_REACTORS
330
47
102
}
330
47
100
AcDbScale
 70
     0
300
1:16
140
1.0
141
16.0
290
     0
  0
SCALE
  5
4F
102
{ACAD_REACTORS
330
47
102
}
330
47
100
AcDbScale
 70
     0
300
1:20
140
1.0
141
20.0
290
     0
  0
SCALE
  5
50
102
{ACAD_REACTORS
330
47
102
}
330
47
100
AcDbScale
 70
     0
300
1:30
140
1.0
141
30.0
290
     0
  0
SCALE
  5
51
102
{ACAD_REACTORS
330
47
102
}
330
47
100
AcDbScale
 70
     0
300
1:40
140
1.0
141
40.0
290
     0
  0
SCALE
  5
52
102
{ACAD_REACTORS
330
47
102
}
330
47
100
AcDbScale
 70
     0
300
1:50
140
1.0
141
50.0
290
     0
  0
SCALE
  5
53
102
{ACAD_REACTORS
330
47
102
}
330
47
100
AcDbScale
 70
     0
300
1:100
140
1.0
141
100.0
290
     0
  0
SCALE
  5
54
102
{ACAD_REACTORS
330
47
102
}
330
47
100
AcDbScale
 70
     0
300
2:1
140
2.0
141
1.0
290
     0
  0
SCALE
  5
55
102
{ACAD_REACTORS
330
47
102
}
330
47
100
AcDbScale
 70
     0
300
4:1
140
4.0
141
1.0
290
     0
  0
SCALE
  5
56
102
{ACAD_REACTORS
330
47
102
}
330
47
100
AcDbScale
 70
     0
300
8:1
140
8.0
141
1.0
290
     0
  0
SCALE
  5
57
102
{ACAD_REACTORS
330
47
102
}
330
47
100
AcDbScale
 70
     0
300
10:1
140
10.0
141
1.0
290
     0
  0
SCALE
  5
58
102
{ACAD_REACTORS
330
47
102
}
330
47
100
AcDbScale
 70
     0
300
100:1
140
100.0
141
1.0
290
     0
  0
ENDSEC
  0
EOF
