  0
SECTION
  2
HEADER
  9
$ACADVER
  1
AC1015
  9
$ACADMAINTVER
 70
     6
  9
$DWGCODEPAGE
  3
DOS932
  9
$INSBASE
 10
0.0
 20
0.0
 30
0.0
  9
$EXTMIN
 10
0.0
 20
0.0
 30
0.0
  9
$EXTMAX
 10
5000.0
 20
3500.0
 30
0.0
  9
$LIMMIN
 10
0.0
 20
0.0
  9
$LIMMAX
 10
5000.0
 20
3500.0
  9
$ORTHOMODE
 70
     0
  9
$REGENMODE
 70
     1
  9
$FILLMODE
 70
     1
  9
$QTEXTMODE
 70
     0
  9
$MIRRTEXT
 70
     1
  9
$LTSCALE
 40
1.0
  9
$ATTMODE
 70
     1
  9
$TEXTSIZE
 40
3.5
  9
$TRACEWID
 40
1.0
  9
$TEXTSTYLE
  7
Standard
  9
$CLAYER
  8
0
  9
$CELTYPE
  6
ByLayer
  9
$CECOLOR
 62
   256
  9
$CELTSCALE
 40
1.0
  9
$DISPSILH
 70
     0
  9
$DIMSCALE
 40
1.0
  9
$DIMASZ
 40
3.302
  9
$DIMEXO
 40
1.0
  9
$DIMDLI
 40
3.75
  9
$DIMRND
 40
0.0
  9
$DIMDLE
 40
0.0
  9
$DIMEXE
 40
1.0
  9
$DIMTP
 40
0.0
  9
$DIMTM
 40
0.0
  9
$DIMTXT
 40
3.5
  9
$DIMCEN
 40
2.5
  9
$DIMTSZ
 40
0.0
  9
$DIMTOL
 70
     0
  9
$DIMLIM
 70
     0
  9
$DIMTIH
 70
     1
  9
$DIMTOH
 70
     1
  9
$DIMSE1
 70
     0
  9
$DIMSE2
 70
     0
  9
$DIMTAD
 70
     1
  9
$DIMZIN
 70
     0
  9
$DIMBLK
  1

  9
$DIMASO
 70
     1
  9
$DIMSHO
 70
     1
  9
$DIMPOST
  1

  9
$DIMAPOST
  1

  9
$DIMALT
 70
     0
  9
$DIMALTD
 70
     3
  9
$DIMALTF
 40
0.0393700787
  9
$DIMLFAC
 40
1.0
  9
$DIMTOFL
 70
     1
  9
$DIMTVP
 40
0.0
  9
$DIMTIX
 70
     0
  9
$DIMSOXD
 70
     0
  9
$DIMSAH
 70
     0
  9
$DIMBLK1
  1

  9
$DIMBLK2
  1

  9
$DIMSTYLE
  2
ISO-25
  9
$DIMCLRD
 70
     0
  9
$DIMCLRE
 70
     0
  9
$DIMCLRT
 70
     0
  9
$DIMTFAC
 40
1.0
  9
$DIMGAP
 40
1.524
  9
$DIMJUST
 70
     0
  9
$DIMSD1
 70
     0
  9
$DIMSD2
 70
     0
  9
$DIMTOLJ
 70
     0
  9
$DIMTZIN
 70
     0
  9
$DIMALTZ
 70
     0
  9
$DIMALTTZ
 70
     0
  9
$DIMUPT
 70
     0
  9
$DIMDEC
 70
     2
  9
$DIMTDEC
 70
     2
  9
$DIMALTU
 70
     2
  9
$DIMALTTD
 70
     3
  9
$DIMTXSTY
  7
Standard
  9
$DIMAUNIT
 70
     0
  9
$DIMADEC
 70
     2
  9
$DIMALTRND
 40
0.0
  9
$DIMAZIN
 70
     0
  9
$DIMDSEP
 70
    44
  9
$DIMATFIT
 70
     3
  9
$DIMFRAC
 70
     0
  9
$DIMLDRBLK
  1

  9
$DIMLUNIT
 70
     2
  9
$DIMLWD
 70
    -2
  9
$DIMLWE
 70
    -2
  9
$DIMTMOVE
 70
     0
  9
$LUNITS
 70
     2
  9
$LUPREC
 70
     3
  9
$SKETCHINC
 40
1.0
  9
$FILLETRAD
 40
0.0
  9
$AUNITS
 70
     0
  9
$AUPREC
 70
     2
  9
$MENU
  1
.
  9
$ELEVATION
 40
0.0
  9
$PELEVATION
 40
0.0
  9
$THICKNESS
 40
0.0
  9
$LIMCHECK
 70
     0
  9
$CHAMFERA
 40
0.0
  9
$CHAMFERB
 40
0.0
  9
$CHAMFERC
 40
0.0
  9
$CHAMFERD
 40
0.0
  9
$SKPOLY
 70
     0
  9
$TDCREATE
 40
2460383.69322706
  9
$TDUCREATE
 40
2460383.31822706
  9
$TDUPDATE
 40
2460383.693227419
  9
$TDUUPDATE
 40
2460383.318227419
  9
$TDINDWG
 40
0.0000000116
  9
$TDUSRTIMER
 40
0.0000000116
  9
$USRTIMER
 70
     1
  9
$ANGBASE
 50
0.0
  9
$ANGDIR
 70
     0
  9
$PDMODE
 70
     0
  9
$PDSIZE
 40
-1.0
  9
$PLINEWID
 40
0.0
  9
$SPLFRAME
 70
     0
  9
$SPLINETYPE
 70
     6
  9
$SPLINESEGS
 70
     8
  9
$HANDSEED
  5
35F
  9
$SURFTAB1
 70
     6
  9
$SURFTAB2
 70
     6
  9
$SURFTYPE
 70
     6
  9
$SURFU
 70
     6
  9
$SURFV
 70
     6
  9
$UCSBASE
  2

  9
$UCSNAME
  2

  9
$UCSORG
 10
0.0
 20
0.0
 30
0.0
  9
$UCSXDIR
 10
1.0
 20
0.0
 30
0.0
  9
$UCSYDIR
 10
0.0
 20
1.0
 30
0.0
  9
$UCSORTHOREF
  2

  9
$UCSORTHOVIEW
 70
     0
  9
$UCSORGTOP
 10
0.0
 20
0.0
 30
0.0
  9
$UCSORGBOTTOM
 10
0.0
 20
0.0
 30
0.0
  9
$UCSORGLEFT
 10
0.0
 20
0.0
 30
0.0
  9
$UCSORGRIGHT
 10
0.0
 20
0.0
 30
0.0
  9
$UCSORGFRONT
 10
0.0
 20
0.0
 30
0.0
  9
$UCSORGBACK
 10
0.0
 20
0.0
 30
0.0
  9
$PUCSBASE
  2

  9
$PUCSNAME
  2

  9
$PUCSORG
 10
0.0
 20
0.0
 30
0.0
  9
$PUCSXDIR
 10
1.0
 20
0.0
 30
0.0
  9
$PUCSYDIR
 10
0.0
 20
1.0
 30
0.0
  9
$PUCSORTHOREF
  2

  9
$PUCSORTHOVIEW
 70
     0
  9
$PUCSORGTOP
 10
0.0
 20
0.0
 30
0.0
  9
$PUCSORGBOTTOM
 10
0.0
 20
0.0
 30
0.0
  9
$PUCSORGLEFT
 10
0.0
 20
0.0
 30
0.0
  9
$PUCSORGRIGHT
 10
0.0
 20
0.0
 30
0.0
  9
$PUCSORGFRONT
 10
0.0
 20
0.0
 30
0.0
  9
$PUCSORGBACK
 10
0.0
 20
0.0
 30
0.0
  9
$USERI1
 70
     0
  9
$USERI2
 70
     0
  9
$USERI3
 70
     0
  9
$USERI4
 70
     0
  9
$USERI5
 70
     0
  9
$USERR1
 40
0.0
  9
$USERR2
 40
0.0
  9
$USERR3
 40
0.0
  9
$USERR4
 40
0.0
  9
$USERR5
 40
0.0
  9
$WORLDVIEW
 70
     1
  9
$SHADEDGE
 70
     3
  9
$SHADEDIF
 70
    70
  9
$TILEMODE
 70
     1
  9
$MAXACTVP
 70
    64
  9
$PINSBASE
 10
0.0
 20
0.0
 30
0.0
  9
$PLIMCHECK
 70
     0
  9
$PEXTMIN
 10
1.0000000000E+20
 20
1.0000000000E+20
 30
1.0000000000E+20
  9
$PEXTMAX
 10
-1.0000000000E+20
 20
-1.0000000000E+20
 30
-1.0000000000E+20
  9
$PLIMMIN
 10
0.0
 20
0.0
  9
$PLIMMAX
 10
420.0
 20
297.0
  9
$UNITMODE
 70
     0
  9
$VISRETAIN
 70
     1
  9
$PLINEGEN
 70
     0
  9
$PSLTSCALE
 70
     1
  9
$TREEDEPTH
 70
  3020
  9
$CMLSTYLE
  2
Standard
  9
$CMLJUST
 70
     0
  9
$CMLSCALE
 40
20.0
  9
$PROXYGRAPHICS
 70
     1
  9
$MEASUREMENT
 70
     1
  9
$CELWEIGHT
370
    -1
  9
$ENDCAPS
280
     0
  9
$JOINSTYLE
280
     0
  9
$LWDISPLAY
290
     1
  9
$INSUNITS
 70
     4
  9
$HYPERLINKBASE
  1

  9
$STYLESHEET
  1

  9
$XEDIT
290
     1
  9
$CEPSNTYPE
380
     0
  9
$PSTYLEMODE
290
     1
  9
$FINGERPRINTGUID
  2
{5678c722-87e3-4182-a8ee-51c90ae3137f}
  9
$VERSIONGUID
  2
{FAEB1C32-E019-11D5-929B-00C0DF256EC4}
  9
$EXTNAMES
290
     1
  9
$PSVPSCALE
 40
0.0
  9
$OLESTARTUP
290
     0
  0
ENDSEC
  0
SECTION
  2
CLASSES
  0
CLASS
  1
ACDBDICTIONARYWDFLT
  2
AcDbDictionaryWithDefault
  3
ObjectDBX Classes
 90
        0
280
     0
281
     0
  0
CLASS
  1
VISUALSTYLE
  2
AcDbVisualStyle
  3
ObjectDBX Classes
 90
     4095
280
     0
281
     0
  0
CLASS
  1
MATERIAL
  2
AcDbMaterial
  3
ObjectDBX Classes
 90
     1153
280
     0
281
     0
  0
CLASS
  1
SCALE
  2
AcDbScale
  3
ObjectDBX Classes
 90
     1153
280
     0
281
     0
  0
CLASS
  1
TABLESTYLE
  2
AcDbTableStyle
  3
ObjectDBX Classes
 90
     4095
280
     0
281
     0
  0
CLASS
  1
MLEADERSTYLE
  2
AcDbMLeaderStyle
  3
ACDB_MLEADERSTYLE_CLASS
 90
     4095
280
     0
281
     0
  0
CLASS
  1
SUN
  2
AcDbSun
  3
SCENEOE
 90
     1153
280
     0
281
     0
  0
CLASS
  1
ACDBPLACEHOLDER
  2
AcDbPlaceHolder
  3
ObjectDBX Classes
 90
        0
280
     0
281
     0
  0
CLASS
  1
LAYOUT
  2
AcDbLayout
  3
ObjectDBX Classes
 90
        0
280
     0
281
     0
  0
ENDSEC
  0
SECTION
  2
TABLES
  0
TABLE
  2
VPORT
  5
8
330
0
100
AcDbSymbolTable
 70
     1
  0
VPORT
  5
29
330
8
100
AcDbSymbolTableRecord
100
AcDbViewportTableRecord
  2
*Active
 70
     0
 10
0.0
 20
0.0
 11
1.0
 21
1.0
 12
2500.0
 22
1750.0
 13
0.0
 23
0.0
 14
10.0
 24
10.0
 15
10.0
 25
10.0
 16
0.0
 26
0.0
 36
1.0
 17
0.0
 27
0.0
 37
0.0
 40
3500.0
 41
1.4285714286
 42
50.0
 43
0.0
 44
0.0
 50
0.0
 51
0.0
 71
     0
 72
  2000
 73
     1
 74
     3
 75
     0
 76
     0
 77
     0
 78
     0
281
     0
 65
     1
110
0.0
120
0.0
130
0.0
111
1.0
121
0.0
131
0.0
112
0.0
122
1.0
132
0.0
 79
     0
146
0.0
  0
ENDTAB
  0
TABLE
  2
LTYPE
  5
5
330
0
100
AcDbSymbolTable
 70
     6
  0
LTYPE
  5
14
330
5
100
AcDbSymbolTableRecord
100
AcDbLinetypeTableRecord
  2
ByBlock
 70
     0
  3

 72
    65
 73
     0
 40
0.0
  0
LTYPE
  5
15
330
5
100
AcDbSymbolTableRecord
100
AcDbLinetypeTableRecord
  2
ByLayer
 70
     0
  3

 72
    65
 73
     0
 40
0.0
  0
LTYPE
  5
16
330
5
100
AcDbSymbolTableRecord
100
AcDbLinetypeTableRecord
  2
Continuous
 70
     0
  3
Solid line
 72
    65
 73
     0
 40
0.0
  0
LTYPE
  5
5E
330
5
100
AcDbSymbolTableRecord
100
AcDbLinetypeTableRecord
  2
HIDDEN
 70
     0
  3
Hidden __ __ __ __ __ __ __ __ __ __ __ __ __ __
 72
    65
 73
     2
 40
1.905
 49
1.27
 74
     0
 49
-0.635
 74
     0
  0
LTYPE
  5
5F
330
5
100
AcDbSymbolTableRecord
100
AcDbLinetypeTableRecord
  2
PHANTOM
 70
     0
  3
Phantom ______  __  __  ______  __  __  ______
 72
    65
 73
     6
 40
12.7
 49
6.35
 74
     0
 49
-1.27
 74
     0
 49
1.27
 74
     0
 49
-1.27
 74
     0
 49
1.27
 74
     0
 49
-1.27
 74
     0
  0
LTYPE
  5
60
330
5
100
AcDbSymbolTableRecord
100
AcDbLinetypeTableRecord
  2
CENTER
 70
     0
  3
Center ____ _ ____ _ ____ _ ____ _ ____ _ ____
 72
    65
 73
     4
 40
10.16
 49
6.35
 74
     0
 49
-1.27
 74
     0
 49
1.27
 74
     0
 49
-1.27
 74
     0
  0
LTYPE
  5
61
330
5
100
AcDbSymbolTableRecord
100
AcDbLinetypeTableRecord
  2
CENTERX2
 70
     0
  3
Center (2x) ________  __  ________  __  _____
 72
    65
 73
     4
 40
20.32
 49
12.7
 74
     0
 49
-2.54
 74
     0
 49
2.54
 74
     0
 49
-2.54
 74
     0
  0
LTYPE
  5
62
330
5
100
AcDbSymbolTableRecord
100
AcDbLinetypeTableRecord
  2
DOT2
 70
     0
  3
Dot (.5x) ........................................
 72
    65
 73
     2
 40
0.635
 49
0.0
 74
     0
 49
-0.635
 74
     0
  0
ENDTAB
  0
TABLE
  2
LAYER
  5
2
330
0
100
AcDbSymbolTable
 70
     3
  0
LAYER
  5
10
330
2
100
AcDbSymbolTableRecord
100
AcDbLayerTableRecord
  2
0
 70
     0
 62
     7
  6
Continuous
370
    -3
390
F
  0
LAYER
  5
63
330
2
100
AcDbSymbolTableRecord
100
AcDbLayerTableRecord
  2
SLD-0
 70
     0
 62
   179
  6
Continuous
370
    -3
390
F
  0
LAYER
  5
64
330
2
100
AcDbSymbolTableRecord
100
AcDbLayerTableRecord
  2
寸法
 70
     0
 62
   179
  6
Continuous
370
    -3
390
F
  0
ENDTAB
  0
TABLE
  2
STYLE
  5
3
330
0
100
AcDbSymbolTable
 70
     2
  0
STYLE
  5
11
330
3
100
AcDbSymbolTableRecord
100
AcDbTextStyleTableRecord
  2
Standard
 70
     0
 40
0.0
 41
1.0
 50
0.0
 71
     0
 42
3.5
  3
txt
  4
bigfont
  0
STYLE
  5
66
330
3
100
AcDbSymbolTableRecord
100
AcDbTextStyleTableRecord
  2
SLDTEXTSTYLE0
 70
     0
 40
0.0
 41
0.75
 50
0.0
 71
     0
 42
3.5
  3
TXT
  4
bigfont
  0
ENDTAB
  0
TABLE
  2
VIEW
  5
6
330
0
100
AcDbSymbolTable
 70
     0
  0
ENDTAB
  0
TABLE
  2
UCS
  5
7
330
0
100
AcDbSymbolTable
 70
     0
  0
ENDTAB
  0
TABLE
  2
APPID
  5
9
330
0
100
AcDbSymbolTable
 70
     1
  0
APPID
  5
12
330
9
100
AcDbSymbolTableRecord
100
AcDbRegAppTableRecord
  2
ACAD
 70
     0
  0
ENDTAB
  0
TABLE
  2
DIMSTYLE
  5
A
330
0
100
AcDbSymbolTable
 70
     1
100
AcDbDimStyleTable
  0
DIMSTYLE
105
27
330
A
100
AcDbSymbolTableRecord
100
AcDbDimStyleTableRecord
  2
ISO-25
 70
     0
 41
2.5
 42
0.625
 43
3.75
 44
1.25
 73
     0
 74
     0
 77
     1
 78
     8
140
2.5
141
2.5
143
0.0393700787
147
0.625
171
     3
172
     1
178
     0
271
     2
272
     2
274
     3
278
    44
283
     0
284
     8
340
11
  0
ENDTAB
  0
TABLE
  2
BLOCK_RECORD
  5
1
330
0
100
AcDbSymbolTable
 70
     1
  0
BLOCK_RECORD
  5
1F
330
1
100
AcDbSymbolTableRecord
100
AcDbBlockTableRecord
  2
*Model_Space
340
22
  0
BLOCK_RECORD
  5
1B
330
1
100
AcDbSymbolTableRecord
100
AcDbBlockTableRecord
  2
*Paper_Space
340
1E
  0
BLOCK_RECORD
  5
23
330
1
100
AcDbSymbolTableRecord
100
AcDbBlockTableRecord
  2
*Paper_Space0
340
26
  0
ENDTAB
  0
ENDSEC
  0
SECTION
  2
BLOCKS
  0
BLOCK
  5
20
330
1F
100
AcDbEntity
  8
0
100
AcDbBlockBegin
  2
*Model_Space
 70
     0
 10
0.0
 20
0.0
 30
0.0
  3
*Model_Space
  1

  0
ENDBLK
  5
21
330
1F
100
AcDbEntity
  8
0
100
AcDbBlockEnd
  0
BLOCK
  5
1C
330
1B
100
AcDbEntity
 67
     1
  8
0
100
AcDbBlockBegin
  2
*Paper_Space
 70
     0
 10
0.0
 20
0.0
 30
0.0
  3
*Paper_Space
  1

  0
ENDBLK
  5
1D
330
1B
100
AcDbEntity
 67
     1
  8
0
100
AcDbBlockEnd
  0
BLOCK
  5
24
330
23
100
AcDbEntity
  8
0
100
AcDbBlockBegin
  2
*Paper_Space0
 70
     0
 10
0.0
 20
0.0
 30
0.0
  3
*Paper_Space0
  1

  0
ENDBLK
  5
25
330
23
100
AcDbEntity
  8
0
100
AcDbBlockEnd
  0
ENDSEC
  0
SECTION
  2
ENTITIES
  0
LINE
  5
65
330
1F
100
AcDbEntity
  8
0
  6
Continuous
 62
     7
370
    18
100
AcDbLine
 10
4801.663086451
 20
279.1403827252
 30
0.0
 11
3345.9062220501
 21
279.1403827252
 31
0.0
  0
MTEXT
  5
67
330
1F
100
AcDbEntity
  8
0
  6
Continuous
 62
     7
370
     0
100
AcDbMText
 10
1762.8324799637
 20
1989.2846179971
 30
0.0
 40
52.9166666667
 41
0.0
 71
     1
 72
     1
  1
＜正面＞
  7
SLDTEXTSTYLE0
 73
     1
 44
1.0
  0
MTEXT
  5
68
330
1F
100
AcDbEntity
  8
0
  6
Continuous
 62
     7
370
     0
100
AcDbMText
 10
3377.8142431891
 20
379.4057208634
 30
0.0
 40
52.9166666667
 41
0.0
 71
     1
 72
     1
  1
品名：
  7
SLDTEXTSTYLE0
 73
     1
 44
1.0
  0
MTEXT
  5
69
330
1F
100
AcDbEntity
  8
0
  6
Continuous
 62
     7
370
     0
100
AcDbMText
 10
4446.6634374817
 20
385.2343854145
 30
0.0
 40
52.9166666667
 41
0.0
 71
     1
 72
     1
  1
Pamouna
  7
SLDTEXTSTYLE0
 73
     1
 44
1.0
  0
MTEXT
  5
6A
330
1F
100
AcDbEntity
  8
寸法
 62
     7
100
AcDbMText
 10
4688.0073048854
 20
218.6255182943
 30
0.0
 40
52.9166666667
 41
0.0
 71
     1
 72
     1
  1
1/1
  7
SLDTEXTSTYLE0
 73
     1
 44
1.0
  0
MTEXT
  5
6B
330
1F
100
AcDbEntity
  8
寸法
 62
     7
100
AcDbMText
 10
3611.2831293492
 20
398.3924235142
 30
0.0
 40
66.1458333333
 41
0.0
 71
     1
 72
     1
  1
MAG138
  7
SLDTEXTSTYLE0
 73
     1
 44
1.0
  0
MTEXT
  5
6C
330
1F
100
AcDbEntity
  8
寸法
 62
     7
100
AcDbMText
 10
4198.7969392118
 20
218.6255210883
 30
0.0
 40
52.9166666667
 41
0.0
 71
     1
 72
     1
  1
2024/03/13
  7
SLDTEXTSTYLE0
 73
     1
 44
1.0
  0
MTEXT
  5
6D
330
1F
100
AcDbEntity
  8
寸法
 62
     7
100
AcDbMText
 10
3972.4665930518
 20
2002.9002064516
 30
0.0
 40
52.9166666667
 41
0.0
 71
     1
 72
     1
  1
＜右側面＞
  7
SLDTEXTSTYLE0
 73
     1
 44
1.0
  0
MTEXT
  5
6E
330
1F
100
AcDbEntity
  8
0
  6
Continuous
 62
     7
370
     0
100
AcDbMText
 10
669.5723251208
 20
1997.9509737295
 30
0.0
 40
52.9166666667
 41
0.0
 71
     1
 72
     1
  1
＜左側面＞
  7
SLDTEXTSTYLE0
 73
     1
 44
1.0
  0
MTEXT
  5
6F
330
1F
100
AcDbEntity
  8
0
  6
Continuous
 62
     7
370
     0
100
AcDbMText
 10
1765.2858929776
 20
2965.5678091759
 30
0.0
 40
52.9166666667
 41
0.0
 71
     1
 72
     1
  1
＜上面＞
  7
SLDTEXTSTYLE0
 73
     1
 44
1.0
  0
ARC
  5
70
330
1F
100
AcDbEntity
  8
0
  6
Continuous
 62
     7
370
    25
100
AcDbCircle
 10
1847.1454585654
 20
1417.0543978663
 30
0.0
 40
0.2000000000000455
100
AcDbArc
 50
90.0000000001
 51
180.0
  0
LINE
  5
71
330
1F
100
AcDbEntity
  8
0
  6
Continuous
 62
     7
370
    25
100
AcDbLine
 10
1848.9454585654
 20
1417.2543978663
 30
0.0
 11
1847.1454585654
 21
1417.2543978663
 31
0.0
  0
ARC
  5
72
330
1F
100
AcDbEntity
  8
0
  6
Continuous
 62
     7
370
    25
100
AcDbCircle
 10
2296.6454585654
 20
1417.0543978663
 30
0.0
 40
0.2000000000002728
100
AcDbArc
 50
90.0
 51
180.0
  0
LINE
  5
73
330
1F
100
AcDbEntity
  8
0
  6
Continuous
 62
     7
370
    25
100
AcDbLine
 10
2298.4454585654
 20
1417.2543978663
 30
0.0
 11
2296.6454585654
 21
1417.2543978663
 31
0.0
  0
LINE
  5
74
330
1F
100
AcDbEntity
  8
0
  6
Continuous
 62
     7
370
    25
100
AcDbLine
 10
2290.9454585654
 20
1417.2543978663
 30
0.0
 11
1848.9454585654
 21
1417.2543978663
 31
0.0
  0
LINE
  5
75
330
1F
100
AcDbEntity
  8
0
  6
Continuous
 62
     7
370
    25
100
AcDbLine
 10
2740.4454585654
 20
1417.2543978663
 30
0.0
 11
2298.4454585654
 21
1417.2543978663
 31
0.0
  0
LINE
  5
76
330
1F
100
AcDbEntity
  8
0
  6
Continuous
 62
     7
370
    25
100
AcDbLine
 10
2742.2454585654
 20
1417.2543978663
 30
0.0
 11
2740.4454585654
 21
1417.2543978663
 31
0.0
  0
ARC
  5
77
330
1F
100
AcDbEntity
  8
0
  6
Continuous
 62
     7
370
    25
100
AcDbCircle
 10
2742.2454585654
 20
1417.0543978663
 30
0.0
 40
0.2000000000007276
100
AcDbArc
 50
0.0
 51
90.0
  0
LINE
  5
78
330
1F
100
AcDbEntity
  8
0
  6
Continuous
 62
     7
370
    25
100
AcDbLine
 10
2292.7454585654
 20
1417.2543978663
 30
0.0
 11
2290.9454585654
 21
1417.2543978663
 31
0.0
  0
ARC
  5
79
330
1F
100
AcDbEntity
  8
0
  6
Continuous
 62
     7
370
    25
100
AcDbCircle
 10
2292.7454585654
 20
1417.0543978663
 30
0.0
 40
0.2000000000002728
100
AcDbArc
 50
0.0
 51
90.0
  0
LINE
  5
7A
330
1F
100
AcDbEntity
  8
0
  6
Continuous
 62
     7
370
    25
100
AcDbLine
 10
3192.4454585654
 20
1416.7543978663
 30
0.0
 11
2746.4454585654
 21
1416.7543978663
 31
0.0
  0
LINE
  5
7B
330
1F
100
AcDbEntity
  8
0
  6
Continuous
 62
     7
370
    25
100
AcDbLine
 10
3192.4454585654
 20
986.7543978663
 30
0.0
 11
3192.4454585654
 21
1416.7543978663
 31
0.0
  0
LINE
  5
7C
330
1F
100
AcDbEntity
  8
0
  6
Continuous
 62
     7
370
    25
100
AcDbLine
 10
2746.4454585654
 20
986.7543978663
 30
0.0
 11
3192.4454585654
 21
986.7543978663
 31
0.0
  0
LINE
  5
7D
330
1F
100
AcDbEntity
  8
0
  6
Continuous
 62
     7
370
    25
100
AcDbLine
 10
2746.4454585654
 20
1416.7543978663
 30
0.0
 11
2746.4454585654
 21
986.7543978663
 31
0.0
  0
LINE
  5
7E
330
1F
100
AcDbEntity
  8
0
  6
Continuous
 62
     7
370
    25
100
AcDbLine
 10
2742.4454585654
 20
1006.5043978663
 30
0.0
 11
2746.4454585654
 21
1006.5043978663
 31
0.0
  0
LINE
  5
7F
330
1F
100
AcDbEntity
  8
0
  6
Continuous
 62
     7
370
    25
100
AcDbLine
 10
2746.4454585654
 20
1398.0043978663
 30
0.0
 11
2742.4454585654
 21
1398.0043978663
 31
0.0
  0
LINE
  5
80
330
1F
100
AcDbEntity
  8
0
  6
Continuous
 62
     7
370
    25
100
AcDbLine
 10
3176.4454585654
 20
977.7543978663
 30
0.0
 11
1862.9454585654
 21
977.7543978663
 31
0.0
  0
LINE
  5
81
330
1F
100
AcDbEntity
  8
0
  6
Continuous
 62
     7
370
    25
100
AcDbLine
 10
2746.4454585654
 20
1006.2543978663
 30
0.0
 11
2742.4454585654
 21
1006.2543978663
 31
0.0
  0
LINE
  5
82
330
1F
100
AcDbEntity
  8
0
  6
Continuous
 62
     7
370
    25
100
AcDbLine
 10
2296.4454585654
 20
1006.2543978663
 30
0.0
 11
2292.9454585654
 21
1006.2543978663
 31
0.0
  0
LINE
  5
83
330
1F
100
AcDbEntity
  8
0
  6
Continuous
 62
     7
370
    25
100
AcDbLine
 10
3194.9454585654
 20
1426.7543978663
 30
0.0
 11
1844.4454585654
 21
1426.7543978663
 31
0.0
  0
LINE
  5
84
330
1F
100
AcDbEntity
  8
0
  6
Continuous
 62
     7
370
    25
100
AcDbLine
 10
3194.9454585654
 20
1426.7543978663
 30
0.0
 11
3194.9454585654
 21
1398.2543978663
 31
0.0
  0
LINE
  5
85
330
1F
100
AcDbEntity
  8
0
  6
Continuous
 62
     7
370
    25
100
AcDbLine
 10
3194.9454585654
 20
1398.2543978663
 30
0.0
 11
3192.4454585654
 21
1398.2543978663
 31
0.0
  0
LINE
  5
86
330
1F
100
AcDbEntity
  8
0
  6
Continuous
 62
     7
370
    25
100
AcDbLine
 10
2746.4454585654
 20
1398.2543978663
 30
0.0
 11
2742.4454585654
 21
1398.2543978663
 31
0.0
  0
LINE
  5
87
330
1F
100
AcDbEntity
  8
0
  6
Continuous
 62
     7
370
    25
100
AcDbLine
 10
2296.4454585654
 20
1398.2543978663
 30
0.0
 11
2292.9454585654
 21
1398.2543978663
 31
0.0
  0
LINE
  5
88
330
1F
100
AcDbEntity
  8
0
  6
Continuous
 62
     7
370
    25
100
AcDbLine
 10
1846.9454585654
 20
1398.2543978663
 30
0.0
 11
1844.4454585654
 21
1398.2543978663
 31
0.0
  0
LINE
  5
89
330
1F
100
AcDbEntity
  8
0
  6
Continuous
 62
     7
370
    25
100
AcDbLine
 10
1844.4454585654
 20
1426.7543978663
 30
0.0
 11
1844.4454585654
 21
1398.2543978663
 31
0.0
  0
LINE
  5
8A
330
1F
100
AcDbEntity
  8
0
  6
Continuous
 62
     7
370
    25
100
AcDbLine
 10
2296.4454585654
 20
986.7543978663
 30
0.0
 11
2742.4454585654
 21
986.7543978663
 31
0.0
  0
LINE
  5
8B
330
1F
100
AcDbEntity
  8
0
  6
Continuous
 62
     7
370
    25
100
AcDbLine
 10
2742.4454585654
 20
1416.7543978663
 30
0.0
 11
2296.4454585654
 21
1416.7543978663
 31
0.0
  0
LINE
  5
8C
330
1F
100
AcDbEntity
  8
0
  6
Continuous
 62
     7
370
    25
100
AcDbLine
 10
2742.4454585654
 20
986.7543978663
 30
0.0
 11
2742.4454585654
 21
1416.7543978663
 31
0.0
  0
LINE
  5
8D
330
1F
100
AcDbEntity
  8
0
  6
Continuous
 62
     7
370
    25
100
AcDbLine
 10
2296.4454585654
 20
1416.7543978663
 30
0.0
 11
2296.4454585654
 21
986.7543978663
 31
0.0
  0
LINE
  5
8E
330
1F
100
AcDbEntity
  8
0
  6
Continuous
 62
     7
370
    25
100
AcDbLine
 10
2292.9454585654
 20
1416.7543978663
 30
0.0
 11
1846.9454585654
 21
1416.7543978663
 31
0.0
  0
LINE
  5
8F
330
1F
100
AcDbEntity
  8
0
  6
Continuous
 62
     7
370
    25
100
AcDbLine
 10
2292.9454585654
 20
986.7543978663
 30
0.0
 11
2292.9454585654
 21
1416.7543978663
 31
0.0
  0
LINE
  5
90
330
1F
100
AcDbEntity
  8
0
  6
Continuous
 62
     7
370
    25
100
AcDbLine
 10
1846.9454585654
 20
1416.7543978663
 30
0.0
 11
1846.9454585654
 21
986.7543978663
 31
0.0
  0
LINE
  5
91
330
1F
100
AcDbEntity
  8
0
  6
Continuous
 62
     7
370
    25
100
AcDbLine
 10
1846.9454585654
 20
986.7543978663
 30
0.0
 11
2292.9454585654
 21
986.7543978663
 31
0.0
  0
LINE
  5
92
330
1F
100
AcDbEntity
  8
0
  6
Continuous
 62
     7
370
    25
100
AcDbLine
 10
3176.4454585654
 20
976.7543978663
 30
0.0
 11
3193.9454585654
 21
976.7543978663
 31
0.0
  0
LINE
  5
93
330
1F
100
AcDbEntity
  8
0
  6
Continuous
 62
     7
370
    25
100
AcDbLine
 10
3193.9454585654
 20
976.7543978663
 30
0.0
 11
3193.9454585654
 21
1398.2543978663
 31
0.0
  0
LINE
  5
94
330
1F
100
AcDbEntity
  8
0
  6
Continuous
 62
     7
370
    25
100
AcDbLine
 10
3176.4454585654
 20
986.7543978663
 30
0.0
 11
3176.4454585654
 21
976.7543978663
 31
0.0
  0
LINE
  5
95
330
1F
100
AcDbEntity
  8
0
  6
Continuous
 62
     7
370
    25
100
AcDbLine
 10
1862.9454585654
 20
976.7543978663
 30
0.0
 11
1862.9454585654
 21
986.7543978663
 31
0.0
  0
LINE
  5
96
330
1F
100
AcDbEntity
  8
0
  6
Continuous
 62
     7
370
    25
100
AcDbLine
 10
1845.4454585654
 20
1398.2543978663
 30
0.0
 11
1845.4454585654
 21
976.7543978663
 31
0.0
  0
LINE
  5
97
330
1F
100
AcDbEntity
  8
0
  6
Continuous
 62
     7
370
    25
100
AcDbLine
 10
1845.4454585654
 20
976.7543978663
 30
0.0
 11
1862.9454585654
 21
976.7543978663
 31
0.0
  0
LINE
  5
98
330
1F
100
AcDbEntity
  8
0
  6
Continuous
 62
     7
370
    25
100
AcDbLine
 10
2746.4454585654
 20
1271.9543978663
 30
0.0
 11
2742.4454585654
 21
1271.9543978663
 31
0.0
  0
LINE
  5
99
330
1F
100
AcDbEntity
  8
0
  6
Continuous
 62
     7
370
    25
100
AcDbLine
 10
2742.4454585654
 20
1283.9543978663
 30
0.0
 11
2746.4454585654
 21
1283.9543978663
 31
0.0
  0
LINE
  5
9A
330
1F
100
AcDbEntity
  8
0
  6
Continuous
 62
     7
370
    25
100
AcDbLine
 10
2746.4454585654
 20
1121.9543978663
 30
0.0
 11
2742.4454585654
 21
1121.9543978663
 31
0.0
  0
LINE
  5
9B
330
1F
100
AcDbEntity
  8
0
  6
Continuous
 62
     7
370
    25
100
AcDbLine
 10
2742.4454585654
 20
1133.9543978663
 30
0.0
 11
2746.4454585654
 21
1133.9543978663
 31
0.0
  0
LINE
  5
9C
330
1F
100
AcDbEntity
  8
0
  6
Continuous
 62
     7
370
    25
100
AcDbLine
 10
1846.9454585654
 20
1416.9543978663
 30
0.0
 11
1846.9454585654
 21
1417.0432491446
 31
0.0
  0
ARC
  5
9D
330
1F
100
AcDbEntity
  8
0
  6
Continuous
 62
     7
370
    25
100
AcDbCircle
 10
1847.1440746856
 20
1417.0418457066
 30
0.0
 40
0.1986210785921748
100
AcDbArc
 50
89.6007920654
 51
179.5951500239
  0
LINE
  5
9E
330
1F
100
AcDbEntity
  8
0
  6
Continuous
 62
     7
370
    25
100
AcDbLine
 10
1847.1454585654
 20
1417.2404619641
 30
0.0
 11
1847.1454585654
 21
1416.7543978663
 31
0.0
  0
SPLINE
  5
9F
330
1F
100
AcDbEntity
  8
0
  6
Continuous
 62
     7
370
    25
100
AcDbSpline
210
0.0
220
0.0
230
1.0
 70
     8
 71
     3
 72
    13
 73
     9
 74
     0
 42
0.00000001
 43
0.00000001
 40
0.0
 40
0.0
 40
0.0
 40
0.0
 40
0.0075029974113236
 40
0.3818974549655527
 40
0.6070018873266353
 40
0.7653769096340154
 40
0.8824605049805269
 40
0.9999999999999999
 40
0.9999999999999999
 40
0.9999999999999999
 40
0.9999999999999999
 10
1846.945458565371
 20
1416.954397866314
 30
0.0
 10
1846.945459520975
 20
1416.953959868419
 30
0.0
 10
1846.945508160588
 20
1416.931666074048
 30
0.0
 10
1846.951630265329
 20
1416.884781685835
 30
0.0
 10
1846.993646370803
 20
1416.818497248798
 30
0.0
 10
1847.042457172769
 20
1416.780235689625
 30
0.0
 10
1847.093187820084
 20
1416.75847991389
 30
0.0
 10
1847.128012427535
 20
1416.75576031034
 30
0.0
 10
1847.145458565371
 20
1416.754397866314
 30
0.0
  0
LINE
  5
A0
330
1F
100
AcDbEntity
  8
0
  6
Continuous
 62
     7
370
    25
100
AcDbLine
 10
1848.9454585654
 20
1416.7543978663
 30
0.0
 11
1848.9454585654
 21
1417.2404619641
 31
0.0
  0
LINE
  5
A1
330
1F
100
AcDbEntity
  8
0
  6
Continuous
 62
     7
370
    25
100
AcDbLine
 10
1848.9454585654
 20
1417.2404619641
 30
0.0
 11
1847.1454585654
 21
1417.2404619641
 31
0.0
  0
LINE
  5
A2
330
1F
100
AcDbEntity
  8
0
  6
Continuous
 62
     7
370
    25
100
AcDbLine
 10
1846.9454585654
 20
1417.0432491446
 30
0.0
 11
1846.9454585654
 21
1417.0543978663
 31
0.0
  0
LINE
  5
A3
330
1F
100
AcDbEntity
  8
0
  6
Continuous
 62
     7
370
    25
100
AcDbLine
 10
1848.9454585654
 20
1417.2404619641
 30
0.0
 11
1848.9454585654
 21
1417.2543978663
 31
0.0
  0
LINE
  5
A4
330
1F
100
AcDbEntity
  8
0
  6
Continuous
 62
     7
370
    25
100
AcDbLine
 10
1846.9454585654
 20
1416.7543978663
 30
0.0
 11
1846.9454585654
 21
1416.9543978663
 31
0.0
  0
LINE
  5
A5
330
1F
100
AcDbEntity
  8
0
  6
Continuous
 62
     7
370
    25
100
AcDbLine
 10
2296.4454585654
 20
1416.9543978663
 30
0.0
 11
2296.4454585654
 21
1417.0432491446
 31
0.0
  0
ARC
  5
A6
330
1F
100
AcDbEntity
  8
0
  6
Continuous
 62
     7
370
    25
100
AcDbCircle
 10
2296.6440746856
 20
1417.0418457066
 30
0.0
 40
0.1986210785930875
100
AcDbArc
 50
89.6007920655
 51
179.5951500237
  0
LINE
  5
A7
330
1F
100
AcDbEntity
  8
0
  6
Continuous
 62
     7
370
    25
100
AcDbLine
 10
2296.6454585654
 20
1417.2404619641
 30
0.0
 11
2296.6454585654
 21
1416.7543978663
 31
0.0
  0
SPLINE
  5
A8
330
1F
100
AcDbEntity
  8
0
  6
Continuous
 62
     7
370
    25
100
AcDbSpline
210
0.0
220
0.0
230
1.0
 70
     8
 71
     3
 72
    13
 73
     9
 74
     0
 42
0.00000001
 43
0.00000001
 40
0.0
 40
0.0
 40
0.0
 40
0.0
 40
0.0075029974113236
 40
0.3818974549655527
 40
0.6070018873266352
 40
0.7653769096340154
 40
0.8824605049805269
 40
0.9999999999999999
 40
0.9999999999999999
 40
0.9999999999999999
 40
0.9999999999999999
 10
2296.44545856537
 20
1416.954397866314
 30
0.0
 10
2296.445459520975
 20
1416.953959868419
 30
0.0
 10
2296.445508160589
 20
1416.93166607405
 30
0.0
 10
2296.451630265329
 20
1416.884781685834
 30
0.0
 10
2296.493646370803
 20
1416.818497248798
 30
0.0
 10
2296.542457172769
 20
1416.780235689625
 30
0.0
 10
2296.593187820085
 20
1416.75847991389
 30
0.0
 10
2296.628012427535
 20
1416.755760310341
 30
0.0
 10
2296.645458565371
 20
1416.754397866314
 30
0.0
  0
LINE
  5
A9
330
1F
100
AcDbEntity
  8
0
  6
Continuous
 62
     7
370
    25
100
AcDbLine
 10
2298.4454585654
 20
1417.2404619641
 30
0.0
 11
2296.6454585654
 21
1417.2404619641
 31
0.0
  0
LINE
  5
AA
330
1F
100
AcDbEntity
  8
0
  6
Continuous
 62
     7
370
    25
100
AcDbLine
 10
2298.4454585654
 20
1416.7543978663
 30
0.0
 11
2298.4454585654
 21
1417.2404619641
 31
0.0
  0
LINE
  5
AB
330
1F
100
AcDbEntity
  8
0
  6
Continuous
 62
     7
370
    25
100
AcDbLine
 10
2296.4454585654
 20
1417.0432491446
 30
0.0
 11
2296.4454585654
 21
1417.0543978663
 31
0.0
  0
LINE
  5
AC
330
1F
100
AcDbEntity
  8
0
  6
Continuous
 62
     7
370
    25
100
AcDbLine
 10
2298.4454585654
 20
1417.2404619641
 30
0.0
 11
2298.4454585654
 21
1417.2543978663
 31
0.0
  0
LINE
  5
AD
330
1F
100
AcDbEntity
  8
0
  6
Continuous
 62
     7
370
    25
100
AcDbLine
 10
2296.4454585654
 20
1416.7543978663
 30
0.0
 11
2296.4454585654
 21
1416.9543978663
 31
0.0
  0
LINE
  5
AE
330
1F
100
AcDbEntity
  8
0
  6
Continuous
 62
     7
370
    25
100
AcDbLine
 10
2290.9454585654
 20
1417.2404619641
 30
0.0
 11
1848.9454585654
 21
1417.2404619641
 31
0.0
  0
LINE
  5
AF
330
1F
100
AcDbEntity
  8
0
  6
Continuous
 62
     7
370
    25
100
AcDbLine
 10
2290.9454585654
 20
1417.2404619641
 30
0.0
 11
2290.9454585654
 21
1416.7543978663
 31
0.0
  0
LINE
  5
B0
330
1F
100
AcDbEntity
  8
0
  6
Continuous
 62
     7
370
    25
100
AcDbLine
 10
2290.9454585654
 20
1417.2543978663
 30
0.0
 11
2290.9454585654
 21
1417.2404619641
 31
0.0
  0
LINE
  5
B1
330
1F
100
AcDbEntity
  8
0
  6
Continuous
 62
     7
370
    25
100
AcDbLine
 10
2740.4454585654
 20
1417.2404619641
 30
0.0
 11
2298.4454585654
 21
1417.2404619641
 31
0.0
  0
LINE
  5
B2
330
1F
100
AcDbEntity
  8
0
  6
Continuous
 62
     7
370
    25
100
AcDbLine
 10
2740.4454585654
 20
1417.2404619641
 30
0.0
 11
2740.4454585654
 21
1416.7543978663
 31
0.0
  0
LINE
  5
B3
330
1F
100
AcDbEntity
  8
0
  6
Continuous
 62
     7
370
    25
100
AcDbLine
 10
2740.4454585654
 20
1417.2543978663
 30
0.0
 11
2740.4454585654
 21
1417.2404619641
 31
0.0
  0
LINE
  5
B4
330
1F
100
AcDbEntity
  8
0
  6
Continuous
 62
     7
370
    25
100
AcDbLine
 10
2742.4454585654
 20
1417.0432491446
 30
0.0
 11
2742.4454585654
 21
1416.9543978663
 31
0.0
  0
SPLINE
  5
B5
330
1F
100
AcDbEntity
  8
0
  6
Continuous
 62
     7
370
    25
100
AcDbSpline
210
0.0
220
0.0
230
1.0
 70
     8
 71
     3
 72
    13
 73
     9
 74
     0
 42
0.00000001
 43
0.00000001
 40
0.0
 40
0.0
 40
0.0
 40
0.0
 40
0.0075029974114387
 40
0.3818974549662866
 40
0.6070018873272978
 40
0.7653769096343249
 40
0.8824605049810137
 40
1.0
 40
1.0
 40
1.0
 40
1.0
 10
2742.445458565371
 20
1416.954397866315
 30
0.0
 10
2742.445457609766
 20
1416.953959868419
 30
0.0
 10
2742.445408970151
 20
1416.931666074049
 30
0.0
 10
2742.439286865413
 20
1416.884781685835
 30
0.0
 10
2742.397270759938
 20
1416.818497248798
 30
0.0
 10
2742.348459957972
 20
1416.780235689625
 30
0.0
 10
2742.297729310657
 20
1416.75847991389
 30
0.0
 10
2742.262904703207
 20
1416.755760310341
 30
0.0
 10
2742.24545856537
 20
1416.754397866314
 30
0.0
  0
LINE
  5
B6
330
1F
100
AcDbEntity
  8
0
  6
Continuous
 62
     7
370
    25
100
AcDbLine
 10
2742.2454585654
 20
1416.7543978663
 30
0.0
 11
2742.2454585654
 21
1417.2404619641
 31
0.0
  0
ARC
  5
B7
330
1F
100
AcDbEntity
  8
0
  6
Continuous
 62
     7
370
    25
100
AcDbCircle
 10
2742.2468424451
 20
1417.0418457066
 30
0.0
 40
0.1986210785930891
100
AcDbArc
 50
0.4048499763
 51
90.3992079347
  0
LINE
  5
B8
330
1F
100
AcDbEntity
  8
0
  6
Continuous
 62
     7
370
    25
100
AcDbLine
 10
2742.2454585654
 20
1417.2404619641
 30
0.0
 11
2740.4454585654
 21
1417.2404619641
 31
0.0
  0
LINE
  5
B9
330
1F
100
AcDbEntity
  8
0
  6
Continuous
 62
     7
370
    25
100
AcDbLine
 10
2742.4454585654
 20
1417.0543978663
 30
0.0
 11
2742.4454585654
 21
1417.0432491446
 31
0.0
  0
LINE
  5
BA
330
1F
100
AcDbEntity
  8
0
  6
Continuous
 62
     7
370
    25
100
AcDbLine
 10
2742.4454585654
 20
1416.9543978663
 30
0.0
 11
2742.4454585654
 21
1416.7543978663
 31
0.0
  0
LINE
  5
BB
330
1F
100
AcDbEntity
  8
0
  6
Continuous
 62
     7
370
    25
100
AcDbLine
 10
2292.9454585654
 20
1417.0432491446
 30
0.0
 11
2292.9454585654
 21
1416.9543978663
 31
0.0
  0
LINE
  5
BC
330
1F
100
AcDbEntity
  8
0
  6
Continuous
 62
     7
370
    25
100
AcDbLine
 10
2292.7454585654
 20
1416.7543978663
 30
0.0
 11
2292.7454585654
 21
1417.2404619641
 31
0.0
  0
ARC
  5
BD
330
1F
100
AcDbEntity
  8
0
  6
Continuous
 62
     7
370
    25
100
AcDbCircle
 10
2292.7468424451
 20
1417.0418457066
 30
0.0
 40
0.1986210785937227
100
AcDbArc
 50
0.4048499765
 51
90.3992079345
  0
SPLINE
  5
BE
330
1F
100
AcDbEntity
  8
0
  6
Continuous
 62
     7
370
    25
100
AcDbSpline
210
0.0
220
0.0
230
1.0
 70
     8
 71
     3
 72
    13
 73
     9
 74
     0
 42
0.00000001
 43
0.00000001
 40
0.0
 40
0.0
 40
0.0
 40
0.0
 40
0.0075029974114387
 40
0.3818974549662866
 40
0.6070018873272978
 40
0.7653769096343249
 40
0.8824605049810137
 40
1.0
 40
1.0
 40
1.0
 40
1.0
 10
2292.945458565371
 20
1416.954397866314
 30
0.0
 10
2292.945457609766
 20
1416.953959868419
 30
0.0
 10
2292.945408970152
 20
1416.931666074048
 30
0.0
 10
2292.939286865412
 20
1416.884781685835
 30
0.0
 10
2292.897270759938
 20
1416.818497248798
 30
0.0
 10
2292.848459957972
 20
1416.780235689625
 30
0.0
 10
2292.797729310657
 20
1416.75847991389
 30
0.0
 10
2292.762904703207
 20
1416.755760310341
 30
0.0
 10
2292.745458565371
 20
1416.754397866314
 30
0.0
  0
LINE
  5
BF
330
1F
100
AcDbEntity
  8
0
  6
Continuous
 62
     7
370
    25
100
AcDbLine
 10
2292.7454585654
 20
1417.2404619641
 30
0.0
 11
2290.9454585654
 21
1417.2404619641
 31
0.0
  0
LINE
  5
C0
330
1F
100
AcDbEntity
  8
0
  6
Continuous
 62
     7
370
    25
100
AcDbLine
 10
2292.9454585654
 20
1417.0543978663
 30
0.0
 11
2292.9454585654
 21
1417.0432491446
 31
0.0
  0
LINE
  5
C1
330
1F
100
AcDbEntity
  8
0
  6
Continuous
 62
     7
370
    25
100
AcDbLine
 10
2292.9454585654
 20
1416.9543978663
 30
0.0
 11
2292.9454585654
 21
1416.7543978663
 31
0.0
  0
LINE
  5
C2
330
1F
100
AcDbEntity
  8
0
  6
Continuous
 62
     7
370
    25
100
AcDbLine
 10
1847.1454585654
 20
1417.2543978663
 30
0.0
 11
1847.1454585654
 21
1417.2404619641
 31
0.0
  0
LINE
  5
C3
330
1F
100
AcDbEntity
  8
0
  6
Continuous
 62
     7
370
    25
100
AcDbLine
 10
2296.6454585654
 20
1417.2543978663
 30
0.0
 11
2296.6454585654
 21
1417.2404619641
 31
0.0
  0
LINE
  5
C4
330
1F
100
AcDbEntity
  8
0
  6
Continuous
 62
     7
370
    25
100
AcDbLine
 10
2742.2454585654
 20
1417.2404619641
 30
0.0
 11
2742.2454585654
 21
1417.2543978663
 31
0.0
  0
LINE
  5
C5
330
1F
100
AcDbEntity
  8
0
  6
Continuous
 62
     7
370
    25
100
AcDbLine
 10
2292.7454585654
 20
1417.2404619641
 30
0.0
 11
2292.7454585654
 21
1417.2543978663
 31
0.0
  0
LINE
  5
C6
330
1F
100
AcDbEntity
  8
0
  6
Continuous
 62
     7
370
    25
100
AcDbLine
 10
475.6515032166
 20
1329.2767567878
 30
0.0
 11
477.6292233787
 21
1329.2249683628
 31
0.0
  0
LINE
  5
C7
330
1F
100
AcDbEntity
  8
0
  6
Continuous
 62
     7
370
    25
100
AcDbLine
 10
477.6292233787
 20
1334.7268537215
 30
0.0
 11
475.7954764323
 21
1334.7748720752
 31
0.0
  0
ARC
  5
C8
330
1F
100
AcDbEntity
  8
0
  6
Continuous
 62
     7
370
    25
100
AcDbCircle
 10
475.6593563011
 20
1329.5766539853
 30
0.0
 40
0.3000000000000524
100
AcDbArc
 50
178.5
 51
268.5000000001
  0
ARC
  5
C9
330
1F
100
AcDbEntity
  8
0
  6
Continuous
 62
     7
370
    25
100
AcDbCircle
 10
475.7876233478
 20
1334.4749748777
 30
0.0
 40
0.3000000000001078
100
AcDbArc
 50
88.5000000001
 51
178.5
  0
ARC
  5
CA
330
1F
100
AcDbEntity
  8
0
  6
Continuous
 62
     7
370
    25
100
AcDbCircle
 10
474.149178326
 20
1357.8758832752
 30
0.0
 40
1.199999999999974
100
AcDbArc
 50
88.5000000001
 51
173.5000000033
  0
ARC
  5
CB
330
1F
100
AcDbEntity
  8
0
  6
Continuous
 62
     7
370
    25
100
AcDbCircle
 10
473.6884640358
 20
1340.2819143556
 30
0.0
 40
1.200000000000057
100
AcDbArc
 50
183.4999999968
 51
268.5000000001
  0
LINE
  5
CC
330
1F
100
AcDbEntity
  8
0
  6
Continuous
 62
     7
370
    25
100
AcDbLine
 10
474.9307814413
 20
1359.0558276283
 30
0.0
 11
474.1805906639
 21
1359.0754720652
 31
0.0
  0
LINE
  5
CD
330
1F
100
AcDbEntity
  8
0
  6
Continuous
 62
     7
370
    25
100
AcDbLine
 10
473.6570516978
 20
1339.0823255657
 30
0.0
 11
474.4072424751
 21
1339.0626811288
 31
0.0
  0
ARC
  5
CE
330
1F
100
AcDbEntity
  8
0
  6
Continuous
 62
     7
370
    25
100
AcDbCircle
 10
474.9255460516
 20
1358.8558961633
 30
0.0
 40
0.2000000000000704
100
AcDbArc
 50
358.5000000001
 51
88.5000000001
  0
ARC
  5
CF
330
1F
100
AcDbEntity
  8
0
  6
Continuous
 62
     7
370
    25
100
AcDbCircle
 10
474.4124778648
 20
1339.2626125938
 30
0.0
 40
0.2000000000000718
100
AcDbArc
 50
268.5000000001
 51
358.5000000001
  0
LINE
  5
D0
330
1F
100
AcDbEntity
  8
0
  6
Continuous
 62
     7
370
    25
100
AcDbLine
 10
472.9568920992
 20
1358.0117271316
 30
0.0
 11
472.7751043047
 21
1356.4161961367
 31
0.0
  0
LINE
  5
D1
330
1F
100
AcDbEntity
  8
0
  6
Continuous
 62
     7
370
    25
100
AcDbLine
 10
472.3926672574
 20
1341.8115145215
 30
0.0
 11
472.4907022777
 21
1340.2086561082
 31
0.0
  0
ARC
  5
D2
330
1F
100
AcDbEntity
  8
0
  6
Continuous
 62
     7
370
    25
100
AcDbCircle
 10
502.582259975
 20
1353.0200997237
 30
0.0
 40
30.00000000000201
100
AcDbArc
 50
173.5000000001
 51
178.5000000001
  0
ARC
  5
D3
330
1F
100
AcDbEntity
  8
0
  6
Continuous
 62
     7
370
    25
100
AcDbCircle
 10
502.33671121
 20
1343.6429707076
 30
0.0
 40
30.00000000000209
100
AcDbArc
 50
178.5000000001
 51
183.5000000001
  0
SPLINE
  5
D4
330
1F
100
AcDbEntity
  8
0
  6
Continuous
 62
     7
370
    25
100
AcDbSpline
210
0.0
220
0.0
230
1.0
 70
     8
 71
     3
 72
    11
 73
     7
 74
     0
 42
0.00000001
 43
0.00000001
 40
0.0
 40
0.0
 40
0.0
 40
0.0
 40
0.2706712709043615
 40
0.563212072800009
 40
0.7903891635244304
 40
1.0
 40
1.0
 40
1.0
 40
1.0
 10
475.4865683530594
 20
1353.539388477128
 30
0.0
 10
475.4152270988174
 20
1353.55026484241
 30
0.0
 10
475.2667804035196
 20
1353.572896354851
 30
0.0
 10
475.1018876864404
 20
1353.715140595838
 30
0.0
 10
475.0097743679726
 20
1353.88832717557
 30
0.0
 10
475.0031785439376
 20
1354.003907998131
 30
0.0
 10
475.0000132637016
 20
1354.059374258503
 30
0.0
  0
SPLINE
  5
D5
330
1F
100
AcDbEntity
  8
0
  6
Continuous
 62
     7
370
    25
100
AcDbSpline
210
0.0
220
0.0
230
1.0
 70
     8
 71
     3
 72
    11
 73
     7
 74
     0
 42
0.00000001
 43
0.00000001
 40
0.0
 40
0.0
 40
0.0
 40
0.0
 40
0.2695105035984033
 40
0.5617364405775076
 40
0.7894224931279109
 40
1.0
 40
1.0
 40
1.0
 40
1.0
 10
474.7378735826797
 20
1344.048663719287
 30
0.0
 10
474.7476781320606
 20
1344.119837570833
 30
0.0
 10
474.7681135978298
 20
1344.268184093496
 30
0.0
 10
474.9074349462618
 20
1344.435140957514
 30
0.0
 10
475.0794174078838
 20
1344.530232716838
 30
0.0
 10
475.1952975571261
 20
1344.538500186576
 30
0.0
 10
475.2509758182975
 20
1344.542472552354
 30
0.0
  0
LINE
  5
D6
330
1F
100
AcDbEntity
  8
0
  6
Continuous
 62
     7
370
    25
100
AcDbLine
 10
477.6292233787
 20
1353.4832810807
 30
0.0
 11
475.4865683531
 21
1353.5393884771
 31
0.0
  0
LINE
  5
D7
330
1F
100
AcDbEntity
  8
0
  6
Continuous
 62
     7
370
    25
100
AcDbLine
 10
475.2509758183
 20
1344.5424725523
 30
0.0
 11
477.6292233787
 21
1344.4801959483
 31
0.0
  0
LINE
  5
D8
330
1F
100
AcDbEntity
  8
0
  6
Continuous
 62
     7
370
    25
100
AcDbLine
 10
858.1292233787
 20
1416.7543978663
 30
0.0
 11
858.1292233787
 21
1405.4685407092
 31
0.0
  0
LINE
  5
D9
330
1F
100
AcDbEntity
  8
0
  6
Continuous
 62
     7
370
    25
100
AcDbLine
 10
871.1800533774
 20
1416.7543978663
 30
0.0
 11
858.1292233787
 21
1416.7543978663
 31
0.0
  0
LINE
  5
DA
330
1F
100
AcDbEntity
  8
0
  6
Continuous
 62
     7
370
    25
100
AcDbLine
 10
477.6292233787
 20
1426.7543978663
 30
0.0
 11
856.6292233787
 21
1426.7543978663
 31
0.0
  0
LINE
  5
DB
330
1F
100
AcDbEntity
  8
0
  6
Continuous
 62
     7
370
    25
100
AcDbLine
 10
856.6292233787
 20
1426.7543978663
 30
0.0
 11
856.6292233787
 21
1398.2543978663
 31
0.0
  0
LINE
  5
DC
330
1F
100
AcDbEntity
  8
0
  6
Continuous
 62
     7
370
    25
100
AcDbLine
 10
856.6292233787
 20
1398.2543978663
 30
0.0
 11
477.6292233787
 21
1398.2543978663
 31
0.0
  0
LINE
  5
DD
330
1F
100
AcDbEntity
  8
0
  6
Continuous
 62
     7
370
    25
100
AcDbLine
 10
477.6292233787
 20
1398.2543978663
 30
0.0
 11
477.6292233787
 21
1426.7543978663
 31
0.0
  0
LINE
  5
DE
330
1F
100
AcDbEntity
  8
0
  6
Continuous
 62
     7
370
    25
100
AcDbLine
 10
859.6292233787
 20
1403.7543978663
 30
0.0
 11
859.6292233787
 21
1383.2543978663
 31
0.0
  0
LINE
  5
DF
330
1F
100
AcDbEntity
  8
0
  6
Continuous
 62
     7
370
    25
100
AcDbLine
 10
872.1292233787
 20
1403.7543978663
 30
0.0
 11
859.6292233787
 21
1403.7543978663
 31
0.0
  0
LINE
  5
E0
330
1F
100
AcDbEntity
  8
0
  6
Continuous
 62
     7
370
    25
100
AcDbLine
 10
872.1292233787
 20
1416.7543978663
 30
0.0
 11
872.1292233787
 21
1403.7543978663
 31
0.0
  0
LINE
  5
E1
330
1F
100
AcDbEntity
  8
0
  6
Continuous
 62
     7
370
    25
100
AcDbLine
 10
876.1292233787
 20
1416.7543978663
 30
0.0
 11
872.1292233787
 21
1416.7543978663
 31
0.0
  0
LINE
  5
E2
330
1F
100
AcDbEntity
  8
0
  6
Continuous
 62
     7
370
    25
100
AcDbLine
 10
876.1292233787
 20
1416.7543978663
 30
0.0
 11
876.1292233787
 21
986.7543978663
 31
0.0
  0
LINE
  5
E3
330
1F
100
AcDbEntity
  8
0
  6
Continuous
 62
     7
370
    25
100
AcDbLine
 10
859.6292233787
 20
1383.2543978663
 30
0.0
 11
858.1292233787
 21
1383.2543978663
 31
0.0
  0
LINE
  5
E4
330
1F
100
AcDbEntity
  8
0
  6
Continuous
 62
     7
370
    25
100
AcDbLine
 10
876.1292233787
 20
986.7543978663
 30
0.0
 11
858.1292233787
 21
986.7543978663
 31
0.0
  0
LINE
  5
E5
330
1F
100
AcDbEntity
  8
0
  6
Continuous
 62
     7
370
    25
100
AcDbLine
 10
858.1292233787
 20
1383.2543978663
 30
0.0
 11
858.1292233787
 21
986.7543978663
 31
0.0
  0
LINE
  5
E6
330
1F
100
AcDbEntity
  8
0
  6
Continuous
 62
     7
370
    25
100
AcDbLine
 10
856.1292233787
 20
1398.2543978663
 30
0.0
 11
856.1292233787
 21
976.7543978663
 31
0.0
  0
LINE
  5
E7
330
1F
100
AcDbEntity
  8
0
  6
Continuous
 62
     7
370
    25
100
AcDbLine
 10
477.6292233787
 20
1398.2543978663
 30
0.0
 11
477.6292233787
 21
976.7543978663
 31
0.0
  0
LINE
  5
E8
330
1F
100
AcDbEntity
  8
0
  6
Continuous
 62
     7
370
    25
100
AcDbLine
 10
856.1292233787
 20
976.7543978663
 30
0.0
 11
477.6292233787
 21
976.7543978663
 31
0.0
  0
SPLINE
  5
E9
330
1F
100
AcDbEntity
  8
0
  6
Continuous
 62
     7
370
    25
100
AcDbSpline
210
0.0
220
0.0
230
1.0
 70
     8
 71
     3
 72
    11
 73
     7
 74
     0
 42
0.00000001
 43
0.00000001
 40
0.0
 40
0.0
 40
0.0
 40
0.0
 40
0.2382247349852549
 40
0.4921376904596989
 40
0.7460575595480469
 40
1.0
 40
1.0
 40
1.0
 40
1.0
 10
475.3597328978706
 20
1329.594962851255
 30
0.0
 10
475.360405282117
 20
1329.620640170771
 30
0.0
 10
475.3617943302784
 20
1329.673685782194
 30
0.0
 10
475.3753319284411
 20
1330.190665780916
 30
0.0
 10
475.3954325162069
 20
1330.958276326874
 30
0.0
 10
475.4118161664852
 20
1331.583942518898
 30
0.0
 10
475.4200083557008
 20
1331.896789518422
 30
0.0
  0
LINE
  5
EA
330
1F
100
AcDbEntity
  8
0
  6
Continuous
 62
     7
370
    25
100
AcDbLine
 10
475.4200083557
 20
1331.8967895184
 30
0.0
 11
475.4235926269
 21
1332.033667516
 31
0.0
  0
SPLINE
  5
EB
330
1F
100
AcDbEntity
  8
0
  6
Continuous
 62
     7
370
    25
100
AcDbSpline
210
0.0
220
0.0
230
1.0
 70
    24
 71
     3
 72
    12
 73
     8
 74
     0
 42
0.00000001
 43
0.00000001
 40
0.0
 40
0.0
 40
0.0
 40
0.0
 40
0.2460973337390388
 40
0.4921955654195442
 40
0.7383025770440296
 40
0.984416004048164
 40
1.0
 40
1.0
 40
1.0
 40
1.0
 10
475.4235926269495
 20
1332.033667515998
 30
0.0
 10
475.4318221039504
 20
1332.347938563496
 30
0.0
 10
475.4482810879793
 20
1332.97648180518
 30
0.0
 10
475.469597091089
 20
1333.790507122342
 30
0.0
 10
475.4831373538345
 20
1334.307588895091
 30
0.0
 10
475.4890568309176
 20
1334.533644604744
 30
0.0
 10
475.4875366005789
 20
1334.475589350331
 30
0.0
 10
475.4874460713594
 20
1334.472132178917
 30
0.0
  0
SPLINE
  5
EC
330
1F
100
AcDbEntity
  8
0
  6
Continuous
 62
     7
370
    25
100
AcDbSpline
210
0.0
220
0.0
230
1.0
 70
    24
 71
     3
 72
    13
 73
     9
 74
     0
 42
0.00000001
 43
0.00000001
 40
0.0
 40
0.0
 40
0.0
 40
0.0
 40
0.1538581583652799
 40
0.3079676862453938
 40
0.4535077802386522
 40
0.5878340078347418
 40
0.8177872163815785
 40
1.0
 40
1.0
 40
1.0
 40
1.0
 10
475.1252438281513
 20
1358.841736571926
 30
0.0
 10
475.1239243515079
 20
1358.791347791834
 30
0.0
 10
475.121283242494
 20
1358.690487907752
 30
0.0
 10
475.0990564570816
 20
1357.841681217697
 30
0.0
 10
475.0668884467854
 20
1356.613234465781
 30
0.0
 10
475.0176255151973
 20
1354.731959007909
 30
0.0
 10
474.9518061864578
 20
1352.21842025128
 30
0.0
 10
474.8970811233108
 20
1350.128554404691
 30
0.0
 10
474.8728879431863
 20
1349.204654130203
 30
0.0
  0
SPLINE
  5
ED
330
1F
100
AcDbEntity
  8
0
  6
Continuous
 62
     7
370
    25
100
AcDbSpline
210
0.0
220
0.0
230
1.0
 70
    24
 71
     3
 72
    13
 73
     9
 74
     0
 42
0.00000001
 43
0.00000001
 40
0.0
 40
0.0
 40
0.0
 40
0.0
 40
0.181320153790891
 40
0.4101468448381275
 40
0.5438150184965682
 40
0.688642123887618
 40
0.8419966874127123
 40
1.0
 40
1.0
 40
1.0
 40
1.0
 10
474.8689434231904
 20
1349.05401898889
 30
0.0
 10
474.8447165495476
 20
1348.128832010848
 30
0.0
 10
474.7899152735882
 20
1346.03605571436
 30
0.0
 10
474.7235550425657
 20
1343.501860732923
 30
0.0
 10
474.6735840260127
 20
1341.593544601181
 30
0.0
 10
474.6406619372972
 20
1340.336300756249
 30
0.0
 10
474.6173797785708
 20
1339.447190985343
 30
0.0
 10
474.6140875851619
 20
1339.321467191345
 30
0.0
 10
474.6124169113033
 20
1339.257666730695
 30
0.0
  0
LINE
  5
EE
330
1F
100
AcDbEntity
  8
0
  6
Continuous
 62
     7
370
    25
100
AcDbLine
 10
472.3469914608
 20
1344.4282791568
 30
0.0
 11
472.5925402257
 21
1353.8054081729
 31
0.0
  0
SPLINE
  5
EF
330
1F
100
AcDbEntity
  8
0
  6
Continuous
 62
     7
370
    25
100
AcDbSpline
210
0.0
220
0.0
230
1.0
 70
     8
 71
     3
 72
    11
 73
     7
 74
     0
 42
0.00000001
 43
0.00000001
 40
0.0
 40
0.0
 40
0.0
 40
0.0
 40
0.2702619356875521
 40
0.5624305486173098
 40
0.7897374073711154
 40
1.0
 40
1.0
 40
1.0
 40
1.0
 10
475.364902467923
 20
1348.893155774586
 30
0.0
 10
475.2940652736353
 20
1348.894721041429
 30
0.0
 10
475.1466490200502
 20
1348.897978451272
 30
0.0
 10
474.9788778048939
 20
1348.897927095683
 30
0.0
 10
474.8811543747942
 20
1348.894958610163
 30
0.0
 10
474.870002555233
 20
1348.891490841407
 30
0.0
 10
474.8646438390657
 20
1348.889824495535
 30
0.0
  0
ARC
  5
F0
330
1F
100
AcDbEntity
  8
0
  6
Continuous
 62
     7
370
    25
100
AcDbCircle
 10
858.8292233787
 20
1404.7543978663
 30
0.0
 40
0.8000000000001819
100
AcDbArc
 50
90.0
 51
180.0
  0
LINE
  5
F1
330
1F
100
AcDbEntity
  8
0
  6
Continuous
 62
     7
370
    25
100
AcDbLine
 10
857.8292233787
 20
1404.7543978663
 30
0.0
 11
858.0292233787
 21
1404.7543978663
 31
0.0
  0
ARC
  5
F2
330
1F
100
AcDbEntity
  8
0
  6
Continuous
 62
     7
370
    25
100
AcDbCircle
 10
858.8292233787
 20
1404.7543978663
 30
0.0
 40
1.000000000000227
100
AcDbArc
 50
90.0
 51
180.0
  0
LINE
  5
F3
330
1F
100
AcDbEntity
  8
0
  6
Continuous
 62
     7
370
    25
100
AcDbLine
 10
858.8292233787
 20
1405.5543978663
 30
0.0
 11
858.8292233787
 21
1405.7543978663
 31
0.0
  0
LINE
  5
F4
330
1F
100
AcDbEntity
  8
0
  6
Continuous
 62
     7
370
    25
100
AcDbLine
 10
857.8292233787
 20
1383.9543978663
 30
0.0
 11
857.8292233787
 21
1404.7543978663
 31
0.0
  0
LINE
  5
F5
330
1F
100
AcDbEntity
  8
0
  6
Continuous
 62
     7
370
    25
100
AcDbLine
 10
858.0292233787
 20
1404.7543978663
 30
0.0
 11
858.0292233787
 21
1383.9543978663
 31
0.0
  0
LINE
  5
F6
330
1F
100
AcDbEntity
  8
0
  6
Continuous
 62
     7
370
    25
100
AcDbLine
 10
857.8292233787
 20
1383.9543978663
 30
0.0
 11
858.0292233787
 21
1383.9543978663
 31
0.0
  0
LINE
  5
F7
330
1F
100
AcDbEntity
  8
0
  6
Continuous
 62
     7
370
    25
100
AcDbLine
 10
869.2124096087
 20
1405.5543978663
 30
0.0
 11
858.8292233787
 21
1405.5543978663
 31
0.0
  0
LINE
  5
F8
330
1F
100
AcDbEntity
  8
0
  6
Continuous
 62
     7
370
    25
100
AcDbLine
 10
858.8292233787
 20
1405.7543978663
 30
0.0
 11
869.2124096087
 21
1405.7543978663
 31
0.0
  0
LINE
  5
F9
330
1F
100
AcDbEntity
  8
0
  6
Continuous
 62
     7
370
    25
100
AcDbLine
 10
869.2124096087
 20
1405.5543978663
 30
0.0
 11
869.2124096087
 21
1405.7543978663
 31
0.0
  0
LINE
  5
FA
330
1F
100
AcDbEntity
  8
0
  6
Continuous
 62
     7
370
    25
100
AcDbLine
 10
859.6292233787
 20
1403.7543978663
 30
0.0
 11
859.4292233787
 21
1403.9543978663
 31
0.0
  0
LINE
  5
FB
330
1F
100
AcDbEntity
  8
0
  6
Continuous
 62
     7
370
    25
100
AcDbLine
 10
859.4292233787
 20
1403.9543978663
 30
0.0
 11
871.9292233787
 21
1403.9543978663
 31
0.0
  0
LINE
  5
FC
330
1F
100
AcDbEntity
  8
0
  6
Continuous
 62
     7
370
    25
100
AcDbLine
 10
872.1292233787
 20
1403.7543978663
 30
0.0
 11
871.9292233787
 21
1403.9543978663
 31
0.0
  0
LINE
  5
FD
330
1F
100
AcDbEntity
  8
0
  6
Continuous
 62
     7
370
    25
100
AcDbLine
 10
859.6292233787
 20
1383.7543978663
 30
0.0
 11
859.4292233787
 21
1383.9543978663
 31
0.0
  0
LINE
  5
FE
330
1F
100
AcDbEntity
  8
0
  6
Continuous
 62
     7
370
    25
100
AcDbLine
 10
859.4292233787
 20
1383.9543978663
 30
0.0
 11
859.4292233787
 21
1403.9543978663
 31
0.0
  0
LINE
  5
FF
330
1F
100
AcDbEntity
  8
0
  6
Continuous
 62
     7
370
    25
100
AcDbLine
 10
858.0292233787
 20
1383.7543978663
 30
0.0
 11
858.0292233787
 21
1383.9543978663
 31
0.0
  0
ARC
  5
100
330
1F
100
AcDbEntity
  8
0
  6
Continuous
 62
     7
370
    25
100
AcDbCircle
 10
858.0292233787
 20
1383.9543978663
 30
0.0
 40
0.1999999999999318
100
AcDbArc
 50
180.0
 51
270.0
  0
LINE
  5
101
330
1F
100
AcDbEntity
  8
0
  6
Continuous
 62
     7
370
    25
100
AcDbLine
 10
859.6292233787
 20
1383.7543978663
 30
0.0
 11
858.0292233787
 21
1383.7543978663
 31
0.0
  0
LINE
  5
102
330
1F
100
AcDbEntity
  8
0
  6
Continuous
 62
     7
370
    25
100
AcDbLine
 10
858.0292233787
 20
1383.9543978663
 30
0.0
 11
859.4292233787
 21
1383.9543978663
 31
0.0
  0
ARC
  5
103
330
1F
100
AcDbEntity
  8
0
  6
Continuous
 62
     7
370
    25
100
AcDbCircle
 10
869.2124096087
 20
1406.7543978663
 30
0.0
 40
1.200000000000074
100
AcDbArc
 50
270.0
 51
355.0300534053
  0
LINE
  5
104
330
1F
100
AcDbEntity
  8
0
  6
Continuous
 62
     7
370
    25
100
AcDbLine
 10
871.2490865597
 20
1416.323704423
 30
0.0
 11
870.407897941
 21
1406.6504380312
 31
0.0
  0
ARC
  5
105
330
1F
100
AcDbEntity
  8
0
  6
Continuous
 62
     7
370
    25
100
AcDbCircle
 10
872.0460787812
 20
1416.2543978663
 30
0.0
 40
0.8000000000000936
100
AcDbArc
 50
80.4234115189
 51
175.0300534053
  0
ARC
  5
106
330
1F
100
AcDbEntity
  8
0
  6
Continuous
 62
     7
370
    25
100
AcDbCircle
 10
872.1292617046
 20
1416.7474299152
 30
0.0
 40
0.3000000000000862
100
AcDbArc
 50
43.6216529673
 51
80.4234115189
  0
LINE
  5
107
330
1F
100
AcDbEntity
  8
0
  6
Continuous
 62
     7
370
    25
100
AcDbLine
 10
871.9292233787
 20
1416.9543978663
 30
0.0
 11
872.3464350621
 21
1416.9543978663
 31
0.0
  0
LINE
  5
108
330
1F
100
AcDbEntity
  8
0
  6
Continuous
 62
     7
370
    25
100
AcDbLine
 10
871.9292233787
 20
1403.9543978663
 30
0.0
 11
871.9292233787
 21
1416.9543978663
 31
0.0
  0
LINE
  5
109
330
1F
100
AcDbEntity
  8
0
  6
Continuous
 62
     7
370
    25
100
AcDbLine
 10
870.407897941
 20
1406.6504380312
 30
0.0
 11
870.2086498856
 21
1406.6677646704
 31
0.0
  0
LINE
  5
10A
330
1F
100
AcDbEntity
  8
0
  6
Continuous
 62
     7
370
    25
100
AcDbLine
 10
870.2086498856
 20
1406.6677646704
 30
0.0
 11
871.0498385043
 21
1416.3410310622
 31
0.0
  0
LINE
  5
10B
330
1F
100
AcDbEntity
  8
0
  6
Continuous
 62
     7
370
    25
100
AcDbLine
 10
871.2490865597
 20
1416.323704423
 30
0.0
 11
871.0498385043
 21
1416.3410310622
 31
0.0
  0
ARC
  5
10C
330
1F
100
AcDbEntity
  8
0
  6
Continuous
 62
     7
370
    25
100
AcDbCircle
 10
869.2124096087
 20
1406.7543978663
 30
0.0
 40
1.000000000000084
100
AcDbArc
 50
270.0
 51
355.0300534053
  0
ARC
  5
10D
330
1F
100
AcDbEntity
  8
0
  6
Continuous
 62
     7
370
    25
100
AcDbCircle
 10
872.0460787812
 20
1416.2543978663
 30
0.0
 40
1.000000000000084
100
AcDbArc
 50
80.4234115189
 51
175.0300534053
  0
LINE
  5
10E
330
1F
100
AcDbEntity
  8
0
  6
Continuous
 62
     7
370
    25
100
AcDbLine
 10
872.1791714587
 20
1417.0432491446
 30
0.0
 11
872.212444628
 21
1417.2404619641
 31
0.0
  0
LINE
  5
10F
330
1F
100
AcDbEntity
  8
0
  6
Continuous
 62
     7
370
    25
100
AcDbLine
 10
872.1292233787
 20
1416.7543978663
 30
0.0
 11
871.9292233787
 21
1416.9543978663
 31
0.0
  0
SPLINE
  5
110
330
1F
100
AcDbEntity
  8
0
  6
Continuous
 62
     7
370
    25
100
AcDbSpline
210
0.0
220
0.0
230
1.0
 70
     8
 71
     3
 72
    13
 73
     9
 74
     0
 42
0.00000001
 43
0.00000001
 40
0.0
 40
0.0
 40
0.0
 40
0.0
 40
0.0075029974113236
 40
0.3818974549655527
 40
0.6070018873266353
 40
0.7653769096340154
 40
0.8824605049805269
 40
0.9999999999999999
 40
0.9999999999999999
 40
0.9999999999999999
 40
0.9999999999999999
 10
872.3464350621468
 20
1416.954397866314
 30
0.0
 10
872.3474528387627
 20
1416.953959868419
 30
0.0
 10
872.3992569749017
 20
1416.931666074048
 30
0.0
 10
872.477842340269
 20
1416.884781685835
 30
0.0
 10
872.5604818043015
 20
1416.818497248798
 30
0.0
 10
872.6025779224
 20
1416.780235689625
 30
0.0
 10
872.6251013492357
 20
1416.75847991389
 30
0.0
 10
872.6278407753496
 20
1416.75576031034
 30
0.0
 10
872.629213149917
 20
1416.754397866314
 30
0.0
  0
ARC
  5
111
330
1F
100
AcDbEntity
  8
0
  6
Continuous
 62
     7
370
    25
100
AcDbCircle
 10
872.1292617046
 20
1416.7474299152
 30
0.0
 40
0.5000000000000755
100
AcDbArc
 50
0.7984942261
 51
80.4234115189
  0
LINE
  5
112
330
1F
100
AcDbEntity
  8
0
  6
Continuous
 62
     7
370
    25
100
AcDbLine
 10
856.9292233787
 20
1384.0543978663
 30
0.0
 11
856.9292233787
 21
1385.2543978663
 31
0.0
  0
LINE
  5
113
330
1F
100
AcDbEntity
  8
0
  6
Continuous
 62
     7
370
    25
100
AcDbLine
 10
856.1292233787
 20
1384.0543978663
 30
0.0
 11
856.9292233787
 21
1384.0543978663
 31
0.0
  0
LINE
  5
114
330
1F
100
AcDbEntity
  8
0
  6
Continuous
 62
     7
370
    25
100
AcDbLine
 10
856.1292233787
 20
1385.2543978663
 30
0.0
 11
856.9292233787
 21
1385.2543978663
 31
0.0
  0
LINE
  5
115
330
1F
100
AcDbEntity
  8
0
  6
Continuous
 62
     7
370
    25
100
AcDbLine
 10
856.9292233787
 20
1384.0543978663
 30
0.0
 11
857.8292233787
 21
1384.0543978663
 31
0.0
  0
LINE
  5
116
330
1F
100
AcDbEntity
  8
0
  6
Continuous
 62
     7
370
    25
100
AcDbLine
 10
856.9292233787
 20
1385.2543978663
 30
0.0
 11
857.8292233787
 21
1385.2543978663
 31
0.0
  0
LINE
  5
117
330
1F
100
AcDbEntity
  8
0
  6
Continuous
 62
     7
370
    25
100
AcDbLine
 10
856.9292233787
 20
1366.2543978663
 30
0.0
 11
858.1292233787
 21
1366.2543978663
 31
0.0
  0
LINE
  5
118
330
1F
100
AcDbEntity
  8
0
  6
Continuous
 62
     7
370
    25
100
AcDbLine
 10
856.9292233787
 20
1365.2510784443
 30
0.0
 11
856.9292233787
 21
1366.2543978663
 31
0.0
  0
LINE
  5
119
330
1F
100
AcDbEntity
  8
0
  6
Continuous
 62
     7
370
    25
100
AcDbLine
 10
858.1292233787
 20
1383.2543978663
 30
0.0
 11
858.1292233787
 21
1383.7543978663
 31
0.0
  0
LINE
  5
11A
330
1F
100
AcDbEntity
  8
0
  6
Continuous
 62
     7
370
    25
100
AcDbLine
 10
856.9292233787
 20
1366.2543978663
 30
0.0
 11
856.9292233787
 21
1384.0543978663
 31
0.0
  0
LINE
  5
11B
330
1F
100
AcDbEntity
  8
0
  6
Continuous
 62
     7
370
    25
100
AcDbLine
 10
857.6292233787
 20
1345.7103560054
 30
0.0
 11
858.1292233787
 21
1345.7103560054
 31
0.0
  0
LINE
  5
11C
330
1F
100
AcDbEntity
  8
0
  6
Continuous
 62
     7
370
    25
100
AcDbLine
 10
857.6292233787
 20
1344.1543978661
 30
0.0
 11
858.1292233787
 21
1344.1543978661
 31
0.0
  0
LINE
  5
11D
330
1F
100
AcDbEntity
  8
0
  6
Continuous
 62
     7
370
    25
100
AcDbLine
 10
857.6292233787
 20
1344.1543978661
 30
0.0
 11
857.6292233787
 21
1345.7103560054
 31
0.0
  0
LINE
  5
11E
330
1F
100
AcDbEntity
  8
0
  6
Continuous
 62
     7
370
    25
100
AcDbLine
 10
858.1292233787
 20
1327.7984397272
 30
0.0
 11
857.6292233787
 21
1327.7984397272
 31
0.0
  0
LINE
  5
11F
330
1F
100
AcDbEntity
  8
0
  6
Continuous
 62
     7
370
    25
100
AcDbLine
 10
857.6292233787
 20
1327.7984397272
 30
0.0
 11
857.6292233787
 21
1329.3543978665
 31
0.0
  0
LINE
  5
120
330
1F
100
AcDbEntity
  8
0
  6
Continuous
 62
     7
370
    25
100
AcDbLine
 10
858.1292233787
 20
1329.3543978665
 30
0.0
 11
857.6292233787
 21
1329.3543978665
 31
0.0
  0
LINE
  5
121
330
1F
100
AcDbEntity
  8
0
  6
Continuous
 62
     7
370
    25
100
AcDbLine
 10
857.9292233787
 20
1355.1459720241
 30
0.0
 11
857.6292233787
 21
1355.1459720241
 31
0.0
  0
LINE
  5
122
330
1F
100
AcDbEntity
  8
0
  6
Continuous
 62
     7
370
    25
100
AcDbLine
 10
858.1292233787
 20
1355.1459720241
 30
0.0
 11
857.9292233787
 21
1355.1459720241
 31
0.0
  0
LINE
  5
123
330
1F
100
AcDbEntity
  8
0
  6
Continuous
 62
     7
370
    25
100
AcDbLine
 10
857.6292233787
 20
1355.1459720241
 30
0.0
 11
857.6292233787
 21
1345.7103560054
 31
0.0
  0
LINE
  5
124
330
1F
100
AcDbEntity
  8
0
  6
Continuous
 62
     7
370
    25
100
AcDbLine
 10
857.9292233787
 20
1318.3628237086
 30
0.0
 11
858.1292233787
 21
1318.3628237086
 31
0.0
  0
LINE
  5
125
330
1F
100
AcDbEntity
  8
0
  6
Continuous
 62
     7
370
    25
100
AcDbLine
 10
857.6292233787
 20
1318.3628237086
 30
0.0
 11
857.9292233787
 21
1318.3628237086
 31
0.0
  0
LINE
  5
126
330
1F
100
AcDbEntity
  8
0
  6
Continuous
 62
     7
370
    25
100
AcDbLine
 10
857.6292233787
 20
1327.7984397272
 30
0.0
 11
857.6292233787
 21
1318.3628237086
 31
0.0
  0
SPLINE
  5
127
330
1F
100
AcDbEntity
  8
0
  6
Continuous
 62
     7
370
    25
100
AcDbSpline
210
0.0
220
0.0
230
1.0
 70
    24
 71
     3
 72
    12
 73
     8
 74
     0
 42
0.00000001
 43
0.00000001
 40
0.0
 40
0.0
 40
0.0
 40
0.0
 40
0.1234882189587111
 40
0.3047574776051731
 40
0.4857888495146823
 40
0.6670582153987675
 40
1.0
 40
1.0
 40
1.0
 40
1.0
 10
856.1292233786888
 20
1365.254397866311
 30
0.0
 10
856.1689699477242
 20
1365.254397866311
 30
0.0
 10
856.2670607957816
 20
1365.254397866311
 30
0.0
 10
856.5070340841404
 20
1365.254397866311
 30
0.0
 10
856.8226482726351
 20
1365.254397866311
 30
0.0
 10
857.2895583617345
 20
1365.254397866311
 30
0.0
 10
857.6778269619715
 20
1365.254397866313
 30
0.0
 10
857.9292233786878
 20
1365.254397866314
 30
0.0
  0
LINE
  5
128
330
1F
100
AcDbEntity
  8
0
  6
Continuous
 62
     7
370
    25
100
AcDbLine
 10
857.9292233787
 20
1364.2543978663
 30
0.0
 11
857.9292233787
 21
1365.2543978663
 31
0.0
  0
SPLINE
  5
129
330
1F
100
AcDbEntity
  8
0
  6
Continuous
 62
     7
370
    25
100
AcDbSpline
210
0.0
220
0.0
230
1.0
 70
    24
 71
     3
 72
    12
 73
     8
 74
     0
 42
0.00000001
 43
0.00000001
 40
0.0
 40
0.0
 40
0.0
 40
0.0
 40
0.3329369653751116
 40
0.5139656098141807
 40
0.6952322446462782
 40
0.8762609961873188
 40
1.0
 40
1.0
 40
1.0
 40
1.0
 10
857.9292233786939
 20
1308.254397866315
 30
0.0
 10
857.6778259655516
 20
1308.254397866314
 30
0.0
 10
857.2897356115536
 20
1308.254397866312
 30
0.0
 10
856.8228063418787
 20
1308.254397866312
 30
0.0
 10
856.5072874528573
 20
1308.254397866312
 30
0.0
 10
856.2671632343413
 20
1308.254397866312
 30
0.0
 10
856.1690559833313
 20
1308.254397866312
 30
0.0
 10
856.1292233786888
 20
1308.254397866312
 30
0.0
  0
LINE
  5
12A
330
1F
100
AcDbEntity
  8
0
  6
Continuous
 62
     7
370
    25
100
AcDbLine
 10
857.9292233787
 20
1309.2543978663
 30
0.0
 11
857.9292233787
 21
1308.2543978663
 31
0.0
  0
SPLINE
  5
12B
330
1F
100
AcDbEntity
  8
0
  6
Continuous
 62
     7
370
    25
100
AcDbSpline
210
0.0
220
0.0
230
1.0
 70
     8
 71
     3
 72
    10
 73
     6
 74
     0
 42
0.00000001
 43
0.00000001
 40
0.0
 40
0.0
 40
0.0
 40
0.0
 40
0.0371311943325323
 40
0.548662819554232
 40
0.9999999999999999
 40
0.9999999999999999
 40
0.9999999999999999
 40
0.9999999999999999
 10
856.1292233786888
 20
1347.000162206481
 30
0.0
 10
856.1348462309011
 20
1346.993443859056
 30
0.0
 10
856.2179313566068
 20
1346.894171333436
 30
0.0
 10
856.4394873291894
 20
1346.793742420243
 30
0.0
 10
856.6707982184354
 20
1346.766954495413
 30
0.0
 10
856.7792233786902
 20
1346.754397866315
 30
0.0
  0
LINE
  5
12C
330
1F
100
AcDbEntity
  8
0
  6
Continuous
 62
     7
370
    25
100
AcDbLine
 10
857.9292233787
 20
1364.2543978663
 30
0.0
 11
857.9292233787
 21
1355.1459720241
 31
0.0
  0
LINE
  5
12D
330
1F
100
AcDbEntity
  8
0
  6
Continuous
 62
     7
370
    25
100
AcDbLine
 10
857.6292233787
 20
1346.7543978663
 30
0.0
 11
856.7792233787
 21
1346.7543978663
 31
0.0
  0
LINE
  5
12E
330
1F
100
AcDbEntity
  8
0
  6
Continuous
 62
     7
370
    25
100
AcDbLine
 10
858.1292233787
 20
1364.2543978663
 30
0.0
 11
857.9292233787
 21
1364.2543978663
 31
0.0
  0
SPLINE
  5
12F
330
1F
100
AcDbEntity
  8
0
  6
Continuous
 62
     7
370
    25
100
AcDbSpline
210
0.0
220
0.0
230
1.0
 70
     8
 71
     3
 72
     9
 73
     5
 74
     0
 42
0.00000001
 43
0.00000001
 40
0.0
 40
0.0
 40
0.0
 40
0.0
 40
0.5050081268961819
 40
1.0
 40
1.0
 40
1.0
 40
1.0
 10
856.779223378692
 20
1326.754397866314
 30
0.0
 10
856.6559271068244
 20
1326.74217800693
 30
0.0
 10
856.4117800024495
 20
1326.717980654981
 30
0.0
 10
856.2227778888966
 20
1326.580904581719
 30
0.0
 10
856.1292233786888
 20
1326.513053039458
 30
0.0
  0
LINE
  5
130
330
1F
100
AcDbEntity
  8
0
  6
Continuous
 62
     7
370
    25
100
AcDbLine
 10
857.9292233787
 20
1318.3628237086
 30
0.0
 11
857.9292233787
 21
1309.2543978663
 31
0.0
  0
LINE
  5
131
330
1F
100
AcDbEntity
  8
0
  6
Continuous
 62
     7
370
    25
100
AcDbLine
 10
856.7792233787
 20
1326.7543978663
 30
0.0
 11
857.6292233787
 21
1326.7543978663
 31
0.0
  0
LINE
  5
132
330
1F
100
AcDbEntity
  8
0
  6
Continuous
 62
     7
370
    25
100
AcDbLine
 10
858.1292233787
 20
1309.2543978663
 30
0.0
 11
857.9292233787
 21
1309.2543978663
 31
0.0
  0
LINE
  5
133
330
1F
100
AcDbEntity
  8
0
  6
Continuous
 62
     7
370
    25
100
AcDbLine
 10
858.1292233787
 20
1365.2543978663
 30
0.0
 11
857.9292233787
 21
1365.2543978663
 31
0.0
  0
LINE
  5
134
330
1F
100
AcDbEntity
  8
0
  6
Continuous
 62
     7
370
    25
100
AcDbLine
 10
858.1292233787
 20
1308.2543978663
 30
0.0
 11
857.9292233787
 21
1308.2543978663
 31
0.0
  0
LINE
  5
135
330
1F
100
AcDbEntity
  8
0
  6
Continuous
 62
     7
370
    25
100
AcDbLine
 10
857.6292233787
 20
1075.7103560054
 30
0.0
 11
858.1292233787
 21
1075.7103560054
 31
0.0
  0
LINE
  5
136
330
1F
100
AcDbEntity
  8
0
  6
Continuous
 62
     7
370
    25
100
AcDbLine
 10
857.6292233787
 20
1074.1543978661
 30
0.0
 11
858.1292233787
 21
1074.1543978661
 31
0.0
  0
LINE
  5
137
330
1F
100
AcDbEntity
  8
0
  6
Continuous
 62
     7
370
    25
100
AcDbLine
 10
857.6292233787
 20
1074.1543978661
 30
0.0
 11
857.6292233787
 21
1075.7103560054
 31
0.0
  0
LINE
  5
138
330
1F
100
AcDbEntity
  8
0
  6
Continuous
 62
     7
370
    25
100
AcDbLine
 10
858.1292233787
 20
1057.7984397272
 30
0.0
 11
857.6292233787
 21
1057.7984397272
 31
0.0
  0
LINE
  5
139
330
1F
100
AcDbEntity
  8
0
  6
Continuous
 62
     7
370
    25
100
AcDbLine
 10
857.6292233787
 20
1057.7984397272
 30
0.0
 11
857.6292233787
 21
1059.3543978665
 31
0.0
  0
LINE
  5
13A
330
1F
100
AcDbEntity
  8
0
  6
Continuous
 62
     7
370
    25
100
AcDbLine
 10
858.1292233787
 20
1059.3543978665
 30
0.0
 11
857.6292233787
 21
1059.3543978665
 31
0.0
  0
LINE
  5
13B
330
1F
100
AcDbEntity
  8
0
  6
Continuous
 62
     7
370
    25
100
AcDbLine
 10
857.9292233787
 20
1085.1459720241
 30
0.0
 11
857.6292233787
 21
1085.1459720241
 31
0.0
  0
LINE
  5
13C
330
1F
100
AcDbEntity
  8
0
  6
Continuous
 62
     7
370
    25
100
AcDbLine
 10
858.1292233787
 20
1085.1459720241
 30
0.0
 11
857.9292233787
 21
1085.1459720241
 31
0.0
  0
LINE
  5
13D
330
1F
100
AcDbEntity
  8
0
  6
Continuous
 62
     7
370
    25
100
AcDbLine
 10
857.6292233787
 20
1085.1459720241
 30
0.0
 11
857.6292233787
 21
1075.7103560054
 31
0.0
  0
LINE
  5
13E
330
1F
100
AcDbEntity
  8
0
  6
Continuous
 62
     7
370
    25
100
AcDbLine
 10
857.9292233787
 20
1048.3628237086
 30
0.0
 11
858.1292233787
 21
1048.3628237086
 31
0.0
  0
LINE
  5
13F
330
1F
100
AcDbEntity
  8
0
  6
Continuous
 62
     7
370
    25
100
AcDbLine
 10
857.6292233787
 20
1048.3628237086
 30
0.0
 11
857.9292233787
 21
1048.3628237086
 31
0.0
  0
LINE
  5
140
330
1F
100
AcDbEntity
  8
0
  6
Continuous
 62
     7
370
    25
100
AcDbLine
 10
857.6292233787
 20
1057.7984397272
 30
0.0
 11
857.6292233787
 21
1048.3628237086
 31
0.0
  0
SPLINE
  5
141
330
1F
100
AcDbEntity
  8
0
  6
Continuous
 62
     7
370
    25
100
AcDbSpline
210
0.0
220
0.0
230
1.0
 70
    24
 71
     3
 72
    12
 73
     8
 74
     0
 42
0.00000001
 43
0.00000001
 40
0.0
 40
0.0
 40
0.0
 40
0.0
 40
0.1234882189588789
 40
0.3047574776053219
 40
0.4857888495147785
 40
0.6670582153988305
 40
1.0
 40
1.0
 40
1.0
 40
1.0
 10
856.1292233786888
 20
1095.254397866311
 30
0.0
 10
856.1689699477243
 20
1095.254397866311
 30
0.0
 10
856.2670607957816
 20
1095.254397866311
 30
0.0
 10
856.5070340841407
 20
1095.254397866311
 30
0.0
 10
856.8226482726351
 20
1095.254397866311
 30
0.0
 10
857.289558361735
 20
1095.254397866311
 30
0.0
 10
857.6778269619717
 20
1095.254397866313
 30
0.0
 10
857.9292233786879
 20
1095.254397866314
 30
0.0
  0
LINE
  5
142
330
1F
100
AcDbEntity
  8
0
  6
Continuous
 62
     7
370
    25
100
AcDbLine
 10
857.9292233787
 20
1094.2543978663
 30
0.0
 11
857.9292233787
 21
1095.2543978663
 31
0.0
  0
SPLINE
  5
143
330
1F
100
AcDbEntity
  8
0
  6
Continuous
 62
     7
370
    25
100
AcDbSpline
210
0.0
220
0.0
230
1.0
 70
    24
 71
     3
 72
    12
 73
     8
 74
     0
 42
0.00000001
 43
0.00000001
 40
0.0
 40
0.0
 40
0.0
 40
0.0
 40
0.3329369653750482
 40
0.5139656098140825
 40
0.6952322446461459
 40
0.8762609961871527
 40
1.0
 40
1.0
 40
1.0
 40
1.0
 10
857.9292233786941
 20
1038.254397866315
 30
0.0
 10
857.6778259655518
 20
1038.254397866314
 30
0.0
 10
857.2897356115539
 20
1038.254397866312
 30
0.0
 10
856.8228063418788
 20
1038.254397866312
 30
0.0
 10
856.5072874528574
 20
1038.254397866312
 30
0.0
 10
856.2671632343415
 20
1038.254397866312
 30
0.0
 10
856.1690559833313
 20
1038.254397866312
 30
0.0
 10
856.1292233786888
 20
1038.254397866312
 30
0.0
  0
LINE
  5
144
330
1F
100
AcDbEntity
  8
0
  6
Continuous
 62
     7
370
    25
100
AcDbLine
 10
857.9292233787
 20
1039.2543978663
 30
0.0
 11
857.9292233787
 21
1038.2543978663
 31
0.0
  0
LINE
  5
145
330
1F
100
AcDbEntity
  8
0
  6
Continuous
 62
     7
370
    25
100
AcDbLine
 10
858.1292233787
 20
1094.2543978663
 30
0.0
 11
857.9292233787
 21
1094.2543978663
 31
0.0
  0
LINE
  5
146
330
1F
100
AcDbEntity
  8
0
  6
Continuous
 62
     7
370
    25
100
AcDbLine
 10
857.9292233787
 20
1094.2543978663
 30
0.0
 11
857.9292233787
 21
1085.1459720241
 31
0.0
  0
SPLINE
  5
147
330
1F
100
AcDbEntity
  8
0
  6
Continuous
 62
     7
370
    25
100
AcDbSpline
210
0.0
220
0.0
230
1.0
 70
     8
 71
     3
 72
    10
 73
     6
 74
     0
 42
0.00000001
 43
0.00000001
 40
0.0
 40
0.0
 40
0.0
 40
0.0
 40
0.0371311943328915
 40
0.5486628195544004
 40
1.0
 40
1.0
 40
1.0
 40
1.0
 10
856.1292233786888
 20
1077.000162206481
 30
0.0
 10
856.1348462309011
 20
1076.993443859056
 30
0.0
 10
856.2179313566066
 20
1076.894171333436
 30
0.0
 10
856.4394873291897
 20
1076.793742420243
 30
0.0
 10
856.6707982184357
 20
1076.766954495413
 30
0.0
 10
856.7792233786904
 20
1076.754397866315
 30
0.0
  0
LINE
  5
148
330
1F
100
AcDbEntity
  8
0
  6
Continuous
 62
     7
370
    25
100
AcDbLine
 10
857.6292233787
 20
1076.7543978663
 30
0.0
 11
856.7792233787
 21
1076.7543978663
 31
0.0
  0
LINE
  5
149
330
1F
100
AcDbEntity
  8
0
  6
Continuous
 62
     7
370
    25
100
AcDbLine
 10
858.1292233787
 20
1039.2543978663
 30
0.0
 11
857.9292233787
 21
1039.2543978663
 31
0.0
  0
LINE
  5
14A
330
1F
100
AcDbEntity
  8
0
  6
Continuous
 62
     7
370
    25
100
AcDbLine
 10
857.9292233787
 20
1048.3628237086
 30
0.0
 11
857.9292233787
 21
1039.2543978663
 31
0.0
  0
SPLINE
  5
14B
330
1F
100
AcDbEntity
  8
0
  6
Continuous
 62
     7
370
    25
100
AcDbSpline
210
0.0
220
0.0
230
1.0
 70
     8
 71
     3
 72
     9
 73
     5
 74
     0
 42
0.00000001
 43
0.00000001
 40
0.0
 40
0.0
 40
0.0
 40
0.0
 40
0.5050081268960348
 40
1.0
 40
1.0
 40
1.0
 40
1.0
 10
856.7792233786922
 20
1056.754397866314
 30
0.0
 10
856.6559271068247
 20
1056.742178006931
 30
0.0
 10
856.4117800024497
 20
1056.717980654981
 30
0.0
 10
856.2227778888969
 20
1056.580904581719
 30
0.0
 10
856.1292233786888
 20
1056.513053039457
 30
0.0
  0
LINE
  5
14C
330
1F
100
AcDbEntity
  8
0
  6
Continuous
 62
     7
370
    25
100
AcDbLine
 10
856.7792233787
 20
1056.7543978663
 30
0.0
 11
857.6292233787
 21
1056.7543978663
 31
0.0
  0
LINE
  5
14D
330
1F
100
AcDbEntity
  8
0
  6
Continuous
 62
     7
370
    25
100
AcDbLine
 10
858.1292233787
 20
1095.2543978663
 30
0.0
 11
857.9292233787
 21
1095.2543978663
 31
0.0
  0
LINE
  5
14E
330
1F
100
AcDbEntity
  8
0
  6
Continuous
 62
     7
370
    25
100
AcDbLine
 10
858.1292233787
 20
1038.2543978663
 30
0.0
 11
857.9292233787
 21
1038.2543978663
 31
0.0
  0
LINE
  5
14F
330
1F
100
AcDbEntity
  8
0
  6
Continuous
 62
     7
370
    25
100
AcDbLine
 10
856.2640384536
 20
1345.1293978663
 30
0.0
 11
856.2640384536
 21
1344.2043978663
 31
0.0
  0
LINE
  5
150
330
1F
100
AcDbEntity
  8
0
  6
Continuous
 62
     7
370
    25
100
AcDbLine
 10
856.2640384536
 20
1329.3043978663
 30
0.0
 11
856.2640384536
 21
1328.3793978663
 31
0.0
  0
LINE
  5
151
330
1F
100
AcDbEntity
  8
0
  6
Continuous
 62
     7
370
    25
100
AcDbLine
 10
856.2640384536
 20
1328.3793978663
 30
0.0
 11
856.1292233787
 21
1328.3793978663
 31
0.0
  0
LINE
  5
152
330
1F
100
AcDbEntity
  8
0
  6
Continuous
 62
     7
370
    25
100
AcDbLine
 10
856.1292233787
 20
1345.1293978663
 30
0.0
 11
856.2640384536
 21
1345.1293978663
 31
0.0
  0
LINE
  5
153
330
1F
100
AcDbEntity
  8
0
  6
Continuous
 62
     7
370
    25
100
AcDbLine
 10
857.6292233787
 20
1328.3793978663
 30
0.0
 11
856.2640384536
 21
1328.3793978663
 31
0.0
  0
LINE
  5
154
330
1F
100
AcDbEntity
  8
0
  6
Continuous
 62
     7
370
    25
100
AcDbLine
 10
856.2640384536
 20
1345.1293978663
 30
0.0
 11
857.6292233787
 21
1345.1293978663
 31
0.0
  0
LINE
  5
155
330
1F
100
AcDbEntity
  8
0
  6
Continuous
 62
     7
370
    25
100
AcDbLine
 10
856.2640384536
 20
1075.1293978663
 30
0.0
 11
856.2640384536
 21
1074.2043978663
 31
0.0
  0
LINE
  5
156
330
1F
100
AcDbEntity
  8
0
  6
Continuous
 62
     7
370
    25
100
AcDbLine
 10
856.2640384536
 20
1059.3043978663
 30
0.0
 11
856.2640384536
 21
1058.3793978663
 31
0.0
  0
LINE
  5
157
330
1F
100
AcDbEntity
  8
0
  6
Continuous
 62
     7
370
    25
100
AcDbLine
 10
856.2640384536
 20
1058.3793978663
 30
0.0
 11
856.1292233787
 21
1058.3793978663
 31
0.0
  0
LINE
  5
158
330
1F
100
AcDbEntity
  8
0
  6
Continuous
 62
     7
370
    25
100
AcDbLine
 10
856.1292233787
 20
1075.1293978663
 30
0.0
 11
856.2640384536
 21
1075.1293978663
 31
0.0
  0
LINE
  5
159
330
1F
100
AcDbEntity
  8
0
  6
Continuous
 62
     7
370
    25
100
AcDbLine
 10
857.6292233787
 20
1058.3793978663
 30
0.0
 11
856.2640384536
 21
1058.3793978663
 31
0.0
  0
LINE
  5
15A
330
1F
100
AcDbEntity
  8
0
  6
Continuous
 62
     7
370
    25
100
AcDbLine
 10
856.2640384536
 20
1075.1293978663
 30
0.0
 11
857.6292233787
 21
1075.1293978663
 31
0.0
  0
LINE
  5
15B
330
1F
100
AcDbEntity
  8
0
  6
Continuous
 62
     7
370
    25
100
AcDbLine
 10
856.1292233787
 20
1073.2543978663
 30
0.0
 11
858.1292233787
 21
1073.2543978663
 31
0.0
  0
LINE
  5
15C
330
1F
100
AcDbEntity
  8
0
  6
Continuous
 62
     7
370
    25
100
AcDbLine
 10
858.1292233787
 20
1060.2543978663
 30
0.0
 11
856.1292233787
 21
1060.2543978663
 31
0.0
  0
LINE
  5
15D
330
1F
100
AcDbEntity
  8
0
  6
Continuous
 62
     7
370
    25
100
AcDbLine
 10
856.8579408335
 20
1059.3043978663
 30
0.0
 11
856.8579408335
 21
1060.2543978663
 31
0.0
  0
LINE
  5
15E
330
1F
100
AcDbEntity
  8
0
  6
Continuous
 62
     7
370
    25
100
AcDbLine
 10
856.8579408335
 20
1073.2543978663
 30
0.0
 11
856.8579408335
 21
1074.2043978663
 31
0.0
  0
LINE
  5
15F
330
1F
100
AcDbEntity
  8
0
  6
Continuous
 62
     7
370
    25
100
AcDbLine
 10
856.8579408335
 20
1059.3043978663
 30
0.0
 11
856.1292233787
 21
1059.3043978663
 31
0.0
  0
LINE
  5
160
330
1F
100
AcDbEntity
  8
0
  6
Continuous
 62
     7
370
    25
100
AcDbLine
 10
856.8579408335
 20
1074.2043978663
 30
0.0
 11
856.1292233787
 21
1074.2043978663
 31
0.0
  0
LINE
  5
161
330
1F
100
AcDbEntity
  8
0
  6
Continuous
 62
     7
370
    25
100
AcDbLine
 10
856.9193103291
 20
1059.3043978663
 30
0.0
 11
856.9193103291
 21
1060.2543978663
 31
0.0
  0
LINE
  5
162
330
1F
100
AcDbEntity
  8
0
  6
Continuous
 62
     7
370
    25
100
AcDbLine
 10
856.9193103291
 20
1073.2543978663
 30
0.0
 11
856.9193103291
 21
1074.2043978663
 31
0.0
  0
LINE
  5
163
330
1F
100
AcDbEntity
  8
0
  6
Continuous
 62
     7
370
    25
100
AcDbLine
 10
856.9193103291
 20
1059.3043978663
 30
0.0
 11
856.8579408335
 21
1059.3043978663
 31
0.0
  0
LINE
  5
164
330
1F
100
AcDbEntity
  8
0
  6
Continuous
 62
     7
370
    25
100
AcDbLine
 10
856.9193103291
 20
1074.2043978663
 30
0.0
 11
856.8579408335
 21
1074.2043978663
 31
0.0
  0
LINE
  5
165
330
1F
100
AcDbEntity
  8
0
  6
Continuous
 62
     7
370
    25
100
AcDbLine
 10
856.1292233787
 20
1343.2543978663
 30
0.0
 11
858.1292233787
 21
1343.2543978663
 31
0.0
  0
LINE
  5
166
330
1F
100
AcDbEntity
  8
0
  6
Continuous
 62
     7
370
    25
100
AcDbLine
 10
858.1292233787
 20
1330.2543978663
 30
0.0
 11
856.1292233787
 21
1330.2543978663
 31
0.0
  0
LINE
  5
167
330
1F
100
AcDbEntity
  8
0
  6
Continuous
 62
     7
370
    25
100
AcDbLine
 10
856.8579408335
 20
1329.3043978663
 30
0.0
 11
856.8579408335
 21
1330.2543978663
 31
0.0
  0
LINE
  5
168
330
1F
100
AcDbEntity
  8
0
  6
Continuous
 62
     7
370
    25
100
AcDbLine
 10
856.8579408335
 20
1343.2543978663
 30
0.0
 11
856.8579408335
 21
1344.2043978663
 31
0.0
  0
LINE
  5
169
330
1F
100
AcDbEntity
  8
0
  6
Continuous
 62
     7
370
    25
100
AcDbLine
 10
856.8579408335
 20
1329.3043978663
 30
0.0
 11
856.1292233787
 21
1329.3043978663
 31
0.0
  0
LINE
  5
16A
330
1F
100
AcDbEntity
  8
0
  6
Continuous
 62
     7
370
    25
100
AcDbLine
 10
856.8579408335
 20
1344.2043978663
 30
0.0
 11
856.1292233787
 21
1344.2043978663
 31
0.0
  0
LINE
  5
16B
330
1F
100
AcDbEntity
  8
0
  6
Continuous
 62
     7
370
    25
100
AcDbLine
 10
856.9193103291
 20
1329.3043978663
 30
0.0
 11
856.9193103291
 21
1330.2543978663
 31
0.0
  0
LINE
  5
16C
330
1F
100
AcDbEntity
  8
0
  6
Continuous
 62
     7
370
    25
100
AcDbLine
 10
856.9193103291
 20
1343.2543978663
 30
0.0
 11
856.9193103291
 21
1344.2043978663
 31
0.0
  0
LINE
  5
16D
330
1F
100
AcDbEntity
  8
0
  6
Continuous
 62
     7
370
    25
100
AcDbLine
 10
856.9193103291
 20
1329.3043978663
 30
0.0
 11
856.8579408335
 21
1329.3043978663
 31
0.0
  0
LINE
  5
16E
330
1F
100
AcDbEntity
  8
0
  6
Continuous
 62
     7
370
    25
100
AcDbLine
 10
856.9193103291
 20
1344.2043978663
 30
0.0
 11
856.8579408335
 21
1344.2043978663
 31
0.0
  0
LINE
  5
16F
330
1F
100
AcDbEntity
  8
0
  6
Continuous
 62
     7
370
    25
100
AcDbLine
 10
857.6292233787
 20
1059.2793978663
 30
0.0
 11
857.3176575759
 21
1059.2793978663
 31
0.0
  0
LINE
  5
170
330
1F
100
AcDbEntity
  8
0
  6
Continuous
 62
     7
370
    25
100
AcDbLine
 10
857.3176575759
 20
1074.2293978663
 30
0.0
 11
857.3176575759
 21
1073.2543978663
 31
0.0
  0
LINE
  5
171
330
1F
100
AcDbEntity
  8
0
  6
Continuous
 62
     7
370
    25
100
AcDbLine
 10
857.3176575759
 20
1060.2543978663
 30
0.0
 11
857.3176575759
 21
1059.2793978663
 31
0.0
  0
LINE
  5
172
330
1F
100
AcDbEntity
  8
0
  6
Continuous
 62
     7
370
    25
100
AcDbLine
 10
857.6292233787
 20
1074.2293978663
 30
0.0
 11
857.3176575759
 21
1074.2293978663
 31
0.0
  0
LINE
  5
173
330
1F
100
AcDbEntity
  8
0
  6
Continuous
 62
     7
370
    25
100
AcDbLine
 10
857.3176575759
 20
1059.2793978663
 30
0.0
 11
857.2785149814
 21
1059.2793978663
 31
0.0
  0
LINE
  5
174
330
1F
100
AcDbEntity
  8
0
  6
Continuous
 62
     7
370
    25
100
AcDbLine
 10
857.3176575759
 20
1074.2293978663
 30
0.0
 11
857.2785149814
 21
1074.2293978663
 31
0.0
  0
LINE
  5
175
330
1F
100
AcDbEntity
  8
0
  6
Continuous
 62
     7
370
    25
100
AcDbLine
 10
857.6292233787
 20
1329.2793978663
 30
0.0
 11
857.3176575759
 21
1329.2793978663
 31
0.0
  0
LINE
  5
176
330
1F
100
AcDbEntity
  8
0
  6
Continuous
 62
     7
370
    25
100
AcDbLine
 10
857.3176575759
 20
1344.2293978663
 30
0.0
 11
857.3176575759
 21
1343.2543978663
 31
0.0
  0
LINE
  5
177
330
1F
100
AcDbEntity
  8
0
  6
Continuous
 62
     7
370
    25
100
AcDbLine
 10
857.3176575759
 20
1330.2543978663
 30
0.0
 11
857.3176575759
 21
1329.2793978663
 31
0.0
  0
LINE
  5
178
330
1F
100
AcDbEntity
  8
0
  6
Continuous
 62
     7
370
    25
100
AcDbLine
 10
857.6292233787
 20
1344.2293978663
 30
0.0
 11
857.3176575759
 21
1344.2293978663
 31
0.0
  0
LINE
  5
179
330
1F
100
AcDbEntity
  8
0
  6
Continuous
 62
     7
370
    25
100
AcDbLine
 10
857.3176575759
 20
1329.2793978663
 30
0.0
 11
857.2785149814
 21
1329.2793978663
 31
0.0
  0
LINE
  5
17A
330
1F
100
AcDbEntity
  8
0
  6
Continuous
 62
     7
370
    25
100
AcDbLine
 10
857.3176575759
 20
1344.2293978663
 30
0.0
 11
857.2785149814
 21
1344.2293978663
 31
0.0
  0
LINE
  5
17B
330
1F
100
AcDbEntity
  8
0
  6
Continuous
 62
     7
370
    25
100
AcDbLine
 10
475.7954764323
 20
1334.7748720752
 30
0.0
 11
475.6515032166
 21
1329.2767567878
 31
0.0
  0
LINE
  5
17C
330
1F
100
AcDbEntity
  8
0
  6
Continuous
 62
     7
370
    25
100
AcDbLine
 10
474.1805906639
 20
1359.0754720652
 30
0.0
 11
473.6570516978
 21
1339.0823255657
 31
0.0
  0
LINE
  5
17D
330
1F
100
AcDbEntity
  8
0
  6
Continuous
 62
     7
370
    25
100
AcDbLine
 10
472.4907022777
 20
1340.2086561082
 30
0.0
 11
472.9568920992
 21
1358.0117271316
 31
0.0
  0
LINE
  5
17E
330
1F
100
AcDbEntity
  8
0
  6
Continuous
 62
     7
370
    25
100
AcDbLine
 10
474.6764915164
 20
1349.3448871838
 30
0.0
 11
474.9307814413
 21
1359.0558276283
 31
0.0
  0
LINE
  5
17F
330
1F
100
AcDbEntity
  8
0
  6
Continuous
 62
     7
370
    25
100
AcDbLine
 10
472.7751043047
 20
1356.4161961367
 30
0.0
 11
472.3926672574
 21
1341.8115145215
 31
0.0
  0
LINE
  5
180
330
1F
100
AcDbEntity
  8
0
  6
Continuous
 62
     7
370
    25
100
AcDbLine
 10
475.4865683072
 20
1353.5393867276
 30
0.0
 11
475.3649024678
 21
1348.8931557708
 31
0.0
  0
LINE
  5
181
330
1F
100
AcDbEntity
  8
0
  6
Continuous
 62
     7
370
    25
100
AcDbLine
 10
475.3649024678
 20
1348.8931557708
 30
0.0
 11
475.250975856
 21
1344.5424739934
 31
0.0
  0
LINE
  5
182
330
1F
100
AcDbEntity
  8
0
  6
Continuous
 62
     7
370
    25
100
AcDbLine
 10
857.9292233787
 20
1364.2543978663
 30
0.0
 11
856.1292233787
 21
1364.2543978663
 31
0.0
  0
LINE
  5
183
330
1F
100
AcDbEntity
  8
0
  6
Continuous
 62
     7
370
    25
100
AcDbLine
 10
857.9292233787
 20
1309.2543978663
 30
0.0
 11
856.1292233787
 21
1309.2543978663
 31
0.0
  0
LINE
  5
184
330
1F
100
AcDbEntity
  8
0
  6
Continuous
 62
     7
370
    25
100
AcDbLine
 10
856.7792233787
 20
1345.1293978663
 30
0.0
 11
856.7792233787
 21
1346.7543978663
 31
0.0
  0
LINE
  5
185
330
1F
100
AcDbEntity
  8
0
  6
Continuous
 62
     7
370
    25
100
AcDbLine
 10
856.7792233787
 20
1326.7543978663
 30
0.0
 11
856.7792233787
 21
1328.3793978663
 31
0.0
  0
LINE
  5
186
330
1F
100
AcDbEntity
  8
0
  6
Continuous
 62
     7
370
    25
100
AcDbLine
 10
857.9292233787
 20
1094.2543978663
 30
0.0
 11
856.1292233787
 21
1094.2543978663
 31
0.0
  0
LINE
  5
187
330
1F
100
AcDbEntity
  8
0
  6
Continuous
 62
     7
370
    25
100
AcDbLine
 10
857.9292233787
 20
1039.2543978663
 30
0.0
 11
856.1292233787
 21
1039.2543978663
 31
0.0
  0
LINE
  5
188
330
1F
100
AcDbEntity
  8
0
  6
Continuous
 62
     7
370
    25
100
AcDbLine
 10
856.7792233787
 20
1075.1293978663
 30
0.0
 11
856.7792233787
 21
1076.7543978663
 31
0.0
  0
LINE
  5
189
330
1F
100
AcDbEntity
  8
0
  6
Continuous
 62
     7
370
    25
100
AcDbLine
 10
856.7792233787
 20
1056.7543978663
 30
0.0
 11
856.7792233787
 21
1058.3793978663
 31
0.0
  0
LINE
  5
18A
330
1F
100
AcDbEntity
  8
0
  6
Continuous
 62
     7
370
    25
100
AcDbLine
 10
4517.7500479585
 20
1334.7748720752
 30
0.0
 11
4515.9163010121
 21
1334.7268537215
 31
0.0
  0
LINE
  5
18B
330
1F
100
AcDbEntity
  8
0
  6
Continuous
 62
     7
370
    25
100
AcDbLine
 10
4515.9163010121
 20
1329.2249683628
 30
0.0
 11
4517.8940211741
 21
1329.2767567878
 31
0.0
  0
ARC
  5
18C
330
1F
100
AcDbEntity
  8
0
  6
Continuous
 62
     7
370
    25
100
AcDbCircle
 10
4517.757901043
 20
1334.4749748777
 30
0.0
 40
0.3000000000003306
100
AcDbArc
 50
1.4999999999
 51
91.5
  0
ARC
  5
18D
330
1F
100
AcDbEntity
  8
0
  6
Continuous
 62
     7
370
    25
100
AcDbCircle
 10
4517.8861680897
 20
1329.5766539853
 30
0.0
 40
0.3000000000001092
100
AcDbArc
 50
271.5
 51
1.4999999999
  0
ARC
  5
18E
330
1F
100
AcDbEntity
  8
0
  6
Continuous
 62
     7
370
    25
100
AcDbCircle
 10
4519.857060355
 20
1340.2819143556
 30
0.0
 40
1.200000000000284
100
AcDbArc
 50
271.5
 51
356.5000000032
  0
ARC
  5
18F
330
1F
100
AcDbEntity
  8
0
  6
Continuous
 62
     7
370
    25
100
AcDbCircle
 10
4519.3963460648
 20
1357.8758832752
 30
0.0
 40
1.200000000001432
100
AcDbArc
 50
6.4999999967
 51
91.4999999999
  0
LINE
  5
190
330
1F
100
AcDbEntity
  8
0
  6
Continuous
 62
     7
370
    25
100
AcDbLine
 10
4519.1382819156
 20
1339.0626811288
 30
0.0
 11
4519.8884726929
 21
1339.0823255656
 31
0.0
  0
LINE
  5
191
330
1F
100
AcDbEntity
  8
0
  6
Continuous
 62
     7
370
    25
100
AcDbLine
 10
4519.3649337268
 20
1359.0754720652
 30
0.0
 11
4518.6147429495
 21
1359.0558276283
 31
0.0
  0
ARC
  5
192
330
1F
100
AcDbEntity
  8
0
  6
Continuous
 62
     7
370
    25
100
AcDbCircle
 10
4519.133046526
 20
1339.2626125938
 30
0.0
 40
0.2000000000000808
100
AcDbArc
 50
181.5
 51
271.5
  0
ARC
  5
193
330
1F
100
AcDbEntity
  8
0
  6
Continuous
 62
     7
370
    25
100
AcDbCircle
 10
4518.6199783391
 20
1358.8558961633
 30
0.0
 40
0.2000000000002843
100
AcDbArc
 50
91.4999999998
 51
181.4999999999
  0
LINE
  5
194
330
1F
100
AcDbEntity
  8
0
  6
Continuous
 62
     7
370
    25
100
AcDbLine
 10
4521.0548221131
 20
1340.2086561082
 30
0.0
 11
4521.1528571334
 21
1341.8115145215
 31
0.0
  0
LINE
  5
195
330
1F
100
AcDbEntity
  8
0
  6
Continuous
 62
     7
370
    25
100
AcDbLine
 10
4520.7704200861
 20
1356.4161961367
 30
0.0
 11
4520.5886322916
 21
1358.0117271316
 31
0.0
  0
ARC
  5
196
330
1F
100
AcDbEntity
  8
0
  6
Continuous
 62
     7
370
    25
100
AcDbCircle
 10
4491.2088131807
 20
1343.6429707076
 30
0.0
 40
30.00000000000288
100
AcDbArc
 50
356.4999999999
 51
1.4999999999
  0
ARC
  5
197
330
1F
100
AcDbEntity
  8
0
  6
Continuous
 62
     7
370
    25
100
AcDbCircle
 10
4490.9632644158
 20
1353.0200997237
 30
0.0
 40
30.00000000000349
100
AcDbArc
 50
1.4999999999
 51
6.4999999999
  0
LINE
  5
198
330
1F
100
AcDbEntity
  8
0
  6
Continuous
 62
     7
370
    25
100
AcDbLine
 10
4521.0782320384
 20
1349.0223848583
 30
0.0
 11
4521.0757585475
 21
1349.1168436648
 31
0.0
  0
SPLINE
  5
199
330
1F
100
AcDbEntity
  8
0
  6
Continuous
 62
     7
370
    25
100
AcDbSpline
210
0.0
220
0.0
230
1.0
 70
     8
 71
     3
 72
    11
 73
     7
 74
     0
 42
0.00000001
 43
0.00000001
 40
0.0
 40
0.0
 40
0.0
 40
0.0
 40
0.270671270904453
 40
0.5632120728001537
 40
0.7903891635244903
 40
1.0
 40
1.0
 40
1.0
 40
1.0
 10
4518.294548572448
 20
1344.542472552353
 30
0.0
 10
4518.366361280958
 20
1344.535344805512
 30
0.0
 10
4518.515788977064
 20
1344.520513408522
 30
0.0
 10
4518.687900202776
 20
1344.387093926349
 30
0.0
 10
4518.788951168401
 20
1344.21896553141
 30
0.0
 10
4518.80158698596
 20
1344.103888307108
 30
0.0
 10
4518.807650808066
 20
1344.048663719285
 30
0.0
  0
SPLINE
  5
19A
330
1F
100
AcDbEntity
  8
0
  6
Continuous
 62
     7
370
    25
100
AcDbSpline
210
0.0
220
0.0
230
1.0
 70
     8
 71
     3
 72
    11
 73
     7
 74
     0
 42
0.00000001
 43
0.00000001
 40
0.0
 40
0.0
 40
0.0
 40
0.0
 40
0.2695105035985464
 40
0.5617364405776293
 40
0.7894224931279953
 40
1.0
 40
1.0
 40
1.0
 40
1.0
 10
4518.545511127043
 20
1354.059374258502
 30
0.0
 10
4518.539444966037
 20
1353.987784817778
 30
0.0
 10
4518.526801363482
 20
1353.838572089226
 30
0.0
 10
4518.396408797245
 20
1353.664552517793
 30
0.0
 10
4518.229638749764
 20
1353.560590211835
 30
0.0
 10
4518.114350096174
 20
1353.546269373957
 30
0.0
 10
4518.058956037687
 20
1353.539388477127
 30
0.0
  0
LINE
  5
19B
330
1F
100
AcDbEntity
  8
0
  6
Continuous
 62
     7
370
    25
100
AcDbLine
 10
4515.9163010121
 20
1344.4801959483
 30
0.0
 11
4518.2945485724
 21
1344.5424725523
 31
0.0
  0
LINE
  5
19C
330
1F
100
AcDbEntity
  8
0
  6
Continuous
 62
     7
370
    25
100
AcDbLine
 10
4518.0589560377
 20
1353.5393884771
 30
0.0
 11
4515.9163010121
 21
1353.4832810807
 31
0.0
  0
LINE
  5
19D
330
1F
100
AcDbEntity
  8
0
  6
Continuous
 62
     7
370
    25
100
AcDbLine
 10
4121.4163010121
 20
999.7543978663
 30
0.0
 11
4121.4163010121
 21
986.7543978663
 31
0.0
  0
LINE
  5
19E
330
1F
100
AcDbEntity
  8
0
  6
Continuous
 62
     7
370
    25
100
AcDbLine
 10
4117.4163010121
 20
1416.7543978663
 30
0.0
 11
4135.4163010121
 21
1416.7543978663
 31
0.0
  0
LINE
  5
19F
330
1F
100
AcDbEntity
  8
0
  6
Continuous
 62
     7
370
    25
100
AcDbLine
 10
4117.4163010121
 20
986.7543978663
 30
0.0
 11
4117.4163010121
 21
1416.7543978663
 31
0.0
  0
LINE
  5
1A0
330
1F
100
AcDbEntity
  8
0
  6
Continuous
 62
     7
370
    25
100
AcDbLine
 10
4135.4163010121
 20
1020.2543978663
 30
0.0
 11
4133.9163010121
 21
1020.2543978663
 31
0.0
  0
LINE
  5
1A1
330
1F
100
AcDbEntity
  8
0
  6
Continuous
 62
     7
370
    25
100
AcDbLine
 10
4133.9163010121
 20
1020.2543978663
 30
0.0
 11
4133.9163010121
 21
999.7543978663
 31
0.0
  0
LINE
  5
1A2
330
1F
100
AcDbEntity
  8
0
  6
Continuous
 62
     7
370
    25
100
AcDbLine
 10
4133.9163010121
 20
999.7543978663
 30
0.0
 11
4121.4163010121
 21
999.7543978663
 31
0.0
  0
LINE
  5
1A3
330
1F
100
AcDbEntity
  8
0
  6
Continuous
 62
     7
370
    25
100
AcDbLine
 10
4135.4163010121
 20
1020.2543978663
 30
0.0
 11
4135.4163010121
 21
1416.7543978663
 31
0.0
  0
LINE
  5
1A4
330
1F
100
AcDbEntity
  8
0
  6
Continuous
 62
     7
370
    25
100
AcDbLine
 10
4117.4163010121
 20
986.7543978663
 30
0.0
 11
4121.4163010121
 21
986.7543978663
 31
0.0
  0
LINE
  5
1A5
330
1F
100
AcDbEntity
  8
0
  6
Continuous
 62
     7
370
    25
100
AcDbLine
 10
4136.9163010121
 20
1398.2543978663
 30
0.0
 11
4515.9163010121
 21
1398.2543978663
 31
0.0
  0
LINE
  5
1A6
330
1F
100
AcDbEntity
  8
0
  6
Continuous
 62
     7
370
    25
100
AcDbLine
 10
4136.9163010121
 20
1426.7543978663
 30
0.0
 11
4136.9163010121
 21
1398.2543978663
 31
0.0
  0
LINE
  5
1A7
330
1F
100
AcDbEntity
  8
0
  6
Continuous
 62
     7
370
    25
100
AcDbLine
 10
4515.9163010121
 20
1398.2543978663
 30
0.0
 11
4515.9163010121
 21
1426.7543978663
 31
0.0
  0
LINE
  5
1A8
330
1F
100
AcDbEntity
  8
0
  6
Continuous
 62
     7
370
    25
100
AcDbLine
 10
4515.9163010121
 20
1426.7543978663
 30
0.0
 11
4136.9163010121
 21
1426.7543978663
 31
0.0
  0
LINE
  5
1A9
330
1F
100
AcDbEntity
  8
0
  6
Continuous
 62
     7
370
    25
100
AcDbLine
 10
4135.4163010121
 20
986.7543978663
 30
0.0
 11
4135.4163010121
 21
1020.2543978663
 31
0.0
  0
LINE
  5
1AA
330
1F
100
AcDbEntity
  8
0
  6
Continuous
 62
     7
370
    25
100
AcDbLine
 10
4121.4163010121
 20
986.7543978663
 30
0.0
 11
4135.4163010121
 21
986.7543978663
 31
0.0
  0
LINE
  5
1AB
330
1F
100
AcDbEntity
  8
0
  6
Continuous
 62
     7
370
    25
100
AcDbLine
 10
4137.4163010121
 20
976.7543978663
 30
0.0
 11
4137.4163010121
 21
1398.2543978663
 31
0.0
  0
LINE
  5
1AC
330
1F
100
AcDbEntity
  8
0
  6
Continuous
 62
     7
370
    25
100
AcDbLine
 10
4515.9163010121
 20
976.7543978663
 30
0.0
 11
4515.9163010121
 21
1398.2543978663
 31
0.0
  0
LINE
  5
1AD
330
1F
100
AcDbEntity
  8
0
  6
Continuous
 62
     7
370
    25
100
AcDbLine
 10
4137.4163010121
 20
976.7543978663
 30
0.0
 11
4515.9163010121
 21
976.7543978663
 31
0.0
  0
SPLINE
  5
1AE
330
1F
100
AcDbEntity
  8
0
  6
Continuous
 62
     7
370
    25
100
AcDbSpline
210
0.0
220
0.0
230
1.0
 70
    24
 71
     3
 72
    12
 73
     8
 74
     0
 42
0.00000001
 43
0.00000001
 40
0.0
 40
0.0
 40
0.0
 40
0.0
 40
0.2460973337390241
 40
0.4921955654195698
 40
0.7383025770441245
 40
0.984416004048287
 40
1.0
 40
1.0
 40
1.0
 40
1.0
 10
4518.121931763796
 20
1332.033667515997
 30
0.0
 10
4518.130161240797
 20
1331.719396468499
 30
0.0
 10
4518.146620224826
 20
1331.090853226814
 30
0.0
 10
4518.167936227936
 20
1330.276827909653
 30
0.0
 10
4518.181476490681
 20
1329.759746136904
 30
0.0
 10
4518.187395967763
 20
1329.53369042725
 30
0.0
 10
4518.185875737426
 20
1329.591745681663
 30
0.0
 10
4518.185785208206
 20
1329.595202853077
 30
0.0
  0
SPLINE
  5
1AF
330
1F
100
AcDbEntity
  8
0
  6
Continuous
 62
     7
370
    25
100
AcDbSpline
210
0.0
220
0.0
230
1.0
 70
     8
 71
     3
 72
    11
 73
     7
 74
     0
 42
0.00000001
 43
0.00000001
 40
0.0
 40
0.0
 40
0.0
 40
0.0
 40
0.2382247349852353
 40
0.4921376904596567
 40
0.746057559547878
 40
1.0
 40
1.0
 40
1.0
 40
1.0
 10
4518.058072034717
 20
1334.47237218074
 30
0.0
 10
4518.058744419021
 20
1334.446694861225
 30
0.0
 10
4518.060133467299
 20
1334.393649249805
 30
0.0
 10
4518.073671064535
 20
1333.876669251059
 30
0.0
 10
4518.093771655869
 20
1333.109058705195
 30
0.0
 10
4518.110155297261
 20
1332.483392512938
 30
0.0
 10
4518.118347482034
 20
1332.170545513298
 30
0.0
  0
LINE
  5
1B0
330
1F
100
AcDbEntity
  8
0
  6
Continuous
 62
     7
370
    25
100
AcDbLine
 10
4518.118347482
 20
1332.1705455133
 30
0.0
 11
4518.1219317638
 21
1332.033667516
 31
0.0
  0
SPLINE
  5
1B1
330
1F
100
AcDbEntity
  8
0
  6
Continuous
 62
     7
370
    25
100
AcDbSpline
210
0.0
220
0.0
230
1.0
 70
    24
 71
     3
 72
    13
 73
     9
 74
     0
 42
0.00000001
 43
0.00000001
 40
0.0
 40
0.0
 40
0.0
 40
0.0
 40
0.1813201537907871
 40
0.4101468448380564
 40
0.5438150184965118
 40
0.688642123887584
 40
0.8419966874126888
 40
0.9999999999999999
 40
0.9999999999999999
 40
0.9999999999999999
 40
0.9999999999999999
 10
4518.676580967555
 20
1349.054018988887
 30
0.0
 10
4518.652354093912
 20
1349.979205966928
 30
0.0
 10
4518.597552817952
 20
1352.071982263415
 30
0.0
 10
4518.53119258693
 20
1354.606177244852
 30
0.0
 10
4518.481221570377
 20
1356.514493376594
 30
0.0
 10
4518.448299481661
 20
1357.771737221526
 30
0.0
 10
4518.425017322935
 20
1358.660846992432
 30
0.0
 10
4518.421725129526
 20
1358.78657078643
 30
0.0
 10
4518.420054455667
 20
1358.850371247079
 30
0.0
  0
SPLINE
  5
1B2
330
1F
100
AcDbEntity
  8
0
  6
Continuous
 62
     7
370
    25
100
AcDbSpline
210
0.0
220
0.0
230
1.0
 70
    24
 71
     3
 72
    13
 73
     9
 74
     0
 42
0.00000001
 43
0.00000001
 40
0.0
 40
0.0
 40
0.0
 40
0.0
 40
0.1538581583652106
 40
0.3079676862452775
 40
0.4535077802385077
 40
0.5878340078345641
 40
0.8177872163813462
 40
1.0
 40
1.0
 40
1.0
 40
1.0
 10
4518.932881372516
 20
1339.266301405849
 30
0.0
 10
4518.931561895873
 20
1339.316690185941
 30
0.0
 10
4518.928920786858
 20
1339.417550070023
 30
0.0
 10
4518.906694001446
 20
1340.266356760077
 30
0.0
 10
4518.874525991149
 20
1341.494803511994
 30
0.0
 10
4518.825263059562
 20
1343.376078969866
 30
0.0
 10
4518.759443730822
 20
1345.889617726497
 30
0.0
 10
4518.704718667675
 20
1347.979483573087
 30
0.0
 10
4518.68052548755
 20
1348.903383847576
 30
0.0
  0
LINE
  5
1B3
330
1F
100
AcDbEntity
  8
0
  6
Continuous
 62
     7
370
    25
100
AcDbLine
 10
4521.0782320384
 20
1349.0223848582
 30
0.0
 11
4521.19853293
 21
1344.4282791568
 31
0.0
  0
LINE
  5
1B4
330
1F
100
AcDbEntity
  8
0
  6
Continuous
 62
     7
370
    25
100
AcDbLine
 10
4520.952984165
 20
1353.8054081729
 30
0.0
 11
4521.0757585475
 21
1349.1168436648
 31
0.0
  0
SPLINE
  5
1B5
330
1F
100
AcDbEntity
  8
0
  6
Continuous
 62
     7
370
    25
100
AcDbSpline
210
0.0
220
0.0
230
1.0
 70
     8
 71
     3
 72
    11
 73
     7
 74
     0
 42
0.00000001
 43
0.00000001
 40
0.0
 40
0.0
 40
0.0
 40
0.0
 40
0.2702602051691428
 40
0.5624283659902017
 40
0.7897359586728169
 40
0.9999999999999999
 40
0.9999999999999999
 40
0.9999999999999999
 40
0.9999999999999999
 10
4518.67228138343
 20
1349.218213482242
 30
0.0
 10
4518.663531975718
 20
1349.215656025558
 30
0.0
 10
4518.645323911826
 20
1349.210333798471
 30
0.0
 10
4518.510265639421
 20
1349.20128582409
 30
0.0
 10
4518.342203449888
 20
1349.193677152426
 30
0.0
 10
4518.227838085996
 20
1349.190318953096
 30
0.0
 10
4518.172882687311
 20
1349.188705254886
 30
0.0
  0
SPLINE
  5
1B6
330
1F
100
AcDbEntity
  8
0
  6
Continuous
 62
     7
370
    25
100
AcDbSpline
210
0.0
220
0.0
230
1.0
 70
     8
 71
     3
 72
    10
 73
     6
 74
     0
 42
0.00000001
 43
0.00000001
 40
0.0
 40
0.0
 40
0.0
 40
0.0
 40
0.3698682463934105
 40
0.7394183665248103
 40
1.0
 40
1.0
 40
1.0
 40
1.0
 10
4518.400161334801
 20
1348.531609380491
 30
0.0
 10
4518.396941611833
 20
1348.655185441903
 30
0.0
 10
4518.390504935202
 20
1348.902231276092
 30
0.0
 10
4518.3810123833
 20
1349.268343236764
 30
0.0
 10
4518.375485084351
 20
1349.475556144413
 30
0.0
 10
4518.373199351912
 20
1349.56124596665
 30
0.0
  0
ARC
  5
1B7
330
1F
100
AcDbEntity
  8
0
  6
Continuous
 62
     7
370
    25
100
AcDbCircle
 10
4121.4162626861
 20
1416.7474299152
 30
0.0
 40
0.3000000000006011
100
AcDbArc
 50
99.5765884811
 51
136.3783470328
  0
SPLINE
  5
1B8
330
1F
100
AcDbEntity
  8
0
  6
Continuous
 62
     7
370
    25
100
AcDbSpline
210
0.0
220
0.0
230
1.0
 70
     8
 71
     3
 72
    13
 73
     9
 74
     0
 42
0.00000001
 43
0.00000001
 40
0.0
 40
0.0
 40
0.0
 40
0.0
 40
0.0075029974114387
 40
0.3818974549662866
 40
0.6070018873272978
 40
0.7653769096343249
 40
0.8824605049810137
 40
1.0
 40
1.0
 40
1.0
 40
1.0
 10
4121.1990893286
 20
1416.954397866315
 30
0.0
 10
4121.198071551985
 20
1416.953959868419
 30
0.0
 10
4121.146267415847
 20
1416.931666074049
 30
0.0
 10
4121.067682050478
 20
1416.884781685835
 30
0.0
 10
4120.985042586445
 20
1416.818497248798
 30
0.0
 10
4120.942946468347
 20
1416.780235689625
 30
0.0
 10
4120.920423041512
 20
1416.75847991389
 30
0.0
 10
4120.917683615398
 20
1416.755760310341
 30
0.0
 10
4120.916311240831
 20
1416.754397866314
 30
0.0
  0
ARC
  5
1B9
330
1F
100
AcDbEntity
  8
0
  6
Continuous
 62
     7
370
    25
100
AcDbCircle
 10
4121.4162626861
 20
1416.7474299152
 30
0.0
 40
0.5000000000001892
100
AcDbArc
 50
99.5765884811
 51
179.2015057739
  0
LINE
  5
1BA
330
1F
100
AcDbEntity
  8
0
  6
Continuous
 62
     7
370
    25
100
AcDbLine
 10
4121.3663529321
 20
1417.0432491446
 30
0.0
 11
4121.3330797627
 21
1417.2404619641
 31
0.0
  0
LINE
  5
1BB
330
1F
100
AcDbEntity
  8
0
  6
Continuous
 62
     7
370
    25
100
AcDbLine
 10
4121.1990893286
 20
1416.9543978663
 30
0.0
 11
4121.6163010121
 21
1416.9543978663
 31
0.0
  0
LINE
  5
1BC
330
1F
100
AcDbEntity
  8
0
  6
Continuous
 62
     7
370
    25
100
AcDbLine
 10
4121.6163010121
 20
1416.9543978663
 30
0.0
 11
4121.4163010121
 21
1416.7543978663
 31
0.0
  0
ARC
  5
1BD
330
1F
100
AcDbEntity
  8
0
  6
Continuous
 62
     7
370
    25
100
AcDbCircle
 10
4121.4994456096
 20
1416.2543978663
 30
0.0
 40
0.9999999999999388
100
AcDbArc
 50
30.0
 51
99.5765884811
  0
LINE
  5
1BE
330
1F
100
AcDbEntity
  8
0
  6
Continuous
 62
     7
370
    25
100
AcDbLine
 10
4135.7163010121
 20
1404.7543978663
 30
0.0
 11
4135.7163010121
 21
1385.2543978663
 31
0.0
  0
LINE
  5
1BF
330
1F
100
AcDbEntity
  8
0
  6
Continuous
 62
     7
370
    25
100
AcDbLine
 10
4135.7163010121
 20
1404.7543978663
 30
0.0
 11
4135.5163010121
 21
1404.7543978663
 31
0.0
  0
ARC
  5
1C0
330
1F
100
AcDbEntity
  8
0
  6
Continuous
 62
     7
370
    25
100
AcDbCircle
 10
4134.7163010121
 20
1404.7543978663
 30
0.0
 40
1.000000000000194
100
AcDbArc
 50
0.0
 51
45.5729959994
  0
LINE
  5
1C1
330
1F
100
AcDbEntity
  8
0
  6
Continuous
 62
     7
370
    25
100
AcDbLine
 10
4136.6163010121
 20
1384.0543978663
 30
0.0
 11
4136.6163010121
 21
1385.2543978663
 31
0.0
  0
LINE
  5
1C2
330
1F
100
AcDbEntity
  8
0
  6
Continuous
 62
     7
370
    25
100
AcDbLine
 10
4136.6163010121
 20
1384.0543978663
 30
0.0
 11
4137.4163010121
 21
1384.0543978663
 31
0.0
  0
LINE
  5
1C3
330
1F
100
AcDbEntity
  8
0
  6
Continuous
 62
     7
370
    25
100
AcDbLine
 10
4136.6163010121
 20
1385.2543978663
 30
0.0
 11
4137.4163010121
 21
1385.2543978663
 31
0.0
  0
LINE
  5
1C4
330
1F
100
AcDbEntity
  8
0
  6
Continuous
 62
     7
370
    25
100
AcDbLine
 10
4135.4163010121
 20
1384.0543978663
 30
0.0
 11
4136.6163010121
 21
1384.0543978663
 31
0.0
  0
LINE
  5
1C5
330
1F
100
AcDbEntity
  8
0
  6
Continuous
 62
     7
370
    25
100
AcDbLine
 10
4135.4163010121
 20
1385.2543978663
 30
0.0
 11
4136.6163010121
 21
1385.2543978663
 31
0.0
  0
LINE
  5
1C6
330
1F
100
AcDbEntity
  8
0
  6
Continuous
 62
     7
370
    25
100
AcDbLine
 10
4135.4163010121
 20
1366.2543978663
 30
0.0
 11
4136.6163010121
 21
1366.2543978663
 31
0.0
  0
LINE
  5
1C7
330
1F
100
AcDbEntity
  8
0
  6
Continuous
 62
     7
370
    25
100
AcDbLine
 10
4136.6163010121
 20
1366.2543978663
 30
0.0
 11
4136.6163010121
 21
1384.0543978663
 31
0.0
  0
LINE
  5
1C8
330
1F
100
AcDbEntity
  8
0
  6
Continuous
 62
     7
370
    25
100
AcDbLine
 10
4136.6163010121
 20
1366.2543978663
 30
0.0
 11
4136.6163010121
 21
1365.2470896858
 31
0.0
  0
LINE
  5
1C9
330
1F
100
AcDbEntity
  8
0
  6
Continuous
 62
     7
370
    25
100
AcDbLine
 10
4135.9163010121
 20
1057.7984397273
 30
0.0
 11
4135.4163010121
 21
1057.7984397273
 31
0.0
  0
LINE
  5
1CA
330
1F
100
AcDbEntity
  8
0
  6
Continuous
 62
     7
370
    25
100
AcDbLine
 10
4135.9163010121
 20
1059.3543978665
 30
0.0
 11
4135.4163010121
 21
1059.3543978665
 31
0.0
  0
LINE
  5
1CB
330
1F
100
AcDbEntity
  8
0
  6
Continuous
 62
     7
370
    25
100
AcDbLine
 10
4135.9163010121
 20
1059.3543978665
 30
0.0
 11
4135.9163010121
 21
1057.7984397273
 31
0.0
  0
LINE
  5
1CC
330
1F
100
AcDbEntity
  8
0
  6
Continuous
 62
     7
370
    25
100
AcDbLine
 10
4135.4163010121
 20
1075.7103560054
 30
0.0
 11
4135.9163010121
 21
1075.7103560054
 31
0.0
  0
LINE
  5
1CD
330
1F
100
AcDbEntity
  8
0
  6
Continuous
 62
     7
370
    25
100
AcDbLine
 10
4135.9163010121
 20
1075.7103560054
 30
0.0
 11
4135.9163010121
 21
1074.1543978661
 31
0.0
  0
LINE
  5
1CE
330
1F
100
AcDbEntity
  8
0
  6
Continuous
 62
     7
370
    25
100
AcDbLine
 10
4135.4163010121
 20
1074.1543978661
 30
0.0
 11
4135.9163010121
 21
1074.1543978661
 31
0.0
  0
LINE
  5
1CF
330
1F
100
AcDbEntity
  8
0
  6
Continuous
 62
     7
370
    25
100
AcDbLine
 10
4135.6163010121
 20
1048.3628237086
 30
0.0
 11
4135.9163010121
 21
1048.3628237086
 31
0.0
  0
LINE
  5
1D0
330
1F
100
AcDbEntity
  8
0
  6
Continuous
 62
     7
370
    25
100
AcDbLine
 10
4135.4163010121
 20
1048.3628237086
 30
0.0
 11
4135.6163010121
 21
1048.3628237086
 31
0.0
  0
LINE
  5
1D1
330
1F
100
AcDbEntity
  8
0
  6
Continuous
 62
     7
370
    25
100
AcDbLine
 10
4135.9163010121
 20
1048.3628237086
 30
0.0
 11
4135.9163010121
 21
1057.7984397273
 31
0.0
  0
LINE
  5
1D2
330
1F
100
AcDbEntity
  8
0
  6
Continuous
 62
     7
370
    25
100
AcDbLine
 10
4135.6163010121
 20
1085.1459720241
 30
0.0
 11
4135.4163010121
 21
1085.1459720241
 31
0.0
  0
LINE
  5
1D3
330
1F
100
AcDbEntity
  8
0
  6
Continuous
 62
     7
370
    25
100
AcDbLine
 10
4135.9163010121
 20
1085.1459720241
 30
0.0
 11
4135.6163010121
 21
1085.1459720241
 31
0.0
  0
LINE
  5
1D4
330
1F
100
AcDbEntity
  8
0
  6
Continuous
 62
     7
370
    25
100
AcDbLine
 10
4135.9163010121
 20
1075.7103560054
 30
0.0
 11
4135.9163010121
 21
1085.1459720241
 31
0.0
  0
SPLINE
  5
1D5
330
1F
100
AcDbEntity
  8
0
  6
Continuous
 62
     7
370
    25
100
AcDbSpline
210
0.0
220
0.0
230
1.0
 70
    24
 71
     3
 72
    12
 73
     8
 74
     0
 42
0.00000001
 43
0.00000001
 40
0.0
 40
0.0
 40
0.0
 40
0.0
 40
0.1234882189647948
 40
0.30475747760996
 40
0.4857888495182406
 40
0.667058215401064
 40
1.0
 40
1.0
 40
1.0
 40
1.0
 10
4137.416301012062
 20
1038.254397866318
 30
0.0
 10
4137.376554443025
 20
1038.254397866318
 30
0.0
 10
4137.278463594966
 20
1038.254397866318
 30
0.0
 10
4137.038490306604
 20
1038.254397866318
 30
0.0
 10
4136.722876118109
 20
1038.254397866318
 30
0.0
 10
4136.255966029009
 20
1038.254397866318
 30
0.0
 10
4135.867697428772
 20
1038.254397866316
 30
0.0
 10
4135.616301012057
 20
1038.254397866314
 30
0.0
  0
LINE
  5
1D6
330
1F
100
AcDbEntity
  8
0
  6
Continuous
 62
     7
370
    25
100
AcDbLine
 10
4135.6163010121
 20
1039.2543978663
 30
0.0
 11
4135.6163010121
 21
1038.2543978663
 31
0.0
  0
SPLINE
  5
1D7
330
1F
100
AcDbEntity
  8
0
  6
Continuous
 62
     7
370
    25
100
AcDbSpline
210
0.0
220
0.0
230
1.0
 70
    24
 71
     3
 72
    12
 73
     8
 74
     0
 42
0.00000001
 43
0.00000001
 40
0.0
 40
0.0
 40
0.0
 40
0.0
 40
0.3329369653728289
 40
0.5139656098106312
 40
0.6952322446414773
 40
0.8762609961812998
 40
1.0
 40
1.0
 40
1.0
 40
1.0
 10
4135.61630101205
 20
1095.254397866313
 30
0.0
 10
4135.867698425192
 20
1095.254397866315
 30
0.0
 10
4136.25578877919
 20
1095.254397866317
 30
0.0
 10
4136.722718048866
 20
1095.254397866317
 30
0.0
 10
4137.038236937887
 20
1095.254397866317
 30
0.0
 10
4137.278361156406
 20
1095.254397866317
 30
0.0
 10
4137.376468407418
 20
1095.254397866317
 30
0.0
 10
4137.416301012062
 20
1095.254397866317
 30
0.0
  0
LINE
  5
1D8
330
1F
100
AcDbEntity
  8
0
  6
Continuous
 62
     7
370
    25
100
AcDbLine
 10
4135.616301012
 20
1094.2543978663
 30
0.0
 11
4135.6163010121
 21
1095.2543978663
 31
0.0
  0
LINE
  5
1D9
330
1F
100
AcDbEntity
  8
0
  6
Continuous
 62
     7
370
    25
100
AcDbLine
 10
4135.4163010121
 20
1039.2543978663
 30
0.0
 11
4135.6163010121
 21
1039.2543978663
 31
0.0
  0
LINE
  5
1DA
330
1F
100
AcDbEntity
  8
0
  6
Continuous
 62
     7
370
    25
100
AcDbLine
 10
4135.6163010121
 20
1039.2543978663
 30
0.0
 11
4135.6163010121
 21
1048.3628237086
 31
0.0
  0
SPLINE
  5
1DB
330
1F
100
AcDbEntity
  8
0
  6
Continuous
 62
     7
370
    25
100
AcDbSpline
210
0.0
220
0.0
230
1.0
 70
     8
 71
     3
 72
    10
 73
     6
 74
     0
 42
0.00000001
 43
0.00000001
 40
0.0
 40
0.0
 40
0.0
 40
0.0
 40
0.0371311943475386
 40
0.5486628195612661
 40
1.0
 40
1.0
 40
1.0
 40
1.0
 10
4137.416301012062
 20
1056.50863352614
 30
0.0
 10
4137.410678159848
 20
1056.515351873567
 30
0.0
 10
4137.32759303414
 20
1056.614624399191
 30
0.0
 10
4137.106037061555
 20
1056.715053312386
 30
0.0
 10
4136.874726172309
 20
1056.741841237216
 30
0.0
 10
4136.766301012053
 20
1056.754397866314
 30
0.0
  0
LINE
  5
1DC
330
1F
100
AcDbEntity
  8
0
  6
Continuous
 62
     7
370
    25
100
AcDbLine
 10
4135.9163010121
 20
1056.7543978663
 30
0.0
 11
4136.7663010121
 21
1056.7543978663
 31
0.0
  0
SPLINE
  5
1DD
330
1F
100
AcDbEntity
  8
0
  6
Continuous
 62
     7
370
    25
100
AcDbSpline
210
0.0
220
0.0
230
1.0
 70
     8
 71
     3
 72
     9
 73
     5
 74
     0
 42
0.00000001
 43
0.00000001
 40
0.0
 40
0.0
 40
0.0
 40
0.0
 40
0.5050081268901029
 40
1.0
 40
1.0
 40
1.0
 40
1.0
 10
4136.766301012052
 20
1076.754397866314
 30
0.0
 10
4136.889597283919
 20
1076.766617725698
 30
0.0
 10
4137.133744388298
 20
1076.790815077648
 30
0.0
 10
4137.322746501852
 20
1076.927891150912
 30
0.0
 10
4137.416301012062
 20
1076.995742693175
 30
0.0
  0
LINE
  5
1DE
330
1F
100
AcDbEntity
  8
0
  6
Continuous
 62
     7
370
    25
100
AcDbLine
 10
4135.6163010121
 20
1085.1459720241
 30
0.0
 11
4135.616301012
 21
1094.2543978663
 31
0.0
  0
LINE
  5
1DF
330
1F
100
AcDbEntity
  8
0
  6
Continuous
 62
     7
370
    25
100
AcDbLine
 10
4136.7663010121
 20
1076.7543978663
 30
0.0
 11
4135.9163010121
 21
1076.7543978663
 31
0.0
  0
LINE
  5
1E0
330
1F
100
AcDbEntity
  8
0
  6
Continuous
 62
     7
370
    25
100
AcDbLine
 10
4135.416301012
 20
1094.2543978663
 30
0.0
 11
4135.616301012
 21
1094.2543978663
 31
0.0
  0
LINE
  5
1E1
330
1F
100
AcDbEntity
  8
0
  6
Continuous
 62
     7
370
    25
100
AcDbLine
 10
4135.4163010121
 20
1038.2543978663
 30
0.0
 11
4135.6163010121
 21
1038.2543978663
 31
0.0
  0
LINE
  5
1E2
330
1F
100
AcDbEntity
  8
0
  6
Continuous
 62
     7
370
    25
100
AcDbLine
 10
4135.4163010121
 20
1095.2543978663
 30
0.0
 11
4135.6163010121
 21
1095.2543978663
 31
0.0
  0
LINE
  5
1E3
330
1F
100
AcDbEntity
  8
0
  6
Continuous
 62
     7
370
    25
100
AcDbLine
 10
4135.9163010121
 20
1327.7984397273
 30
0.0
 11
4135.4163010121
 21
1327.7984397273
 31
0.0
  0
LINE
  5
1E4
330
1F
100
AcDbEntity
  8
0
  6
Continuous
 62
     7
370
    25
100
AcDbLine
 10
4135.9163010121
 20
1329.3543978665
 30
0.0
 11
4135.4163010121
 21
1329.3543978665
 31
0.0
  0
LINE
  5
1E5
330
1F
100
AcDbEntity
  8
0
  6
Continuous
 62
     7
370
    25
100
AcDbLine
 10
4135.9163010121
 20
1329.3543978665
 30
0.0
 11
4135.9163010121
 21
1327.7984397273
 31
0.0
  0
LINE
  5
1E6
330
1F
100
AcDbEntity
  8
0
  6
Continuous
 62
     7
370
    25
100
AcDbLine
 10
4135.4163010121
 20
1345.7103560054
 30
0.0
 11
4135.9163010121
 21
1345.7103560054
 31
0.0
  0
LINE
  5
1E7
330
1F
100
AcDbEntity
  8
0
  6
Continuous
 62
     7
370
    25
100
AcDbLine
 10
4135.9163010121
 20
1345.7103560054
 30
0.0
 11
4135.9163010121
 21
1344.1543978661
 31
0.0
  0
LINE
  5
1E8
330
1F
100
AcDbEntity
  8
0
  6
Continuous
 62
     7
370
    25
100
AcDbLine
 10
4135.4163010121
 20
1344.1543978661
 30
0.0
 11
4135.9163010121
 21
1344.1543978661
 31
0.0
  0
LINE
  5
1E9
330
1F
100
AcDbEntity
  8
0
  6
Continuous
 62
     7
370
    25
100
AcDbLine
 10
4135.6163010121
 20
1318.3628237086
 30
0.0
 11
4135.9163010121
 21
1318.3628237086
 31
0.0
  0
LINE
  5
1EA
330
1F
100
AcDbEntity
  8
0
  6
Continuous
 62
     7
370
    25
100
AcDbLine
 10
4135.4163010121
 20
1318.3628237086
 30
0.0
 11
4135.6163010121
 21
1318.3628237086
 31
0.0
  0
LINE
  5
1EB
330
1F
100
AcDbEntity
  8
0
  6
Continuous
 62
     7
370
    25
100
AcDbLine
 10
4135.9163010121
 20
1318.3628237086
 30
0.0
 11
4135.9163010121
 21
1327.7984397273
 31
0.0
  0
LINE
  5
1EC
330
1F
100
AcDbEntity
  8
0
  6
Continuous
 62
     7
370
    25
100
AcDbLine
 10
4135.6163010121
 20
1355.1459720241
 30
0.0
 11
4135.4163010121
 21
1355.1459720241
 31
0.0
  0
LINE
  5
1ED
330
1F
100
AcDbEntity
  8
0
  6
Continuous
 62
     7
370
    25
100
AcDbLine
 10
4135.9163010121
 20
1355.1459720241
 30
0.0
 11
4135.6163010121
 21
1355.1459720241
 31
0.0
  0
LINE
  5
1EE
330
1F
100
AcDbEntity
  8
0
  6
Continuous
 62
     7
370
    25
100
AcDbLine
 10
4135.9163010121
 20
1345.7103560054
 30
0.0
 11
4135.9163010121
 21
1355.1459720241
 31
0.0
  0
SPLINE
  5
1EF
330
1F
100
AcDbEntity
  8
0
  6
Continuous
 62
     7
370
    25
100
AcDbSpline
210
0.0
220
0.0
230
1.0
 70
    24
 71
     3
 72
    12
 73
     8
 74
     0
 42
0.00000001
 43
0.00000001
 40
0.0
 40
0.0
 40
0.0
 40
0.0
 40
0.1234882189647948
 40
0.30475747760996
 40
0.4857888495182406
 40
0.667058215401064
 40
1.0
 40
1.0
 40
1.0
 40
1.0
 10
4137.416301012062
 20
1308.254397866318
 30
0.0
 10
4137.376554443025
 20
1308.254397866318
 30
0.0
 10
4137.278463594966
 20
1308.254397866318
 30
0.0
 10
4137.038490306604
 20
1308.254397866317
 30
0.0
 10
4136.722876118109
 20
1308.254397866318
 30
0.0
 10
4136.255966029009
 20
1308.254397866318
 30
0.0
 10
4135.867697428772
 20
1308.254397866316
 30
0.0
 10
4135.616301012057
 20
1308.254397866314
 30
0.0
  0
LINE
  5
1F0
330
1F
100
AcDbEntity
  8
0
  6
Continuous
 62
     7
370
    25
100
AcDbLine
 10
4135.6163010121
 20
1309.2543978663
 30
0.0
 11
4135.6163010121
 21
1308.2543978663
 31
0.0
  0
SPLINE
  5
1F1
330
1F
100
AcDbEntity
  8
0
  6
Continuous
 62
     7
370
    25
100
AcDbSpline
210
0.0
220
0.0
230
1.0
 70
    24
 71
     3
 72
    12
 73
     8
 74
     0
 42
0.00000001
 43
0.00000001
 40
0.0
 40
0.0
 40
0.0
 40
0.0
 40
0.3329369653728289
 40
0.5139656098106312
 40
0.6952322446414773
 40
0.8762609961812998
 40
1.0
 40
1.0
 40
1.0
 40
1.0
 10
4135.61630101205
 20
1365.254397866314
 30
0.0
 10
4135.867698425192
 20
1365.254397866315
 30
0.0
 10
4136.25578877919
 20
1365.254397866317
 30
0.0
 10
4136.722718048866
 20
1365.254397866317
 30
0.0
 10
4137.038236937887
 20
1365.254397866317
 30
0.0
 10
4137.278361156406
 20
1365.254397866317
 30
0.0
 10
4137.376468407418
 20
1365.254397866317
 30
0.0
 10
4137.416301012062
 20
1365.254397866317
 30
0.0
  0
LINE
  5
1F2
330
1F
100
AcDbEntity
  8
0
  6
Continuous
 62
     7
370
    25
100
AcDbLine
 10
4135.616301012
 20
1364.2543978663
 30
0.0
 11
4135.6163010121
 21
1365.2543978663
 31
0.0
  0
LINE
  5
1F3
330
1F
100
AcDbEntity
  8
0
  6
Continuous
 62
     7
370
    25
100
AcDbLine
 10
4135.4163010121
 20
1309.2543978663
 30
0.0
 11
4135.6163010121
 21
1309.2543978663
 31
0.0
  0
LINE
  5
1F4
330
1F
100
AcDbEntity
  8
0
  6
Continuous
 62
     7
370
    25
100
AcDbLine
 10
4135.6163010121
 20
1309.2543978663
 30
0.0
 11
4135.6163010121
 21
1318.3628237086
 31
0.0
  0
SPLINE
  5
1F5
330
1F
100
AcDbEntity
  8
0
  6
Continuous
 62
     7
370
    25
100
AcDbSpline
210
0.0
220
0.0
230
1.0
 70
     8
 71
     3
 72
    10
 73
     6
 74
     0
 42
0.00000001
 43
0.00000001
 40
0.0
 40
0.0
 40
0.0
 40
0.0
 40
0.0371311943475386
 40
0.5486628195612661
 40
1.0
 40
1.0
 40
1.0
 40
1.0
 10
4137.416301012062
 20
1326.50863352614
 30
0.0
 10
4137.410678159848
 20
1326.515351873567
 30
0.0
 10
4137.32759303414
 20
1326.61462439919
 30
0.0
 10
4137.106037061555
 20
1326.715053312386
 30
0.0
 10
4136.874726172309
 20
1326.741841237216
 30
0.0
 10
4136.766301012053
 20
1326.754397866314
 30
0.0
  0
LINE
  5
1F6
330
1F
100
AcDbEntity
  8
0
  6
Continuous
 62
     7
370
    25
100
AcDbLine
 10
4135.9163010121
 20
1326.7543978663
 30
0.0
 11
4136.7663010121
 21
1326.7543978663
 31
0.0
  0
LINE
  5
1F7
330
1F
100
AcDbEntity
  8
0
  6
Continuous
 62
     7
370
    25
100
AcDbLine
 10
4135.416301012
 20
1364.2543978663
 30
0.0
 11
4135.616301012
 21
1364.2543978663
 31
0.0
  0
LINE
  5
1F8
330
1F
100
AcDbEntity
  8
0
  6
Continuous
 62
     7
370
    25
100
AcDbLine
 10
4135.6163010121
 20
1355.1459720241
 30
0.0
 11
4135.616301012
 21
1364.2543978663
 31
0.0
  0
SPLINE
  5
1F9
330
1F
100
AcDbEntity
  8
0
  6
Continuous
 62
     7
370
    25
100
AcDbSpline
210
0.0
220
0.0
230
1.0
 70
     8
 71
     3
 72
     9
 73
     5
 74
     0
 42
0.00000001
 43
0.00000001
 40
0.0
 40
0.0
 40
0.0
 40
0.0
 40
0.5050081268901068
 40
1.0
 40
1.0
 40
1.0
 40
1.0
 10
4136.766301012052
 20
1346.754397866314
 30
0.0
 10
4136.889597283919
 20
1346.766617725698
 30
0.0
 10
4137.133744388298
 20
1346.790815077649
 30
0.0
 10
4137.322746501852
 20
1346.927891150912
 30
0.0
 10
4137.416301012062
 20
1346.995742693175
 30
0.0
  0
LINE
  5
1FA
330
1F
100
AcDbEntity
  8
0
  6
Continuous
 62
     7
370
    25
100
AcDbLine
 10
4136.7663010121
 20
1346.7543978663
 30
0.0
 11
4135.9163010121
 21
1346.7543978663
 31
0.0
  0
LINE
  5
1FB
330
1F
100
AcDbEntity
  8
0
  6
Continuous
 62
     7
370
    25
100
AcDbLine
 10
4135.4163010121
 20
1308.2543978663
 30
0.0
 11
4135.6163010121
 21
1308.2543978663
 31
0.0
  0
LINE
  5
1FC
330
1F
100
AcDbEntity
  8
0
  6
Continuous
 62
     7
370
    25
100
AcDbLine
 10
4135.4163010121
 20
1365.2543978663
 30
0.0
 11
4135.6163010121
 21
1365.2543978663
 31
0.0
  0
LINE
  5
1FD
330
1F
100
AcDbEntity
  8
0
  6
Continuous
 62
     7
370
    25
100
AcDbLine
 10
4137.2814859371
 20
1328.3793978663
 30
0.0
 11
4137.2814859371
 21
1329.3043978663
 31
0.0
  0
LINE
  5
1FE
330
1F
100
AcDbEntity
  8
0
  6
Continuous
 62
     7
370
    25
100
AcDbLine
 10
4137.2814859371
 20
1344.2043978663
 30
0.0
 11
4137.2814859371
 21
1345.1293978663
 31
0.0
  0
LINE
  5
1FF
330
1F
100
AcDbEntity
  8
0
  6
Continuous
 62
     7
370
    25
100
AcDbLine
 10
4137.2814859371
 20
1345.1293978663
 30
0.0
 11
4137.4163010121
 21
1345.1293978663
 31
0.0
  0
LINE
  5
200
330
1F
100
AcDbEntity
  8
0
  6
Continuous
 62
     7
370
    25
100
AcDbLine
 10
4137.4163010121
 20
1328.3793978663
 30
0.0
 11
4137.2814859371
 21
1328.3793978663
 31
0.0
  0
LINE
  5
201
330
1F
100
AcDbEntity
  8
0
  6
Continuous
 62
     7
370
    25
100
AcDbLine
 10
4135.9163010121
 20
1345.1293978663
 30
0.0
 11
4137.2814859371
 21
1345.1293978663
 31
0.0
  0
LINE
  5
202
330
1F
100
AcDbEntity
  8
0
  6
Continuous
 62
     7
370
    25
100
AcDbLine
 10
4137.2814859371
 20
1328.3793978663
 30
0.0
 11
4135.9163010121
 21
1328.3793978663
 31
0.0
  0
LINE
  5
203
330
1F
100
AcDbEntity
  8
0
  6
Continuous
 62
     7
370
    25
100
AcDbLine
 10
4137.2814859371
 20
1058.3793978663
 30
0.0
 11
4137.2814859371
 21
1059.3043978663
 31
0.0
  0
LINE
  5
204
330
1F
100
AcDbEntity
  8
0
  6
Continuous
 62
     7
370
    25
100
AcDbLine
 10
4137.2814859371
 20
1074.2043978663
 30
0.0
 11
4137.2814859371
 21
1075.1293978663
 31
0.0
  0
LINE
  5
205
330
1F
100
AcDbEntity
  8
0
  6
Continuous
 62
     7
370
    25
100
AcDbLine
 10
4137.2814859371
 20
1075.1293978663
 30
0.0
 11
4137.4163010121
 21
1075.1293978663
 31
0.0
  0
LINE
  5
206
330
1F
100
AcDbEntity
  8
0
  6
Continuous
 62
     7
370
    25
100
AcDbLine
 10
4137.4163010121
 20
1058.3793978663
 30
0.0
 11
4137.2814859371
 21
1058.3793978663
 31
0.0
  0
LINE
  5
207
330
1F
100
AcDbEntity
  8
0
  6
Continuous
 62
     7
370
    25
100
AcDbLine
 10
4135.9163010121
 20
1075.1293978663
 30
0.0
 11
4137.2814859371
 21
1075.1293978663
 31
0.0
  0
LINE
  5
208
330
1F
100
AcDbEntity
  8
0
  6
Continuous
 62
     7
370
    25
100
AcDbLine
 10
4137.2814859371
 20
1058.3793978663
 30
0.0
 11
4135.9163010121
 21
1058.3793978663
 31
0.0
  0
LINE
  5
209
330
1F
100
AcDbEntity
  8
0
  6
Continuous
 62
     7
370
    25
100
AcDbLine
 10
4137.4163010121
 20
1060.2543978663
 30
0.0
 11
4135.4163010121
 21
1060.2543978663
 31
0.0
  0
LINE
  5
20A
330
1F
100
AcDbEntity
  8
0
  6
Continuous
 62
     7
370
    25
100
AcDbLine
 10
4135.4163010121
 20
1073.2543978663
 30
0.0
 11
4137.4163010121
 21
1073.2543978663
 31
0.0
  0
LINE
  5
20B
330
1F
100
AcDbEntity
  8
0
  6
Continuous
 62
     7
370
    25
100
AcDbLine
 10
4136.6875835572
 20
1074.2043978663
 30
0.0
 11
4136.6875835572
 21
1073.2543978663
 31
0.0
  0
LINE
  5
20C
330
1F
100
AcDbEntity
  8
0
  6
Continuous
 62
     7
370
    25
100
AcDbLine
 10
4136.6875835572
 20
1060.2543978663
 30
0.0
 11
4136.6875835572
 21
1059.3043978663
 31
0.0
  0
LINE
  5
20D
330
1F
100
AcDbEntity
  8
0
  6
Continuous
 62
     7
370
    25
100
AcDbLine
 10
4136.6875835572
 20
1074.2043978663
 30
0.0
 11
4137.4163010121
 21
1074.2043978663
 31
0.0
  0
LINE
  5
20E
330
1F
100
AcDbEntity
  8
0
  6
Continuous
 62
     7
370
    25
100
AcDbLine
 10
4136.6875835572
 20
1059.3043978663
 30
0.0
 11
4137.4163010121
 21
1059.3043978663
 31
0.0
  0
LINE
  5
20F
330
1F
100
AcDbEntity
  8
0
  6
Continuous
 62
     7
370
    25
100
AcDbLine
 10
4136.6262140616
 20
1074.2043978663
 30
0.0
 11
4136.6262140616
 21
1073.2543978663
 31
0.0
  0
LINE
  5
210
330
1F
100
AcDbEntity
  8
0
  6
Continuous
 62
     7
370
    25
100
AcDbLine
 10
4136.6262140616
 20
1060.2543978663
 30
0.0
 11
4136.6262140616
 21
1059.3043978663
 31
0.0
  0
LINE
  5
211
330
1F
100
AcDbEntity
  8
0
  6
Continuous
 62
     7
370
    25
100
AcDbLine
 10
4136.6262140616
 20
1074.2043978663
 30
0.0
 11
4136.6875835572
 21
1074.2043978663
 31
0.0
  0
LINE
  5
212
330
1F
100
AcDbEntity
  8
0
  6
Continuous
 62
     7
370
    25
100
AcDbLine
 10
4136.6262140616
 20
1059.3043978663
 30
0.0
 11
4136.6875835572
 21
1059.3043978663
 31
0.0
  0
LINE
  5
213
330
1F
100
AcDbEntity
  8
0
  6
Continuous
 62
     7
370
    25
100
AcDbLine
 10
4137.4163010121
 20
1330.2543978663
 30
0.0
 11
4135.4163010121
 21
1330.2543978663
 31
0.0
  0
LINE
  5
214
330
1F
100
AcDbEntity
  8
0
  6
Continuous
 62
     7
370
    25
100
AcDbLine
 10
4135.4163010121
 20
1343.2543978663
 30
0.0
 11
4137.4163010121
 21
1343.2543978663
 31
0.0
  0
LINE
  5
215
330
1F
100
AcDbEntity
  8
0
  6
Continuous
 62
     7
370
    25
100
AcDbLine
 10
4136.6875835572
 20
1344.2043978663
 30
0.0
 11
4136.6875835572
 21
1343.2543978663
 31
0.0
  0
LINE
  5
216
330
1F
100
AcDbEntity
  8
0
  6
Continuous
 62
     7
370
    25
100
AcDbLine
 10
4136.6875835572
 20
1330.2543978663
 30
0.0
 11
4136.6875835572
 21
1329.3043978663
 31
0.0
  0
LINE
  5
217
330
1F
100
AcDbEntity
  8
0
  6
Continuous
 62
     7
370
    25
100
AcDbLine
 10
4136.6875835572
 20
1344.2043978663
 30
0.0
 11
4137.4163010121
 21
1344.2043978663
 31
0.0
  0
LINE
  5
218
330
1F
100
AcDbEntity
  8
0
  6
Continuous
 62
     7
370
    25
100
AcDbLine
 10
4136.6875835572
 20
1329.3043978663
 30
0.0
 11
4137.4163010121
 21
1329.3043978663
 31
0.0
  0
LINE
  5
219
330
1F
100
AcDbEntity
  8
0
  6
Continuous
 62
     7
370
    25
100
AcDbLine
 10
4136.6262140616
 20
1344.2043978663
 30
0.0
 11
4136.6262140616
 21
1343.2543978663
 31
0.0
  0
LINE
  5
21A
330
1F
100
AcDbEntity
  8
0
  6
Continuous
 62
     7
370
    25
100
AcDbLine
 10
4136.6262140616
 20
1330.2543978663
 30
0.0
 11
4136.6262140616
 21
1329.3043978663
 31
0.0
  0
LINE
  5
21B
330
1F
100
AcDbEntity
  8
0
  6
Continuous
 62
     7
370
    25
100
AcDbLine
 10
4136.6262140616
 20
1344.2043978663
 30
0.0
 11
4136.6875835572
 21
1344.2043978663
 31
0.0
  0
LINE
  5
21C
330
1F
100
AcDbEntity
  8
0
  6
Continuous
 62
     7
370
    25
100
AcDbLine
 10
4136.6262140616
 20
1329.3043978663
 30
0.0
 11
4136.6875835572
 21
1329.3043978663
 31
0.0
  0
LINE
  5
21D
330
1F
100
AcDbEntity
  8
0
  6
Continuous
 62
     7
370
    25
100
AcDbLine
 10
4135.9163010121
 20
1074.2293978663
 30
0.0
 11
4136.2278668149
 21
1074.2293978663
 31
0.0
  0
LINE
  5
21E
330
1F
100
AcDbEntity
  8
0
  6
Continuous
 62
     7
370
    25
100
AcDbLine
 10
4136.2278668149
 20
1059.2793978663
 30
0.0
 11
4136.2278668149
 21
1060.2543978663
 31
0.0
  0
LINE
  5
21F
330
1F
100
AcDbEntity
  8
0
  6
Continuous
 62
     7
370
    25
100
AcDbLine
 10
4136.2278668149
 20
1073.2543978663
 30
0.0
 11
4136.2278668149
 21
1074.2293978663
 31
0.0
  0
LINE
  5
220
330
1F
100
AcDbEntity
  8
0
  6
Continuous
 62
     7
370
    25
100
AcDbLine
 10
4135.9163010121
 20
1059.2793978663
 30
0.0
 11
4136.2278668149
 21
1059.2793978663
 31
0.0
  0
LINE
  5
221
330
1F
100
AcDbEntity
  8
0
  6
Continuous
 62
     7
370
    25
100
AcDbLine
 10
4136.2278668149
 20
1074.2293978663
 30
0.0
 11
4136.2670094093
 21
1074.2293978663
 31
0.0
  0
LINE
  5
222
330
1F
100
AcDbEntity
  8
0
  6
Continuous
 62
     7
370
    25
100
AcDbLine
 10
4136.2278668149
 20
1059.2793978663
 30
0.0
 11
4136.2670094093
 21
1059.2793978663
 31
0.0
  0
LINE
  5
223
330
1F
100
AcDbEntity
  8
0
  6
Continuous
 62
     7
370
    25
100
AcDbLine
 10
4135.9163010121
 20
1344.2293978663
 30
0.0
 11
4136.2278668149
 21
1344.2293978663
 31
0.0
  0
LINE
  5
224
330
1F
100
AcDbEntity
  8
0
  6
Continuous
 62
     7
370
    25
100
AcDbLine
 10
4136.2278668149
 20
1329.2793978663
 30
0.0
 11
4136.2278668149
 21
1330.2543978663
 31
0.0
  0
LINE
  5
225
330
1F
100
AcDbEntity
  8
0
  6
Continuous
 62
     7
370
    25
100
AcDbLine
 10
4136.2278668149
 20
1343.2543978663
 30
0.0
 11
4136.2278668149
 21
1344.2293978663
 31
0.0
  0
LINE
  5
226
330
1F
100
AcDbEntity
  8
0
  6
Continuous
 62
     7
370
    25
100
AcDbLine
 10
4135.9163010121
 20
1329.2793978663
 30
0.0
 11
4136.2278668149
 21
1329.2793978663
 31
0.0
  0
LINE
  5
227
330
1F
100
AcDbEntity
  8
0
  6
Continuous
 62
     7
370
    25
100
AcDbLine
 10
4136.2278668149
 20
1344.2293978663
 30
0.0
 11
4136.2670094093
 21
1344.2293978663
 31
0.0
  0
LINE
  5
228
330
1F
100
AcDbEntity
  8
0
  6
Continuous
 62
     7
370
    25
100
AcDbLine
 10
4136.2278668149
 20
1329.2793978663
 30
0.0
 11
4136.2670094093
 21
1329.2793978663
 31
0.0
  0
LINE
  5
229
330
1F
100
AcDbEntity
  8
0
  6
Continuous
 62
     7
370
    25
100
AcDbLine
 10
4517.8940211741
 20
1329.2767567878
 30
0.0
 11
4517.7500479585
 21
1334.7748720752
 31
0.0
  0
LINE
  5
22A
330
1F
100
AcDbEntity
  8
0
  6
Continuous
 62
     7
370
    25
100
AcDbLine
 10
4519.8884726929
 20
1339.0823255656
 30
0.0
 11
4519.3649337268
 21
1359.0754720652
 31
0.0
  0
LINE
  5
22B
330
1F
100
AcDbEntity
  8
0
  6
Continuous
 62
     7
370
    25
100
AcDbLine
 10
4520.5886322916
 20
1358.0117271316
 30
0.0
 11
4521.0548221131
 21
1340.2086561082
 31
0.0
  0
LINE
  5
22C
330
1F
100
AcDbEntity
  8
0
  6
Continuous
 62
     7
370
    25
100
AcDbLine
 10
4518.8843458927
 20
1348.7601066029
 30
0.0
 11
4519.1382819156
 21
1339.0626811288
 31
0.0
  0
LINE
  5
22D
330
1F
100
AcDbEntity
  8
0
  6
Continuous
 62
     7
370
    25
100
AcDbLine
 10
4521.1528571334
 20
1341.8115145215
 30
0.0
 11
4520.7704200861
 21
1356.4161961367
 31
0.0
  0
LINE
  5
22E
330
1F
100
AcDbEntity
  8
0
  6
Continuous
 62
     7
370
    25
100
AcDbLine
 10
4518.2945485266
 20
1344.5424743019
 30
0.0
 11
4518.1728826872
 21
1349.1887052586
 31
0.0
  0
LINE
  5
22F
330
1F
100
AcDbEntity
  8
0
  6
Continuous
 62
     7
370
    25
100
AcDbLine
 10
4518.1728826872
 20
1349.1887052586
 30
0.0
 11
4518.0589560754
 21
1353.539387036
 31
0.0
  0
LINE
  5
230
330
1F
100
AcDbEntity
  8
0
  6
Continuous
 62
     7
370
    25
100
AcDbLine
 10
4121.6163010121
 20
1416.9543978663
 30
0.0
 11
4121.6163010121
 21
1416.7543978663
 31
0.0
  0
ARC
  5
231
330
1F
100
AcDbEntity
  8
0
  6
Continuous
 62
     7
370
    25
100
AcDbCircle
 10
4121.4994456096
 20
1416.2543978663
 30
0.0
 40
0.8000000000000791
100
AcDbArc
 50
38.6821874535
 51
99.5765884811
  0
ARC
  5
232
330
1F
100
AcDbEntity
  8
0
  6
Continuous
 62
     7
370
    25
100
AcDbCircle
 10
4134.7163010121
 20
1404.7543978663
 30
0.0
 40
0.800000000000435
100
AcDbArc
 50
0.0
 51
28.9550243722
  0
LINE
  5
233
330
1F
100
AcDbEntity
  8
0
  6
Continuous
 62
     7
370
    25
100
AcDbLine
 10
4135.5163010121
 20
1385.2543978663
 30
0.0
 11
4135.5163010121
 21
1404.7543978663
 31
0.0
  0
LINE
  5
234
330
1F
100
AcDbEntity
  8
0
  6
Continuous
 62
     7
370
    25
100
AcDbLine
 10
4135.6163010121
 20
1039.2543978663
 30
0.0
 11
4137.4163010121
 21
1039.2543978663
 31
0.0
  0
LINE
  5
235
330
1F
100
AcDbEntity
  8
0
  6
Continuous
 62
     7
370
    25
100
AcDbLine
 10
4135.616301012
 20
1094.2543978663
 30
0.0
 11
4137.4163010121
 21
1094.2543978663
 31
0.0
  0
LINE
  5
236
330
1F
100
AcDbEntity
  8
0
  6
Continuous
 62
     7
370
    25
100
AcDbLine
 10
4136.7663010121
 20
1058.3793978663
 30
0.0
 11
4136.7663010121
 21
1056.7543978663
 31
0.0
  0
LINE
  5
237
330
1F
100
AcDbEntity
  8
0
  6
Continuous
 62
     7
370
    25
100
AcDbLine
 10
4136.7663010121
 20
1076.7543978663
 30
0.0
 11
4136.7663010121
 21
1075.1293978663
 31
0.0
  0
LINE
  5
238
330
1F
100
AcDbEntity
  8
0
  6
Continuous
 62
     7
370
    25
100
AcDbLine
 10
4135.6163010121
 20
1309.2543978663
 30
0.0
 11
4137.4163010121
 21
1309.2543978663
 31
0.0
  0
LINE
  5
239
330
1F
100
AcDbEntity
  8
0
  6
Continuous
 62
     7
370
    25
100
AcDbLine
 10
4135.616301012
 20
1364.2543978663
 30
0.0
 11
4137.4163010121
 21
1364.2543978663
 31
0.0
  0
LINE
  5
23A
330
1F
100
AcDbEntity
  8
0
  6
Continuous
 62
     7
370
    25
100
AcDbLine
 10
4136.7663010121
 20
1328.3793978663
 30
0.0
 11
4136.7663010121
 21
1326.7543978663
 31
0.0
  0
LINE
  5
23B
330
1F
100
AcDbEntity
  8
0
  6
Continuous
 62
     7
370
    25
100
AcDbLine
 10
4136.7663010121
 20
1346.7543978663
 30
0.0
 11
4136.7663010121
 21
1345.1293978663
 31
0.0
  0
SPLINE
  5
23C
330
1F
100
AcDbEntity
  8
0
  6
Continuous
 62
     7
370
    25
100
AcDbSpline
210
0.0
220
0.0
230
1.0
 70
     8
 71
     3
 72
    16
 73
    12
 74
     0
 42
0.00000001
 43
0.00000001
 40
0.0
 40
0.0
 40
0.0
 40
0.0
 40
0.0490847390187415
 40
0.1518473045647023
 40
0.2358684990992586
 40
0.3090519161655174
 40
0.3734786142110907
 40
0.437032818032825
 40
0.5258016248251354
 40
0.7068629655468517
 40
1.0
 40
1.0
 40
1.0
 40
1.0
 10
1891.425074168681
 20
2753.664749109271
 30
0.0
 10
1891.429765765415
 20
2753.730939501492
 30
0.0
 10
1891.444279570164
 20
2753.935704421255
 30
0.0
 10
1891.317101818794
 20
2754.239921080902
 30
0.0
 10
1891.112885409268
 20
2754.515984719923
 30
0.0
 10
1890.891873803402
 20
2754.689323194563
 30
0.0
 10
1890.700107235659
 20
2754.786327207065
 30
0.0
 10
1890.542893347476
 20
2754.840400572422
 30
0.0
 10
1890.377542172422
 20
2754.879033393794
 30
0.0
 10
1890.181828237496
 20
2754.908770279314
 30
0.0
 10
1889.95421384539
 20
2754.925985948586
 30
0.0
 10
1889.813508580686
 20
2754.936628225111
 30
0.0
  0
SPLINE
  5
23D
330
1F
100
AcDbEntity
  8
0
  6
Continuous
 62
     7
370
    25
100
AcDbSpline
210
0.0
220
0.0
230
1.0
 70
     8
 71
     3
 72
    14
 73
    10
 74
     0
 42
0.00000001
 43
0.00000001
 40
0.0
 40
0.0
 40
0.0
 40
0.0
 40
0.4380448777707909
 40
0.5889072021156289
 40
0.6648524542794869
 40
0.7505291071917559
 40
0.8517030556681141
 40
0.962026731475616
 40
1.0
 40
1.0
 40
1.0
 40
1.0
 10
1873.029691039091
 20
2754.935504543184
 30
0.0
 10
1872.857587419211
 20
2754.920813519866
 30
0.0
 10
1872.626211442912
 20
2754.901062919236
 30
0.0
 10
1872.326901395459
 20
2754.840915253046
 30
0.0
 10
1872.053382146916
 20
2754.724397548355
 30
0.0
 10
1871.789180317131
 20
2754.534471220179
 30
0.0
 10
1871.560956382537
 20
2754.221975085901
 30
0.0
 10
1871.436910392507
 20
2753.900010100721
 30
0.0
 10
1871.458389890546
 20
2753.704696279349
 30
0.0
 10
1871.463889981937
 20
2753.654683757385
 30
0.0
  0
LINE
  5
23E
330
1F
100
AcDbEntity
  8
0
  6
Continuous
 62
     7
370
    25
100
AcDbLine
 10
1891.4454585654
 20
2752.914092518
 30
0.0
 11
1891.4454585654
 21
2753.6642832953
 31
0.0
  0
LINE
  5
23F
330
1F
100
AcDbEntity
  8
0
  6
Continuous
 62
     7
370
    25
100
AcDbLine
 10
1871.4454585654
 20
2753.6642832953
 30
0.0
 11
1871.4454585654
 21
2752.914092518
 31
0.0
  0
LINE
  5
240
330
1F
100
AcDbEntity
  8
0
  6
Continuous
 62
     7
370
    25
100
AcDbLine
 10
1889.9418327899
 20
2754.9290740988
 30
0.0
 11
1888.4154268517
 21
2755.0564516333
 31
0.0
  0
LINE
  5
241
330
1F
100
AcDbEntity
  8
0
  6
Continuous
 62
     7
370
    25
100
AcDbLine
 10
1874.475490279
 20
2755.0564516333
 30
0.0
 11
1872.9490843408
 21
2754.9290740988
 31
0.0
  0
SPLINE
  5
242
330
1F
100
AcDbEntity
  8
0
  6
Continuous
 62
     7
370
    25
100
AcDbSpline
210
0.0
220
0.0
230
1.0
 70
     8
 71
     3
 72
    14
 73
    10
 74
     0
 42
0.00000001
 43
0.00000001
 40
0.0
 40
0.0
 40
0.0
 40
0.0
 40
0.0907475556428546
 40
0.2288563839002805
 40
0.4128530542465855
 40
0.6071420004332666
 40
0.787828231839242
 40
0.9626611221742766
 40
1.0
 40
1.0
 40
1.0
 40
1.0
 10
1888.325460923737
 20
2755.06155340606
 30
0.0
 10
1888.113909756889
 20
2755.078385939608
 30
0.0
 10
1887.58039858172
 20
2755.120835928839
 30
0.0
 10
1886.71991294117
 20
2755.16279621905
 30
0.0
 10
1885.670112580987
 20
2755.199728364268
 30
0.0
 10
1884.435496063465
 20
2755.22545393089
 30
0.0
 10
1883.098989846262
 20
2755.241299849525
 30
0.0
 10
1882.088959722674
 20
2755.246111519763
 30
0.0
 10
1881.541757506839
 20
2755.24635110326
 30
0.0
 10
1881.445458565372
 20
2755.246393266168
 30
0.0
  0
SPLINE
  5
243
330
1F
100
AcDbEntity
  8
0
  6
Continuous
 62
     7
370
    25
100
AcDbSpline
210
0.0
220
0.0
230
1.0
 70
     8
 71
     3
 72
    13
 73
     9
 74
     0
 42
0.00000001
 43
0.00000001
 40
0.0
 40
0.0
 40
0.0
 40
0.0
 40
0.0971790056423943
 40
0.2845710337029654
 40
0.4775192778488019
 40
0.6890792027697126
 40
0.8771625243238599
 40
1.0
 40
1.0
 40
1.0
 40
1.0
 10
1881.445458565372
 20
2755.246393266168
 30
0.0
 10
1881.198437493662
 20
2755.246131497292
 30
0.0
 10
1880.475081237256
 20
2755.245364954773
 30
0.0
 10
1879.282482825129
 20
2755.236490482709
 30
0.0
 10
1877.912409207474
 20
2755.21625113844
 30
0.0
 10
1876.678104082214
 20
2755.182234192517
 30
0.0
 10
1875.648335398521
 20
2755.142730979271
 30
0.0
 10
1874.941932094426
 20
2755.089110818867
 30
0.0
 10
1874.662848805507
 20
2755.067926757819
 30
0.0
  0
LINE
  5
244
330
1F
100
AcDbEntity
  8
0
  6
Continuous
 62
     7
370
    25
100
AcDbLine
 10
1885.9454585654
 20
2749.9538810975
 30
0.0
 11
1885.9454585654
 21
2752.2143323905
 31
0.0
  0
LINE
  5
245
330
1F
100
AcDbEntity
  8
0
  6
Continuous
 62
     7
370
    25
100
AcDbLine
 10
1876.9454585654
 20
2752.2143323905
 30
0.0
 11
1876.9454585654
 21
2749.9538810975
 31
0.0
  0
SPLINE
  5
246
330
1F
100
AcDbEntity
  8
0
  6
Continuous
 62
     7
370
    25
100
AcDbSpline
210
0.0
220
0.0
230
1.0
 70
     8
 71
     3
 72
    16
 73
    12
 74
     0
 42
0.00000001
 43
0.00000001
 40
0.0
 40
0.0
 40
0.0
 40
0.0
 40
0.0490847390187457
 40
0.1518473045646997
 40
0.2358684990992529
 40
0.309051916165518
 40
0.3734786142111095
 40
0.4370328180328213
 40
0.5258016248251286
 40
0.7068629655468514
 40
1.0
 40
1.0
 40
1.0
 40
1.0
 10
3167.925074168681
 20
2753.66474910927
 30
0.0
 10
3167.929765765415
 20
2753.730939501491
 30
0.0
 10
3167.944279570164
 20
2753.935704421254
 30
0.0
 10
3167.817101818793
 20
2754.239921080901
 30
0.0
 10
3167.612885409267
 20
2754.515984719922
 30
0.0
 10
3167.391873803402
 20
2754.689323194562
 30
0.0
 10
3167.200107235659
 20
2754.786327207064
 30
0.0
 10
3167.042893347476
 20
2754.840400572421
 30
0.0
 10
3166.877542172422
 20
2754.879033393793
 30
0.0
 10
3166.681828237496
 20
2754.908770279313
 30
0.0
 10
3166.45421384539
 20
2754.925985948584
 30
0.0
 10
3166.313508580686
 20
2754.93662822511
 30
0.0
  0
SPLINE
  5
247
330
1F
100
AcDbEntity
  8
0
  6
Continuous
 62
     7
370
    25
100
AcDbSpline
210
0.0
220
0.0
230
1.0
 70
     8
 71
     3
 72
    14
 73
    10
 74
     0
 42
0.00000001
 43
0.00000001
 40
0.0
 40
0.0
 40
0.0
 40
0.0
 40
0.4380448777707882
 40
0.5889072021156322
 40
0.6648524542794882
 40
0.750529107191755
 40
0.8517030556681067
 40
0.9620267314756163
 40
1.0
 40
1.0
 40
1.0
 40
1.0
 10
3149.529691039091
 20
2754.935504543183
 30
0.0
 10
3149.357587419211
 20
2754.920813519864
 30
0.0
 10
3149.126211442911
 20
2754.901062919235
 30
0.0
 10
3148.826901395459
 20
2754.840915253045
 30
0.0
 10
3148.553382146916
 20
2754.724397548354
 30
0.0
 10
3148.289180317131
 20
2754.534471220177
 30
0.0
 10
3148.060956382537
 20
2754.2219750859
 30
0.0
 10
3147.936910392507
 20
2753.90001010072
 30
0.0
 10
3147.958389890546
 20
2753.704696279347
 30
0.0
 10
3147.963889981937
 20
2753.654683757384
 30
0.0
  0
LINE
  5
248
330
1F
100
AcDbEntity
  8
0
  6
Continuous
 62
     7
370
    25
100
AcDbLine
 10
3167.9454585654
 20
2752.914092518
 30
0.0
 11
3167.9454585654
 21
2753.6642832953
 31
0.0
  0
LINE
  5
249
330
1F
100
AcDbEntity
  8
0
  6
Continuous
 62
     7
370
    25
100
AcDbLine
 10
3147.9454585654
 20
2753.6642832953
 30
0.0
 11
3147.9454585654
 21
2752.914092518
 31
0.0
  0
LINE
  5
24A
330
1F
100
AcDbEntity
  8
0
  6
Continuous
 62
     7
370
    25
100
AcDbLine
 10
3166.4418327899
 20
2754.9290740988
 30
0.0
 11
3164.9154268517
 21
2755.0564516333
 31
0.0
  0
LINE
  5
24B
330
1F
100
AcDbEntity
  8
0
  6
Continuous
 62
     7
370
    25
100
AcDbLine
 10
3150.975490279
 20
2755.0564516333
 30
0.0
 11
3149.4490843408
 21
2754.9290740988
 31
0.0
  0
SPLINE
  5
24C
330
1F
100
AcDbEntity
  8
0
  6
Continuous
 62
     7
370
    25
100
AcDbSpline
210
0.0
220
0.0
230
1.0
 70
     8
 71
     3
 72
    14
 73
    10
 74
     0
 42
0.00000001
 43
0.00000001
 40
0.0
 40
0.0
 40
0.0
 40
0.0
 40
0.0907475556428246
 40
0.2288563839002519
 40
0.4128530542465442
 40
0.6071420004332361
 40
0.78782823183922
 40
0.9626611221742537
 40
0.9999999999999999
 40
0.9999999999999999
 40
0.9999999999999999
 40
0.9999999999999999
 10
3164.825460923737
 20
2755.061553406059
 30
0.0
 10
3164.613909756889
 20
2755.078385939607
 30
0.0
 10
3164.080398581719
 20
2755.120835928838
 30
0.0
 10
3163.219912941171
 20
2755.162796219049
 30
0.0
 10
3162.170112580988
 20
2755.199728364267
 30
0.0
 10
3160.935496063464
 20
2755.225453930889
 30
0.0
 10
3159.598989846262
 20
2755.241299849524
 30
0.0
 10
3158.588959722675
 20
2755.246111519762
 30
0.0
 10
3158.041757506839
 20
2755.246351103259
 30
0.0
 10
3157.945458565372
 20
2755.246393266167
 30
0.0
  0
SPLINE
  5
24D
330
1F
100
AcDbEntity
  8
0
  6
Continuous
 62
     7
370
    25
100
AcDbSpline
210
0.0
220
0.0
230
1.0
 70
     8
 71
     3
 72
    13
 73
     9
 74
     0
 42
0.00000001
 43
0.00000001
 40
0.0
 40
0.0
 40
0.0
 40
0.0
 40
0.0971790056424112
 40
0.2845710337029506
 40
0.4775192778487961
 40
0.6890792027697006
 40
0.8771625243238564
 40
0.9999999999999999
 40
0.9999999999999999
 40
0.9999999999999999
 40
0.9999999999999999
 10
3157.945458565372
 20
2755.246393266167
 30
0.0
 10
3157.698437493663
 20
2755.246131497291
 30
0.0
 10
3156.975081237257
 20
2755.245364954772
 30
0.0
 10
3155.782482825129
 20
2755.236490482708
 30
0.0
 10
3154.412409207474
 20
2755.216251138439
 30
0.0
 10
3153.178104082214
 20
2755.182234192516
 30
0.0
 10
3152.148335398521
 20
2755.142730979271
 30
0.0
 10
3151.441932094426
 20
2755.089110818866
 30
0.0
 10
3151.162848805507
 20
2755.067926757818
 30
0.0
  0
LINE
  5
24E
330
1F
100
AcDbEntity
  8
0
  6
Continuous
 62
     7
370
    25
100
AcDbLine
 10
3162.4454585654
 20
2749.9538810975
 30
0.0
 11
3162.4454585654
 21
2752.2143323905
 31
0.0
  0
LINE
  5
24F
330
1F
100
AcDbEntity
  8
0
  6
Continuous
 62
     7
370
    25
100
AcDbLine
 10
3153.4454585654
 20
2752.2143323905
 30
0.0
 11
3153.4454585654
 21
2749.9538810975
 31
0.0
  0
LINE
  5
250
330
1F
100
AcDbEntity
  8
0
  6
Continuous
 62
     7
370
    25
100
AcDbLine
 10
3192.4454585654
 20
2351.4538810975
 30
0.0
 11
3192.4454585654
 21
2369.4538810975
 31
0.0
  0
LINE
  5
251
330
1F
100
AcDbEntity
  8
0
  6
Continuous
 62
     7
370
    25
100
AcDbLine
 10
3192.4454585654
 20
2351.4538810975
 30
0.0
 11
2746.4454585654
 21
2351.4538810975
 31
0.0
  0
LINE
  5
252
330
1F
100
AcDbEntity
  8
0
  6
Continuous
 62
     7
370
    25
100
AcDbLine
 10
3192.4454585654
 20
2369.4538810975
 30
0.0
 11
2746.4454585654
 21
2369.4538810975
 31
0.0
  0
LINE
  5
253
330
1F
100
AcDbEntity
  8
0
  6
Continuous
 62
     7
370
    25
100
AcDbLine
 10
2746.4454585654
 20
2351.4538810975
 30
0.0
 11
2746.4454585654
 21
2369.4538810975
 31
0.0
  0
LINE
  5
254
330
1F
100
AcDbEntity
  8
0
  6
Continuous
 62
     7
370
    25
100
AcDbLine
 10
3194.9454585654
 20
2749.9538810975
 30
0.0
 11
1844.4454585654
 21
2749.9538810975
 31
0.0
  0
LINE
  5
255
330
1F
100
AcDbEntity
  8
0
  6
Continuous
 62
     7
370
    25
100
AcDbLine
 10
3194.9454585654
 20
2749.9538810975
 30
0.0
 11
3194.9454585654
 21
2370.9538810975
 31
0.0
  0
LINE
  5
256
330
1F
100
AcDbEntity
  8
0
  6
Continuous
 62
     7
370
    25
100
AcDbLine
 10
3194.9454585654
 20
2370.9538810975
 30
0.0
 11
1844.4454585654
 21
2370.9538810975
 31
0.0
  0
LINE
  5
257
330
1F
100
AcDbEntity
  8
0
  6
Continuous
 62
     7
370
    25
100
AcDbLine
 10
1844.4454585654
 20
2749.9538810975
 30
0.0
 11
1844.4454585654
 21
2370.9538810975
 31
0.0
  0
LINE
  5
258
330
1F
100
AcDbEntity
  8
0
  6
Continuous
 62
     7
370
    25
100
AcDbLine
 10
2742.4454585654
 20
2351.4538810975
 30
0.0
 11
2296.4454585654
 21
2351.4538810975
 31
0.0
  0
LINE
  5
259
330
1F
100
AcDbEntity
  8
0
  6
Continuous
 62
     7
370
    25
100
AcDbLine
 10
2296.4454585654
 20
2351.4538810975
 30
0.0
 11
2296.4454585654
 21
2355.2366694138
 31
0.0
  0
LINE
  5
25A
330
1F
100
AcDbEntity
  8
0
  6
Continuous
 62
     7
370
    25
100
AcDbLine
 10
2742.4454585654
 20
2351.4538810975
 30
0.0
 11
2742.4454585654
 21
2355.2366694141
 31
0.0
  0
LINE
  5
25B
330
1F
100
AcDbEntity
  8
0
  6
Continuous
 62
     7
370
    25
100
AcDbLine
 10
2292.9454585654
 20
2351.4538810975
 30
0.0
 11
1846.9454585654
 21
2351.4538810975
 31
0.0
  0
LINE
  5
25C
330
1F
100
AcDbEntity
  8
0
  6
Continuous
 62
     7
370
    25
100
AcDbLine
 10
1846.9454585654
 20
2351.4538810975
 30
0.0
 11
1846.9454585654
 21
2355.2366694137
 31
0.0
  0
LINE
  5
25D
330
1F
100
AcDbEntity
  8
0
  6
Continuous
 62
     7
370
    25
100
AcDbLine
 10
2292.9454585654
 20
2351.4538810975
 30
0.0
 11
2292.9454585654
 21
2355.2366694141
 31
0.0
  0
ARC
  5
25E
330
1F
100
AcDbEntity
  8
0
  6
Continuous
 62
     7
370
    25
100
AcDbCircle
 10
1882.4487994324
 20
2944.9300038112
 30
0.0
 40
190.3064363785832
100
AcDbArc
 50
269.697921602
 51
271.989829998
  0
ARC
  5
25F
330
1F
100
AcDbEntity
  8
0
  6
Continuous
 62
     7
370
    25
100
AcDbCircle
 10
1880.8807674915
 20
2989.2063632794
 30
0.0
 40
234.5808305752132
100
AcDbArc
 50
268.5008299502
 51
270.1379245117
  0
ARC
  5
260
330
1F
100
AcDbEntity
  8
0
  6
Continuous
 62
     7
370
    25
100
AcDbCircle
 10
1884.2883976532
 20
2835.1862780978
 30
0.0
 40
82.58290404785133
100
AcDbArc
 50
268.0271873052
 51
274.971785139
  0
ARC
  5
261
330
1F
100
AcDbEntity
  8
0
  6
Continuous
 62
     7
370
    25
100
AcDbCircle
 10
1878.8258447337
 20
2843.7176490438
 30
0.0
 40
91.10299653540008
100
AcDbArc
 50
265.3532935281
 51
271.6477340277
  0
SPLINE
  5
262
330
1F
100
AcDbEntity
  8
0
  6
Continuous
 62
     7
370
    25
100
AcDbSpline
210
0.0
220
0.0
230
1.0
 70
     8
 71
     3
 72
    19
 73
    15
 74
     0
 42
0.00000001
 43
0.00000001
 40
0.0
 40
0.0
 40
0.0
 40
0.0
 40
0.0906600731280737
 40
0.205073413897336
 40
0.2719074979493165
 40
0.3443210476357528
 40
0.4209983262120355
 40
0.4999999792228268
 40
0.5790016347260502
 40
0.6556789199260377
 40
0.7280924783131314
 40
0.7949265709542839
 40
0.9093399235674628
 40
1.0
 40
1.0
 40
1.0
 40
1.0
 10
1891.245458565372
 20
2752.71416105302
 30
0.0
 10
1891.168604520704
 20
2752.689935507785
 30
0.0
 10
1890.994760393206
 20
2752.635137236685
 30
0.0
 10
1889.674903170733
 20
2752.568753953304
 30
0.0
 10
1887.918984010536
 20
2752.518841342657
 30
0.0
 10
1886.095890405653
 20
2752.485710477379
 30
0.0
 10
1883.91452431743
 20
2752.463277619615
 30
0.0
 10
1881.521572113842
 20
2752.455015509583
 30
0.0
 10
1879.12404962496
 20
2752.462313475467
 30
0.0
 10
1876.929764294545
 20
2752.483865677208
 30
0.0
 10
1875.087425031521
 20
2752.516258826641
 30
0.0
 10
1873.302394606045
 20
2752.56545877484
 30
0.0
 10
1871.943699588444
 20
2752.631302962633
 30
0.0
 10
1871.737687244353
 20
2752.686024785419
 30
0.0
 10
1871.646612086794
 20
2752.710216533025
 30
0.0
  0
LINE
  5
263
330
1F
100
AcDbEntity
  8
0
  6
Continuous
 62
     7
370
    25
100
AcDbLine
 10
1874.475490279
 20
2755.0564516333
 30
0.0
 11
1874.5274519143
 21
2755.0606198496
 31
0.0
  0
LINE
  5
264
330
1F
100
AcDbEntity
  8
0
  6
Continuous
 62
     7
370
    25
100
AcDbLine
 10
1886.1356302781
 20
2755.113338633
 30
0.0
 11
1886.1346783417
 21
2755.1158121239
 31
0.0
  0
LWPOLYLINE
  5
265
330
1F
100
AcDbEntity
  8
0
  6
Continuous
 62
     7
370
    25
100
AcDbPolyline
 90
       23
 70
   128
 43
0.0
 10
1886.1346783417
 20
2755.1158121239
 10
1885.9194017973
 20
2755.1501872105
 10
1885.3439780752
 20
2755.18159603
 10
1884.4547281094
 20
2755.2075102091
 10
1883.3232354782
 20
2755.2258436869
 10
1882.04058401
 20
2755.2351206399
 10
1880.7100256422
 20
2755.2345942843
 10
1879.4386687613
 20
2755.2243069912
 10
1878.3288561037
 20
2755.2050868755
 10
1877.4699262854
 20
2755.178481134
 10
1876.9310221483
 20
2755.1466314976
 10
1876.7555248428
 20
2755.1121018248
 10
1876.9575616959
 20
2755.0776717135
 10
1877.5208689783
 20
2755.0461127473
 10
1878.4001011149
 20
2755.0199653861
 10
1879.5244809511
 20
2755.0013344616
 10
1880.8034972299
 20
2754.9917197414
 10
1882.1341906426
 20
2754.9918951992
 10
1883.4094419316
 20
2755.0018467108
 10
1884.5265948654
 20
2755.0207731913
 10
1885.3957199443
 20
2755.0471510811
 10
1885.9468536198
 20
2755.0788569912
 10
1886.1356302781
 20
2755.113338633
  0
LINE
  5
266
330
1F
100
AcDbEntity
  8
0
  6
Continuous
 62
     7
370
    25
100
AcDbLine
 10
1878.9996091614
 20
2755.0998575046
 30
0.0
 11
1880.9304585654
 21
2755.0998575046
 31
0.0
  0
LINE
  5
267
330
1F
100
AcDbEntity
  8
0
  6
Continuous
 62
     7
370
    25
100
AcDbLine
 10
1880.9304585654
 20
2755.0998575046
 30
0.0
 11
1880.9304585654
 21
2755.0493137595
 31
0.0
  0
ARC
  5
268
330
1F
100
AcDbEntity
  8
0
  6
Continuous
 62
     7
370
    25
100
AcDbCircle
 10
1881.4454585654
 20
2849.33717489
 30
0.0
 40
94.28926758417188
100
AcDbArc
 50
269.6870537451
 51
270.3129462549
  0
LINE
  5
269
330
1F
100
AcDbEntity
  8
0
  6
Continuous
 62
     7
370
    25
100
AcDbLine
 10
1881.9604585654
 20
2755.0493137595
 30
0.0
 11
1881.9604585654
 21
2755.0998575046
 31
0.0
  0
LINE
  5
26A
330
1F
100
AcDbEntity
  8
0
  6
Continuous
 62
     7
370
    25
100
AcDbLine
 10
1881.9604585654
 20
2755.0998575046
 30
0.0
 11
1883.8913079693
 21
2755.0998575046
 31
0.0
  0
LWPOLYLINE
  5
26B
330
1F
100
AcDbEntity
  8
0
  6
Continuous
 62
     7
370
    25
100
AcDbPolyline
 90
        9
 70
   128
 43
0.0
 10
1883.8913079693
 20
2755.1268197613
 10
1883.9147242752
 20
2755.123481353
 10
1883.9314953662
 20
2755.1201156488
 10
1883.9415761084
 20
2755.1167317065
 10
1883.9449393728
 20
2755.1133386329
 10
1883.9415761084
 20
2755.1099455593
 10
1883.9314953662
 20
2755.1065616171
 10
1883.9147242752
 20
2755.1031959129
 10
1883.8913079693
 20
2755.0998575046
  0
LINE
  5
26C
330
1F
100
AcDbEntity
  8
0
  6
Continuous
 62
     7
370
    25
100
AcDbLine
 10
1883.8913079693
 20
2755.1268197613
 30
0.0
 11
1881.9604585654
 21
2755.1268197613
 31
0.0
  0
LINE
  5
26D
330
1F
100
AcDbEntity
  8
0
  6
Continuous
 62
     7
370
    25
100
AcDbLine
 10
1881.9604585654
 20
2755.1268197613
 30
0.0
 11
1881.9604585654
 21
2755.1773635064
 31
0.0
  0
ARC
  5
26E
330
1F
100
AcDbEntity
  8
0
  6
Continuous
 62
     7
370
    25
100
AcDbCircle
 10
1881.4454585654
 20
2660.8895023521
 30
0.0
 40
94.28926760794481
100
AcDbArc
 50
89.6870537452
 51
90.3129462548
  0
LINE
  5
26F
330
1F
100
AcDbEntity
  8
0
  6
Continuous
 62
     7
370
    25
100
AcDbLine
 10
1880.9304585654
 20
2755.1773635064
 30
0.0
 11
1880.9304585654
 21
2755.1268197613
 31
0.0
  0
LINE
  5
270
330
1F
100
AcDbEntity
  8
0
  6
Continuous
 62
     7
370
    25
100
AcDbLine
 10
1880.9304585654
 20
2755.1268197613
 30
0.0
 11
1878.9996091614
 21
2755.1268197613
 31
0.0
  0
LWPOLYLINE
  5
271
330
1F
100
AcDbEntity
  8
0
  6
Continuous
 62
     7
370
    25
100
AcDbPolyline
 90
        9
 70
   128
 43
0.0
 10
1878.9996091614
 20
2755.0998575046
 10
1878.9761928556
 20
2755.1031959129
 10
1878.9594217646
 20
2755.1065616171
 10
1878.9493410224
 20
2755.1099455593
 10
1878.9459777579
 20
2755.1133386329
 10
1878.9493410224
 20
2755.1167317065
 10
1878.9594217646
 20
2755.1201156488
 10
1878.9761928556
 20
2755.123481353
 10
1878.9996091614
 20
2755.1268197613
  0
LINE
  5
272
330
1F
100
AcDbEntity
  8
0
  6
Continuous
 62
     7
370
    25
100
AcDbLine
 10
1879.0133329309
 20
2755.0998575046
 30
0.0
 11
1878.9996091614
 21
2755.1268197613
 31
0.0
  0
LINE
  5
273
330
1F
100
AcDbEntity
  8
0
  6
Continuous
 62
     7
370
    25
100
AcDbLine
 10
1881.9604585654
 20
2755.1268197613
 30
0.0
 11
1881.9604585654
 21
2755.0998575046
 31
0.0
  0
LINE
  5
274
330
1F
100
AcDbEntity
  8
0
  6
Continuous
 62
     7
370
    25
100
AcDbLine
 10
1880.9304585654
 20
2755.1268197613
 30
0.0
 11
1880.9304585654
 21
2755.0998575046
 31
0.0
  0
ARC
  5
275
330
1F
100
AcDbEntity
  8
0
  6
Continuous
 62
     7
370
    25
100
AcDbCircle
 10
3158.9487994322
 20
2944.930003826
 30
0.0
 40
190.3064363933202
100
AcDbArc
 50
269.6979216021
 51
271.9898299979
  0
ARC
  5
276
330
1F
100
AcDbEntity
  8
0
  6
Continuous
 62
     7
370
    25
100
AcDbCircle
 10
3157.3807674914
 20
2989.2063632733
 30
0.0
 40
234.580830569143
100
AcDbArc
 50
268.5008299501
 51
270.1379245117
  0
ARC
  5
277
330
1F
100
AcDbEntity
  8
0
  6
Continuous
 62
     7
370
    25
100
AcDbCircle
 10
3160.7883976532
 20
2835.1862780978
 30
0.0
 40
82.58290404782274
100
AcDbArc
 50
268.0271873052
 51
274.971785139
  0
ARC
  5
278
330
1F
100
AcDbEntity
  8
0
  6
Continuous
 62
     7
370
    25
100
AcDbCircle
 10
3155.3258447337
 20
2843.7176490436
 30
0.0
 40
91.10299653516161
100
AcDbArc
 50
265.3532935281
 51
271.6477340277
  0
SPLINE
  5
279
330
1F
100
AcDbEntity
  8
0
  6
Continuous
 62
     7
370
    25
100
AcDbSpline
210
0.0
220
0.0
230
1.0
 70
     8
 71
     3
 72
    19
 73
    15
 74
     0
 42
0.00000001
 43
0.00000001
 40
0.0
 40
0.0
 40
0.0
 40
0.0
 40
0.0906600731280735
 40
0.2050734138973367
 40
0.2719074979493178
 40
0.3443210476357562
 40
0.4209983262120345
 40
0.499999979222828
 40
0.5790016347260523
 40
0.6556789199260357
 40
0.7280924783131328
 40
0.7949265709542834
 40
0.9093399235674628
 40
0.9999999999999999
 40
0.9999999999999999
 40
0.9999999999999999
 40
0.9999999999999999
 10
3167.745458565372
 20
2752.71416105302
 30
0.0
 10
3167.668604520705
 20
2752.689935507783
 30
0.0
 10
3167.494760393207
 20
2752.635137236684
 30
0.0
 10
3166.174903170732
 20
2752.568753953304
 30
0.0
 10
3164.418984010536
 20
2752.518841342657
 30
0.0
 10
3162.595890405653
 20
2752.485710477378
 30
0.0
 10
3160.41452431743
 20
2752.463277619614
 30
0.0
 10
3158.021572113843
 20
2752.455015509582
 30
0.0
 10
3155.624049624959
 20
2752.462313475466
 30
0.0
 10
3153.429764294545
 20
2752.483865677207
 30
0.0
 10
3151.587425031521
 20
2752.51625882664
 30
0.0
 10
3149.802394606045
 20
2752.565458774839
 30
0.0
 10
3148.443699588445
 20
2752.631302962632
 30
0.0
 10
3148.237687244353
 20
2752.686024785418
 30
0.0
 10
3148.146612086795
 20
2752.710216533024
 30
0.0
  0
LINE
  5
27A
330
1F
100
AcDbEntity
  8
0
  6
Continuous
 62
     7
370
    25
100
AcDbLine
 10
3150.975490279
 20
2755.0564516333
 30
0.0
 11
3151.0274519143
 21
2755.0606198496
 31
0.0
  0
LINE
  5
27B
330
1F
100
AcDbEntity
  8
0
  6
Continuous
 62
     7
370
    25
100
AcDbLine
 10
3162.6356302781
 20
2755.113338633
 30
0.0
 11
3162.6346783417
 21
2755.1158121239
 31
0.0
  0
LWPOLYLINE
  5
27C
330
1F
100
AcDbEntity
  8
0
  6
Continuous
 62
     7
370
    25
100
AcDbPolyline
 90
       23
 70
   128
 43
0.0
 10
3162.6346783417
 20
2755.1158121239
 10
3162.4194017973
 20
2755.1501872105
 10
3161.8439780752
 20
2755.18159603
 10
3160.9547281094
 20
2755.2075102091
 10
3159.8232354782
 20
2755.2258436869
 10
3158.54058401
 20
2755.2351206399
 10
3157.2100256422
 20
2755.2345942843
 10
3155.9386687613
 20
2755.2243069912
 10
3154.8288561037
 20
2755.2050868755
 10
3153.9699262854
 20
2755.178481134
 10
3153.4310221483
 20
2755.1466314976
 10
3153.2555248428
 20
2755.1121018248
 10
3153.4575616959
 20
2755.0776717135
 10
3154.0208689783
 20
2755.0461127473
 10
3154.9001011149
 20
2755.0199653861
 10
3156.0244809511
 20
2755.0013344616
 10
3157.3034972299
 20
2754.9917197414
 10
3158.6341906426
 20
2754.9918951992
 10
3159.9094419316
 20
2755.0018467108
 10
3161.0265948654
 20
2755.0207731913
 10
3161.8957199443
 20
2755.0471510811
 10
3162.4468536198
 20
2755.0788569912
 10
3162.6356302781
 20
2755.113338633
  0
LINE
  5
27D
330
1F
100
AcDbEntity
  8
0
  6
Continuous
 62
     7
370
    25
100
AcDbLine
 10
3155.4996091614
 20
2755.0998575046
 30
0.0
 11
3157.4304585654
 21
2755.0998575046
 31
0.0
  0
LINE
  5
27E
330
1F
100
AcDbEntity
  8
0
  6
Continuous
 62
     7
370
    25
100
AcDbLine
 10
3157.4304585654
 20
2755.0998575046
 30
0.0
 11
3157.4304585654
 21
2755.0493137595
 31
0.0
  0
ARC
  5
27F
330
1F
100
AcDbEntity
  8
0
  6
Continuous
 62
     7
370
    25
100
AcDbCircle
 10
3157.9454585654
 20
2849.3371748527
 30
0.0
 40
94.28926754688861
100
AcDbArc
 50
269.687053745
 51
270.312946255
  0
LINE
  5
280
330
1F
100
AcDbEntity
  8
0
  6
Continuous
 62
     7
370
    25
100
AcDbLine
 10
3158.4604585654
 20
2755.0493137595
 30
0.0
 11
3158.4604585654
 21
2755.0998575046
 31
0.0
  0
LINE
  5
281
330
1F
100
AcDbEntity
  8
0
  6
Continuous
 62
     7
370
    25
100
AcDbLine
 10
3158.4604585654
 20
2755.0998575046
 30
0.0
 11
3160.3913079693
 21
2755.0998575046
 31
0.0
  0
LWPOLYLINE
  5
282
330
1F
100
AcDbEntity
  8
0
  6
Continuous
 62
     7
370
    25
100
AcDbPolyline
 90
        9
 70
   128
 43
0.0
 10
3160.3913079693
 20
2755.1268197613
 10
3160.4147242752
 20
2755.123481353
 10
3160.4314953662
 20
2755.1201156488
 10
3160.4415761084
 20
2755.1167317065
 10
3160.4449393728
 20
2755.1133386329
 10
3160.4415761084
 20
2755.1099455593
 10
3160.4314953662
 20
2755.1065616171
 10
3160.4147242752
 20
2755.1031959129
 10
3160.3913079693
 20
2755.0998575046
  0
LINE
  5
283
330
1F
100
AcDbEntity
  8
0
  6
Continuous
 62
     7
370
    25
100
AcDbLine
 10
3160.3913079693
 20
2755.1268197613
 30
0.0
 11
3158.4604585654
 21
2755.1268197613
 31
0.0
  0
LINE
  5
284
330
1F
100
AcDbEntity
  8
0
  6
Continuous
 62
     7
370
    25
100
AcDbLine
 10
3158.4604585654
 20
2755.1268197613
 30
0.0
 11
3158.4604585654
 21
2755.1773635064
 31
0.0
  0
ARC
  5
285
330
1F
100
AcDbEntity
  8
0
  6
Continuous
 62
     7
370
    25
100
AcDbCircle
 10
3157.9454585654
 20
2660.8895023758
 30
0.0
 40
94.28926758423509
100
AcDbArc
 50
89.6870537451
 51
90.3129462549
  0
LINE
  5
286
330
1F
100
AcDbEntity
  8
0
  6
Continuous
 62
     7
370
    25
100
AcDbLine
 10
3157.4304585654
 20
2755.1773635064
 30
0.0
 11
3157.4304585654
 21
2755.1268197613
 31
0.0
  0
LINE
  5
287
330
1F
100
AcDbEntity
  8
0
  6
Continuous
 62
     7
370
    25
100
AcDbLine
 10
3157.4304585654
 20
2755.1268197613
 30
0.0
 11
3155.4996091614
 21
2755.1268197613
 31
0.0
  0
LWPOLYLINE
  5
288
330
1F
100
AcDbEntity
  8
0
  6
Continuous
 62
     7
370
    25
100
AcDbPolyline
 90
        9
 70
   128
 43
0.0
 10
3155.4996091614
 20
2755.0998575046
 10
3155.4761928556
 20
2755.1031959129
 10
3155.4594217646
 20
2755.1065616171
 10
3155.4493410224
 20
2755.1099455593
 10
3155.4459777579
 20
2755.1133386329
 10
3155.4493410224
 20
2755.1167317065
 10
3155.4594217646
 20
2755.1201156488
 10
3155.4761928556
 20
2755.123481353
 10
3155.4996091614
 20
2755.1268197613
  0
LINE
  5
289
330
1F
100
AcDbEntity
  8
0
  6
Continuous
 62
     7
370
    25
100
AcDbLine
 10
3155.5133329309
 20
2755.0998575046
 30
0.0
 11
3155.4996091614
 21
2755.1268197613
 31
0.0
  0
LINE
  5
28A
330
1F
100
AcDbEntity
  8
0
  6
Continuous
 62
     7
370
    25
100
AcDbLine
 10
3158.4604585654
 20
2755.1268197613
 30
0.0
 11
3158.4604585654
 21
2755.0998575046
 31
0.0
  0
LINE
  5
28B
330
1F
100
AcDbEntity
  8
0
  6
Continuous
 62
     7
370
    25
100
AcDbLine
 10
3157.4304585654
 20
2755.1268197613
 30
0.0
 11
3157.4304585654
 21
2755.0998575046
 31
0.0
  0
LINE
  5
28C
330
1F
100
AcDbEntity
  8
0
  6
Continuous
 62
     7
370
    25
100
AcDbLine
 10
1846.9454585654
 20
2355.4039330175
 30
0.0
 11
1846.9454585654
 21
2356.3340179166
 31
0.0
  0
ARC
  5
28D
330
1F
100
AcDbEntity
  8
0
  6
Continuous
 62
     7
370
    25
100
AcDbCircle
 10
1847.1450832998
 20
2356.3336412348
 30
0.0
 40
0.1996250898575798
100
AcDbArc
 50
89.8922923776
 51
179.891885898
  0
LINE
  5
28E
330
1F
100
AcDbEntity
  8
0
  6
Continuous
 62
     7
370
    25
100
AcDbLine
 10
1847.1454585654
 20
2356.5332659719
 30
0.0
 11
1847.1454585654
 21
2355.3706598482
 31
0.0
  0
ARC
  5
28F
330
1F
100
AcDbEntity
  8
0
  6
Continuous
 62
     7
370
    25
100
AcDbCircle
 10
1847.0968424451
 20
2355.6961571799
 30
0.0
 40
0.3291079460360229
100
AcDbArc
 50
242.6140248792
 51
278.4948720921
  0
LINE
  5
290
330
1F
100
AcDbEntity
  8
0
  6
Continuous
 62
     7
370
    25
100
AcDbLine
 10
1848.9454585654
 20
2355.3706598482
 30
0.0
 11
1847.1454585654
 21
2355.3706598482
 31
0.0
  0
LINE
  5
291
330
1F
100
AcDbEntity
  8
0
  6
Continuous
 62
     7
370
    25
100
AcDbLine
 10
1848.9454585654
 20
2356.5332659719
 30
0.0
 11
1847.1454585654
 21
2356.5332659719
 31
0.0
  0
LINE
  5
292
330
1F
100
AcDbEntity
  8
0
  6
Continuous
 62
     7
370
    25
100
AcDbLine
 10
1848.9454585654
 20
2355.3706598482
 30
0.0
 11
1848.9454585654
 21
2356.5332659719
 31
0.0
  0
LINE
  5
293
330
1F
100
AcDbEntity
  8
0
  6
Continuous
 62
     7
370
    25
100
AcDbLine
 10
1846.9454585654
 20
2355.2366694141
 30
0.0
 11
1846.9454585654
 21
2355.4039330175
 31
0.0
  0
LINE
  5
294
330
1F
100
AcDbEntity
  8
0
  6
Continuous
 62
     7
370
    25
100
AcDbLine
 10
1847.1454585654
 20
2355.3706598482
 30
0.0
 11
1847.1454585654
 21
2354.9538913263
 31
0.0
  0
SPLINE
  5
295
330
1F
100
AcDbEntity
  8
0
  6
Continuous
 62
     7
370
    25
100
AcDbSpline
210
0.0
220
0.0
230
1.0
 70
     8
 71
     3
 72
    13
 73
     9
 74
     0
 42
0.00000001
 43
0.00000001
 40
0.0
 40
0.0
 40
0.0
 40
0.0
 40
0.0075029974113236
 40
0.3818974549655527
 40
0.6070018873266353
 40
0.7653769096340154
 40
0.8824605049805269
 40
0.9999999999999999
 40
0.9999999999999999
 40
0.9999999999999999
 40
0.9999999999999999
 10
1846.945458565371
 20
2355.236669414064
 30
0.0
 10
1846.945459520975
 20
2355.235651637449
 30
0.0
 10
1846.945508160588
 20
2355.183847501309
 30
0.0
 10
1846.951630265329
 20
2355.105262135942
 30
0.0
 10
1846.993646370803
 20
2355.02262267191
 30
0.0
 10
1847.042457172769
 20
2354.980526553811
 30
0.0
 10
1847.093187820084
 20
2354.958003126976
 30
0.0
 10
1847.128012427535
 20
2354.955263700862
 30
0.0
 10
1847.145458565371
 20
2354.953891326294
 30
0.0
  0
LINE
  5
296
330
1F
100
AcDbEntity
  8
0
  6
Continuous
 62
     7
370
    25
100
AcDbLine
 10
1848.9454585654
 20
2354.9538913263
 30
0.0
 11
1847.1454585654
 21
2354.9538913263
 31
0.0
  0
LINE
  5
297
330
1F
100
AcDbEntity
  8
0
  6
Continuous
 62
     7
370
    25
100
AcDbLine
 10
1848.9454585654
 20
2354.9538913263
 30
0.0
 11
1848.9454585654
 21
2355.3706598482
 31
0.0
  0
ARC
  5
298
330
1F
100
AcDbEntity
  8
0
  6
Continuous
 62
     7
370
    25
100
AcDbCircle
 10
1847.1450832998
 20
2357.1748298534
 30
0.0
 40
0.1996250898582723
100
AcDbArc
 50
89.8922923776
 51
179.8918858979
  0
LINE
  5
299
330
1F
100
AcDbEntity
  8
0
  6
Continuous
 62
     7
370
    25
100
AcDbLine
 10
1847.1454585654
 20
2357.3744545906
 30
0.0
 11
1847.1454585654
 21
2356.5332659719
 31
0.0
  0
LINE
  5
29A
330
1F
100
AcDbEntity
  8
0
  6
Continuous
 62
     7
370
    25
100
AcDbLine
 10
1846.9454585654
 20
2356.3340179166
 30
0.0
 11
1846.9454585654
 21
2357.1752065352
 31
0.0
  0
LINE
  5
29B
330
1F
100
AcDbEntity
  8
0
  6
Continuous
 62
     7
370
    25
100
AcDbLine
 10
1848.9454585654
 20
2357.3744545906
 30
0.0
 11
1847.1454585654
 21
2357.3744545906
 31
0.0
  0
LINE
  5
29C
330
1F
100
AcDbEntity
  8
0
  6
Continuous
 62
     7
370
    25
100
AcDbLine
 10
1848.9454585654
 20
2356.5332659719
 30
0.0
 11
1848.9454585654
 21
2357.3744545906
 31
0.0
  0
LINE
  5
29D
330
1F
100
AcDbEntity
  8
0
  6
Continuous
 62
     7
370
    25
100
AcDbLine
 10
1846.9454585654
 20
2358.3706948675
 30
0.0
 11
1847.1454585654
 21
2358.3706948675
 31
0.0
  0
LINE
  5
29E
330
1F
100
AcDbEntity
  8
0
  6
Continuous
 62
     7
370
    25
100
AcDbLine
 10
1847.1454585654
 20
2358.3706948675
 30
0.0
 11
1847.1454585654
 21
2357.3744545906
 31
0.0
  0
LINE
  5
29F
330
1F
100
AcDbEntity
  8
0
  6
Continuous
 62
     7
370
    25
100
AcDbLine
 10
1846.9454585654
 20
2357.1752065352
 30
0.0
 11
1846.9454585654
 21
2358.3706948675
 31
0.0
  0
LINE
  5
2A0
330
1F
100
AcDbEntity
  8
0
  6
Continuous
 62
     7
370
    25
100
AcDbLine
 10
1847.1454585654
 20
2358.3706948675
 30
0.0
 11
1848.9454585654
 21
2358.3706948675
 31
0.0
  0
LINE
  5
2A1
330
1F
100
AcDbEntity
  8
0
  6
Continuous
 62
     7
370
    25
100
AcDbLine
 10
1848.9454585654
 20
2357.3744545906
 30
0.0
 11
1848.9454585654
 21
2358.3706948675
 31
0.0
  0
ARC
  5
2A2
330
1F
100
AcDbEntity
  8
0
  6
Continuous
 62
     7
370
    25
100
AcDbCircle
 10
1847.1454585654
 20
2369.5538810975
 30
0.0
 40
0.2000000000002728
100
AcDbArc
 50
90.0
 51
180.0
  0
LINE
  5
2A3
330
1F
100
AcDbEntity
  8
0
  6
Continuous
 62
     7
370
    25
100
AcDbLine
 10
1847.1454585654
 20
2369.7538810975
 30
0.0
 11
1847.1454585654
 21
2368.7538810975
 31
0.0
  0
LINE
  5
2A4
330
1F
100
AcDbEntity
  8
0
  6
Continuous
 62
     7
370
    25
100
AcDbLine
 10
1846.9454585654
 20
2368.7538810975
 30
0.0
 11
1847.1454585654
 21
2368.7538810975
 31
0.0
  0
LINE
  5
2A5
330
1F
100
AcDbEntity
  8
0
  6
Continuous
 62
     7
370
    25
100
AcDbLine
 10
1846.9454585654
 20
2368.7538810975
 30
0.0
 11
1846.9454585654
 21
2369.5538810975
 31
0.0
  0
LINE
  5
2A6
330
1F
100
AcDbEntity
  8
0
  6
Continuous
 62
     7
370
    25
100
AcDbLine
 10
1847.1454585654
 20
2368.7538810975
 30
0.0
 11
1847.1454585654
 21
2358.3706948675
 31
0.0
  0
LINE
  5
2A7
330
1F
100
AcDbEntity
  8
0
  6
Continuous
 62
     7
370
    25
100
AcDbLine
 10
1848.9454585654
 20
2368.7538810975
 30
0.0
 11
1847.1454585654
 21
2368.7538810975
 31
0.0
  0
LINE
  5
2A8
330
1F
100
AcDbEntity
  8
0
  6
Continuous
 62
     7
370
    25
100
AcDbLine
 10
1848.9454585654
 20
2358.3706948675
 30
0.0
 11
1848.9454585654
 21
2368.7538810975
 31
0.0
  0
LINE
  5
2A9
330
1F
100
AcDbEntity
  8
0
  6
Continuous
 62
     7
370
    25
100
AcDbLine
 10
1847.1454585654
 20
2369.7538810975
 30
0.0
 11
1848.9454585654
 21
2369.7538810975
 31
0.0
  0
LINE
  5
2AA
330
1F
100
AcDbEntity
  8
0
  6
Continuous
 62
     7
370
    25
100
AcDbLine
 10
1848.9454585654
 20
2369.7538810975
 30
0.0
 11
1848.9454585654
 21
2368.7538810975
 31
0.0
  0
LINE
  5
2AB
330
1F
100
AcDbEntity
  8
0
  6
Continuous
 62
     7
370
    25
100
AcDbLine
 10
1846.9454585654
 20
2358.3706948675
 30
0.0
 11
1846.9454585654
 21
2368.7538810975
 31
0.0
  0
LINE
  5
2AC
330
1F
100
AcDbEntity
  8
0
  6
Continuous
 62
     7
370
    25
100
AcDbLine
 10
2298.4454585654
 20
2355.3706598482
 30
0.0
 11
2296.6454585654
 21
2355.3706598482
 31
0.0
  0
LINE
  5
2AD
330
1F
100
AcDbEntity
  8
0
  6
Continuous
 62
     7
370
    25
100
AcDbLine
 10
2296.6454585654
 20
2356.5332659719
 30
0.0
 11
2296.6454585654
 21
2355.3706598482
 31
0.0
  0
LINE
  5
2AE
330
1F
100
AcDbEntity
  8
0
  6
Continuous
 62
     7
370
    25
100
AcDbLine
 10
2298.4454585654
 20
2356.5332659719
 30
0.0
 11
2296.6454585654
 21
2356.5332659719
 31
0.0
  0
LINE
  5
2AF
330
1F
100
AcDbEntity
  8
0
  6
Continuous
 62
     7
370
    25
100
AcDbLine
 10
2298.4454585654
 20
2355.3706598482
 30
0.0
 11
2298.4454585654
 21
2356.5332659719
 31
0.0
  0
LINE
  5
2B0
330
1F
100
AcDbEntity
  8
0
  6
Continuous
 62
     7
370
    25
100
AcDbLine
 10
2296.4454585654
 20
2355.4039330175
 30
0.0
 11
2296.4454585654
 21
2356.3340179166
 31
0.0
  0
ARC
  5
2B1
330
1F
100
AcDbEntity
  8
0
  6
Continuous
 62
     7
370
    25
100
AcDbCircle
 10
2296.6450832998
 20
2356.3336412348
 30
0.0
 40
0.1996250898584911
100
AcDbArc
 50
89.8922923776
 51
179.8918858978
  0
ARC
  5
2B2
330
1F
100
AcDbEntity
  8
0
  6
Continuous
 62
     7
370
    25
100
AcDbCircle
 10
2296.5968424451
 20
2355.69615718
 30
0.0
 40
0.3291079460384433
100
AcDbArc
 50
242.6140248792
 51
278.494872092
  0
LINE
  5
2B3
330
1F
100
AcDbEntity
  8
0
  6
Continuous
 62
     7
370
    25
100
AcDbLine
 10
2296.4454585654
 20
2355.2366694141
 30
0.0
 11
2296.4454585654
 21
2355.4039330175
 31
0.0
  0
LINE
  5
2B4
330
1F
100
AcDbEntity
  8
0
  6
Continuous
 62
     7
370
    25
100
AcDbLine
 10
2296.6454585654
 20
2355.3706598482
 30
0.0
 11
2296.6454585654
 21
2354.9538913263
 31
0.0
  0
SPLINE
  5
2B5
330
1F
100
AcDbEntity
  8
0
  6
Continuous
 62
     7
370
    25
100
AcDbSpline
210
0.0
220
0.0
230
1.0
 70
     8
 71
     3
 72
    13
 73
     9
 74
     0
 42
0.00000001
 43
0.00000001
 40
0.0
 40
0.0
 40
0.0
 40
0.0
 40
0.0075029974113236
 40
0.3818974549655527
 40
0.6070018873266352
 40
0.7653769096340154
 40
0.8824605049805269
 40
0.9999999999999999
 40
0.9999999999999999
 40
0.9999999999999999
 40
0.9999999999999999
 10
2296.44545856537
 20
2355.236669414064
 30
0.0
 10
2296.445459520975
 20
2355.235651637449
 30
0.0
 10
2296.445508160589
 20
2355.183847501309
 30
0.0
 10
2296.451630265329
 20
2355.105262135942
 30
0.0
 10
2296.493646370803
 20
2355.02262267191
 30
0.0
 10
2296.542457172769
 20
2354.980526553811
 30
0.0
 10
2296.593187820085
 20
2354.958003126976
 30
0.0
 10
2296.628012427535
 20
2354.955263700862
 30
0.0
 10
2296.645458565371
 20
2354.953891326294
 30
0.0
  0
LINE
  5
2B6
330
1F
100
AcDbEntity
  8
0
  6
Continuous
 62
     7
370
    25
100
AcDbLine
 10
2298.4454585654
 20
2354.9538913263
 30
0.0
 11
2296.6454585654
 21
2354.9538913263
 31
0.0
  0
LINE
  5
2B7
330
1F
100
AcDbEntity
  8
0
  6
Continuous
 62
     7
370
    25
100
AcDbLine
 10
2298.4454585654
 20
2354.9538913263
 30
0.0
 11
2298.4454585654
 21
2355.3706598482
 31
0.0
  0
ARC
  5
2B8
330
1F
100
AcDbEntity
  8
0
  6
Continuous
 62
     7
370
    25
100
AcDbCircle
 10
2296.6450832998
 20
2357.1748298534
 30
0.0
 40
0.1996250898587271
100
AcDbArc
 50
89.8922923776
 51
179.8918858978
  0
LINE
  5
2B9
330
1F
100
AcDbEntity
  8
0
  6
Continuous
 62
     7
370
    25
100
AcDbLine
 10
2296.6454585654
 20
2357.3744545906
 30
0.0
 11
2296.6454585654
 21
2356.5332659719
 31
0.0
  0
LINE
  5
2BA
330
1F
100
AcDbEntity
  8
0
  6
Continuous
 62
     7
370
    25
100
AcDbLine
 10
2296.4454585654
 20
2356.3340179166
 30
0.0
 11
2296.4454585654
 21
2357.1752065352
 31
0.0
  0
LINE
  5
2BB
330
1F
100
AcDbEntity
  8
0
  6
Continuous
 62
     7
370
    25
100
AcDbLine
 10
2298.4454585654
 20
2357.3744545906
 30
0.0
 11
2296.6454585654
 21
2357.3744545906
 31
0.0
  0
LINE
  5
2BC
330
1F
100
AcDbEntity
  8
0
  6
Continuous
 62
     7
370
    25
100
AcDbLine
 10
2298.4454585654
 20
2356.5332659719
 30
0.0
 11
2298.4454585654
 21
2357.3744545906
 31
0.0
  0
LINE
  5
2BD
330
1F
100
AcDbEntity
  8
0
  6
Continuous
 62
     7
370
    25
100
AcDbLine
 10
2296.4454585654
 20
2358.3706948675
 30
0.0
 11
2296.6454585654
 21
2358.3706948675
 31
0.0
  0
LINE
  5
2BE
330
1F
100
AcDbEntity
  8
0
  6
Continuous
 62
     7
370
    25
100
AcDbLine
 10
2296.6454585654
 20
2358.3706948675
 30
0.0
 11
2296.6454585654
 21
2357.3744545906
 31
0.0
  0
LINE
  5
2BF
330
1F
100
AcDbEntity
  8
0
  6
Continuous
 62
     7
370
    25
100
AcDbLine
 10
2296.4454585654
 20
2357.1752065352
 30
0.0
 11
2296.4454585654
 21
2358.3706948675
 31
0.0
  0
LINE
  5
2C0
330
1F
100
AcDbEntity
  8
0
  6
Continuous
 62
     7
370
    25
100
AcDbLine
 10
2296.6454585654
 20
2358.3706948675
 30
0.0
 11
2298.4454585654
 21
2358.3706948675
 31
0.0
  0
LINE
  5
2C1
330
1F
100
AcDbEntity
  8
0
  6
Continuous
 62
     7
370
    25
100
AcDbLine
 10
2298.4454585654
 20
2357.3744545906
 30
0.0
 11
2298.4454585654
 21
2358.3706948675
 31
0.0
  0
LINE
  5
2C2
330
1F
100
AcDbEntity
  8
0
  6
Continuous
 62
     7
370
    25
100
AcDbLine
 10
2296.6454585654
 20
2368.7538810975
 30
0.0
 11
2296.6454585654
 21
2358.3706948675
 31
0.0
  0
LINE
  5
2C3
330
1F
100
AcDbEntity
  8
0
  6
Continuous
 62
     7
370
    25
100
AcDbLine
 10
2298.4454585654
 20
2368.7538810975
 30
0.0
 11
2296.6454585654
 21
2368.7538810975
 31
0.0
  0
LINE
  5
2C4
330
1F
100
AcDbEntity
  8
0
  6
Continuous
 62
     7
370
    25
100
AcDbLine
 10
2298.4454585654
 20
2358.3706948675
 30
0.0
 11
2298.4454585654
 21
2368.7538810975
 31
0.0
  0
ARC
  5
2C5
330
1F
100
AcDbEntity
  8
0
  6
Continuous
 62
     7
370
    25
100
AcDbCircle
 10
2296.6454585654
 20
2369.5538810975
 30
0.0
 40
0.2000000000002728
100
AcDbArc
 50
90.0
 51
180.0
  0
LINE
  5
2C6
330
1F
100
AcDbEntity
  8
0
  6
Continuous
 62
     7
370
    25
100
AcDbLine
 10
2296.6454585654
 20
2369.7538810975
 30
0.0
 11
2296.6454585654
 21
2368.7538810975
 31
0.0
  0
LINE
  5
2C7
330
1F
100
AcDbEntity
  8
0
  6
Continuous
 62
     7
370
    25
100
AcDbLine
 10
2296.4454585654
 20
2368.7538810975
 30
0.0
 11
2296.6454585654
 21
2368.7538810975
 31
0.0
  0
LINE
  5
2C8
330
1F
100
AcDbEntity
  8
0
  6
Continuous
 62
     7
370
    25
100
AcDbLine
 10
2296.4454585654
 20
2368.7538810975
 30
0.0
 11
2296.4454585654
 21
2369.5538810975
 31
0.0
  0
LINE
  5
2C9
330
1F
100
AcDbEntity
  8
0
  6
Continuous
 62
     7
370
    25
100
AcDbLine
 10
2296.4454585654
 20
2358.3706948675
 30
0.0
 11
2296.4454585654
 21
2368.7538810975
 31
0.0
  0
LINE
  5
2CA
330
1F
100
AcDbEntity
  8
0
  6
Continuous
 62
     7
370
    25
100
AcDbLine
 10
2296.6454585654
 20
2369.7538810975
 30
0.0
 11
2298.4454585654
 21
2369.7538810975
 31
0.0
  0
LINE
  5
2CB
330
1F
100
AcDbEntity
  8
0
  6
Continuous
 62
     7
370
    25
100
AcDbLine
 10
2298.4454585654
 20
2369.7538810975
 30
0.0
 11
2298.4454585654
 21
2368.7538810975
 31
0.0
  0
LINE
  5
2CC
330
1F
100
AcDbEntity
  8
0
  6
Continuous
 62
     7
370
    25
100
AcDbLine
 10
2290.9454585654
 20
2356.5332659719
 30
0.0
 11
1848.9454585654
 21
2356.5332659719
 31
0.0
  0
LINE
  5
2CD
330
1F
100
AcDbEntity
  8
0
  6
Continuous
 62
     7
370
    25
100
AcDbLine
 10
2290.9454585654
 20
2355.3706598482
 30
0.0
 11
1848.9454585654
 21
2355.3706598482
 31
0.0
  0
LINE
  5
2CE
330
1F
100
AcDbEntity
  8
0
  6
Continuous
 62
     7
370
    25
100
AcDbLine
 10
2290.9454585654
 20
2356.5332659719
 30
0.0
 11
2290.9454585654
 21
2355.3706598482
 31
0.0
  0
LINE
  5
2CF
330
1F
100
AcDbEntity
  8
0
  6
Continuous
 62
     7
370
    25
100
AcDbLine
 10
2290.9454585654
 20
2354.9538913263
 30
0.0
 11
1848.9454585654
 21
2354.9538913263
 31
0.0
  0
LINE
  5
2D0
330
1F
100
AcDbEntity
  8
0
  6
Continuous
 62
     7
370
    25
100
AcDbLine
 10
2290.9454585654
 20
2355.3706598482
 30
0.0
 11
2290.9454585654
 21
2354.9538913263
 31
0.0
  0
LINE
  5
2D1
330
1F
100
AcDbEntity
  8
0
  6
Continuous
 62
     7
370
    25
100
AcDbLine
 10
2290.9454585654
 20
2357.3744545906
 30
0.0
 11
1848.9454585654
 21
2357.3744545906
 31
0.0
  0
LINE
  5
2D2
330
1F
100
AcDbEntity
  8
0
  6
Continuous
 62
     7
370
    25
100
AcDbLine
 10
2290.9454585654
 20
2357.3744545906
 30
0.0
 11
2290.9454585654
 21
2356.5332659719
 31
0.0
  0
LINE
  5
2D3
330
1F
100
AcDbEntity
  8
0
  6
Continuous
 62
     7
370
    25
100
AcDbLine
 10
1848.9454585654
 20
2358.3706948675
 30
0.0
 11
2290.9454585654
 21
2358.3706948675
 31
0.0
  0
LINE
  5
2D4
330
1F
100
AcDbEntity
  8
0
  6
Continuous
 62
     7
370
    25
100
AcDbLine
 10
2290.9454585654
 20
2358.3706948675
 30
0.0
 11
2290.9454585654
 21
2357.3744545906
 31
0.0
  0
LINE
  5
2D5
330
1F
100
AcDbEntity
  8
0
  6
Continuous
 62
     7
370
    25
100
AcDbLine
 10
2290.9454585654
 20
2368.7538810975
 30
0.0
 11
1848.9454585654
 21
2368.7538810975
 31
0.0
  0
LINE
  5
2D6
330
1F
100
AcDbEntity
  8
0
  6
Continuous
 62
     7
370
    25
100
AcDbLine
 10
2290.9454585654
 20
2368.7538810975
 30
0.0
 11
2290.9454585654
 21
2358.3706948675
 31
0.0
  0
LINE
  5
2D7
330
1F
100
AcDbEntity
  8
0
  6
Continuous
 62
     7
370
    25
100
AcDbLine
 10
1848.9454585654
 20
2369.7538810975
 30
0.0
 11
2290.9454585654
 21
2369.7538810975
 31
0.0
  0
LINE
  5
2D8
330
1F
100
AcDbEntity
  8
0
  6
Continuous
 62
     7
370
    25
100
AcDbLine
 10
2290.9454585654
 20
2368.7538810975
 30
0.0
 11
2290.9454585654
 21
2369.7538810975
 31
0.0
  0
LINE
  5
2D9
330
1F
100
AcDbEntity
  8
0
  6
Continuous
 62
     7
370
    25
100
AcDbLine
 10
2740.4454585654
 20
2356.5332659719
 30
0.0
 11
2298.4454585654
 21
2356.5332659719
 31
0.0
  0
LINE
  5
2DA
330
1F
100
AcDbEntity
  8
0
  6
Continuous
 62
     7
370
    25
100
AcDbLine
 10
2740.4454585654
 20
2355.3706598482
 30
0.0
 11
2298.4454585654
 21
2355.3706598482
 31
0.0
  0
LINE
  5
2DB
330
1F
100
AcDbEntity
  8
0
  6
Continuous
 62
     7
370
    25
100
AcDbLine
 10
2740.4454585654
 20
2356.5332659719
 30
0.0
 11
2740.4454585654
 21
2355.3706598482
 31
0.0
  0
LINE
  5
2DC
330
1F
100
AcDbEntity
  8
0
  6
Continuous
 62
     7
370
    25
100
AcDbLine
 10
2740.4454585654
 20
2354.9538913263
 30
0.0
 11
2298.4454585654
 21
2354.9538913263
 31
0.0
  0
LINE
  5
2DD
330
1F
100
AcDbEntity
  8
0
  6
Continuous
 62
     7
370
    25
100
AcDbLine
 10
2740.4454585654
 20
2355.3706598482
 30
0.0
 11
2740.4454585654
 21
2354.9538913263
 31
0.0
  0
LINE
  5
2DE
330
1F
100
AcDbEntity
  8
0
  6
Continuous
 62
     7
370
    25
100
AcDbLine
 10
2740.4454585654
 20
2357.3744545906
 30
0.0
 11
2298.4454585654
 21
2357.3744545906
 31
0.0
  0
LINE
  5
2DF
330
1F
100
AcDbEntity
  8
0
  6
Continuous
 62
     7
370
    25
100
AcDbLine
 10
2740.4454585654
 20
2357.3744545906
 30
0.0
 11
2740.4454585654
 21
2356.5332659719
 31
0.0
  0
LINE
  5
2E0
330
1F
100
AcDbEntity
  8
0
  6
Continuous
 62
     7
370
    25
100
AcDbLine
 10
2298.4454585654
 20
2358.3706948675
 30
0.0
 11
2740.4454585654
 21
2358.3706948675
 31
0.0
  0
LINE
  5
2E1
330
1F
100
AcDbEntity
  8
0
  6
Continuous
 62
     7
370
    25
100
AcDbLine
 10
2740.4454585654
 20
2358.3706948675
 30
0.0
 11
2740.4454585654
 21
2357.3744545906
 31
0.0
  0
LINE
  5
2E2
330
1F
100
AcDbEntity
  8
0
  6
Continuous
 62
     7
370
    25
100
AcDbLine
 10
2740.4454585654
 20
2368.7538810975
 30
0.0
 11
2298.4454585654
 21
2368.7538810975
 31
0.0
  0
LINE
  5
2E3
330
1F
100
AcDbEntity
  8
0
  6
Continuous
 62
     7
370
    25
100
AcDbLine
 10
2740.4454585654
 20
2368.7538810975
 30
0.0
 11
2740.4454585654
 21
2358.3706948675
 31
0.0
  0
LINE
  5
2E4
330
1F
100
AcDbEntity
  8
0
  6
Continuous
 62
     7
370
    25
100
AcDbLine
 10
2298.4454585654
 20
2369.7538810975
 30
0.0
 11
2740.4454585654
 21
2369.7538810975
 31
0.0
  0
LINE
  5
2E5
330
1F
100
AcDbEntity
  8
0
  6
Continuous
 62
     7
370
    25
100
AcDbLine
 10
2740.4454585654
 20
2368.7538810975
 30
0.0
 11
2740.4454585654
 21
2369.7538810975
 31
0.0
  0
LINE
  5
2E6
330
1F
100
AcDbEntity
  8
0
  6
Continuous
 62
     7
370
    25
100
AcDbLine
 10
2742.2454585654
 20
2356.5332659719
 30
0.0
 11
2740.4454585654
 21
2356.5332659719
 31
0.0
  0
LINE
  5
2E7
330
1F
100
AcDbEntity
  8
0
  6
Continuous
 62
     7
370
    25
100
AcDbLine
 10
2742.2454585654
 20
2355.3706598482
 30
0.0
 11
2742.2454585654
 21
2356.5332659719
 31
0.0
  0
LINE
  5
2E8
330
1F
100
AcDbEntity
  8
0
  6
Continuous
 62
     7
370
    25
100
AcDbLine
 10
2742.2454585654
 20
2355.3706598482
 30
0.0
 11
2740.4454585654
 21
2355.3706598482
 31
0.0
  0
LINE
  5
2E9
330
1F
100
AcDbEntity
  8
0
  6
Continuous
 62
     7
370
    25
100
AcDbLine
 10
2742.4454585654
 20
2356.3340179166
 30
0.0
 11
2742.4454585654
 21
2355.4039330175
 31
0.0
  0
ARC
  5
2EA
330
1F
100
AcDbEntity
  8
0
  6
Continuous
 62
     7
370
    25
100
AcDbCircle
 10
2742.2940746856
 20
2355.69615718
 30
0.0
 40
0.3291079460404768
100
AcDbArc
 50
261.5051279081
 51
297.3859751208
  0
ARC
  5
2EB
330
1F
100
AcDbEntity
  8
0
  6
Continuous
 62
     7
370
    25
100
AcDbCircle
 10
2742.2458338309
 20
2356.3336412348
 30
0.0
 40
0.1996250898587288
100
AcDbArc
 50
0.1081141024
 51
90.1077076226
  0
LINE
  5
2EC
330
1F
100
AcDbEntity
  8
0
  6
Continuous
 62
     7
370
    25
100
AcDbLine
 10
2742.4454585654
 20
2355.4039330175
 30
0.0
 11
2742.4454585654
 21
2355.2366694141
 31
0.0
  0
SPLINE
  5
2ED
330
1F
100
AcDbEntity
  8
0
  6
Continuous
 62
     7
370
    25
100
AcDbSpline
210
0.0
220
0.0
230
1.0
 70
     8
 71
     3
 72
    13
 73
     9
 74
     0
 42
0.00000001
 43
0.00000001
 40
0.0
 40
0.0
 40
0.0
 40
0.0
 40
0.0075029974114387
 40
0.3818974549662866
 40
0.6070018873272978
 40
0.7653769096343249
 40
0.8824605049810137
 40
1.0
 40
1.0
 40
1.0
 40
1.0
 10
2742.445458565371
 20
2355.236669414065
 30
0.0
 10
2742.445457609766
 20
2355.23565163745
 30
0.0
 10
2742.445408970151
 20
2355.183847501311
 30
0.0
 10
2742.439286865413
 20
2355.105262135942
 30
0.0
 10
2742.397270759938
 20
2355.022622671911
 30
0.0
 10
2742.348459957972
 20
2354.980526553812
 30
0.0
 10
2742.297729310657
 20
2354.958003126977
 30
0.0
 10
2742.262904703207
 20
2354.955263700863
 30
0.0
 10
2742.24545856537
 20
2354.953891326295
 30
0.0
  0
LINE
  5
2EE
330
1F
100
AcDbEntity
  8
0
  6
Continuous
 62
     7
370
    25
100
AcDbLine
 10
2742.2454585654
 20
2354.9538913263
 30
0.0
 11
2742.2454585654
 21
2355.3706598482
 31
0.0
  0
LINE
  5
2EF
330
1F
100
AcDbEntity
  8
0
  6
Continuous
 62
     7
370
    25
100
AcDbLine
 10
2742.2454585654
 20
2354.9538913263
 30
0.0
 11
2740.4454585654
 21
2354.9538913263
 31
0.0
  0
LINE
  5
2F0
330
1F
100
AcDbEntity
  8
0
  6
Continuous
 62
     7
370
    25
100
AcDbLine
 10
2742.2454585654
 20
2357.3744545906
 30
0.0
 11
2740.4454585654
 21
2357.3744545906
 31
0.0
  0
LINE
  5
2F1
330
1F
100
AcDbEntity
  8
0
  6
Continuous
 62
     7
370
    25
100
AcDbLine
 10
2742.2454585654
 20
2356.5332659719
 30
0.0
 11
2742.2454585654
 21
2357.3744545906
 31
0.0
  0
ARC
  5
2F2
330
1F
100
AcDbEntity
  8
0
  6
Continuous
 62
     7
370
    25
100
AcDbCircle
 10
2742.2458338309
 20
2357.1748298534
 30
0.0
 40
0.1996250898589458
100
AcDbArc
 50
0.1081141022
 51
90.1077076224
  0
LINE
  5
2F3
330
1F
100
AcDbEntity
  8
0
  6
Continuous
 62
     7
370
    25
100
AcDbLine
 10
2742.4454585654
 20
2357.1752065352
 30
0.0
 11
2742.4454585654
 21
2356.3340179166
 31
0.0
  0
LINE
  5
2F4
330
1F
100
AcDbEntity
  8
0
  6
Continuous
 62
     7
370
    25
100
AcDbLine
 10
2742.2454585654
 20
2357.3744545906
 30
0.0
 11
2742.2454585654
 21
2358.3706948675
 31
0.0
  0
LINE
  5
2F5
330
1F
100
AcDbEntity
  8
0
  6
Continuous
 62
     7
370
    25
100
AcDbLine
 10
2742.2454585654
 20
2358.3706948675
 30
0.0
 11
2742.4454585654
 21
2358.3706948675
 31
0.0
  0
LINE
  5
2F6
330
1F
100
AcDbEntity
  8
0
  6
Continuous
 62
     7
370
    25
100
AcDbLine
 10
2742.4454585654
 20
2358.3706948675
 30
0.0
 11
2742.4454585654
 21
2357.1752065352
 31
0.0
  0
LINE
  5
2F7
330
1F
100
AcDbEntity
  8
0
  6
Continuous
 62
     7
370
    25
100
AcDbLine
 10
2740.4454585654
 20
2358.3706948675
 30
0.0
 11
2742.2454585654
 21
2358.3706948675
 31
0.0
  0
LINE
  5
2F8
330
1F
100
AcDbEntity
  8
0
  6
Continuous
 62
     7
370
    25
100
AcDbLine
 10
2740.4454585654
 20
2369.7538810975
 30
0.0
 11
2742.2454585654
 21
2369.7538810975
 31
0.0
  0
LINE
  5
2F9
330
1F
100
AcDbEntity
  8
0
  6
Continuous
 62
     7
370
    25
100
AcDbLine
 10
2742.2454585654
 20
2368.7538810975
 30
0.0
 11
2742.2454585654
 21
2369.7538810975
 31
0.0
  0
LINE
  5
2FA
330
1F
100
AcDbEntity
  8
0
  6
Continuous
 62
     7
370
    25
100
AcDbLine
 10
2742.2454585654
 20
2368.7538810975
 30
0.0
 11
2740.4454585654
 21
2368.7538810975
 31
0.0
  0
ARC
  5
2FB
330
1F
100
AcDbEntity
  8
0
  6
Continuous
 62
     7
370
    25
100
AcDbCircle
 10
2742.2454585654
 20
2369.5538810975
 30
0.0
 40
0.2000000000002728
100
AcDbArc
 50
0.0
 51
90.0
  0
LINE
  5
2FC
330
1F
100
AcDbEntity
  8
0
  6
Continuous
 62
     7
370
    25
100
AcDbLine
 10
2742.2454585654
 20
2368.7538810975
 30
0.0
 11
2742.4454585654
 21
2368.7538810975
 31
0.0
  0
LINE
  5
2FD
330
1F
100
AcDbEntity
  8
0
  6
Continuous
 62
     7
370
    25
100
AcDbLine
 10
2742.4454585654
 20
2369.5538810975
 30
0.0
 11
2742.4454585654
 21
2368.7538810975
 31
0.0
  0
LINE
  5
2FE
330
1F
100
AcDbEntity
  8
0
  6
Continuous
 62
     7
370
    25
100
AcDbLine
 10
2742.2454585654
 20
2358.3706948675
 30
0.0
 11
2742.2454585654
 21
2368.7538810975
 31
0.0
  0
LINE
  5
2FF
330
1F
100
AcDbEntity
  8
0
  6
Continuous
 62
     7
370
    25
100
AcDbLine
 10
2742.4454585654
 20
2368.7538810975
 30
0.0
 11
2742.4454585654
 21
2358.3706948675
 31
0.0
  0
LINE
  5
300
330
1F
100
AcDbEntity
  8
0
  6
Continuous
 62
     7
370
    25
100
AcDbLine
 10
2292.7454585654
 20
2356.5332659719
 30
0.0
 11
2290.9454585654
 21
2356.5332659719
 31
0.0
  0
LINE
  5
301
330
1F
100
AcDbEntity
  8
0
  6
Continuous
 62
     7
370
    25
100
AcDbLine
 10
2292.7454585654
 20
2355.3706598482
 30
0.0
 11
2292.7454585654
 21
2356.5332659719
 31
0.0
  0
LINE
  5
302
330
1F
100
AcDbEntity
  8
0
  6
Continuous
 62
     7
370
    25
100
AcDbLine
 10
2292.7454585654
 20
2355.3706598482
 30
0.0
 11
2290.9454585654
 21
2355.3706598482
 31
0.0
  0
LINE
  5
303
330
1F
100
AcDbEntity
  8
0
  6
Continuous
 62
     7
370
    25
100
AcDbLine
 10
2292.9454585654
 20
2356.3340179166
 30
0.0
 11
2292.9454585654
 21
2355.4039330175
 31
0.0
  0
ARC
  5
304
330
1F
100
AcDbEntity
  8
0
  6
Continuous
 62
     7
370
    25
100
AcDbCircle
 10
2292.7940746856
 20
2355.69615718
 30
0.0
 40
0.3291079460390705
100
AcDbArc
 50
261.5051279081
 51
297.3859751208
  0
ARC
  5
305
330
1F
100
AcDbEntity
  8
0
  6
Continuous
 62
     7
370
    25
100
AcDbCircle
 10
2292.7458338309
 20
2356.3336412348
 30
0.0
 40
0.1996250898589458
100
AcDbArc
 50
0.1081141022
 51
90.1077076222
  0
LINE
  5
306
330
1F
100
AcDbEntity
  8
0
  6
Continuous
 62
     7
370
    25
100
AcDbLine
 10
2292.7454585654
 20
2354.9538913263
 30
0.0
 11
2292.7454585654
 21
2355.3706598482
 31
0.0
  0
LINE
  5
307
330
1F
100
AcDbEntity
  8
0
  6
Continuous
 62
     7
370
    25
100
AcDbLine
 10
2292.7454585654
 20
2354.9538913263
 30
0.0
 11
2290.9454585654
 21
2354.9538913263
 31
0.0
  0
LINE
  5
308
330
1F
100
AcDbEntity
  8
0
  6
Continuous
 62
     7
370
    25
100
AcDbLine
 10
2292.9454585654
 20
2355.4039330175
 30
0.0
 11
2292.9454585654
 21
2355.2366694141
 31
0.0
  0
SPLINE
  5
309
330
1F
100
AcDbEntity
  8
0
  6
Continuous
 62
     7
370
    25
100
AcDbSpline
210
0.0
220
0.0
230
1.0
 70
     8
 71
     3
 72
    13
 73
     9
 74
     0
 42
0.00000001
 43
0.00000001
 40
0.0
 40
0.0
 40
0.0
 40
0.0
 40
0.0075029974114387
 40
0.3818974549662866
 40
0.6070018873272978
 40
0.7653769096343249
 40
0.8824605049810137
 40
1.0
 40
1.0
 40
1.0
 40
1.0
 10
2292.945458565371
 20
2355.236669414065
 30
0.0
 10
2292.945457609766
 20
2355.23565163745
 30
0.0
 10
2292.945408970152
 20
2355.183847501311
 30
0.0
 10
2292.939286865412
 20
2355.105262135942
 30
0.0
 10
2292.897270759938
 20
2355.022622671911
 30
0.0
 10
2292.848459957972
 20
2354.980526553812
 30
0.0
 10
2292.797729310657
 20
2354.958003126977
 30
0.0
 10
2292.762904703207
 20
2354.955263700863
 30
0.0
 10
2292.745458565371
 20
2354.953891326295
 30
0.0
  0
LINE
  5
30A
330
1F
100
AcDbEntity
  8
0
  6
Continuous
 62
     7
370
    25
100
AcDbLine
 10
2292.7454585654
 20
2357.3744545906
 30
0.0
 11
2290.9454585654
 21
2357.3744545906
 31
0.0
  0
LINE
  5
30B
330
1F
100
AcDbEntity
  8
0
  6
Continuous
 62
     7
370
    25
100
AcDbLine
 10
2292.7454585654
 20
2356.5332659719
 30
0.0
 11
2292.7454585654
 21
2357.3744545906
 31
0.0
  0
ARC
  5
30C
330
1F
100
AcDbEntity
  8
0
  6
Continuous
 62
     7
370
    25
100
AcDbCircle
 10
2292.7458338309
 20
2357.1748298534
 30
0.0
 40
0.1996250898587279
100
AcDbArc
 50
0.1081141022
 51
90.1077076225
  0
LINE
  5
30D
330
1F
100
AcDbEntity
  8
0
  6
Continuous
 62
     7
370
    25
100
AcDbLine
 10
2292.9454585654
 20
2357.1752065352
 30
0.0
 11
2292.9454585654
 21
2356.3340179166
 31
0.0
  0
LINE
  5
30E
330
1F
100
AcDbEntity
  8
0
  6
Continuous
 62
     7
370
    25
100
AcDbLine
 10
2290.9454585654
 20
2358.3706948675
 30
0.0
 11
2292.7454585654
 21
2358.3706948675
 31
0.0
  0
LINE
  5
30F
330
1F
100
AcDbEntity
  8
0
  6
Continuous
 62
     7
370
    25
100
AcDbLine
 10
2292.7454585654
 20
2357.3744545906
 30
0.0
 11
2292.7454585654
 21
2358.3706948675
 31
0.0
  0
LINE
  5
310
330
1F
100
AcDbEntity
  8
0
  6
Continuous
 62
     7
370
    25
100
AcDbLine
 10
2292.7454585654
 20
2358.3706948675
 30
0.0
 11
2292.9454585654
 21
2358.3706948675
 31
0.0
  0
LINE
  5
311
330
1F
100
AcDbEntity
  8
0
  6
Continuous
 62
     7
370
    25
100
AcDbLine
 10
2292.9454585654
 20
2358.3706948675
 30
0.0
 11
2292.9454585654
 21
2357.1752065352
 31
0.0
  0
LINE
  5
312
330
1F
100
AcDbEntity
  8
0
  6
Continuous
 62
     7
370
    25
100
AcDbLine
 10
2290.9454585654
 20
2369.7538810975
 30
0.0
 11
2292.7454585654
 21
2369.7538810975
 31
0.0
  0
LINE
  5
313
330
1F
100
AcDbEntity
  8
0
  6
Continuous
 62
     7
370
    25
100
AcDbLine
 10
2292.7454585654
 20
2368.7538810975
 30
0.0
 11
2292.7454585654
 21
2369.7538810975
 31
0.0
  0
LINE
  5
314
330
1F
100
AcDbEntity
  8
0
  6
Continuous
 62
     7
370
    25
100
AcDbLine
 10
2292.7454585654
 20
2368.7538810975
 30
0.0
 11
2290.9454585654
 21
2368.7538810975
 31
0.0
  0
LINE
  5
315
330
1F
100
AcDbEntity
  8
0
  6
Continuous
 62
     7
370
    25
100
AcDbLine
 10
2292.7454585654
 20
2358.3706948675
 30
0.0
 11
2292.7454585654
 21
2368.7538810975
 31
0.0
  0
LINE
  5
316
330
1F
100
AcDbEntity
  8
0
  6
Continuous
 62
     7
370
    25
100
AcDbLine
 10
2292.7454585654
 20
2368.7538810975
 30
0.0
 11
2292.9454585654
 21
2368.7538810975
 31
0.0
  0
LINE
  5
317
330
1F
100
AcDbEntity
  8
0
  6
Continuous
 62
     7
370
    25
100
AcDbLine
 10
2292.9454585654
 20
2368.7538810975
 30
0.0
 11
2292.9454585654
 21
2358.3706948675
 31
0.0
  0
ARC
  5
318
330
1F
100
AcDbEntity
  8
0
  6
Continuous
 62
     7
370
    25
100
AcDbCircle
 10
2292.7454585654
 20
2369.5538810975
 30
0.0
 40
0.1999999999998181
100
AcDbArc
 50
0.0
 51
90.0
  0
LINE
  5
319
330
1F
100
AcDbEntity
  8
0
  6
Continuous
 62
     7
370
    25
100
AcDbLine
 10
2292.9454585654
 20
2369.5538810975
 30
0.0
 11
2292.9454585654
 21
2368.7538810975
 31
0.0
  0
LINE
  5
31A
330
1F
100
AcDbEntity
  8
0
  6
Continuous
 62
     7
370
    25
100
AcDbLine
 10
2534.4454585654
 20
2369.7538810975
 30
0.0
 11
2534.4454585654
 21
2370.6538810975
 31
0.0
  0
LINE
  5
31B
330
1F
100
AcDbEntity
  8
0
  6
Continuous
 62
     7
370
    25
100
AcDbLine
 10
2504.4454585654
 20
2370.6538810975
 30
0.0
 11
2504.4454585654
 21
2369.7538810975
 31
0.0
  0
LINE
  5
31C
330
1F
100
AcDbEntity
  8
0
  6
Continuous
 62
     7
370
    25
100
AcDbLine
 10
2504.466408286
 20
2370.9538810975
 30
0.0
 11
2504.4454585654
 21
2370.6538810975
 31
0.0
  0
LINE
  5
31D
330
1F
100
AcDbEntity
  8
0
  6
Continuous
 62
     7
370
    25
100
AcDbLine
 10
2509.0468228465
 20
2370.6538810975
 30
0.0
 11
2529.8440942843
 21
2370.6538810975
 31
0.0
  0
LINE
  5
31E
330
1F
100
AcDbEntity
  8
0
  6
Continuous
 62
     7
370
    25
100
AcDbLine
 10
2509.0670931167
 20
2370.9538810975
 30
0.0
 11
2509.0468228465
 21
2370.6538810975
 31
0.0
  0
LINE
  5
31F
330
1F
100
AcDbEntity
  8
0
  6
Continuous
 62
     7
370
    25
100
AcDbLine
 10
2534.4454585654
 20
2370.6538810975
 30
0.0
 11
2534.4245088447
 21
2370.9538810975
 31
0.0
  0
LINE
  5
320
330
1F
100
AcDbEntity
  8
0
  6
Continuous
 62
     7
370
    25
100
AcDbLine
 10
2529.8440942843
 20
2370.6538810975
 30
0.0
 11
2529.823824014
 21
2370.9538810975
 31
0.0
  0
LINE
  5
321
330
1F
100
AcDbEntity
  8
0
  6
Continuous
 62
     7
370
    25
100
AcDbLine
 10
2984.4454585654
 20
2369.4538810975
 30
0.0
 11
2984.4454585654
 21
2370.6538810975
 31
0.0
  0
LINE
  5
322
330
1F
100
AcDbEntity
  8
0
  6
Continuous
 62
     7
370
    25
100
AcDbLine
 10
2954.4454585654
 20
2370.6538810975
 30
0.0
 11
2954.4454585654
 21
2369.4538810975
 31
0.0
  0
LINE
  5
323
330
1F
100
AcDbEntity
  8
0
  6
Continuous
 62
     7
370
    25
100
AcDbLine
 10
2954.466408286
 20
2370.9538810975
 30
0.0
 11
2954.4454585654
 21
2370.6538810975
 31
0.0
  0
LINE
  5
324
330
1F
100
AcDbEntity
  8
0
  6
Continuous
 62
     7
370
    25
100
AcDbLine
 10
2959.0468228465
 20
2370.6538810975
 30
0.0
 11
2979.8440942843
 21
2370.6538810975
 31
0.0
  0
LINE
  5
325
330
1F
100
AcDbEntity
  8
0
  6
Continuous
 62
     7
370
    25
100
AcDbLine
 10
2959.0670931167
 20
2370.9538810975
 30
0.0
 11
2959.0468228465
 21
2370.6538810975
 31
0.0
  0
LINE
  5
326
330
1F
100
AcDbEntity
  8
0
  6
Continuous
 62
     7
370
    25
100
AcDbLine
 10
2979.8440942843
 20
2370.6538810975
 30
0.0
 11
2979.823824014
 21
2370.9538810975
 31
0.0
  0
LINE
  5
327
330
1F
100
AcDbEntity
  8
0
  6
Continuous
 62
     7
370
    25
100
AcDbLine
 10
2984.4454585654
 20
2370.6538810975
 30
0.0
 11
2984.4245088447
 21
2370.9538810975
 31
0.0
  0
LINE
  5
328
330
1F
100
AcDbEntity
  8
0
  6
Continuous
 62
     7
370
    25
100
AcDbLine
 10
2084.9454585654
 20
2369.7538810975
 30
0.0
 11
2084.9454585654
 21
2370.6538810975
 31
0.0
  0
LINE
  5
329
330
1F
100
AcDbEntity
  8
0
  6
Continuous
 62
     7
370
    25
100
AcDbLine
 10
2054.9454585654
 20
2370.6538810975
 30
0.0
 11
2054.9454585654
 21
2369.7538810975
 31
0.0
  0
LINE
  5
32A
330
1F
100
AcDbEntity
  8
0
  6
Continuous
 62
     7
370
    25
100
AcDbLine
 10
2054.966408286
 20
2370.9538810975
 30
0.0
 11
2054.9454585654
 21
2370.6538810975
 31
0.0
  0
LINE
  5
32B
330
1F
100
AcDbEntity
  8
0
  6
Continuous
 62
     7
370
    25
100
AcDbLine
 10
2059.5468228464
 20
2370.6538810975
 30
0.0
 11
2080.3440942843
 21
2370.6538810975
 31
0.0
  0
LINE
  5
32C
330
1F
100
AcDbEntity
  8
0
  6
Continuous
 62
     7
370
    25
100
AcDbLine
 10
2059.5670931167
 20
2370.9538810975
 30
0.0
 11
2059.5468228464
 21
2370.6538810975
 31
0.0
  0
LINE
  5
32D
330
1F
100
AcDbEntity
  8
0
  6
Continuous
 62
     7
370
    25
100
AcDbLine
 10
2084.9454585654
 20
2370.6538810975
 30
0.0
 11
2084.9245088447
 21
2370.9538810975
 31
0.0
  0
LINE
  5
32E
330
1F
100
AcDbEntity
  8
0
  6
Continuous
 62
     7
370
    25
100
AcDbLine
 10
2080.3440942843
 20
2370.6538810975
 30
0.0
 11
2080.323824014
 21
2370.9538810975
 31
0.0
  0
ARC
  5
32F
330
1F
100
AcDbEntity
  8
0
  6
Continuous
 62
     7
370
    25
100
AcDbCircle
 10
2317.9454585697
 20
2369.6538810975
 30
0.0
 40
3.000000000000547
100
AcDbArc
 50
154.3207113805
 51
178.0897868283
  0
ARC
  5
330
330
1F
100
AcDbEntity
  8
0
  6
Continuous
 62
     7
370
    25
100
AcDbCircle
 10
2333.9454585697
 20
2369.6538810975
 30
0.0
 40
3.000000000000089
100
AcDbArc
 50
1.9102131718
 51
25.6792886195
  0
LINE
  5
331
330
1F
100
AcDbEntity
  8
0
  6
Continuous
 62
     7
370
    25
100
AcDbLine
 10
2314.9454585697
 20
2369.9538810975
 30
0.0
 11
2300.7577838159
 21
2369.9538810975
 31
0.0
  0
LINE
  5
332
330
1F
100
AcDbEntity
  8
0
  6
Continuous
 62
     7
370
    25
100
AcDbLine
 10
2300.7577838159
 20
2369.9538810975
 30
0.0
 11
2300.7577838159
 21
2369.7538810975
 31
0.0
  0
LINE
  5
333
330
1F
100
AcDbEntity
  8
0
  6
Continuous
 62
     7
370
    25
100
AcDbLine
 10
2314.9454585697
 20
2369.7538810975
 30
0.0
 11
2314.9454585697
 21
2369.9538810975
 31
0.0
  0
ARC
  5
334
330
1F
100
AcDbEntity
  8
0
  6
Continuous
 62
     7
370
    25
100
AcDbCircle
 10
1868.4454585697
 20
2369.6538810975
 30
0.0
 40
2.999999999999932
100
AcDbArc
 50
154.3207113805
 51
178.0897868283
  0
ARC
  5
335
330
1F
100
AcDbEntity
  8
0
  6
Continuous
 62
     7
370
    25
100
AcDbCircle
 10
1884.4454585697
 20
2369.6538810975
 30
0.0
 40
3.000000000000089
100
AcDbArc
 50
1.9102131718
 51
25.6792886195
  0
LINE
  5
336
330
1F
100
AcDbEntity
  8
0
  6
Continuous
 62
     7
370
    25
100
AcDbLine
 10
1865.4454585697
 20
2369.9538810975
 30
0.0
 11
1851.2577838159
 21
2369.9538810975
 31
0.0
  0
LINE
  5
337
330
1F
100
AcDbEntity
  8
0
  6
Continuous
 62
     7
370
    25
100
AcDbLine
 10
1851.2577838159
 20
2369.9538810975
 30
0.0
 11
1851.2577838159
 21
2369.7538810975
 31
0.0
  0
LINE
  5
338
330
1F
100
AcDbEntity
  8
0
  6
Continuous
 62
     7
370
    25
100
AcDbLine
 10
1865.4454585697
 20
2369.7538810975
 30
0.0
 11
1865.4454585697
 21
2369.9538810975
 31
0.0
  0
LINE
  5
339
330
1F
100
AcDbEntity
  8
0
  6
Continuous
 62
     7
370
    25
100
AcDbLine
 10
3172.945458561
 20
2369.4538810975
 30
0.0
 11
3172.945458561
 21
2369.6538810975
 31
0.0
  0
LINE
  5
33A
330
1F
100
AcDbEntity
  8
0
  6
Continuous
 62
     7
370
    25
100
AcDbLine
 10
3152.945458561
 20
2369.4538810975
 30
0.0
 11
3152.945458561
 21
2369.6538810975
 31
0.0
  0
LINE
  5
33B
330
1F
100
AcDbEntity
  8
0
  6
Continuous
 62
     7
370
    25
100
AcDbLine
 10
3151.945458561
 20
2369.4538810975
 30
0.0
 11
3151.945458561
 21
2369.6538810975
 31
0.0
  0
LINE
  5
33C
330
1F
100
AcDbEntity
  8
0
  6
Continuous
 62
     7
370
    25
100
AcDbLine
 10
3151.945458561
 20
2369.6538810975
 30
0.0
 11
3152.945458561
 21
2369.6538810975
 31
0.0
  0
LINE
  5
33D
330
1F
100
AcDbEntity
  8
0
  6
Continuous
 62
     7
370
    25
100
AcDbLine
 10
3173.945458561
 20
2369.6538810975
 30
0.0
 11
3172.945458561
 21
2369.6538810975
 31
0.0
  0
LINE
  5
33E
330
1F
100
AcDbEntity
  8
0
  6
Continuous
 62
     7
370
    25
100
AcDbLine
 10
3173.945458561
 20
2369.4538810975
 30
0.0
 11
3173.945458561
 21
2369.6538810975
 31
0.0
  0
ARC
  5
33F
330
1F
100
AcDbEntity
  8
0
  6
Continuous
 62
     7
370
    25
100
AcDbCircle
 10
3154.945458561
 20
2369.6538810975
 30
0.0
 40
3.000000000000405
100
AcDbArc
 50
154.3207113803
 51
180.0
  0
ARC
  5
340
330
1F
100
AcDbEntity
  8
0
  6
Continuous
 62
     7
370
    25
100
AcDbCircle
 10
3170.945458561
 20
2369.6538810975
 30
0.0
 40
3.000000000000815
100
AcDbArc
 50
0.0
 51
25.6792886197
  0
LINE
  5
341
330
1F
100
AcDbEntity
  8
0
  6
Continuous
 62
     7
370
    25
100
AcDbLine
 10
3188.1331333148
 20
2369.9538810975
 30
0.0
 11
3173.945458561
 21
2369.9538810975
 31
0.0
  0
LINE
  5
342
330
1F
100
AcDbEntity
  8
0
  6
Continuous
 62
     7
370
    25
100
AcDbLine
 10
3188.1331333148
 20
2369.4538810975
 30
0.0
 11
3188.1331333148
 21
2369.9538810975
 31
0.0
  0
LINE
  5
343
330
1F
100
AcDbEntity
  8
0
  6
Continuous
 62
     7
370
    25
100
AcDbLine
 10
3173.945458561
 20
2369.9538810975
 30
0.0
 11
3173.945458561
 21
2369.6538810975
 31
0.0
  0
LINE
  5
344
330
1F
100
AcDbEntity
  8
0
  6
Continuous
 62
     7
370
    25
100
AcDbLine
 10
2312.8859106131
 20
2370.9538810975
 30
0.0
 11
2312.8628582571
 21
2369.9538810975
 31
0.0
  0
LINE
  5
345
330
1F
100
AcDbEntity
  8
0
  6
Continuous
 62
     7
370
    25
100
AcDbLine
 10
2314.1632036285
 20
2369.9538810975
 30
0.0
 11
2314.1862559845
 21
2370.9538810975
 31
0.0
  0
LINE
  5
346
330
1F
100
AcDbEntity
  8
0
  6
Continuous
 62
     7
370
    25
100
AcDbLine
 10
1863.3859106131
 20
2370.9538810975
 30
0.0
 11
1863.3628582571
 21
2369.9538810975
 31
0.0
  0
LINE
  5
347
330
1F
100
AcDbEntity
  8
0
  6
Continuous
 62
     7
370
    25
100
AcDbLine
 10
1864.6632036285
 20
2369.9538810975
 30
0.0
 11
1864.6862559845
 21
2370.9538810975
 31
0.0
  0
LINE
  5
348
330
1F
100
AcDbEntity
  8
0
  6
Continuous
 62
     7
370
    25
100
AcDbLine
 10
3174.7046611463
 20
2370.9538810975
 30
0.0
 11
3174.7277135023
 21
2369.9538810975
 31
0.0
  0
LINE
  5
349
330
1F
100
AcDbEntity
  8
0
  6
Continuous
 62
     7
370
    25
100
AcDbLine
 10
3176.0280588736
 20
2369.9538810975
 30
0.0
 11
3176.0050065176
 21
2370.9538810975
 31
0.0
  0
ARC
  5
34A
330
1F
100
AcDbEntity
  8
0
  6
Continuous
 62
     7
370
    25
100
AcDbCircle
 10
1881.4448257767
 20
2900.3320258099
 30
0.0
 40
147.0082502473399
100
AcDbArc
 50
266.0997819289
 51
273.9007124515
  0
LWPOLYLINE
  5
34B
330
1F
100
AcDbEntity
  8
0
  6
Continuous
 62
     7
370
    25
100
AcDbPolyline
 90
        6
 70
   128
 43
0.0
 10
1889.056639358
 20
2754.7383210839
 10
1889.7957539085
 20
2754.7783522009
 10
1890.2473606486
 20
2754.8240102435
 10
1890.3386164832
 20
2754.8711133513
 10
1890.0657853877
 20
2754.9177331174
 10
1889.9418327899
 20
2754.9290740988
  0
LWPOLYLINE
  5
34C
330
1F
100
AcDbEntity
  8
0
  6
Continuous
 62
     7
370
    25
100
AcDbPolyline
 90
        7
 70
   128
 43
0.0
 10
1872.9490843408
 20
2754.9290740988
 10
1872.825131743
 20
2754.9177331174
 10
1872.5523006476
 20
2754.8711133513
 10
1872.6435564822
 20
2754.8240102435
 10
1873.0951632222
 20
2754.7783522009
 10
1873.8886320348
 20
2754.736008469
 10
1874.7435540402
 20
2754.7058287716
  0
LWPOLYLINE
  5
34D
330
1F
100
AcDbEntity
  8
0
  6
Continuous
 62
     7
370
    25
100
AcDbPolyline
 90
       19
 70
   128
 43
0.0
 10
1888.4154268517
 20
2755.0564516333
 10
1888.5671548704
 20
2755.0417688196
 10
1888.7503025605
 20
2754.9992186952
 10
1888.5671548704
 20
2754.9566685707
 10
1888.0268955899
 20
2754.9162520871
 10
1887.1566155753
 20
2754.8799958958
 10
1885.9999543005
 20
2754.8497180334
 10
1884.6149115917
 20
2754.8269367584
 10
1883.0709392736
 20
2754.8127944191
 10
1881.4454585654
 20
2754.8080001715
 10
1879.8199778572
 20
2754.8127944191
 10
1878.2760055391
 20
2754.8269367584
 10
1876.8909628302
 20
2754.8497180334
 10
1875.7343015554
 20
2754.8799958958
 10
1874.8640215408
 20
2754.9162520871
 10
1874.3237622603
 20
2754.9566685707
 10
1874.1406145702
 20
2754.9992186952
 10
1874.3237622603
 20
2755.0417688196
 10
1874.475490279
 20
2755.0564516333
  0
SPLINE
  5
34E
330
1F
100
AcDbEntity
  8
0
  6
Continuous
 62
     7
370
    25
100
AcDbSpline
210
0.0
220
0.0
230
1.0
 70
     8
 71
     3
 72
    10
 73
     6
 74
     0
 42
0.00000001
 43
0.00000001
 40
0.0
 40
0.0
 40
0.0
 40
0.0
 40
0.0219459922087544
 40
0.530020750134235
 40
1.0
 40
1.0
 40
1.0
 40
1.0
 10
1886.062172969184
 20
2752.531668758932
 30
0.0
 10
1886.060135481759
 20
2752.530130453347
 30
0.0
 10
1886.010927835864
 20
2752.492978618406
 30
0.0
 10
1885.962555166674
 20
2752.375907282436
 30
0.0
 10
1885.949367076375
 20
2752.264160079889
 30
0.0
 10
1885.943029871337
 20
2752.210462772778
 30
0.0
  0
ARC
  5
34F
330
1F
100
AcDbEntity
  8
0
  6
Continuous
 62
     7
370
    25
100
AcDbCircle
 10
1881.4727661044
 20
2818.5310144337
 30
0.0
 40
66.47103753336843
100
AcDbArc
 50
266.0945910318
 51
273.8561261673
  0
LINE
  5
350
330
1F
100
AcDbEntity
  8
0
  6
Continuous
 62
     7
370
    25
100
AcDbLine
 10
1885.9454585654
 20
2752.2143323905
 30
0.0
 11
1885.9430298712
 21
2752.2104627727
 31
0.0
  0
ARC
  5
351
330
1F
100
AcDbEntity
  8
0
  6
Continuous
 62
     7
370
    25
100
AcDbCircle
 10
3157.9448257767
 20
2900.33202581
 30
0.0
 40
147.0082502475067
100
AcDbArc
 50
266.0997819289
 51
273.9007124515
  0
LWPOLYLINE
  5
352
330
1F
100
AcDbEntity
  8
0
  6
Continuous
 62
     7
370
    25
100
AcDbPolyline
 90
        6
 70
   128
 43
0.0
 10
3165.556639358
 20
2754.7383210839
 10
3166.2957539085
 20
2754.7783522009
 10
3166.7473606486
 20
2754.8240102435
 10
3166.8386164832
 20
2754.8711133513
 10
3166.5657853877
 20
2754.9177331174
 10
3166.4418327899
 20
2754.9290740988
  0
LWPOLYLINE
  5
353
330
1F
100
AcDbEntity
  8
0
  6
Continuous
 62
     7
370
    25
100
AcDbPolyline
 90
        7
 70
   128
 43
0.0
 10
3149.4490843408
 20
2754.9290740988
 10
3149.325131743
 20
2754.9177331174
 10
3149.0523006476
 20
2754.8711133513
 10
3149.1435564822
 20
2754.8240102435
 10
3149.5951632222
 20
2754.7783522009
 10
3150.3886320348
 20
2754.736008469
 10
3151.2435540402
 20
2754.7058287716
  0
LWPOLYLINE
  5
354
330
1F
100
AcDbEntity
  8
0
  6
Continuous
 62
     7
370
    25
100
AcDbPolyline
 90
       19
 70
   128
 43
0.0
 10
3164.9154268517
 20
2755.0564516333
 10
3165.0671548704
 20
2755.0417688196
 10
3165.2503025605
 20
2754.9992186952
 10
3165.0671548704
 20
2754.9566685707
 10
3164.5268955899
 20
2754.9162520871
 10
3163.6566155753
 20
2754.8799958958
 10
3162.4999543005
 20
2754.8497180334
 10
3161.1149115917
 20
2754.8269367584
 10
3159.5709392736
 20
2754.8127944191
 10
3157.9454585654
 20
2754.8080001715
 10
3156.3199778572
 20
2754.8127944191
 10
3154.7760055391
 20
2754.8269367584
 10
3153.3909628302
 20
2754.8497180334
 10
3152.2343015554
 20
2754.8799958958
 10
3151.3640215408
 20
2754.9162520871
 10
3150.8237622603
 20
2754.9566685707
 10
3150.6406145702
 20
2754.9992186952
 10
3150.8237622603
 20
2755.0417688196
 10
3150.975490279
 20
2755.0564516333
  0
SPLINE
  5
355
330
1F
100
AcDbEntity
  8
0
  6
Continuous
 62
     7
370
    25
100
AcDbSpline
210
0.0
220
0.0
230
1.0
 70
     8
 71
     3
 72
    10
 73
     6
 74
     0
 42
0.00000001
 43
0.00000001
 40
0.0
 40
0.0
 40
0.0
 40
0.0
 40
0.0219459922085855
 40
0.5300207501342146
 40
1.0
 40
1.0
 40
1.0
 40
1.0
 10
3162.562172969184
 20
2752.53166875893
 30
0.0
 10
3162.560135481758
 20
2752.530130453345
 30
0.0
 10
3162.510927835867
 20
2752.492978618405
 30
0.0
 10
3162.462555166672
 20
2752.375907282435
 30
0.0
 10
3162.449367076374
 20
2752.264160079888
 30
0.0
 10
3162.443029871336
 20
2752.210462772777
 30
0.0
  0
ARC
  5
356
330
1F
100
AcDbEntity
  8
0
  6
Continuous
 62
     7
370
    25
100
AcDbCircle
 10
3157.9727661044
 20
2818.5310144337
 30
0.0
 40
66.4710375334027
100
AcDbArc
 50
266.0945910318
 51
273.8561261672
  0
LINE
  5
357
330
1F
100
AcDbEntity
  8
0
  6
Continuous
 62
     7
370
    25
100
AcDbLine
 10
3162.4454585654
 20
2752.2143323905
 30
0.0
 11
3162.4430298712
 21
2752.2104627727
 31
0.0
  0
SPLINE
  5
358
330
1F
100
AcDbEntity
  8
0
  6
Continuous
 62
     7
370
    25
100
AcDbSpline
210
0.0
220
0.0
230
1.0
 70
     8
 71
     3
 72
    10
 73
     6
 74
     0
 42
0.00000001
 43
0.00000001
 40
0.0
 40
0.0
 40
0.0
 40
0.0
 40
0.1834740337130567
 40
0.471315213347203
 40
1.0
 40
1.0
 40
1.0
 40
1.0
 10
2316.438044120543
 20
2370.953881097523
 30
0.0
 10
2316.381017377292
 20
2370.888430563511
 30
0.0
 10
2316.234524867598
 20
2370.720298693422
 30
0.0
 10
2316.016685233484
 20
2370.291298749881
 30
0.0
 10
2315.973451546616
 20
2369.904394271619
 30
0.0
 10
2315.94545856971
 20
2369.653881097524
 30
0.0
  0
SPLINE
  5
359
330
1F
100
AcDbEntity
  8
0
  6
Continuous
 62
     7
370
    25
100
AcDbSpline
210
0.0
220
0.0
230
1.0
 70
     8
 71
     3
 72
    10
 73
     6
 74
     0
 42
0.00000001
 43
0.00000001
 40
0.0
 40
0.0
 40
0.0
 40
0.0
 40
0.5286786081633292
 40
0.8161383429881391
 40
1.0
 40
1.0
 40
1.0
 40
1.0
 10
2335.945458569711
 20
2369.653881097518
 30
0.0
 10
2335.917467933867
 20
2369.904395604495
 30
0.0
 10
2335.874257879962
 20
2370.291122987563
 30
0.0
 10
2335.656475972978
 20
2370.720139553952
 30
0.0
 10
2335.509989980873
 20
2370.888287050807
 30
0.0
 10
2335.452846049568
 20
2370.953881097523
 30
0.0
  0
SPLINE
  5
35A
330
1F
100
AcDbEntity
  8
0
  6
Continuous
 62
     7
370
    25
100
AcDbSpline
210
0.0
220
0.0
230
1.0
 70
     8
 71
     3
 72
    10
 73
     6
 74
     0
 42
0.00000001
 43
0.00000001
 40
0.0
 40
0.0
 40
0.0
 40
0.0
 40
0.1834740337130522
 40
0.4713152133471977
 40
1.0
 40
1.0
 40
1.0
 40
1.0
 10
1866.938044120543
 20
2370.953881097523
 30
0.0
 10
1866.881017377291
 20
2370.888430563511
 30
0.0
 10
1866.734524867598
 20
2370.720298693422
 30
0.0
 10
1866.516685233483
 20
2370.291298749882
 30
0.0
 10
1866.473451546616
 20
2369.904394271619
 30
0.0
 10
1866.445458569709
 20
2369.653881097524
 30
0.0
  0
SPLINE
  5
35B
330
1F
100
AcDbEntity
  8
0
  6
Continuous
 62
     7
370
    25
100
AcDbSpline
210
0.0
220
0.0
230
1.0
 70
     8
 71
     3
 72
    10
 73
     6
 74
     0
 42
0.00000001
 43
0.00000001
 40
0.0
 40
0.0
 40
0.0
 40
0.0
 40
0.5286786081633246
 40
0.8161383429881223
 40
0.9999999999999999
 40
0.9999999999999999
 40
0.9999999999999999
 40
0.9999999999999999
 10
1886.445458569711
 20
2369.653881097518
 30
0.0
 10
1886.417467933867
 20
2369.904395604495
 30
0.0
 10
1886.374257879961
 20
2370.291122987563
 30
0.0
 10
1886.156475972978
 20
2370.720139553952
 30
0.0
 10
1886.009989980873
 20
2370.888287050807
 30
0.0
 10
1885.952846049568
 20
2370.953881097523
 30
0.0
  0
SPLINE
  5
35C
330
1F
100
AcDbEntity
  8
0
  6
Continuous
 62
     7
370
    25
100
AcDbSpline
210
0.0
220
0.0
230
1.0
 70
     8
 71
     3
 72
    10
 73
     6
 74
     0
 42
0.00000001
 43
0.00000001
 40
0.0
 40
0.0
 40
0.0
 40
0.0
 40
0.5286786081595728
 40
0.8161383429812026
 40
1.0
 40
1.0
 40
1.0
 40
1.0
 10
3172.945458561027
 20
2369.653881097515
 30
0.0
 10
3172.917467925182
 20
2369.904395604491
 30
0.0
 10
3172.874257871276
 20
2370.291122987557
 30
0.0
 10
3172.656475964292
 20
2370.720139553947
 30
0.0
 10
3172.509989972184
 20
2370.888287050804
 30
0.0
 10
3172.452846040878
 20
2370.953881097523
 30
0.0
  0
SPLINE
  5
35D
330
1F
100
AcDbEntity
  8
0
  6
Continuous
 62
     7
370
    25
100
AcDbSpline
210
0.0
220
0.0
230
1.0
 70
     8
 71
     3
 72
    10
 73
     6
 74
     0
 42
0.00000001
 43
0.00000001
 40
0.0
 40
0.0
 40
0.0
 40
0.0
 40
0.1834740337180717
 40
0.4713152133482723
 40
1.0
 40
1.0
 40
1.0
 40
1.0
 10
3153.438044111865
 20
2370.953881097523
 30
0.0
 10
3153.381017368612
 20
2370.888430563509
 30
0.0
 10
3153.234524858916
 20
2370.720298693418
 30
0.0
 10
3153.016685224801
 20
2370.291298749873
 30
0.0
 10
3152.973451537933
 20
2369.904394271609
 30
0.0
 10
3152.945458561027
 20
2369.653881097511
 30
0.0
  0
ENDSEC
  0
SECTION
  2
OBJECTS
  0
DICTIONARY
  5
C
330
0
100
AcDbDictionary
281
     1
  3
ACAD_GROUP
350
D
  3
ACAD_LAYOUT
350
1A
  3
ACAD_MLINESTYLE
350
17
  3
ACAD_PLOTSETTINGS
350
19
  3
ACAD_PLOTSTYLENAME
350
E
  3
ACAD_SCALELIST
350
47
  3
DWGPROPS
350
35E
  0
DICTIONARY
  5
D
102
{ACAD_REACTORS
330
C
102
}
330
C
100
AcDbDictionary
281
     1
  0
DICTIONARY
  5
1A
102
{ACAD_REACTORS
330
C
102
}
330
C
100
AcDbDictionary
281
     1
  3
Layout1
350
1E
  3
Layout2
350
26
  3
Model
350
22
  0
DICTIONARY
  5
17
102
{ACAD_REACTORS
330
C
102
}
330
C
100
AcDbDictionary
281
     1
  3
Standard
350
18
  0
DICTIONARY
  5
19
102
{ACAD_REACTORS
330
C
102
}
330
C
100
AcDbDictionary
281
     1
  0
ACDBDICTIONARYWDFLT
  5
E
102
{ACAD_REACTORS
330
C
102
}
330
C
100
AcDbDictionary
281
     1
  3
Normal
350
F
100
AcDbDictionaryWithDefault
340
F
  0
DICTIONARY
  5
47
102
{ACAD_REACTORS
330
C
102
}
330
C
100
AcDbDictionary
281
     1
  3
A0
350
48
  3
A1
350
49
  3
A2
350
4A
  3
A3
350
4B
  3
A4
350
4C
  3
A5
350
4D
  3
A6
350
4E
  3
A7
350
4F
  3
A8
350
50
  3
A9
350
51
  3
B0
350
52
  3
B1
350
53
  3
B2
350
54
  3
B3
350
55
  3
B4
350
56
  3
B5
350
57
  3
B6
350
58
  0
XRECORD
  5
35E
102
{ACAD_REACTORS
330
C
102
}
330
C
100
AcDbXrecord
280
     1
  1
DWGPROPS COOKIE
  2

  3

  4

  6

  7

  8
b
  9

300
=
301
=
302
=
303
=
304
=
305
=
306
=
307
=
308
=
309
=
 40
0.0
 41
2460383.31822706
 42
2460383.318227419
  1

 90
        0
  0
LAYOUT
  5
1E
102
{ACAD_REACTORS
330
1A
102
}
330
1A
100
AcDbPlotSettings
  1

  2
none_device
  4

  6

 40
0.0
 41
0.0
 42
0.0
 43
0.0
 44
0.0
 45
0.0
 46
0.0
 47
0.0
 48
0.0
 49
0.0
140
0.0
141
0.0
142
1.0
143
1.0
 70
   688
 72
     1
 73
     0
 74
     5
  7

 75
    16
147
1.0
148
0.0
149
0.0
100
AcDbLayout
  1
Layout1
 70
     1
 71
     1
 10
0.0
 20
0.0
 11
420.0
 21
297.0
 12
0.0
 22
0.0
 32
0.0
 14
1.0000000000E+20
 24
1.0000000000E+20
 34
1.0000000000E+20
 15
-1.0000000000E+20
 25
-1.0000000000E+20
 35
-1.0000000000E+20
146
0.0
 13
0.0
 23
0.0
 33
0.0
 16
1.0
 26
0.0
 36
0.0
 17
0.0
 27
1.0
 37
0.0
 76
     0
330
1B
  0
LAYOUT
  5
26
102
{ACAD_REACTORS
330
1A
102
}
330
1A
100
AcDbPlotSettings
  1

  2
none_device
  4

  6

 40
0.0
 41
0.0
 42
0.0
 43
0.0
 44
0.0
 45
0.0
 46
0.0
 47
0.0
 48
0.0
 49
0.0
140
0.0
141
0.0
142
1.0
143
1.0
 70
   688
 72
     1
 73
     0
 74
     5
  7

 75
    16
147
1.0
148
0.0
149
0.0
100
AcDbLayout
  1
Layout2
 70
     1
 71
     2
 10
0.0
 20
0.0
 11
0.0
 21
0.0
 12
0.0
 22
0.0
 32
0.0
 14
0.0
 24
0.0
 34
0.0
 15
0.0
 25
0.0
 35
0.0
146
0.0
 13
0.0
 23
0.0
 33
0.0
 16
1.0
 26
0.0
 36
0.0
 17
0.0
 27
1.0
 37
0.0
 76
     0
330
23
  0
LAYOUT
  5
22
102
{ACAD_REACTORS
330
1A
102
}
330
1A
100
AcDbPlotSettings
  1

  2
none_device
  4
Letter_(8.50_x_11.00_Inches)
  6

 40
6.35
 41
6.35
 42
6.35000508
 43
6.35000508
 44
215.9
 45
279.4
 46
0.0
 47
0.0
 48
0.0
 49
0.0
140
0.0
141
0.0
142
1.0
143
1.0
 70
  1712
 72
     1
 73
     0
 74
     0
  7

 75
     0
147
1.0
148
0.0
149
0.0
100
AcDbLayout
  1
Model
 70
     1
 71
     0
 10
0.0
 20
0.0
 11
5000.0
 21
3500.0
 12
0.0
 22
0.0
 32
0.0
 14
0.0
 24
0.0
 34
0.0
 15
5000.0
 25
3500.0
 35
0.0
146
0.0
 13
0.0
 23
0.0
 33
0.0
 16
1.0
 26
0.0
 36
0.0
 17
0.0
 27
1.0
 37
0.0
 76
     0
330
1F
331
29
  0
MLINESTYLE
  5
18
102
{ACAD_REACTORS
330
17
102
}
330
17
100
AcDbMlineStyle
  2
Standard
 70
     0
  3

 62
   256
 51
90.0
 52
90.0
 71
     2
 49
0.5
 62
   256
  6
BYLAYER
 49
-0.5
 62
   256
  6
BYLAYER
  0
ACDBPLACEHOLDER
  5
F
102
{ACAD_REACTORS
330
E
102
}
330
E
  0
SCALE
  5
48
102
{ACAD_REACTORS
330
47
102
}
330
47
100
AcDbScale
 70
     0
300
1:1
140
1.0
141
1.0
290
     1
  0
SCALE
  5
49
102
{ACAD_REACTORS
330
47
102
}
330
47
100
AcDbScale
 70
     0
300
1:2
140
1.0
141
2.0
290
     0
  0
SCALE
  5
4A
102
{ACAD_REACTORS
330
47
102
}
330
47
100
AcDbScale
 70
     0
300
1:4
140
1.0
141
4.0
290
     0
  0
SCALE
  5
4B
102
{ACAD_REACTORS
330
47
102
}
330
47
100
AcDbScale
 70
     0
300
1:5
140
1.0
141
5.0
290
     0
  0
SCALE
  5
4C
102
{ACAD_REACTORS
330
47
102
}
330
47
100
AcDbScale
 70
     0
300
1:8
140
1.0
141
8.0
290
     0
  0
SCALE
  5
4D
102
{ACAD_REACTORS
330
47
102
}
330
47
100
AcDbScale
 70
     0
300
1:10
140
1.0
141
10.0
290
     0
  0
SCALE
  5
4E
102
{ACAD_REACTORS
330
47
102
}
330
47
100
AcDbScale
 70
     0
300
1:16
140
1.0
141
16.0
290
     0
  0
SCALE
  5
4F
102
{ACAD_REACTORS
330
47
102
}
330
47
100
AcDbScale
 70
     0
300
1:20
140
1.0
141
20.0
290
     0
  0
SCALE
  5
50
102
{ACAD_REACTORS
330
47
102
}
330
47
100
AcDbScale
 70
     0
300
1:30
140
1.0
141
30.0
290
     0
  0
SCALE
  5
51
102
{ACAD_REACTORS
330
47
102
}
330
47
100
AcDbScale
 70
     0
300
1:40
140
1.0
141
40.0
290
     0
  0
SCALE
  5
52
102
{ACAD_REACTORS
330
47
102
}
330
47
100
AcDbScale
 70
     0
300
1:50
140
1.0
141
50.0
290
     0
  0
SCALE
  5
53
102
{ACAD_REACTORS
330
47
102
}
330
47
100
AcDbScale
 70
     0
300
1:100
140
1.0
141
100.0
290
     0
  0
SCALE
  5
54
102
{ACAD_REACTORS
330
47
102
}
330
47
100
AcDbScale
 70
     0
300
2:1
140
2.0
141
1.0
290
     0
  0
SCALE
  5
55
102
{ACAD_REACTORS
330
47
102
}
330
47
100
AcDbScale
 70
     0
300
4:1
140
4.0
141
1.0
290
     0
  0
SCALE
  5
56
102
{ACAD_REACTORS
330
47
102
}
330
47
100
AcDbScale
 70
     0
300
8:1
140
8.0
141
1.0
290
     0
  0
SCALE
  5
57
102
{ACAD_REACTORS
330
47
102
}
330
47
100
AcDbScale
 70
     0
300
10:1
140
10.0
141
1.0
290
     0
  0
SCALE
  5
58
102
{ACAD_REACTORS
330
47
102
}
330
47
100
AcDbScale
 70
     0
300
100:1
140
100.0
141
1.0
290
     0
  0
ENDSEC
  0
EOF
