  0
SECTION
  2
HEADER
  9
$ACADVER
  1
AC1006
  9
$DWGCODEPAGE
  3
ansi_932
  9
$INSBASE
 10
0.0
 20
0.0
 30
0.0
  9
$EXTMIN
 10
312.5619830021469
 20
165.7088516276313
  9
$EXTMAX
 10
4839.484712179223
 20
3066.145066982254
  9
$LIMMIN
 10
0.0
 20
0.0
  9
$LIMMAX
 10
5000.0
 20
3500.0
  9
$ORTHOMODE
 70
     0
  9
$REGENMODE
 70
     1
  9
$FILLMODE
 70
     1
  9
$QTEXTMODE
 70
     0
  9
$MIRRTEXT
 70
     1
  9
$DRAGMODE
 70
     2
  9
$LTSCALE
 40
1.0
  9
$OSMODE
 70
    37
  9
$ATTMODE
 70
     1
  9
$TEXTSIZE
 40
3.5
  9
$TRACEWID
 40
1.0
  9
$TEXTSTYLE
  7
STANDARD
  9
$CLAYER
  8
0
  9
$CELTYPE
  6
BYLAYER
  9
$CECOLOR
 62
   256
  9
$DIMSCALE
 40
1.0
  9
$DIMASZ
 40
3.302
  9
$DIMEXO
 40
1.0
  9
$DIMDLI
 40
3.75
  9
$DIMRND
 40
0.0
  9
$DIMDLE
 40
0.0
  9
$DIMEXE
 40
1.0
  9
$DIMTP
 40
0.0
  9
$DIMTM
 40
0.0
  9
$DIMTXT
 40
3.5
  9
$DIMCEN
 40
2.5
  9
$DIMTSZ
 40
0.0
  9
$DIMTOL
 70
     0
  9
$DIMLIM
 70
     0
  9
$DIMTIH
 70
     1
  9
$DIMTOH
 70
     1
  9
$DIMSE1
 70
     0
  9
$DIMSE2
 70
     0
  9
$DIMTAD
 70
     1
  9
$DIMZIN
 70
     0
  9
$DIMBLK
  1

  9
$DIMASO
 70
     1
  9
$DIMSHO
 70
     1
  9
$DIMPOST
  1

  9
$DIMAPOST
  1

  9
$DIMALT
 70
     0
  9
$DIMALTD
 70
     3
  9
$DIMALTF
 40
0.0393700787401575
  9
$DIMLFAC
 40
1.0
  9
$DIMTOFL
 70
     1
  9
$DIMTVP
 40
0.0
  9
$DIMTIX
 70
     0
  9
$DIMSOXD
 70
     0
  9
$DIMSAH
 70
     0
  9
$DIMBLK1
  1

  9
$DIMBLK2
  1

  9
$LUNITS
 70
     2
  9
$LUPREC
 70
     2
  9
$SKETCHINC
 40
1.0
  9
$FILLETRAD
 40
10.0
  9
$AUNITS
 70
     0
  9
$AUPREC
 70
     2
  9
$MENU
  1
.
  9
$ELEVATION
 40
0.0
  9
$THICKNESS
 40
0.0
  9
$LIMCHECK
 70
     0
  9
$CHAMFERA
 40
0.0
  9
$CHAMFERB
 40
0.0
  9
$SKPOLY
 70
     0
  9
$TDCREATE
 40
2458991.327887778
  9
$TDUPDATE
 40
2460139.042496285
  9
$TDINDWG
 40
0.000695162
  9
$TDUSRTIMER
 40
0.000695162
  9
$USRTIMER
 70
     1
  9
$ANGBASE
 50
0.0
  9
$ANGDIR
 70
     0
  9
$PDMODE
 70
     0
  9
$PDSIZE
 40
-1.0
  9
$PLINEWID
 40
0.0
  9
$COORDS
 70
     1
  9
$SPLFRAME
 70
     0
  9
$SPLINETYPE
 70
     6
  9
$SPLINESEGS
 70
     8
  9
$ATTDIA
 70
     0
  9
$ATTREQ
 70
     1
  9
$HANDLING
 70
     1
  9
$HANDSEED
  5
8B5
  9
$SURFTAB1
 70
     6
  9
$SURFTAB2
 70
     6
  9
$SURFTYPE
 70
     6
  9
$SURFU
 70
     6
  9
$SURFV
 70
     6
  9
$UCSNAME
  2

  9
$UCSORG
 10
0.0
 20
0.0
 30
0.0
  9
$UCSXDIR
 10
1.0
 20
0.0
 30
0.0
  9
$UCSYDIR
 10
0.0
 20
1.0
 30
0.0
  9
$USERI1
 70
     0
  9
$USERI2
 70
     0
  9
$USERI3
 70
     0
  9
$USERI4
 70
     0
  9
$USERI5
 70
     0
  9
$USERR1
 40
0.0
  9
$USERR2
 40
0.0
  9
$USERR3
 40
0.0
  9
$USERR4
 40
0.0
  9
$USERR5
 40
0.0
  9
$WORLDVIEW
 70
     1
  0
ENDSEC
  0
SECTION
  2
TABLES
  0
TABLE
  2
VPORT
 70
     1
  0
VPORT
  2
*ACTIVE
 70
     0
 10
0.0
 20
0.0
 11
1.0
 21
1.0
 12
3053.738189564463
 22
1735.072871317444
 13
0.0
 23
0.0
 14
10.0
 24
10.0
 15
10.0
 25
10.0
 16
0.0
 26
0.0
 36
1.0
 17
0.0
 27
0.0
 37
0.0
 40
3747.34178179251
 41
1.876558603491272
 42
50.0
 43
0.0
 44
0.0
 50
0.0
 51
0.0
 71
     0
 72
  2000
 73
     1
 74
     3
 75
     0
 76
     0
 77
     0
 78
     0
  0
ENDTAB
  0
TABLE
  2
LTYPE
 70
     6
  0
LTYPE
  2
CONTINUOUS
 70
     0
  3
Solid line
 72
    65
 73
     0
 40
0.0
  0
LTYPE
  2
HIDDEN
 70
     0
  3
Hidden __ __ __ __ __ __ __ __ __ __ __ __ __ __
 72
    65
 73
     2
 40
1.905
 49
1.27
 49
-0.635
  0
LTYPE
  2
PHANTOM
 70
     0
  3
Phantom ______  __  __  ______  __  __  ______
 72
    65
 73
     6
 40
12.7
 49
6.35
 49
-1.27
 49
1.27
 49
-1.27
 49
1.27
 49
-1.27
  0
LTYPE
  2
CENTER
 70
     0
  3
Center ____ _ ____ _ ____ _ ____ _ ____ _ ____
 72
    65
 73
     4
 40
10.16
 49
6.35
 49
-1.27
 49
1.27
 49
-1.27
  0
LTYPE
  2
CENTERX2
 70
     0
  3
Center (2x) ________  __  ________  __  _____
 72
    65
 73
     4
 40
20.32
 49
12.7
 49
-2.54
 49
2.54
 49
-2.54
  0
LTYPE
  2
DOT2
 70
     0
  3
Dot (.5x) ........................................
 72
    65
 73
     2
 40
0.635
 49
0.0
 49
-0.635
  0
ENDTAB
  0
TABLE
  2
LAYER
 70
     3
  0
LAYER
  2
0
 70
     0
 62
     7
  6
CONTINUOUS
  0
LAYER
  2
SLD-0
 70
     0
 62
   179
  6
CONTINUOUS
  0
LAYER
  2
寸法
 70
     0
 62
   179
  6
CONTINUOUS
  0
ENDTAB
  0
TABLE
  2
STYLE
 70
     2
  0
STYLE
  2
STANDARD
 70
     0
 40
0.0
 41
1.0
 50
0.0
 71
     0
 42
3.5
  3
txt
  4
bigfont
  0
STYLE
  2
SLDTEXTSTYLE0
 70
     0
 40
0.0
 41
0.75
 50
0.0
 71
     0
 42
3.5
  3
TXT
  4
bigfont
  0
ENDTAB
  0
TABLE
  2
VIEW
 70
     0
  0
ENDTAB
  0
TABLE
  2
UCS
 70
     0
  0
ENDTAB
  0
ENDSEC
  0
SECTION
  2
BLOCKS
  0
ENDSEC
  0
SECTION
  2
ENTITIES
  0
LINE
  5
75
  8
0
  6
CONTINUOUS
 62
     7
 10
4839.484712179223
 20
258.5233124172521
 30
0.0
 11
3312.374599790194
 21
258.5233124172519
 31
0.0
  0
TEXT
  5
77
  8
0
  6
CONTINUOUS
 62
     7
 10
1655.363757320875
 20
3013.228400315587
 30
0.0
 40
52.91666666666666
  1
＜上面＞
 41
0.75
  7
SLDTEXTSTYLE0
  0
TEXT
  5
78
  8
0
  6
CONTINUOUS
 62
     7
 10
340.4564745328014
 20
1797.422665617469
 30
0.0
 40
52.91666666666666
  1
＜左側面＞
 41
0.75
  7
SLDTEXTSTYLE0
  0
TEXT
  5
79
  8
0
  6
CONTINUOUS
 62
     7
 10
4271.252345055726
 20
1797.422665617467
 30
0.0
 40
52.91666666666666
  1
＜右側面＞
 41
0.75
  7
SLDTEXTSTYLE0
  0
TEXT
  5
7A
  8
0
  6
CONTINUOUS
 62
     7
 10
1655.363757320875
 20
1797.422665617469
 30
0.0
 40
52.91666666666666
  1
＜正面＞
 41
0.75
  7
SLDTEXTSTYLE0
  0
TEXT
  5
7B
  8
0
  6
CONTINUOUS
 62
     7
 10
3377.814243189123
 20
326.489054196763
 30
0.0
 40
52.91666666666666
  1
品名：
 41
0.75
  7
SLDTEXTSTYLE0
  0
TEXT
  5
7C
  8
0
  6
CONTINUOUS
 62
     7
 10
3596.719089054346
 20
326.4179256298013
 30
0.0
 40
66.14583333333331
  1
MA-D182D-T
 41
0.75
  7
SLDTEXTSTYLE0
  0
TEXT
  5
7D
  8
0
  6
CONTINUOUS
 62
     7
 10
4446.663437481703
 20
332.3177187478654
 30
0.0
 40
52.91666666666666
  1
Pamouna
 41
0.75
  7
SLDTEXTSTYLE0
  0
TEXT
  5
7E
  8
寸法
  6
CONTINUOUS
 62
     7
 10
4688.007304885427
 20
165.7088516276312
 30
0.0
 40
52.91666666666666
  1
1/1
 41
0.75
  7
SLDTEXTSTYLE0
  0
TEXT
  5
7F
  8
寸法
  6
CONTINUOUS
 62
     7
 10
4198.79693921183
 20
165.7088544215994
 30
0.0
 40
52.91666666666666
  1
2022/9/9
 41
0.75
  7
SLDTEXTSTYLE0
  0
LINE
  5
80
  8
0
  6
CONTINUOUS
 62
     7
 10
1648.941286479931
 20
1151.535708755057
 30
0.0
 11
1648.441286479931
 21
1151.535708755057
 31
0.0
  0
LINE
  5
81
  8
0
  6
CONTINUOUS
 62
     7
 10
1648.441286479931
 20
1143.735708755057
 30
0.0
 11
1648.941286479931
 21
1143.735708755057
 31
0.0
  0
LINE
  5
82
  8
0
  6
CONTINUOUS
 62
     7
 10
3411.441286479931
 20
1143.735708755057
 30
0.0
 11
3411.941286479931
 21
1143.735708755057
 31
0.0
  0
LINE
  5
83
  8
0
  6
CONTINUOUS
 62
     7
 10
3411.941286479931
 20
1151.535708755057
 30
0.0
 11
3411.441286479931
 21
1151.535708755057
 31
0.0
  0
LINE
  5
84
  8
0
  6
CONTINUOUS
 62
     7
 10
2830.441286479931
 20
1194.635708755057
 30
0.0
 11
2830.441286479931
 21
1193.635708755057
 31
0.0
  0
LINE
  5
85
  8
0
  6
CONTINUOUS
 62
     7
 10
3423.941286479931
 20
1194.635708755057
 30
0.0
 11
2830.441286479931
 21
1194.635708755057
 31
0.0
  0
LINE
  5
86
  8
0
  6
CONTINUOUS
 62
     7
 10
3423.941286479931
 20
1194.635708755057
 30
0.0
 11
3423.941286479931
 21
1193.635708755057
 31
0.0
  0
LINE
  5
87
  8
0
  6
CONTINUOUS
 62
     7
 10
2830.441286479931
 20
1193.635708755057
 30
0.0
 11
3423.941286479931
 21
1193.635708755057
 31
0.0
  0
LINE
  5
88
  8
0
  6
CONTINUOUS
 62
     7
 10
3423.941286479931
 20
1287.635708755057
 30
0.0
 11
3423.941286479931
 21
1194.635708755057
 31
0.0
  0
LINE
  5
89
  8
0
  6
CONTINUOUS
 62
     7
 10
3422.94128647993
 20
1287.635708755057
 30
0.0
 11
3422.94128647993
 21
1194.635708755057
 31
0.0
  0
LINE
  5
8A
  8
0
  6
CONTINUOUS
 62
     7
 10
3422.94128647993
 20
1287.635708755057
 30
0.0
 11
3423.941286479931
 21
1287.635708755057
 31
0.0
  0
LINE
  5
8B
  8
0
  6
CONTINUOUS
 62
     7
 10
3423.941286479931
 20
1194.635708755057
 30
0.0
 11
3422.94128647993
 21
1194.635708755057
 31
0.0
  0
LINE
  5
8C
  8
0
  6
CONTINUOUS
 62
     7
 10
2830.441286479931
 20
1288.635708755057
 30
0.0
 11
2830.441286479931
 21
1287.635708755057
 31
0.0
  0
LINE
  5
8D
  8
0
  6
CONTINUOUS
 62
     7
 10
3423.941286479931
 20
1288.635708755057
 30
0.0
 11
3423.941286479931
 21
1287.635708755057
 31
0.0
  0
LINE
  5
8E
  8
0
  6
CONTINUOUS
 62
     7
 10
2830.441286479931
 20
1287.635708755057
 30
0.0
 11
3423.941286479931
 21
1287.635708755057
 31
0.0
  0
LINE
  5
8F
  8
0
  6
CONTINUOUS
 62
     7
 10
2830.441286479931
 20
1288.635708755057
 30
0.0
 11
3423.941286479931
 21
1288.635708755057
 31
0.0
  0
LINE
  5
90
  8
0
  6
CONTINUOUS
 62
     7
 10
2830.441286479931
 20
1287.635708755057
 30
0.0
 11
2830.441286479931
 21
1194.635708755057
 31
0.0
  0
LINE
  5
91
  8
0
  6
CONTINUOUS
 62
     7
 10
2830.441286479931
 20
1287.635708755057
 30
0.0
 11
2831.44128647993
 21
1287.635708755057
 31
0.0
  0
LINE
  5
92
  8
0
  6
CONTINUOUS
 62
     7
 10
2831.44128647993
 20
1194.635708755057
 30
0.0
 11
2831.44128647993
 21
1287.635708755057
 31
0.0
  0
LINE
  5
93
  8
0
  6
CONTINUOUS
 62
     7
 10
2831.44128647993
 20
1194.635708755057
 30
0.0
 11
2830.441286479931
 21
1194.635708755057
 31
0.0
  0
LINE
  5
94
  8
0
  6
CONTINUOUS
 62
     7
 10
3422.94128647993
 20
1194.635708755057
 30
0.0
 11
2831.44128647993
 21
1194.635708755057
 31
0.0
  0
LINE
  5
95
  8
0
  6
CONTINUOUS
 62
     7
 10
2831.44128647993
 20
1287.635708755057
 30
0.0
 11
3422.94128647993
 21
1287.635708755057
 31
0.0
  0
LINE
  5
96
  8
0
  6
CONTINUOUS
 62
     7
 10
2233.441286479931
 20
1194.635708755057
 30
0.0
 11
2233.441286479931
 21
1193.635708755057
 31
0.0
  0
LINE
  5
97
  8
0
  6
CONTINUOUS
 62
     7
 10
2826.941286479931
 20
1194.635708755057
 30
0.0
 11
2826.941286479931
 21
1193.635708755057
 31
0.0
  0
LINE
  5
98
  8
0
  6
CONTINUOUS
 62
     7
 10
2233.441286479931
 20
1193.635708755057
 30
0.0
 11
2826.941286479931
 21
1193.635708755057
 31
0.0
  0
LINE
  5
99
  8
0
  6
CONTINUOUS
 62
     7
 10
2826.941286479931
 20
1194.635708755057
 30
0.0
 11
2233.441286479931
 21
1194.635708755057
 31
0.0
  0
LINE
  5
9A
  8
0
  6
CONTINUOUS
 62
     7
 10
2826.941286479931
 20
1287.635708755057
 30
0.0
 11
2826.941286479931
 21
1194.635708755057
 31
0.0
  0
LINE
  5
9B
  8
0
  6
CONTINUOUS
 62
     7
 10
2825.941286479931
 20
1287.635708755057
 30
0.0
 11
2825.941286479931
 21
1194.635708755057
 31
0.0
  0
LINE
  5
9C
  8
0
  6
CONTINUOUS
 62
     7
 10
2825.941286479931
 20
1287.635708755057
 30
0.0
 11
2826.941286479931
 21
1287.635708755057
 31
0.0
  0
LINE
  5
9D
  8
0
  6
CONTINUOUS
 62
     7
 10
2826.941286479931
 20
1194.635708755057
 30
0.0
 11
2825.941286479931
 21
1194.635708755057
 31
0.0
  0
LINE
  5
9E
  8
0
  6
CONTINUOUS
 62
     7
 10
2826.941286479931
 20
1288.635708755057
 30
0.0
 11
2826.941286479931
 21
1287.635708755057
 31
0.0
  0
LINE
  5
9F
  8
0
  6
CONTINUOUS
 62
     7
 10
2233.441286479931
 20
1288.635708755057
 30
0.0
 11
2233.441286479931
 21
1287.635708755057
 31
0.0
  0
LINE
  5
A0
  8
0
  6
CONTINUOUS
 62
     7
 10
2233.441286479931
 20
1287.635708755057
 30
0.0
 11
2826.941286479931
 21
1287.635708755057
 31
0.0
  0
LINE
  5
A1
  8
0
  6
CONTINUOUS
 62
     7
 10
2233.441286479931
 20
1288.635708755057
 30
0.0
 11
2826.941286479931
 21
1288.635708755057
 31
0.0
  0
LINE
  5
A2
  8
0
  6
CONTINUOUS
 62
     7
 10
2233.441286479931
 20
1287.635708755057
 30
0.0
 11
2233.441286479931
 21
1194.635708755057
 31
0.0
  0
LINE
  5
A3
  8
0
  6
CONTINUOUS
 62
     7
 10
2234.441286479931
 20
1194.635708755057
 30
0.0
 11
2234.44128647993
 21
1287.635708755057
 31
0.0
  0
LINE
  5
A4
  8
0
  6
CONTINUOUS
 62
     7
 10
2233.441286479931
 20
1287.635708755057
 30
0.0
 11
2234.44128647993
 21
1287.635708755057
 31
0.0
  0
LINE
  5
A5
  8
0
  6
CONTINUOUS
 62
     7
 10
2234.441286479931
 20
1194.635708755057
 30
0.0
 11
2233.441286479931
 21
1194.635708755057
 31
0.0
  0
LINE
  5
A6
  8
0
  6
CONTINUOUS
 62
     7
 10
2234.44128647993
 20
1287.635708755057
 30
0.0
 11
2825.941286479931
 21
1287.635708755057
 31
0.0
  0
LINE
  5
A7
  8
0
  6
CONTINUOUS
 62
     7
 10
2825.941286479931
 20
1194.635708755057
 30
0.0
 11
2234.441286479931
 21
1194.635708755057
 31
0.0
  0
LINE
  5
A8
  8
0
  6
CONTINUOUS
 62
     7
 10
1636.441286479931
 20
1194.635708755057
 30
0.0
 11
1636.441286479931
 21
1193.635708755057
 31
0.0
  0
LINE
  5
A9
  8
0
  6
CONTINUOUS
 62
     7
 10
2229.941286479931
 20
1194.635708755057
 30
0.0
 11
1636.441286479931
 21
1194.635708755057
 31
0.0
  0
LINE
  5
AA
  8
0
  6
CONTINUOUS
 62
     7
 10
1636.441286479931
 20
1193.635708755057
 30
0.0
 11
2229.941286479931
 21
1193.635708755057
 31
0.0
  0
LINE
  5
AB
  8
0
  6
CONTINUOUS
 62
     7
 10
2229.941286479931
 20
1194.635708755057
 30
0.0
 11
2229.941286479931
 21
1193.635708755057
 31
0.0
  0
LINE
  5
AC
  8
0
  6
CONTINUOUS
 62
     7
 10
2228.941286479931
 20
1287.635708755057
 30
0.0
 11
2228.941286479931
 21
1194.635708755057
 31
0.0
  0
LINE
  5
AD
  8
0
  6
CONTINUOUS
 62
     7
 10
2229.941286479931
 20
1287.635708755057
 30
0.0
 11
2229.941286479931
 21
1194.635708755057
 31
0.0
  0
LINE
  5
AE
  8
0
  6
CONTINUOUS
 62
     7
 10
2228.941286479931
 20
1287.635708755057
 30
0.0
 11
2229.941286479931
 21
1287.635708755057
 31
0.0
  0
LINE
  5
AF
  8
0
  6
CONTINUOUS
 62
     7
 10
2229.941286479931
 20
1194.635708755057
 30
0.0
 11
2228.941286479931
 21
1194.635708755057
 31
0.0
  0
LINE
  5
B0
  8
0
  6
CONTINUOUS
 62
     7
 10
1636.441286479931
 20
1287.635708755057
 30
0.0
 11
2229.941286479931
 21
1287.635708755057
 31
0.0
  0
LINE
  5
B1
  8
0
  6
CONTINUOUS
 62
     7
 10
2229.941286479931
 20
1288.635708755057
 30
0.0
 11
2229.941286479931
 21
1287.635708755057
 31
0.0
  0
LINE
  5
B2
  8
0
  6
CONTINUOUS
 62
     7
 10
1636.441286479931
 20
1288.635708755057
 30
0.0
 11
1636.441286479931
 21
1287.635708755057
 31
0.0
  0
LINE
  5
B3
  8
0
  6
CONTINUOUS
 62
     7
 10
1636.441286479931
 20
1288.635708755057
 30
0.0
 11
2229.941286479931
 21
1288.635708755057
 31
0.0
  0
LINE
  5
B4
  8
0
  6
CONTINUOUS
 62
     7
 10
1636.441286479931
 20
1287.635708755057
 30
0.0
 11
1636.441286479931
 21
1194.635708755057
 31
0.0
  0
LINE
  5
B5
  8
0
  6
CONTINUOUS
 62
     7
 10
1637.441286479931
 20
1194.635708755057
 30
0.0
 11
1637.44128647993
 21
1287.635708755057
 31
0.0
  0
LINE
  5
B6
  8
0
  6
CONTINUOUS
 62
     7
 10
1636.441286479931
 20
1287.635708755057
 30
0.0
 11
1637.44128647993
 21
1287.635708755057
 31
0.0
  0
LINE
  5
B7
  8
0
  6
CONTINUOUS
 62
     7
 10
1637.441286479931
 20
1194.635708755057
 30
0.0
 11
1636.441286479931
 21
1194.635708755057
 31
0.0
  0
LINE
  5
B8
  8
0
  6
CONTINUOUS
 62
     7
 10
2228.941286479931
 20
1194.635708755057
 30
0.0
 11
1637.441286479931
 21
1194.635708755057
 31
0.0
  0
LINE
  5
B9
  8
0
  6
CONTINUOUS
 62
     7
 10
1637.44128647993
 20
1287.635708755057
 30
0.0
 11
2228.941286479931
 21
1287.635708755057
 31
0.0
  0
LINE
  5
BA
  8
0
  6
CONTINUOUS
 62
     7
 10
3411.691286479931
 20
1288.635708755057
 30
0.0
 11
3411.691286479931
 21
1291.635708755057
 31
0.0
  0
LINE
  5
BB
  8
0
  6
CONTINUOUS
 62
     7
 10
1648.691286479931
 20
1291.635708755057
 30
0.0
 11
1648.691286479931
 21
1288.635708755057
 31
0.0
  0
LINE
  5
BC
  8
0
  6
CONTINUOUS
 62
     7
 10
1648.941286479931
 20
1124.135708755057
 30
0.0
 11
1648.941286479931
 21
1123.635708755057
 31
0.0
  0
LINE
  5
BD
  8
0
  6
CONTINUOUS
 62
     7
 10
3411.441286479931
 20
1124.135708755057
 30
0.0
 11
3411.441286479931
 21
1123.635708755057
 31
0.0
  0
LINE
  5
BE
  8
0
  6
CONTINUOUS
 62
     7
 10
3411.441286479931
 20
1124.135708755057
 30
0.0
 11
1648.941286479931
 21
1124.135708755057
 31
0.0
  0
LINE
  5
BF
  8
0
  6
CONTINUOUS
 62
     7
 10
1648.941286479931
 20
1123.635708755057
 30
0.0
 11
3411.441286479931
 21
1123.635708755057
 31
0.0
  0
LINE
  5
C0
  8
0
  6
CONTINUOUS
 62
     7
 10
1648.941286479931
 20
1193.635708755057
 30
0.0
 11
1648.941286479931
 21
1124.135708755057
 31
0.0
  0
LINE
  5
C1
  8
0
  6
CONTINUOUS
 62
     7
 10
3411.441286479931
 20
1193.635708755057
 30
0.0
 11
3411.441286479931
 21
1124.135708755057
 31
0.0
  0
CIRCLE
  5
C2
  8
0
  6
CONTINUOUS
 62
     7
 10
3261.441286479931
 20
1168.635708755057
 30
0.0
 40
1.511300000000119
  0
CIRCLE
  5
C3
  8
0
  6
CONTINUOUS
 62
     7
 10
2968.441286479931
 20
1168.635708755057
 30
0.0
 40
1.511300000000119
  0
CIRCLE
  5
C4
  8
0
  6
CONTINUOUS
 62
     7
 10
2675.441286479931
 20
1168.635708755057
 30
0.0
 40
1.511299999999665
  0
CIRCLE
  5
C5
  8
0
  6
CONTINUOUS
 62
     7
 10
2384.941286479931
 20
1168.635708755057
 30
0.0
 40
1.511300000000119
  0
CIRCLE
  5
C6
  8
0
  6
CONTINUOUS
 62
     7
 10
2091.941286479931
 20
1168.635708755057
 30
0.0
 40
1.511300000000119
  0
CIRCLE
  5
C7
  8
0
  6
CONTINUOUS
 62
     7
 10
1798.941286479931
 20
1168.635708755057
 30
0.0
 40
1.511299999999892
  0
CIRCLE
  5
C8
  8
0
  6
CONTINUOUS
 62
     7
 10
3261.441286479931
 20
1168.635708755057
 30
0.0
 40
1.500000048000402
  0
CIRCLE
  5
C9
  8
0
  6
CONTINUOUS
 62
     7
 10
1798.941286479931
 20
1168.635708755057
 30
0.0
 40
1.500000047999947
  0
CIRCLE
  5
CA
  8
0
  6
CONTINUOUS
 62
     7
 10
2675.441286479931
 20
1168.635708755057
 30
0.0
 40
1.500000047999947
  0
CIRCLE
  5
CB
  8
0
  6
CONTINUOUS
 62
     7
 10
2384.941286479931
 20
1168.635708755057
 30
0.0
 40
1.500000048000402
  0
CIRCLE
  5
CC
  8
0
  6
CONTINUOUS
 62
     7
 10
2968.441286479931
 20
1168.635708755057
 30
0.0
 40
1.500000047999947
  0
CIRCLE
  5
CD
  8
0
  6
CONTINUOUS
 62
     7
 10
2091.941286479931
 20
1168.635708755057
 30
0.0
 40
1.500000047999947
  0
LINE
  5
CE
  8
0
  6
CONTINUOUS
 62
     7
 10
3429.691286479931
 20
1291.635708755057
 30
0.0
 11
3430.691286479931
 21
1291.635708755057
 31
0.0
  0
LINE
  5
CF
  8
0
  6
CONTINUOUS
 62
     7
 10
3429.691286479931
 20
1308.635708755057
 30
0.0
 11
3429.691286479931
 21
1291.635708755057
 31
0.0
  0
LINE
  5
D0
  8
0
  6
CONTINUOUS
 62
     7
 10
3430.691286479931
 20
1308.635708755057
 30
0.0
 11
3429.691286479931
 21
1308.635708755057
 31
0.0
  0
LINE
  5
D1
  8
0
  6
CONTINUOUS
 62
     7
 10
3430.691286479931
 20
1291.635708755057
 30
0.0
 11
3430.691286479931
 21
1308.635708755057
 31
0.0
  0
LINE
  5
D2
  8
0
  6
CONTINUOUS
 62
     7
 10
1630.691286479931
 20
1291.635708755057
 30
0.0
 11
3429.691286479931
 21
1291.635708755057
 31
0.0
  0
LINE
  5
D3
  8
0
  6
CONTINUOUS
 62
     7
 10
1630.691286479931
 20
1291.635708755057
 30
0.0
 11
1630.691286479931
 21
1308.635708755057
 31
0.0
  0
LINE
  5
D4
  8
0
  6
CONTINUOUS
 62
     7
 10
3429.691286479931
 20
1308.635708755057
 30
0.0
 11
1630.691286479931
 21
1308.635708755057
 31
0.0
  0
LINE
  5
D5
  8
0
  6
CONTINUOUS
 62
     7
 10
1629.691286479931
 20
1291.635708755057
 30
0.0
 11
1630.691286479931
 21
1291.635708755057
 31
0.0
  0
LINE
  5
D6
  8
0
  6
CONTINUOUS
 62
     7
 10
1630.691286479931
 20
1308.635708755057
 30
0.0
 11
1629.691286479931
 21
1308.635708755057
 31
0.0
  0
LINE
  5
D7
  8
0
  6
CONTINUOUS
 62
     7
 10
1629.691286479931
 20
1308.635708755057
 30
0.0
 11
1629.691286479931
 21
1291.635708755057
 31
0.0
  0
LINE
  5
FD
  8
0
  6
CONTINUOUS
 62
     7
 10
2842.441286479931
 20
1191.55647706238
 30
0.0
 11
2841.941286479931
 21
1191.55647706238
 31
0.0
  0
LINE
  5
FE
  8
0
  6
CONTINUOUS
 62
     7
 10
2841.941286479931
 20
1125.635708755057
 30
0.0
 11
2842.441286479931
 21
1125.635708755057
 31
0.0
  0
LINE
  5
FF
  8
0
  6
CONTINUOUS
 62
     7
 10
2842.441286479931
 20
1191.55647706238
 30
0.0
 11
2842.441286479931
 21
1125.635708755057
 31
0.0
  0
LINE
  5
100
  8
0
  6
CONTINUOUS
 62
     7
 10
2841.941286479931
 20
1125.635708755057
 30
0.0
 11
2841.941286479931
 21
1191.55647706238
 31
0.0
  0
LINE
  5
101
  8
0
  6
CONTINUOUS
 62
     7
 10
2814.941286479931
 20
1125.635708755057
 30
0.0
 11
2815.44128647993
 21
1125.635708755057
 31
0.0
  0
LINE
  5
102
  8
0
  6
CONTINUOUS
 62
     7
 10
2814.941286479931
 20
1125.635708755057
 30
0.0
 11
2814.941286479931
 21
1191.55647706238
 31
0.0
  0
LINE
  5
103
  8
0
  6
CONTINUOUS
 62
     7
 10
2815.44128647993
 20
1191.55647706238
 30
0.0
 11
2814.941286479931
 21
1191.55647706238
 31
0.0
  0
LINE
  5
104
  8
0
  6
CONTINUOUS
 62
     7
 10
2815.44128647993
 20
1191.55647706238
 30
0.0
 11
2815.44128647993
 21
1125.635708755057
 31
0.0
  0
LINE
  5
105
  8
0
  6
CONTINUOUS
 62
     7
 10
2841.941286479931
 20
1191.55647706238
 30
0.0
 11
2815.44128647993
 21
1191.55647706238
 31
0.0
  0
LINE
  5
106
  8
0
  6
CONTINUOUS
 62
     7
 10
2815.44128647993
 20
1125.635708755057
 30
0.0
 11
2841.941286479931
 21
1125.635708755057
 31
0.0
  0
LINE
  5
107
  8
0
  6
CONTINUOUS
 62
     7
 10
2814.941286479931
 20
1193.635708755057
 30
0.0
 11
2814.941286479931
 21
1191.635708755057
 31
0.0
  0
LINE
  5
108
  8
0
  6
CONTINUOUS
 62
     7
 10
2830.441286479931
 20
1274.635708755057
 30
0.0
 11
2826.941286479931
 21
1274.635708755057
 31
0.0
  0
LINE
  5
109
  8
0
  6
CONTINUOUS
 62
     7
 10
2842.441286479931
 20
1191.635708755057
 30
0.0
 11
2842.441286479931
 21
1193.635708755057
 31
0.0
  0
LINE
  5
10A
  8
0
  6
CONTINUOUS
 62
     7
 10
2842.441286479931
 20
1191.635708755057
 30
0.0
 11
2814.941286479931
 21
1191.635708755057
 31
0.0
  0
LINE
  5
10B
  8
0
  6
CONTINUOUS
 62
     7
 10
2842.441286479931
 20
1191.55647706238
 30
0.0
 11
2814.941286479931
 21
1191.55647706238
 31
0.0
  0
LINE
  5
10C
  8
0
  6
CONTINUOUS
 62
     7
 10
2814.941286479931
 20
1191.635708755057
 30
0.0
 11
2814.941286479931
 21
1191.55647706238
 31
0.0
  0
LINE
  5
10D
  8
0
  6
CONTINUOUS
 62
     7
 10
2842.441286479931
 20
1191.635708755057
 30
0.0
 11
2842.441286479931
 21
1191.55647706238
 31
0.0
  0
LINE
  5
10E
  8
0
  6
CONTINUOUS
 62
     7
 10
2245.441286479931
 20
1191.55647706238
 30
0.0
 11
2245.441286479931
 21
1125.635708755057
 31
0.0
  0
LINE
  5
10F
  8
0
  6
CONTINUOUS
 62
     7
 10
2244.941286479931
 20
1125.635708755057
 30
0.0
 11
2245.441286479931
 21
1125.635708755057
 31
0.0
  0
LINE
  5
110
  8
0
  6
CONTINUOUS
 62
     7
 10
2245.441286479931
 20
1191.55647706238
 30
0.0
 11
2244.941286479931
 21
1191.55647706238
 31
0.0
  0
LINE
  5
111
  8
0
  6
CONTINUOUS
 62
     7
 10
2244.941286479931
 20
1125.635708755057
 30
0.0
 11
2244.941286479931
 21
1191.55647706238
 31
0.0
  0
LINE
  5
112
  8
0
  6
CONTINUOUS
 62
     7
 10
2217.941286479931
 20
1125.635708755057
 30
0.0
 11
2218.441286479931
 21
1125.635708755057
 31
0.0
  0
LINE
  5
113
  8
0
  6
CONTINUOUS
 62
     7
 10
2218.441286479931
 20
1191.55647706238
 30
0.0
 11
2217.941286479931
 21
1191.55647706238
 31
0.0
  0
LINE
  5
114
  8
0
  6
CONTINUOUS
 62
     7
 10
2217.941286479931
 20
1125.635708755057
 30
0.0
 11
2217.941286479931
 21
1191.55647706238
 31
0.0
  0
LINE
  5
115
  8
0
  6
CONTINUOUS
 62
     7
 10
2218.441286479931
 20
1191.55647706238
 30
0.0
 11
2218.441286479931
 21
1125.635708755057
 31
0.0
  0
LINE
  5
116
  8
0
  6
CONTINUOUS
 62
     7
 10
2244.941286479931
 20
1191.55647706238
 30
0.0
 11
2218.441286479931
 21
1191.55647706238
 31
0.0
  0
LINE
  5
117
  8
0
  6
CONTINUOUS
 62
     7
 10
2218.441286479931
 20
1125.635708755057
 30
0.0
 11
2244.941286479931
 21
1125.635708755057
 31
0.0
  0
LINE
  5
118
  8
0
  6
CONTINUOUS
 62
     7
 10
2245.441286479931
 20
1191.55647706238
 30
0.0
 11
2217.941286479931
 21
1191.55647706238
 31
0.0
  0
LINE
  5
119
  8
0
  6
CONTINUOUS
 62
     7
 10
2245.441286479931
 20
1191.635708755057
 30
0.0
 11
2217.941286479931
 21
1191.635708755057
 31
0.0
  0
LINE
  5
11A
  8
0
  6
CONTINUOUS
 62
     7
 10
2245.441286479931
 20
1191.635708755057
 30
0.0
 11
2245.441286479931
 21
1191.55647706238
 31
0.0
  0
LINE
  5
11B
  8
0
  6
CONTINUOUS
 62
     7
 10
2217.941286479931
 20
1191.635708755057
 30
0.0
 11
2217.941286479931
 21
1191.55647706238
 31
0.0
  0
LINE
  5
11C
  8
0
  6
CONTINUOUS
 62
     7
 10
2245.441286479931
 20
1191.635708755057
 30
0.0
 11
2245.441286479931
 21
1193.635708755057
 31
0.0
  0
LINE
  5
11D
  8
0
  6
CONTINUOUS
 62
     7
 10
2233.441286479931
 20
1274.635708755057
 30
0.0
 11
2229.941286479931
 21
1274.635708755057
 31
0.0
  0
LINE
  5
11E
  8
0
  6
CONTINUOUS
 62
     7
 10
2217.941286479931
 20
1193.635708755057
 30
0.0
 11
2217.941286479931
 21
1191.635708755057
 31
0.0
  0
LINE
  5
11F
  8
0
  6
CONTINUOUS
 62
     7
 10
3429.441286479931
 20
1190.635708755057
 30
0.0
 11
3429.441286479931
 21
1291.635708755057
 31
0.0
  0
LINE
  5
120
  8
0
  6
CONTINUOUS
 62
     7
 10
3429.441286479931
 20
1190.635708755057
 30
0.0
 11
3411.941286479931
 21
1190.635708755057
 31
0.0
  0
LINE
  5
121
  8
0
  6
CONTINUOUS
 62
     7
 10
3411.941286479931
 20
1291.635708755057
 30
0.0
 11
3411.941286479931
 21
1288.635708755057
 31
0.0
  0
LINE
  5
122
  8
0
  6
CONTINUOUS
 62
     7
 10
3411.941286479931
 20
1193.635708755048
 30
0.0
 11
3411.941286479931
 21
1190.635708755057
 31
0.0
  0
LINE
  5
123
  8
0
  6
CONTINUOUS
 62
     7
 10
3411.941286479931
 20
1190.635708755057
 30
0.0
 11
3411.941286479931
 21
1190.546819866168
 31
0.0
  0
LINE
  5
124
  8
0
  6
CONTINUOUS
 62
     7
 10
3429.441286479931
 20
1190.546819866168
 30
0.0
 11
3429.441286479931
 21
1190.635708755057
 31
0.0
  0
LINE
  5
125
  8
0
  6
CONTINUOUS
 62
     7
 10
3411.941286479931
 20
1190.546819866168
 30
0.0
 11
3429.441286479931
 21
1190.546819866168
 31
0.0
  0
LINE
  5
126
  8
0
  6
CONTINUOUS
 62
     7
 10
3412.44128647993
 20
1190.546819866168
 30
0.0
 11
3428.941286479931
 21
1190.546819866168
 31
0.0
  0
LINE
  5
127
  8
0
  6
CONTINUOUS
 62
     7
 10
3412.44128647993
 20
1110.635708755057
 30
0.0
 11
3412.44128647993
 21
1190.546819866168
 31
0.0
  0
LINE
  5
128
  8
0
  6
CONTINUOUS
 62
     7
 10
3428.941286479931
 20
1190.546819866168
 30
0.0
 11
3428.941286479931
 21
1110.635708755057
 31
0.0
  0
LINE
  5
129
  8
0
  6
CONTINUOUS
 62
     7
 10
3412.44128647993
 20
1110.635708755057
 30
0.0
 11
3428.941286479931
 21
1110.635708755057
 31
0.0
  0
LINE
  5
12A
  8
0
  6
CONTINUOUS
 62
     7
 10
3411.941286479931
 20
1190.546819866168
 30
0.0
 11
3412.44128647993
 21
1190.546819866168
 31
0.0
  0
LINE
  5
12B
  8
0
  6
CONTINUOUS
 62
     7
 10
3411.941286479931
 20
1110.635708755057
 30
0.0
 11
3412.44128647993
 21
1110.635708755057
 31
0.0
  0
LINE
  5
12C
  8
0
  6
CONTINUOUS
 62
     7
 10
3411.941286479931
 20
1110.635708755057
 30
0.0
 11
3411.941286479931
 21
1190.546819866168
 31
0.0
  0
LINE
  5
12D
  8
0
  6
CONTINUOUS
 62
     7
 10
3428.941286479931
 20
1190.546819866168
 30
0.0
 11
3429.441286479931
 21
1190.546819866168
 31
0.0
  0
LINE
  5
12E
  8
0
  6
CONTINUOUS
 62
     7
 10
3429.441286479931
 20
1110.635708755057
 30
0.0
 11
3429.441286479931
 21
1190.546819866168
 31
0.0
  0
LINE
  5
12F
  8
0
  6
CONTINUOUS
 62
     7
 10
3428.941286479931
 20
1110.635708755057
 30
0.0
 11
3429.441286479931
 21
1110.635708755057
 31
0.0
  0
LINE
  5
130
  8
0
  6
CONTINUOUS
 62
     7
 10
3429.441286479931
 20
1110.635708755057
 30
0.0
 11
3429.441286479931
 21
1111.135708755057
 31
0.0
  0
LINE
  5
131
  8
0
  6
CONTINUOUS
 62
     7
 10
3411.941286479931
 20
1110.635708755057
 30
0.0
 11
3429.441286479931
 21
1110.635708755057
 31
0.0
  0
LINE
  5
132
  8
0
  6
CONTINUOUS
 62
     7
 10
3411.941286479931
 20
1110.635708755057
 30
0.0
 11
3411.941286479931
 21
1111.135708755057
 31
0.0
  0
LINE
  5
133
  8
0
  6
CONTINUOUS
 62
     7
 10
3429.441286479931
 20
1111.135708755057
 30
0.0
 11
3411.941286479931
 21
1111.135708755057
 31
0.0
  0
LINE
  5
134
  8
0
  6
CONTINUOUS
 62
     7
 10
1630.941286479931
 20
1190.546819866168
 30
0.0
 11
1630.941286479931
 21
1190.635708755057
 31
0.0
  0
LINE
  5
135
  8
0
  6
CONTINUOUS
 62
     7
 10
1648.441286479931
 20
1190.635708755057
 30
0.0
 11
1630.941286479931
 21
1190.635708755057
 31
0.0
  0
LINE
  5
136
  8
0
  6
CONTINUOUS
 62
     7
 10
1648.441286479931
 20
1190.546819866168
 30
0.0
 11
1648.441286479931
 21
1190.635708755057
 31
0.0
  0
LINE
  5
137
  8
0
  6
CONTINUOUS
 62
     7
 10
1630.941286479931
 20
1190.546819866168
 30
0.0
 11
1648.441286479931
 21
1190.546819866168
 31
0.0
  0
LINE
  5
138
  8
0
  6
CONTINUOUS
 62
     7
 10
1630.941286479931
 20
1291.635708755057
 30
0.0
 11
1630.941286479931
 21
1190.635708755057
 31
0.0
  0
LINE
  5
139
  8
0
  6
CONTINUOUS
 62
     7
 10
1648.441286479931
 20
1190.635708755057
 30
0.0
 11
1648.441286479931
 21
1193.635708755078
 31
0.0
  0
LINE
  5
13A
  8
0
  6
CONTINUOUS
 62
     7
 10
1648.441286479931
 20
1288.635708755057
 30
0.0
 11
1648.441286479931
 21
1291.635708755057
 31
0.0
  0
LINE
  5
13B
  8
0
  6
CONTINUOUS
 62
     7
 10
1631.441286479931
 20
1190.546819866168
 30
0.0
 11
1647.941286479931
 21
1190.546819866168
 31
0.0
  0
LINE
  5
13C
  8
0
  6
CONTINUOUS
 62
     7
 10
1647.941286479931
 20
1111.135708755057
 30
0.0
 11
1631.441286479931
 21
1111.135708755057
 31
0.0
  0
LINE
  5
13D
  8
0
  6
CONTINUOUS
 62
     7
 10
1631.441286479931
 20
1111.135708755057
 30
0.0
 11
1631.441286479931
 21
1190.546819866168
 31
0.0
  0
LINE
  5
13E
  8
0
  6
CONTINUOUS
 62
     7
 10
1647.941286479931
 20
1190.546819866168
 30
0.0
 11
1647.941286479931
 21
1111.135708755057
 31
0.0
  0
LINE
  5
13F
  8
0
  6
CONTINUOUS
 62
     7
 10
1630.941286479931
 20
1190.546819866168
 30
0.0
 11
1631.441286479931
 21
1190.546819866168
 31
0.0
  0
LINE
  5
140
  8
0
  6
CONTINUOUS
 62
     7
 10
1631.441286479931
 20
1111.135708755057
 30
0.0
 11
1630.941286479931
 21
1111.135708755057
 31
0.0
  0
LINE
  5
141
  8
0
  6
CONTINUOUS
 62
     7
 10
1630.941286479931
 20
1190.546819866168
 30
0.0
 11
1630.941286479931
 21
1111.135708755057
 31
0.0
  0
LINE
  5
142
  8
0
  6
CONTINUOUS
 62
     7
 10
1630.941286479931
 20
1110.635708755057
 30
0.0
 11
1631.441286479931
 21
1110.635708755057
 31
0.0
  0
LINE
  5
143
  8
0
  6
CONTINUOUS
 62
     7
 10
1630.941286479931
 20
1110.635708755057
 30
0.0
 11
1630.941286479931
 21
1111.135708755057
 31
0.0
  0
LINE
  5
144
  8
0
  6
CONTINUOUS
 62
     7
 10
1631.441286479931
 20
1110.635708755057
 30
0.0
 11
1631.441286479931
 21
1111.135708755057
 31
0.0
  0
LINE
  5
145
  8
0
  6
CONTINUOUS
 62
     7
 10
1648.441286479931
 20
1110.635708755057
 30
0.0
 11
1648.441286479931
 21
1111.135708755057
 31
0.0
  0
LINE
  5
146
  8
0
  6
CONTINUOUS
 62
     7
 10
1647.941286479931
 20
1110.635708755057
 30
0.0
 11
1648.441286479931
 21
1110.635708755057
 31
0.0
  0
LINE
  5
147
  8
0
  6
CONTINUOUS
 62
     7
 10
1648.441286479931
 20
1111.135708755057
 30
0.0
 11
1647.941286479931
 21
1111.135708755057
 31
0.0
  0
LINE
  5
148
  8
0
  6
CONTINUOUS
 62
     7
 10
1647.941286479931
 20
1111.135708755057
 30
0.0
 11
1647.941286479931
 21
1110.635708755057
 31
0.0
  0
LINE
  5
149
  8
0
  6
CONTINUOUS
 62
     7
 10
1647.941286479931
 20
1190.546819866168
 30
0.0
 11
1648.441286479931
 21
1190.546819866168
 31
0.0
  0
LINE
  5
14A
  8
0
  6
CONTINUOUS
 62
     7
 10
1648.441286479931
 20
1111.135708755057
 30
0.0
 11
1648.441286479931
 21
1190.546819866168
 31
0.0
  0
LINE
  5
14B
  8
0
  6
CONTINUOUS
 62
     7
 10
1631.441286479931
 20
1110.635708755057
 30
0.0
 11
1647.941286479931
 21
1110.635708755057
 31
0.0
  0
ARC
  5
14C
  8
0
  6
CONTINUOUS
 62
     7
 10
1651.093026453375
 20
1193.537228771078
 30
0.0
 40
2.653568011944858
 50
177.8731340291076
 51
215.8174568957543
  0
ARC
  5
14D
  8
0
  6
CONTINUOUS
 62
     7
 10
3409.345562068048
 20
1193.520268344394
 30
0.0
 40
2.598290151392415
 50
323.7629550921066
 51
2.546453983276383
  0
LINE
  5
152
  8
0
  6
CONTINUOUS
 62
     7
 10
315.8767750087027
 20
1222.908067676564
 30
0.0
 11
317.8544951707922
 21
1222.856279251515
 31
0.0
  0
LINE
  5
153
  8
0
  6
CONTINUOUS
 62
     7
 10
317.8544951707922
 20
1228.358164610215
 30
0.0
 11
316.0207482243904
 21
1228.406182963929
 31
0.0
  0
ARC
  5
154
  8
0
  6
CONTINUOUS
 62
     7
 10
315.8846280931948
 20
1223.207964874057
 30
0.0
 40
0.3000000000001092
 50
178.5000000000887
 51
268.5000000000464
  0
ARC
  5
155
  8
0
  6
CONTINUOUS
 62
     7
 10
316.0128951398984
 20
1228.106285766436
 30
0.0
 40
0.3000000000001063
 50
88.50000000006732
 51
178.5000000000884
  0
ARC
  5
156
  8
0
  6
CONTINUOUS
 62
     7
 10
314.3744501180852
 20
1251.507194163934
 30
0.0
 40
1.199999999999975
 50
88.50000000005862
 51
173.5000000031165
  0
ARC
  5
157
  8
0
  6
CONTINUOUS
 62
     7
 10
313.9137358278846
 20
1233.913225244365
 30
0.0
 40
1.200000000000202
 50
183.4999999970084
 51
268.5000000000597
  0
LINE
  5
158
  8
0
  6
CONTINUOUS
 62
     7
 10
315.1560532333683
 20
1252.68713851705
 30
0.0
 11
314.4058624560535
 21
1252.706782953905
 31
0.0
  0
LINE
  5
159
  8
0
  6
CONTINUOUS
 62
     7
 10
313.8823234899163
 20
1232.713636454394
 30
0.0
 11
314.6325142672312
 21
1232.693992017538
 31
0.0
  0
ARC
  5
15A
  8
0
  6
CONTINUOUS
 62
     7
 10
315.1508178437069
 20
1252.487207052054
 30
0.0
 40
0.2000000000000704
 50
358.5000000000243
 51
88.50000000007275
  0
ARC
  5
15B
  8
0
  6
CONTINUOUS
 62
     7
 10
314.6377496568925
 20
1232.893923482533
 30
0.0
 40
0.2000000000000748
 50
268.5000000000736
 51
358.5000000000247
  0
LINE
  5
15C
  8
0
  6
CONTINUOUS
 62
     7
 10
313.1821638912641
 20
1251.643038020324
 30
0.0
 11
313.0003760967905
 21
1250.047507025401
 31
0.0
  0
LINE
  5
15D
  8
0
  6
CONTINUOUS
 62
     7
 10
312.6179390494882
 20
1235.442825410253
 30
0.0
 11
312.7159740697761
 21
1233.83996699705
 31
0.0
  0
ARC
  5
15E
  8
0
  6
CONTINUOUS
 62
     7
 10
342.8075317670986
 20
1246.651410612399
 30
0.0
 40
30.0000000000021
 50
173.5000000000578
 51
178.500000000056
  0
ARC
  5
15F
  8
0
  6
CONTINUOUS
 62
     7
 10
342.561983002149
 20
1237.274281596324
 30
0.0
 40
30.00000000000214
 50
178.5000000000604
 51
183.5000000000592
  0
POLYLINE
  5
160
  8
0
  6
CONTINUOUS
 62
     7
 66
     1
 10
0.0
 20
0.0
 30
0.0
  0
VERTEX
  5
291
  8
0
  6
CONTINUOUS
 62
     7
 10
315.711840145163
 20
1247.170699365866
 30
0.0
  0
VERTEX
  5
292
  8
0
  6
CONTINUOUS
 62
     7
 10
315.6953701807855
 20
1247.173219090385
 30
0.0
  0
VERTEX
  5
293
  8
0
  6
CONTINUOUS
 62
     7
 10
315.6789197722401
 20
1247.17578856251
 30
0.0
  0
VERTEX
  5
294
  8
0
  6
CONTINUOUS
 62
     7
 10
315.6625084753587
 20
1247.178457529843
 30
0.0
  0
VERTEX
  5
295
  8
0
  6
CONTINUOUS
 62
     7
 10
315.6461558459737
 20
1247.18127573999
 30
0.0
  0
VERTEX
  5
296
  8
0
  6
CONTINUOUS
 62
     7
 10
315.629881439917
 20
1247.184292940556
 30
0.0
  0
VERTEX
  5
297
  8
0
  6
CONTINUOUS
 62
     7
 10
315.6137048130205
 20
1247.187558879145
 30
0.0
  0
VERTEX
  5
298
  8
0
  6
CONTINUOUS
 62
     7
 10
315.5976455211166
 20
1247.191123303362
 30
0.0
  0
VERTEX
  5
299
  8
0
  6
CONTINUOUS
 62
     7
 10
315.5817231200372
 20
1247.195035960811
 30
0.0
  0
VERTEX
  5
29A
  8
0
  6
CONTINUOUS
 62
     7
 10
315.5659571656143
 20
1247.199346599097
 30
0.0
  0
VERTEX
  5
29B
  8
0
  6
CONTINUOUS
 62
     7
 10
315.5503672136803
 20
1247.204104965826
 30
0.0
  0
VERTEX
  5
29C
  8
0
  6
CONTINUOUS
 62
     7
 10
315.5349728200668
 20
1247.2093608086
 30
0.0
  0
VERTEX
  5
29D
  8
0
  6
CONTINUOUS
 62
     7
 10
315.5197935406064
 20
1247.215163875026
 30
0.0
  0
VERTEX
  5
29E
  8
0
  6
CONTINUOUS
 62
     7
 10
315.50484893113
 20
1247.221563912702
 30
0.0
  0
VERTEX
  5
29F
  8
0
  6
CONTINUOUS
 62
     7
 10
315.4901571361344
 20
1247.228597830831
 30
0.0
  0
VERTEX
  5
2A0
  8
0
  6
CONTINUOUS
 62
     7
 10
315.4757307849866
 20
1247.236252369519
 30
0.0
  0
VERTEX
  5
2A1
  8
0
  6
CONTINUOUS
 62
     7
 10
315.4615811600765
 20
1247.244502015912
 30
0.0
  0
VERTEX
  5
2A2
  8
0
  6
CONTINUOUS
 62
     7
 10
315.447719543794
 20
1247.253321257157
 30
0.0
  0
VERTEX
  5
2A3
  8
0
  6
CONTINUOUS
 62
     7
 10
315.4341572185291
 20
1247.262684580405
 30
0.0
  0
VERTEX
  5
2A4
  8
0
  6
CONTINUOUS
 62
     7
 10
315.4209054666716
 20
1247.272566472802
 30
0.0
  0
VERTEX
  5
2A5
  8
0
  6
CONTINUOUS
 62
     7
 10
315.4079755706115
 20
1247.282941421496
 30
0.0
  0
VERTEX
  5
2A6
  8
0
  6
CONTINUOUS
 62
     7
 10
315.3953788127386
 20
1247.293783913636
 30
0.0
  0
VERTEX
  5
2A7
  8
0
  6
CONTINUOUS
 62
     7
 10
315.3831264754428
 20
1247.305068436369
 30
0.0
  0
VERTEX
  5
2A8
  8
0
  6
CONTINUOUS
 62
     7
 10
315.3712298411141
 20
1247.316769476843
 30
0.0
  0
VERTEX
  5
2A9
  8
0
  6
CONTINUOUS
 62
     7
 10
315.3597001921424
 20
1247.328861522207
 30
0.0
  0
VERTEX
  5
2AA
  8
0
  6
CONTINUOUS
 62
     7
 10
315.3485488109177
 20
1247.341319059608
 30
0.0
  0
VERTEX
  5
2AB
  8
0
  6
CONTINUOUS
 62
     7
 10
315.3377869798297
 20
1247.354116576194
 30
0.0
  0
VERTEX
  5
2AC
  8
0
  6
CONTINUOUS
 62
     7
 10
315.3274259812684
 20
1247.367228559114
 30
0.0
  0
VERTEX
  5
2AD
  8
0
  6
CONTINUOUS
 62
     7
 10
315.3174788525022
 20
1247.380631588889
 30
0.0
  0
VERTEX
  5
2AE
  8
0
  6
CONTINUOUS
 62
     7
 10
315.3079664088201
 20
1247.394311524357
 30
0.0
  0
VERTEX
  5
2AF
  8
0
  6
CONTINUOUS
 62
     7
 10
315.2989116196951
 20
1247.408256794057
 30
0.0
  0
VERTEX
  5
2B0
  8
0
  6
CONTINUOUS
 62
     7
 10
315.2903374546784
 20
1247.422455826619
 30
0.0
  0
VERTEX
  5
2B1
  8
0
  6
CONTINUOUS
 62
     7
 10
315.2822668833207
 20
1247.436897050675
 30
0.0
  0
VERTEX
  5
2B2
  8
0
  6
CONTINUOUS
 62
     7
 10
315.2747228751729
 20
1247.451568894856
 30
0.0
  0
VERTEX
  5
2B3
  8
0
  6
CONTINUOUS
 62
     7
 10
315.2677283997861
 20
1247.466459787794
 30
0.0
  0
VERTEX
  5
2B4
  8
0
  6
CONTINUOUS
 62
     7
 10
315.2613064267111
 20
1247.48155815812
 30
0.0
  0
VERTEX
  5
2B5
  8
0
  6
CONTINUOUS
 62
     7
 10
315.2554799254989
 20
1247.496852434466
 30
0.0
  0
VERTEX
  5
2B6
  8
0
  6
CONTINUOUS
 62
     7
 10
315.2502718657004
 20
1247.512331045463
 30
0.0
  0
VERTEX
  5
2B7
  8
0
  6
CONTINUOUS
 62
     7
 10
315.2457052134517
 20
1247.527982419569
 30
0.0
  0
VERTEX
  5
2B8
  8
0
  6
CONTINUOUS
 62
     7
 10
315.2417852430783
 20
1247.543794085326
 30
0.0
  0
VERTEX
  5
2B9
  8
0
  6
CONTINUOUS
 62
     7
 10
315.2384583110024
 20
1247.55975057435
 30
0.0
  0
VERTEX
  5
2BA
  8
0
  6
CONTINUOUS
 62
     7
 10
315.2356585240798
 20
1247.575835795166
 30
0.0
  0
VERTEX
  5
2BB
  8
0
  6
CONTINUOUS
 62
     7
 10
315.2333199891663
 20
1247.5920336563
 30
0.0
  0
VERTEX
  5
2BC
  8
0
  6
CONTINUOUS
 62
     7
 10
315.231376813118
 20
1247.608328066278
 30
0.0
  0
VERTEX
  5
2BD
  8
0
  6
CONTINUOUS
 62
     7
 10
315.2297631027905
 20
1247.624702933626
 30
0.0
  0
VERTEX
  5
2BE
  8
0
  6
CONTINUOUS
 62
     7
 10
315.2284129650396
 20
1247.641142166871
 30
0.0
  0
VERTEX
  5
2BF
  8
0
  6
CONTINUOUS
 62
     7
 10
315.2272605067212
 20
1247.657629674537
 30
0.0
  0
VERTEX
  5
2C0
  8
0
  6
CONTINUOUS
 62
     7
 10
315.2262398346912
 20
1247.674149365152
 30
0.0
  0
VERTEX
  5
2C1
  8
0
  6
CONTINUOUS
 62
     7
 10
315.2252850558054
 20
1247.690685147241
 30
0.0
  0
SEQEND
  5
89B
  8
0
  6
CONTINUOUS
 62
     7
  0
POLYLINE
  5
161
  8
0
  6
CONTINUOUS
 62
     7
 66
     1
 10
0.0
 20
0.0
 30
0.0
  0
VERTEX
  5
2C2
  8
0
  6
CONTINUOUS
 62
     7
 10
314.9631453747847
 20
1237.67997460802
 30
0.0
  0
VERTEX
  5
2C3
  8
0
  6
CONTINUOUS
 62
     7
 10
314.9654274365548
 20
1237.696476818775
 30
0.0
  0
VERTEX
  5
2C4
  8
0
  6
CONTINUOUS
 62
     7
 10
314.9677597066973
 20
1237.712960182234
 30
0.0
  0
VERTEX
  5
2C5
  8
0
  6
CONTINUOUS
 62
     7
 10
314.9701923935839
 20
1237.729405851103
 30
0.0
  0
VERTEX
  5
2C6
  8
0
  6
CONTINUOUS
 62
     7
 10
314.9727757055871
 20
1237.745794978086
 30
0.0
  0
VERTEX
  5
2C7
  8
0
  6
CONTINUOUS
 62
     7
 10
314.9755598510789
 20
1237.762108715888
 30
0.0
  0
VERTEX
  5
2C8
  8
0
  6
CONTINUOUS
 62
     7
 10
314.9785950384316
 20
1237.778328217213
 30
0.0
  0
VERTEX
  5
2C9
  8
0
  6
CONTINUOUS
 62
     7
 10
314.9819314760173
 20
1237.794434634767
 30
0.0
  0
VERTEX
  5
2CA
  8
0
  6
CONTINUOUS
 62
     7
 10
314.9856193722082
 20
1237.810409121254
 30
0.0
  0
VERTEX
  5
2CB
  8
0
  6
CONTINUOUS
 62
     7
 10
314.9897089353765
 20
1237.826232829378
 30
0.0
  0
VERTEX
  5
2CC
  8
0
  6
CONTINUOUS
 62
     7
 10
314.9942503738943
 20
1237.841886911845
 30
0.0
  0
VERTEX
  5
2CD
  8
0
  6
CONTINUOUS
 62
     7
 10
314.9992938961338
 20
1237.857352521359
 30
0.0
  0
VERTEX
  5
2CE
  8
0
  6
CONTINUOUS
 62
     7
 10
315.0048897104671
 20
1237.872610810625
 30
0.0
  0
VERTEX
  5
2CF
  8
0
  6
CONTINUOUS
 62
     7
 10
315.0110880220467
 20
1237.887642932655
 30
0.0
  0
VERTEX
  5
2D0
  8
0
  6
CONTINUOUS
 62
     7
 10
315.0179239204766
 20
1237.902431481029
 30
0.0
  0
VERTEX
  5
2D1
  8
0
  6
CONTINUOUS
 62
     7
 10
315.0253824808656
 20
1237.916963815896
 30
0.0
  0
VERTEX
  5
2D2
  8
0
  6
CONTINUOUS
 62
     7
 10
315.0334384479602
 20
1237.931228281932
 30
0.0
  0
VERTEX
  5
2D3
  8
0
  6
CONTINUOUS
 62
     7
 10
315.0420665665065
 20
1237.945213223808
 30
0.0
  0
VERTEX
  5
2D4
  8
0
  6
CONTINUOUS
 62
     7
 10
315.0512415812511
 20
1237.958906986199
 30
0.0
  0
VERTEX
  5
2D5
  8
0
  6
CONTINUOUS
 62
     7
 10
315.0609382369402
 20
1237.972297913776
 30
0.0
  0
VERTEX
  5
2D6
  8
0
  6
CONTINUOUS
 62
     7
 10
315.0711312783202
 20
1237.985374351214
 30
0.0
  0
VERTEX
  5
2D7
  8
0
  6
CONTINUOUS
 62
     7
 10
315.0817954501372
 20
1237.998124643185
 30
0.0
  0
VERTEX
  5
2D8
  8
0
  6
CONTINUOUS
 62
     7
 10
315.092905497138
 20
1238.010537134363
 30
0.0
  0
VERTEX
  5
2D9
  8
0
  6
CONTINUOUS
 62
     7
 10
315.1044361640685
 20
1238.022600169421
 30
0.0
  0
VERTEX
  5
2DA
  8
0
  6
CONTINUOUS
 62
     7
 10
315.1163621956753
 20
1238.034302093032
 30
0.0
  0
VERTEX
  5
2DB
  8
0
  6
CONTINUOUS
 62
     7
 10
315.1286583367045
 20
1238.04563124987
 30
0.0
  0
VERTEX
  5
2DC
  8
0
  6
CONTINUOUS
 62
     7
 10
315.1412993319026
 20
1238.056575984607
 30
0.0
  0
VERTEX
  5
2DD
  8
0
  6
CONTINUOUS
 62
     7
 10
315.1542599261307
 20
1238.067124641821
 30
0.0
  0
VERTEX
  5
2DE
  8
0
  6
CONTINUOUS
 62
     7
 10
315.1675174614292
 20
1238.077263413506
 30
0.0
  0
VERTEX
  5
2DF
  8
0
  6
CONTINUOUS
 62
     7
 10
315.1810585883728
 20
1238.086970776593
 30
0.0
  0
VERTEX
  5
2E0
  8
0
  6
CONTINUOUS
 62
     7
 10
315.1948720421821
 20
1238.096223480225
 30
0.0
  0
VERTEX
  5
2E1
  8
0
  6
CONTINUOUS
 62
     7
 10
315.2089465580777
 20
1238.104998273542
 30
0.0
  0
VERTEX
  5
2E2
  8
0
  6
CONTINUOUS
 62
     7
 10
315.2232708712804
 20
1238.113271905687
 30
0.0
  0
VERTEX
  5
2E3
  8
0
  6
CONTINUOUS
 62
     7
 10
315.2378337170107
 20
1238.121021125803
 30
0.0
  0
VERTEX
  5
2E4
  8
0
  6
CONTINUOUS
 62
     7
 10
315.2526238304897
 20
1238.12822268303
 30
0.0
  0
VERTEX
  5
2E5
  8
0
  6
CONTINUOUS
 62
     7
 10
315.2676299469375
 20
1238.134853326513
 30
0.0
  0
VERTEX
  5
2E6
  8
0
  6
CONTINUOUS
 62
     7
 10
315.2828408015752
 20
1238.140889805391
 30
0.0
  0
VERTEX
  5
2E7
  8
0
  6
CONTINUOUS
 62
     7
 10
315.2982451296234
 20
1238.146308868809
 30
0.0
  0
VERTEX
  5
2E8
  8
0
  6
CONTINUOUS
 62
     7
 10
315.313831665101
 20
1238.151087284382
 30
0.0
  0
VERTEX
  5
2E9
  8
0
  6
CONTINUOUS
 62
     7
 10
315.3295878402864
 20
1238.155221836766
 30
0.0
  0
VERTEX
  5
2EA
  8
0
  6
CONTINUOUS
 62
     7
 10
315.3454973057911
 20
1238.158767461767
 30
0.0
  0
VERTEX
  5
2EB
  8
0
  6
CONTINUOUS
 62
     7
 10
315.3615430293575
 20
1238.161789595761
 30
0.0
  0
VERTEX
  5
2EC
  8
0
  6
CONTINUOUS
 62
     7
 10
315.377707978728
 20
1238.164353675123
 30
0.0
  0
VERTEX
  5
2ED
  8
0
  6
CONTINUOUS
 62
     7
 10
315.3939751216448
 20
1238.16652513623
 30
0.0
  0
VERTEX
  5
2EE
  8
0
  6
CONTINUOUS
 62
     7
 10
315.41032742585
 20
1238.168369415457
 30
0.0
  0
VERTEX
  5
2EF
  8
0
  6
CONTINUOUS
 62
     7
 10
315.4267478590861
 20
1238.16995194918
 30
0.0
  0
VERTEX
  5
2F0
  8
0
  6
CONTINUOUS
 62
     7
 10
315.4432193890954
 20
1238.171338173776
 30
0.0
  0
VERTEX
  5
2F1
  8
0
  6
CONTINUOUS
 62
     7
 10
315.4597249836201
 20
1238.17259352562
 30
0.0
  0
VERTEX
  5
2F2
  8
0
  6
CONTINUOUS
 62
     7
 10
315.4762476104025
 20
1238.173783441088
 30
0.0
  0
SEQEND
  5
89C
  8
0
  6
CONTINUOUS
 62
     7
  0
LINE
  5
162
  8
0
  6
CONTINUOUS
 62
     7
 10
317.8544951707922
 20
1247.114591969418
 30
0.0
 11
315.7118401451634
 21
1247.170699365867
 31
0.0
  0
LINE
  5
163
  8
0
  6
CONTINUOUS
 62
     7
 10
315.4762476104018
 20
1238.173783441087
 30
0.0
 11
317.8544951707922
 21
1238.111506837001
 31
0.0
  0
LINE
  5
164
  8
0
  6
CONTINUOUS
 62
     7
 10
767.8544951707921
 20
1193.635708755057
 30
0.0
 11
785.8544951707921
 21
1193.635708755057
 31
0.0
  0
LINE
  5
165
  8
0
  6
CONTINUOUS
 62
     7
 10
785.8544951707921
 20
1194.635708755057
 30
0.0
 11
767.8544951707921
 21
1194.635708755057
 31
0.0
  0
LINE
  5
166
  8
0
  6
CONTINUOUS
 62
     7
 10
785.8544951707921
 20
1194.635708755057
 30
0.0
 11
785.8544951707921
 21
1193.635708755057
 31
0.0
  0
LINE
  5
167
  8
0
  6
CONTINUOUS
 62
     7
 10
785.8544951707921
 20
1288.635708755057
 30
0.0
 11
785.8544951707921
 21
1287.635708755057
 31
0.0
  0
LINE
  5
168
  8
0
  6
CONTINUOUS
 62
     7
 10
767.8544951707921
 20
1288.635708755057
 30
0.0
 11
785.8544951707921
 21
1288.635708755057
 31
0.0
  0
LINE
  5
169
  8
0
  6
CONTINUOUS
 62
     7
 10
767.8544951707921
 20
1287.635708755057
 30
0.0
 11
785.8544951707921
 21
1287.635708755057
 31
0.0
  0
LINE
  5
16A
  8
0
  6
CONTINUOUS
 62
     7
 10
785.8544951707921
 20
1287.635708755057
 30
0.0
 11
785.8544951707921
 21
1194.635708755057
 31
0.0
  0
LINE
  5
16B
  8
0
  6
CONTINUOUS
 62
     7
 10
788.3544951707921
 20
1308.635708755057
 30
0.0
 11
788.3544951707921
 21
1291.635708755057
 31
0.0
  0
LINE
  5
16C
  8
0
  6
CONTINUOUS
 62
     7
 10
788.3544951707921
 20
1291.635708755057
 30
0.0
 11
317.8544951707921
 21
1291.635708755057
 31
0.0
  0
LINE
  5
16D
  8
0
  6
CONTINUOUS
 62
     7
 10
788.3544951707921
 20
1308.635708755057
 30
0.0
 11
317.8544951707921
 21
1308.635708755057
 31
0.0
  0
LINE
  5
16E
  8
0
  6
CONTINUOUS
 62
     7
 10
317.8544951707921
 20
1308.635708755057
 30
0.0
 11
317.8544951707921
 21
1291.635708755057
 31
0.0
  0
LINE
  5
17B
  8
0
  6
CONTINUOUS
 62
     7
 10
767.3544951707921
 20
1291.635708755057
 30
0.0
 11
767.3544951707922
 21
1190.546819866168
 31
0.0
  0
LINE
  5
17C
  8
0
  6
CONTINUOUS
 62
     7
 10
767.3544951707922
 20
1190.546819866168
 30
0.0
 11
767.8544951707921
 21
1190.635708755057
 31
0.0
  0
LINE
  5
17D
  8
0
  6
CONTINUOUS
 62
     7
 10
767.8544951707921
 20
1291.635708755057
 30
0.0
 11
767.8544951707921
 21
1190.635708755057
 31
0.0
  0
LINE
  5
17E
  8
0
  6
CONTINUOUS
 62
     7
 10
317.8544951707921
 20
1291.635708755057
 30
0.0
 11
317.8544951707921
 21
1111.135708755057
 31
0.0
  0
LINE
  5
17F
  8
0
  6
CONTINUOUS
 62
     7
 10
767.3544951707921
 20
1190.546819866168
 30
0.0
 11
320.666995170792
 21
1111.135708755057
 31
0.0
  0
LINE
  5
180
  8
0
  6
CONTINUOUS
 62
     7
 10
320.666995170792
 20
1111.135708755057
 30
0.0
 11
317.8544951707921
 21
1111.135708755057
 31
0.0
  0
LINE
  5
181
  8
0
  6
CONTINUOUS
 62
     7
 10
317.8544951707921
 20
1111.135708755057
 30
0.0
 11
317.8544951707921
 21
1110.635708755057
 31
0.0
  0
LINE
  5
182
  8
0
  6
CONTINUOUS
 62
     7
 10
317.8544951707921
 20
1110.635708755057
 30
0.0
 11
320.666995170792
 21
1111.135708755057
 31
0.0
  0
POLYLINE
  5
183
  8
0
  6
CONTINUOUS
 62
     7
 66
     1
 10
0.0
 20
0.0
 30
0.0
  0
VERTEX
  5
2F3
  8
0
  6
CONTINUOUS
 62
     7
 10
315.5850046899742
 20
1223.226273739997
 30
0.0
  0
VERTEX
  5
2F4
  8
0
  6
CONTINUOUS
 62
     7
 10
315.5851822767045
 20
1223.2330555039
 30
0.0
  0
VERTEX
  5
2F5
  8
0
  6
CONTINUOUS
 62
     7
 10
315.585366954294
 20
1223.240108056783
 30
0.0
  0
VERTEX
  5
2F6
  8
0
  6
CONTINUOUS
 62
     7
 10
315.5855658136023
 20
1223.247702187628
 30
0.0
  0
VERTEX
  5
2F7
  8
0
  6
CONTINUOUS
 62
     7
 10
315.5857859454886
 20
1223.256108685412
 30
0.0
  0
VERTEX
  5
2F8
  8
0
  6
CONTINUOUS
 62
     7
 10
315.5860344408123
 20
1223.265598339118
 30
0.0
  0
VERTEX
  5
2F9
  8
0
  6
CONTINUOUS
 62
     7
 10
315.5863183904326
 20
1223.276441937726
 30
0.0
  0
VERTEX
  5
2FA
  8
0
  6
CONTINUOUS
 62
     7
 10
315.586644885209
 20
1223.288910270215
 30
0.0
  0
VERTEX
  5
2FB
  8
0
  6
CONTINUOUS
 62
     7
 10
315.5870210160008
 20
1223.303274125566
 30
0.0
  0
VERTEX
  5
2FC
  8
0
  6
CONTINUOUS
 62
     7
 10
315.5874538736674
 20
1223.319804292759
 30
0.0
  0
VERTEX
  5
2FD
  8
0
  6
CONTINUOUS
 62
     7
 10
315.5879505490681
 20
1223.338771560776
 30
0.0
  0
VERTEX
  5
2FE
  8
0
  6
CONTINUOUS
 62
     7
 10
315.5885181330621
 20
1223.360446718594
 30
0.0
  0
VERTEX
  5
2FF
  8
0
  6
CONTINUOUS
 62
     7
 10
315.589163407253
 20
1223.385088745189
 30
0.0
  0
VERTEX
  5
300
  8
0
  6
CONTINUOUS
 62
     7
 10
315.5898878227322
 20
1223.41275305554
 30
0.0
  0
VERTEX
  5
301
  8
0
  6
CONTINUOUS
 62
     7
 10
315.5906883349057
 20
1223.443323381344
 30
0.0
  0
VERTEX
  5
302
  8
0
  6
CONTINUOUS
 62
     7
 10
315.5915617584082
 20
1223.476678078472
 30
0.0
  0
VERTEX
  5
303
  8
0
  6
CONTINUOUS
 62
     7
 10
315.5925049078746
 20
1223.512695502798
 30
0.0
  0
VERTEX
  5
304
  8
0
  6
CONTINUOUS
 62
     7
 10
315.5935145979397
 20
1223.551254010194
 30
0.0
  0
VERTEX
  5
305
  8
0
  6
CONTINUOUS
 62
     7
 10
315.5945876432384
 20
1223.592231956534
 30
0.0
  0
VERTEX
  5
306
  8
0
  6
CONTINUOUS
 62
     7
 10
315.5957208584055
 20
1223.63550769769
 30
0.0
  0
VERTEX
  5
307
  8
0
  6
CONTINUOUS
 62
     7
 10
315.5969110580759
 20
1223.680959589535
 30
0.0
  0
VERTEX
  5
308
  8
0
  6
CONTINUOUS
 62
     7
 10
315.5981550568846
 20
1223.728465987942
 30
0.0
  0
VERTEX
  5
309
  8
0
  6
CONTINUOUS
 62
     7
 10
315.5994496694663
 20
1223.777905248784
 30
0.0
  0
VERTEX
  5
30A
  8
0
  6
CONTINUOUS
 62
     7
 10
315.6007917104557
 20
1223.829155727934
 30
0.0
  0
VERTEX
  5
30B
  8
0
  6
CONTINUOUS
 62
     7
 10
315.6021780140989
 20
1223.882096530169
 30
0.0
  0
VERTEX
  5
30C
  8
0
  6
CONTINUOUS
 62
     7
 10
315.6036062896387
 20
1223.936640174956
 30
0.0
  0
VERTEX
  5
30D
  8
0
  6
CONTINUOUS
 62
     7
 10
315.6050754527913
 20
1223.992745254945
 30
0.0
  0
VERTEX
  5
30E
  8
0
  6
CONTINUOUS
 62
     7
 10
315.6065845073304
 20
1224.050373725576
 30
0.0
  0
VERTEX
  5
30F
  8
0
  6
CONTINUOUS
 62
     7
 10
315.6081324570303
 20
1224.109487542287
 30
0.0
  0
VERTEX
  5
310
  8
0
  6
CONTINUOUS
 62
     7
 10
315.609718305665
 20
1224.170048660516
 30
0.0
  0
VERTEX
  5
311
  8
0
  6
CONTINUOUS
 62
     7
 10
315.6113410570083
 20
1224.2320190357
 30
0.0
  0
VERTEX
  5
312
  8
0
  6
CONTINUOUS
 62
     7
 10
315.6129997148344
 20
1224.295360623279
 30
0.0
  0
VERTEX
  5
313
  8
0
  6
CONTINUOUS
 62
     7
 10
315.6146932829172
 20
1224.36003537869
 30
0.0
  0
VERTEX
  5
314
  8
0
  6
CONTINUOUS
 62
     7
 10
315.6164207650308
 20
1224.426005257371
 30
0.0
  0
VERTEX
  5
315
  8
0
  6
CONTINUOUS
 62
     7
 10
315.6181811649491
 20
1224.493232214761
 30
0.0
  0
VERTEX
  5
316
  8
0
  6
CONTINUOUS
 62
     7
 10
315.6199734864462
 20
1224.561678206297
 30
0.0
  0
VERTEX
  5
317
  8
0
  6
CONTINUOUS
 62
     7
 10
315.6217967316306
 20
1224.631305123816
 30
0.0
  0
VERTEX
  5
318
  8
0
  6
CONTINUOUS
 62
     7
 10
315.623649495909
 20
1224.702059327953
 30
0.0
  0
VERTEX
  5
319
  8
0
  6
CONTINUOUS
 62
     7
 10
315.6255294394229
 20
1224.773851463256
 30
0.0
  0
VERTEX
  5
31A
  8
0
  6
CONTINUOUS
 62
     7
 10
315.6274340913327
 20
1224.846587172349
 30
0.0
  0
VERTEX
  5
31B
  8
0
  6
CONTINUOUS
 62
     7
 10
315.6293609807989
 20
1224.920172097852
 30
0.0
  0
VERTEX
  5
31C
  8
0
  6
CONTINUOUS
 62
     7
 10
315.6313076369817
 20
1224.994511882385
 30
0.0
  0
VERTEX
  5
31D
  8
0
  6
CONTINUOUS
 62
     7
 10
315.6332715890418
 20
1225.069512168572
 30
0.0
  0
VERTEX
  5
31E
  8
0
  6
CONTINUOUS
 62
     7
 10
315.6352503661394
 20
1225.145078599031
 30
0.0
  0
VERTEX
  5
31F
  8
0
  6
CONTINUOUS
 62
     7
 10
315.637241497435
 20
1225.221116816384
 30
0.0
  0
VERTEX
  5
320
  8
0
  6
CONTINUOUS
 62
     7
 10
315.6392425120889
 20
1225.297532463254
 30
0.0
  0
VERTEX
  5
321
  8
0
  6
CONTINUOUS
 62
     7
 10
315.6412509392615
 20
1225.374231182259
 30
0.0
  0
VERTEX
  5
322
  8
0
  6
CONTINUOUS
 62
     7
 10
315.6432643081134
 20
1225.451118616023
 30
0.0
  0
VERTEX
  5
323
  8
0
  6
CONTINUOUS
 62
     7
 10
315.6452801478049
 20
1225.528100407165
 30
0.0
  0
SEQEND
  5
89D
  8
0
  6
CONTINUOUS
 62
     7
  0
LINE
  5
184
  8
0
  6
CONTINUOUS
 62
     7
 10
315.6452801478049
 20
1225.528100407165
 30
0.0
 11
315.648864419054
 21
1225.664978404741
 31
0.0
  0
POLYLINE
  5
185
  8
0
  6
CONTINUOUS
 62
     7
 10
0.0
 20
0.0
 30
0.0
 66
     1
 70
     8
  0
VERTEX
  5
324
  8
0
  6
CONTINUOUS
 62
     7
 10
315.648864419054
 20
1225.664978404741
 30
0.0
 70
    32
  0
VERTEX
  5
325
  8
0
  6
CONTINUOUS
 62
     7
 10
315.650655628986
 20
1225.733381952331
 30
0.0
 70
    32
  0
VERTEX
  5
326
  8
0
  6
CONTINUOUS
 62
     7
 10
315.6524455503826
 20
1225.801736292735
 30
0.0
 70
    32
  0
VERTEX
  5
327
  8
0
  6
CONTINUOUS
 62
     7
 10
315.6542328947082
 20
1225.869992218767
 30
0.0
 70
    32
  0
VERTEX
  5
328
  8
0
  6
CONTINUOUS
 62
     7
 10
315.6560163734271
 20
1225.93810052324
 30
0.0
 70
    32
  0
VERTEX
  5
329
  8
0
  6
CONTINUOUS
 62
     7
 10
315.6577946980042
 20
1226.00601199897
 30
0.0
 70
    32
  0
VERTEX
  5
32A
  8
0
  6
CONTINUOUS
 62
     7
 10
315.6595665799035
 20
1226.073677438769
 30
0.0
 70
    32
  0
VERTEX
  5
32B
  8
0
  6
CONTINUOUS
 62
     7
 10
315.6613307305898
 20
1226.141047635451
 30
0.0
 70
    32
  0
VERTEX
  5
32C
  8
0
  6
CONTINUOUS
 62
     7
 10
315.6630858615275
 20
1226.208073381831
 30
0.0
 70
    32
  0
VERTEX
  5
32D
  8
0
  6
CONTINUOUS
 62
     7
 10
315.6648306841811
 20
1226.274705470722
 30
0.0
 70
    32
  0
VERTEX
  5
32E
  8
0
  6
CONTINUOUS
 62
     7
 10
315.6665639100149
 20
1226.340894694939
 30
0.0
 70
    32
  0
VERTEX
  5
32F
  8
0
  6
CONTINUOUS
 62
     7
 10
315.6682842504938
 20
1226.406591847295
 30
0.0
 70
    32
  0
VERTEX
  5
330
  8
0
  6
CONTINUOUS
 62
     7
 10
315.669990417082
 20
1226.471747720604
 30
0.0
 70
    32
  0
VERTEX
  5
331
  8
0
  6
CONTINUOUS
 62
     7
 10
315.6716811212439
 20
1226.53631310768
 30
0.0
 70
    32
  0
VERTEX
  5
332
  8
0
  6
CONTINUOUS
 62
     7
 10
315.6733550737594
 20
1226.600238775185
 30
0.0
 70
    32
  0
VERTEX
  5
333
  8
0
  6
CONTINUOUS
 62
     7
 10
315.675010869447
 20
1226.663471061411
 30
0.0
 70
    32
  0
VERTEX
  5
334
  8
0
  6
CONTINUOUS
 62
     7
 10
315.6766468574608
 20
1226.725946923089
 30
0.0
 70
    32
  0
VERTEX
  5
335
  8
0
  6
CONTINUOUS
 62
     7
 10
315.6782613556487
 20
1226.787602121425
 30
0.0
 70
    32
  0
VERTEX
  5
336
  8
0
  6
CONTINUOUS
 62
     7
 10
315.6798526818587
 20
1226.848372417623
 30
0.0
 70
    32
  0
VERTEX
  5
337
  8
0
  6
CONTINUOUS
 62
     7
 10
315.6814191539385
 20
1226.908193572887
 30
0.0
 70
    32
  0
VERTEX
  5
338
  8
0
  6
CONTINUOUS
 62
     7
 10
315.6829590897362
 20
1226.967001348423
 30
0.0
 70
    32
  0
VERTEX
  5
339
  8
0
  6
CONTINUOUS
 62
     7
 10
315.6844708070999
 20
1227.024731505435
 30
0.0
 70
    32
  0
VERTEX
  5
33A
  8
0
  6
CONTINUOUS
 62
     7
 10
315.6859526238774
 20
1227.08131980513
 30
0.0
 70
    32
  0
VERTEX
  5
33B
  8
0
  6
CONTINUOUS
 62
     7
 10
315.6874028579167
 20
1227.13670200871
 30
0.0
 70
    32
  0
VERTEX
  5
33C
  8
0
  6
CONTINUOUS
 62
     7
 10
315.6888198270656
 20
1227.190813877383
 30
0.0
 70
    32
  0
VERTEX
  5
33D
  8
0
  6
CONTINUOUS
 62
     7
 10
315.6902018491723
 20
1227.243591172351
 30
0.0
 70
    32
  0
VERTEX
  5
33E
  8
0
  6
CONTINUOUS
 62
     7
 10
315.6915472420845
 20
1227.294969654821
 30
0.0
 70
    32
  0
VERTEX
  5
33F
  8
0
  6
CONTINUOUS
 62
     7
 10
315.6928543236504
 20
1227.344885085997
 30
0.0
 70
    32
  0
VERTEX
  5
340
  8
0
  6
CONTINUOUS
 62
     7
 10
315.6941214502315
 20
1227.393274697865
 30
0.0
 70
    32
  0
VERTEX
  5
341
  8
0
  6
CONTINUOUS
 62
     7
 10
315.6953481932539
 20
1227.440122123849
 30
0.0
 70
    32
  0
VERTEX
  5
342
  8
0
  6
CONTINUOUS
 62
     7
 10
315.6965355563369
 20
1227.485465690614
 30
0.0
 70
    32
  0
VERTEX
  5
343
  8
0
  6
CONTINUOUS
 62
     7
 10
315.697684625407
 20
1227.52934686803
 30
0.0
 70
    32
  0
VERTEX
  5
344
  8
0
  6
CONTINUOUS
 62
     7
 10
315.698796486391
 20
1227.571807125964
 30
0.0
 70
    32
  0
VERTEX
  5
345
  8
0
  6
CONTINUOUS
 62
     7
 10
315.6998722252156
 20
1227.612887934288
 30
0.0
 70
    32
  0
VERTEX
  5
346
  8
0
  6
CONTINUOUS
 62
     7
 10
315.7009129278078
 20
1227.652630762868
 30
0.0
 70
    32
  0
VERTEX
  5
347
  8
0
  6
CONTINUOUS
 62
     7
 10
315.701919680094
 20
1227.691077081576
 30
0.0
 70
    32
  0
VERTEX
  5
348
  8
0
  6
CONTINUOUS
 62
     7
 10
315.7028935680012
 20
1227.72826836028
 30
0.0
 70
    32
  0
VERTEX
  5
349
  8
0
  6
CONTINUOUS
 62
     7
 10
315.703835677456
 20
1227.764246068848
 30
0.0
 70
    32
  0
VERTEX
  5
34A
  8
0
  6
CONTINUOUS
 62
     7
 10
315.7047470943851
 20
1227.799051677152
 30
0.0
 70
    32
  0
VERTEX
  5
34B
  8
0
  6
CONTINUOUS
 62
     7
 10
315.7056289047154
 20
1227.832726655058
 30
0.0
 70
    32
  0
VERTEX
  5
34C
  8
0
  6
CONTINUOUS
 62
     7
 10
315.7064821943735
 20
1227.865312472437
 30
0.0
 70
    32
  0
VERTEX
  5
34D
  8
0
  6
CONTINUOUS
 62
     7
 10
315.7073080492862
 20
1227.896850599158
 30
0.0
 70
    32
  0
VERTEX
  5
34E
  8
0
  6
CONTINUOUS
 62
     7
 10
315.7081071587535
 20
1227.927367358524
 30
0.0
 70
    32
  0
VERTEX
  5
34F
  8
0
  6
CONTINUOUS
 62
     7
 10
315.708875401452
 20
1227.956705363545
 30
0.0
 70
    32
  0
VERTEX
  5
350
  8
0
  6
CONTINUOUS
 62
     7
 10
315.7096054548269
 20
1227.984584977139
 30
0.0
 70
    32
  0
VERTEX
  5
351
  8
0
  6
CONTINUOUS
 62
     7
 10
315.710289938408
 20
1228.010724350518
 30
0.0
 70
    32
  0
VERTEX
  5
352
  8
0
  6
CONTINUOUS
 62
     7
 10
315.7109214717253
 20
1228.034841634898
 30
0.0
 70
    32
  0
VERTEX
  5
353
  8
0
  6
CONTINUOUS
 62
     7
 10
315.7114926743084
 20
1228.056654981494
 30
0.0
 70
    32
  0
VERTEX
  5
354
  8
0
  6
CONTINUOUS
 62
     7
 10
315.7119961656873
 20
1228.07588254152
 30
0.0
 70
    32
  0
VERTEX
  5
355
  8
0
  6
CONTINUOUS
 62
     7
 10
315.7124245653915
 20
1228.09224246619
 30
0.0
 70
    32
  0
VERTEX
  5
356
  8
0
  6
CONTINUOUS
 62
     7
 10
315.7127704929511
 20
1228.10545290672
 30
0.0
 70
    32
  0
VERTEX
  5
357
  8
0
  6
CONTINUOUS
 62
     7
 10
315.7130265678958
 20
1228.115232014323
 30
0.0
 70
    32
  0
VERTEX
  5
358
  8
0
  6
CONTINUOUS
 62
     7
 10
315.7131854097555
 20
1228.121297940215
 30
0.0
 70
    32
  0
VERTEX
  5
359
  8
0
  6
CONTINUOUS
 62
     7
 10
315.7132396380599
 20
1228.12336883561
 30
0.0
 70
    32
  0
VERTEX
  5
35A
  8
0
  6
CONTINUOUS
 62
     7
 10
315.7131818723388
 20
1228.121162851723
 30
0.0
 70
    32
  0
VERTEX
  5
35B
  8
0
  6
CONTINUOUS
 62
     7
 10
315.7130047321221
 20
1228.114398139768
 30
0.0
 70
    32
  0
VERTEX
  5
35C
  8
0
  6
CONTINUOUS
 62
     7
 10
315.7127178634631
 20
1228.103443067659
 30
0.0
 70
    32
  0
SEQEND
  5
89E
  8
0
  6
CONTINUOUS
 62
     7
  0
POLYLINE
  5
186
  8
0
  6
CONTINUOUS
 62
     7
 10
0.0
 20
0.0
 30
0.0
 66
     1
 70
     8
  0
VERTEX
  5
35D
  8
0
  6
CONTINUOUS
 62
     7
 10
315.3505156202548
 20
1252.473047460668
 30
0.0
 70
    32
  0
VERTEX
  5
35E
  8
0
  6
CONTINUOUS
 62
     7
 10
315.3501103682857
 20
1252.457571512338
 30
0.0
 70
    32
  0
VERTEX
  5
35F
  8
0
  6
CONTINUOUS
 62
     7
 10
315.3496855845349
 20
1252.441349675361
 30
0.0
 70
    32
  0
VERTEX
  5
360
  8
0
  6
CONTINUOUS
 62
     7
 10
315.349221737221
 20
1252.423636061091
 30
0.0
 70
    32
  0
VERTEX
  5
361
  8
0
  6
CONTINUOUS
 62
     7
 10
315.3486992945622
 20
1252.40368478088
 30
0.0
 70
    32
  0
VERTEX
  5
362
  8
0
  6
CONTINUOUS
 62
     7
 10
315.348098724777
 20
1252.380749946084
 30
0.0
 70
    32
  0
VERTEX
  5
363
  8
0
  6
CONTINUOUS
 62
     7
 10
315.3474004960839
 20
1252.354085668054
 30
0.0
 70
    32
  0
VERTEX
  5
364
  8
0
  6
CONTINUOUS
 62
     7
 10
315.3465850767012
 20
1252.322946058145
 30
0.0
 70
    32
  0
VERTEX
  5
365
  8
0
  6
CONTINUOUS
 62
     7
 10
315.3456329348472
 20
1252.28658522771
 30
0.0
 70
    32
  0
VERTEX
  5
366
  8
0
  6
CONTINUOUS
 62
     7
 10
315.3445245387405
 20
1252.244257288101
 30
0.0
 70
    32
  0
VERTEX
  5
367
  8
0
  6
CONTINUOUS
 62
     7
 10
315.3432403724927
 20
1252.195216957616
 30
0.0
 70
    32
  0
VERTEX
  5
368
  8
0
  6
CONTINUOUS
 62
     7
 10
315.3417676495284
 20
1252.138975936637
 30
0.0
 70
    32
  0
VERTEX
  5
369
  8
0
  6
CONTINUOUS
 62
     7
 10
315.3401107310488
 20
1252.075700772715
 30
0.0
 70
    32
  0
VERTEX
  5
36A
  8
0
  6
CONTINUOUS
 62
     7
 10
315.3382766698448
 20
1252.005660801075
 30
0.0
 70
    32
  0
VERTEX
  5
36B
  8
0
  6
CONTINUOUS
 62
     7
 10
315.3362725187074
 20
1251.929125356937
 30
0.0
 70
    32
  0
VERTEX
  5
36C
  8
0
  6
CONTINUOUS
 62
     7
 10
315.3341053304277
 20
1251.846363775525
 30
0.0
 70
    32
  0
VERTEX
  5
36D
  8
0
  6
CONTINUOUS
 62
     7
 10
315.3317821577966
 20
1251.75764539206
 30
0.0
 70
    32
  0
VERTEX
  5
36E
  8
0
  6
CONTINUOUS
 62
     7
 10
315.3293100536052
 20
1251.663239541765
 30
0.0
 70
    32
  0
VERTEX
  5
36F
  8
0
  6
CONTINUOUS
 62
     7
 10
315.3266960706445
 20
1251.563415559862
 30
0.0
 70
    32
  0
VERTEX
  5
370
  8
0
  6
CONTINUOUS
 62
     7
 10
315.3239472617054
 20
1251.458442781573
 30
0.0
 70
    32
  0
VERTEX
  5
371
  8
0
  6
CONTINUOUS
 62
     7
 10
315.321070653064
 20
1251.348589529553
 30
0.0
 70
    32
  0
VERTEX
  5
372
  8
0
  6
CONTINUOUS
 62
     7
 10
315.3180710445101
 20
1251.234039100381
 30
0.0
 70
    32
  0
VERTEX
  5
373
  8
0
  6
CONTINUOUS
 62
     7
 10
315.3149493591205
 20
1251.114826744936
 30
0.0
 70
    32
  0
VERTEX
  5
374
  8
0
  6
CONTINUOUS
 62
     7
 10
315.3117061312468
 20
1250.990972869286
 30
0.0
 70
    32
  0
VERTEX
  5
375
  8
0
  6
CONTINUOUS
 62
     7
 10
315.3083418952408
 20
1250.862497879499
 30
0.0
 70
    32
  0
VERTEX
  5
376
  8
0
  6
CONTINUOUS
 62
     7
 10
315.3048571854541
 20
1250.729422181646
 30
0.0
 70
    32
  0
VERTEX
  5
377
  8
0
  6
CONTINUOUS
 62
     7
 10
315.3012525362386
 20
1250.591766181794
 30
0.0
 70
    32
  0
VERTEX
  5
378
  8
0
  6
CONTINUOUS
 62
     7
 10
315.2975284819459
 20
1250.449550286012
 30
0.0
 70
    32
  0
VERTEX
  5
379
  8
0
  6
CONTINUOUS
 62
     7
 10
315.2936855569279
 20
1250.30279490037
 30
0.0
 70
    32
  0
VERTEX
  5
37A
  8
0
  6
CONTINUOUS
 62
     7
 10
315.2897242955358
 20
1250.151520430936
 30
0.0
 70
    32
  0
VERTEX
  5
37B
  8
0
  6
CONTINUOUS
 62
     7
 10
315.2856455460614
 20
1249.995759272637
 30
0.0
 70
    32
  0
VERTEX
  5
37C
  8
0
  6
CONTINUOUS
 62
     7
 10
315.2814515083534
 20
1249.835595434331
 30
0.0
 70
    32
  0
VERTEX
  5
37D
  8
0
  6
CONTINUOUS
 62
     7
 10
315.2771447459005
 20
1249.67112681169
 30
0.0
 70
    32
  0
VERTEX
  5
37E
  8
0
  6
CONTINUOUS
 62
     7
 10
315.2727278221961
 20
1249.502451300579
 30
0.0
 70
    32
  0
VERTEX
  5
37F
  8
0
  6
CONTINUOUS
 62
     7
 10
315.2682033007336
 20
1249.329666796865
 30
0.0
 70
    32
  0
VERTEX
  5
380
  8
0
  6
CONTINUOUS
 62
     7
 10
315.2635737450065
 20
1249.15287119641
 30
0.0
 70
    32
  0
VERTEX
  5
381
  8
0
  6
CONTINUOUS
 62
     7
 10
315.2588417185082
 20
1248.972162395081
 30
0.0
 70
    32
  0
VERTEX
  5
382
  8
0
  6
CONTINUOUS
 62
     7
 10
315.2540097847321
 20
1248.78763828874
 30
0.0
 70
    32
  0
VERTEX
  5
383
  8
0
  6
CONTINUOUS
 62
     7
 10
315.2490805158919
 20
1248.599397106261
 30
0.0
 70
    32
  0
VERTEX
  5
384
  8
0
  6
CONTINUOUS
 62
     7
 10
315.2440568702753
 20
1248.407551820102
 30
0.0
 70
    32
  0
VERTEX
  5
385
  8
0
  6
CONTINUOUS
 62
     7
 10
315.2389423367706
 20
1248.212235665528
 30
0.0
 70
    32
  0
VERTEX
  5
386
  8
0
  6
CONTINUOUS
 62
     7
 10
315.2337404428106
 20
1248.013583349761
 30
0.0
 70
    32
  0
VERTEX
  5
387
  8
0
  6
CONTINUOUS
 62
     7
 10
315.228454715828
 20
1247.811729580024
 30
0.0
 70
    32
  0
VERTEX
  5
388
  8
0
  6
CONTINUOUS
 62
     7
 10
315.2230886832556
 20
1247.606809063539
 30
0.0
 70
    32
  0
VERTEX
  5
389
  8
0
  6
CONTINUOUS
 62
     7
 10
315.2176458725261
 20
1247.398956507526
 30
0.0
 70
    32
  0
VERTEX
  5
38A
  8
0
  6
CONTINUOUS
 62
     7
 10
315.2121298110723
 20
1247.18830661921
 30
0.0
 70
    32
  0
VERTEX
  5
38B
  8
0
  6
CONTINUOUS
 62
     7
 10
315.2065440263269
 20
1246.974994105811
 30
0.0
 70
    32
  0
VERTEX
  5
38C
  8
0
  6
CONTINUOUS
 62
     7
 10
315.2008920457227
 20
1246.759153674551
 30
0.0
 70
    32
  0
VERTEX
  5
38D
  8
0
  6
CONTINUOUS
 62
     7
 10
315.1951773966924
 20
1246.540920032653
 30
0.0
 70
    32
  0
VERTEX
  5
38E
  8
0
  6
CONTINUOUS
 62
     7
 10
315.1894036066689
 20
1246.320427887338
 30
0.0
 70
    32
  0
VERTEX
  5
38F
  8
0
  6
CONTINUOUS
 62
     7
 10
315.1835742030847
 20
1246.097811945829
 30
0.0
 70
    32
  0
VERTEX
  5
390
  8
0
  6
CONTINUOUS
 62
     7
 10
315.1776927133726
 20
1245.873206915347
 30
0.0
 70
    32
  0
VERTEX
  5
391
  8
0
  6
CONTINUOUS
 62
     7
 10
315.1717626649656
 20
1245.646747503114
 30
0.0
 70
    32
  0
VERTEX
  5
392
  8
0
  6
CONTINUOUS
 62
     7
 10
315.1657875964805
 20
1245.418568843464
 30
0.0
 70
    32
  0
VERTEX
  5
393
  8
0
  6
CONTINUOUS
 62
     7
 10
315.1597711789631
 20
1245.188811127978
 30
0.0
 70
    32
  0
VERTEX
  5
394
  8
0
  6
CONTINUOUS
 62
     7
 10
315.1537171700562
 20
1244.95761785524
 30
0.0
 70
    32
  0
VERTEX
  5
395
  8
0
  6
CONTINUOUS
 62
     7
 10
315.1476293288987
 20
1244.725132580976
 30
0.0
 70
    32
  0
VERTEX
  5
396
  8
0
  6
CONTINUOUS
 62
     7
 10
315.1415114146293
 20
1244.491498860911
 30
0.0
 70
    32
  0
VERTEX
  5
397
  8
0
  6
CONTINUOUS
 62
     7
 10
315.1353671863874
 20
1244.256860250771
 30
0.0
 70
    32
  0
VERTEX
  5
398
  8
0
  6
CONTINUOUS
 62
     7
 10
315.1292004033118
 20
1244.021360306279
 30
0.0
 70
    32
  0
VERTEX
  5
399
  8
0
  6
CONTINUOUS
 62
     7
 10
315.1230148245412
 20
1243.785142583162
 30
0.0
 70
    32
  0
VERTEX
  5
39A
  8
0
  6
CONTINUOUS
 62
     7
 10
315.116814209215
 20
1243.548350637145
 30
0.0
 70
    32
  0
VERTEX
  5
39B
  8
0
  6
CONTINUOUS
 62
     7
 10
315.1106023164718
 20
1243.311128023952
 30
0.0
 70
    32
  0
VERTEX
  5
39C
  8
0
  6
CONTINUOUS
 62
     7
 10
315.1043829054507
 20
1243.07361829931
 30
0.0
 70
    32
  0
VERTEX
  5
39D
  8
0
  6
CONTINUOUS
 62
     7
 10
315.0981597352906
 20
1242.835965018941
 30
0.0
 70
    32
  0
SEQEND
  5
89F
  8
0
  6
CONTINUOUS
 62
     7
  0
POLYLINE
  5
187
  8
0
  6
CONTINUOUS
 62
     7
 10
0.0
 20
0.0
 30
0.0
 66
     1
 70
     8
  0
VERTEX
  5
39E
  8
0
  6
CONTINUOUS
 62
     7
 10
315.0942152152948
 20
1242.685329877631
 30
0.0
 70
    32
  0
VERTEX
  5
39F
  8
0
  6
CONTINUOUS
 62
     7
 10
315.0879526630428
 20
1242.446172655854
 30
0.0
 70
    32
  0
VERTEX
  5
3A0
  8
0
  6
CONTINUOUS
 62
     7
 10
315.0816936767895
 20
1242.207151614072
 30
0.0
 70
    32
  0
VERTEX
  5
3A1
  8
0
  6
CONTINUOUS
 62
     7
 10
315.0754418225334
 20
1241.968402932278
 30
0.0
 70
    32
  0
VERTEX
  5
3A2
  8
0
  6
CONTINUOUS
 62
     7
 10
315.0692006662733
 20
1241.730062790468
 30
0.0
 70
    32
  0
VERTEX
  5
3A3
  8
0
  6
CONTINUOUS
 62
     7
 10
315.0629737740079
 20
1241.492267368635
 30
0.0
 70
    32
  0
VERTEX
  5
3A4
  8
0
  6
CONTINUOUS
 62
     7
 10
315.0567647117358
 20
1241.255152846774
 30
0.0
 70
    32
  0
VERTEX
  5
3A5
  8
0
  6
CONTINUOUS
 62
     7
 10
315.0505770454554
 20
1241.01885540488
 30
0.0
 70
    32
  0
VERTEX
  5
3A6
  8
0
  6
CONTINUOUS
 62
     7
 10
315.0444143411657
 20
1240.783511222947
 30
0.0
 70
    32
  0
VERTEX
  5
3A7
  8
0
  6
CONTINUOUS
 62
     7
 10
315.0382801648653
 20
1240.549256480969
 30
0.0
 70
    32
  0
VERTEX
  5
3A8
  8
0
  6
CONTINUOUS
 62
     7
 10
315.0321780825527
 20
1240.316227358941
 30
0.0
 70
    32
  0
VERTEX
  5
3A9
  8
0
  6
CONTINUOUS
 62
     7
 10
315.0261116602266
 20
1240.084560036857
 30
0.0
 70
    32
  0
VERTEX
  5
3AA
  8
0
  6
CONTINUOUS
 62
     7
 10
315.0200844649207
 20
1239.854390734233
 30
0.0
 70
    32
  0
VERTEX
  5
3AB
  8
0
  6
CONTINUOUS
 62
     7
 10
315.0141001049894
 20
1239.625857248568
 30
0.0
 70
    32
  0
VERTEX
  5
3AC
  8
0
  6
CONTINUOUS
 62
     7
 10
315.0081622431024
 20
1239.399099451577
 30
0.0
 70
    32
  0
VERTEX
  5
3AD
  8
0
  6
CONTINUOUS
 62
     7
 10
315.0022745456245
 20
1239.174257356082
 30
0.0
 70
    32
  0
VERTEX
  5
3AE
  8
0
  6
CONTINUOUS
 62
     7
 10
314.9964406789206
 20
1238.951470974904
 30
0.0
 70
    32
  0
VERTEX
  5
3AF
  8
0
  6
CONTINUOUS
 62
     7
 10
314.9906643093552
 20
1238.730880320863
 30
0.0
 70
    32
  0
VERTEX
  5
3B0
  8
0
  6
CONTINUOUS
 62
     7
 10
314.9849491032931
 20
1238.51262540678
 30
0.0
 70
    32
  0
VERTEX
  5
3B1
  8
0
  6
CONTINUOUS
 62
     7
 10
314.9792987270991
 20
1238.296846245475
 30
0.0
 70
    32
  0
VERTEX
  5
3B2
  8
0
  6
CONTINUOUS
 62
     7
 10
314.973716847138
 20
1238.08368284977
 30
0.0
 70
    32
  0
VERTEX
  5
3B3
  8
0
  6
CONTINUOUS
 62
     7
 10
314.9682071297744
 20
1237.873275232484
 30
0.0
 70
    32
  0
VERTEX
  5
3B4
  8
0
  6
CONTINUOUS
 62
     7
 10
314.9627732413732
 20
1237.665763406439
 30
0.0
 70
    32
  0
VERTEX
  5
3B5
  8
0
  6
CONTINUOUS
 62
     7
 10
314.957418848299
 20
1237.461287384454
 30
0.0
 70
    32
  0
VERTEX
  5
3B6
  8
0
  6
CONTINUOUS
 62
     7
 10
314.9521476169165
 20
1237.259987179352
 30
0.0
 70
    32
  0
VERTEX
  5
3B7
  8
0
  6
CONTINUOUS
 62
     7
 10
314.9469632135905
 20
1237.062002803952
 30
0.0
 70
    32
  0
VERTEX
  5
3B8
  8
0
  6
CONTINUOUS
 62
     7
 10
314.9418693046858
 20
1236.867474271074
 30
0.0
 70
    32
  0
VERTEX
  5
3B9
  8
0
  6
CONTINUOUS
 62
     7
 10
314.936869479684
 20
1236.676538657494
 30
0.0
 70
    32
  0
VERTEX
  5
3BA
  8
0
  6
CONTINUOUS
 62
     7
 10
314.9319666602413
 20
1236.489307536756
 30
0.0
 70
    32
  0
VERTEX
  5
3BB
  8
0
  6
CONTINUOUS
 62
     7
 10
314.9271634247227
 20
1236.305879372652
 30
0.0
 70
    32
  0
VERTEX
  5
3BC
  8
0
  6
CONTINUOUS
 62
     7
 10
314.922462348673
 20
1236.126352521271
 30
0.0
 70
    32
  0
VERTEX
  5
3BD
  8
0
  6
CONTINUOUS
 62
     7
 10
314.9178660076373
 20
1235.950825338705
 30
0.0
 70
    32
  0
VERTEX
  5
3BE
  8
0
  6
CONTINUOUS
 62
     7
 10
314.9133769771603
 20
1235.779396181045
 30
0.0
 70
    32
  0
VERTEX
  5
3BF
  8
0
  6
CONTINUOUS
 62
     7
 10
314.9089978327869
 20
1235.61216340438
 30
0.0
 70
    32
  0
VERTEX
  5
3C0
  8
0
  6
CONTINUOUS
 62
     7
 10
314.904731150062
 20
1235.449225364803
 30
0.0
 70
    32
  0
VERTEX
  5
3C1
  8
0
  6
CONTINUOUS
 62
     7
 10
314.9005795022087
 20
1235.290680329735
 30
0.0
 70
    32
  0
VERTEX
  5
3C2
  8
0
  6
CONTINUOUS
 62
     7
 10
314.8965449431038
 20
1235.136606733567
 30
0.0
 70
    32
  0
VERTEX
  5
3C3
  8
0
  6
CONTINUOUS
 62
     7
 10
314.8926283542859
 20
1234.98703824091
 30
0.0
 70
    32
  0
VERTEX
  5
3C4
  8
0
  6
CONTINUOUS
 62
     7
 10
314.8888304565387
 20
1234.842002377366
 30
0.0
 70
    32
  0
VERTEX
  5
3C5
  8
0
  6
CONTINUOUS
 62
     7
 10
314.885151970645
 20
1234.701526668537
 30
0.0
 70
    32
  0
VERTEX
  5
3C6
  8
0
  6
CONTINUOUS
 62
     7
 10
314.8815936173884
 20
1234.565638640025
 30
0.0
 70
    32
  0
VERTEX
  5
3C7
  8
0
  6
CONTINUOUS
 62
     7
 10
314.8781561175519
 20
1234.434365817431
 30
0.0
 70
    32
  0
VERTEX
  5
3C8
  8
0
  6
CONTINUOUS
 62
     7
 10
314.8748401919188
 20
1234.307735726358
 30
0.0
 70
    32
  0
VERTEX
  5
3C9
  8
0
  6
CONTINUOUS
 62
     7
 10
314.8716465612725
 20
1234.185775892407
 30
0.0
 70
    32
  0
VERTEX
  5
3CA
  8
0
  6
CONTINUOUS
 62
     7
 10
314.8685759463962
 20
1234.06851384118
 30
0.0
 70
    32
  0
VERTEX
  5
3CB
  8
0
  6
CONTINUOUS
 62
     7
 10
314.8656298727324
 20
1233.956007826977
 30
0.0
 70
    32
  0
VERTEX
  5
3CC
  8
0
  6
CONTINUOUS
 62
     7
 10
314.8628138762479
 20
1233.848469259848
 30
0.0
 70
    32
  0
VERTEX
  5
3CD
  8
0
  6
CONTINUOUS
 62
     7
 10
314.8601347399314
 20
1233.746157171669
 30
0.0
 70
    32
  0
VERTEX
  5
3CE
  8
0
  6
CONTINUOUS
 62
     7
 10
314.8575992471658
 20
1233.649330609384
 30
0.0
 70
    32
  0
VERTEX
  5
3CF
  8
0
  6
CONTINUOUS
 62
     7
 10
314.8552141813339
 20
1233.558248619941
 30
0.0
 70
    32
  0
VERTEX
  5
3D0
  8
0
  6
CONTINUOUS
 62
     7
 10
314.8529863258189
 20
1233.473170250284
 30
0.0
 70
    32
  0
VERTEX
  5
3D1
  8
0
  6
CONTINUOUS
 62
     7
 10
314.8509224640037
 20
1233.394354547358
 30
0.0
 70
    32
  0
VERTEX
  5
3D2
  8
0
  6
CONTINUOUS
 62
     7
 10
314.8490293792714
 20
1233.32206055811
 30
0.0
 70
    32
  0
VERTEX
  5
3D3
  8
0
  6
CONTINUOUS
 62
     7
 10
314.8473138550049
 20
1233.256547329484
 30
0.0
 70
    32
  0
VERTEX
  5
3D4
  8
0
  6
CONTINUOUS
 62
     7
 10
314.8457826685568
 20
1233.198073678131
 30
0.0
 70
    32
  0
VERTEX
  5
3D5
  8
0
  6
CONTINUOUS
 62
     7
 10
314.8444367492158
 20
1233.146675092157
 30
0.0
 70
    32
  0
VERTEX
  5
3D6
  8
0
  6
CONTINUOUS
 62
     7
 10
314.8432602581356
 20
1233.101746710427
 30
0.0
 70
    32
  0
VERTEX
  5
3D7
  8
0
  6
CONTINUOUS
 62
     7
 10
314.842234369954
 20
1233.062569621357
 30
0.0
 70
    32
  0
VERTEX
  5
3D8
  8
0
  6
CONTINUOUS
 62
     7
 10
314.8413402593086
 20
1233.028424913366
 30
0.0
 70
    32
  0
VERTEX
  5
3D9
  8
0
  6
CONTINUOUS
 62
     7
 10
314.8405591008371
 20
1232.99859367487
 30
0.0
 70
    32
  0
VERTEX
  5
3DA
  8
0
  6
CONTINUOUS
 62
     7
 10
314.8398720691771
 20
1232.972356994288
 30
0.0
 70
    32
  0
VERTEX
  5
3DB
  8
0
  6
CONTINUOUS
 62
     7
 10
314.8392603389665
 20
1232.948995960036
 30
0.0
 70
    32
  0
VERTEX
  5
3DC
  8
0
  6
CONTINUOUS
 62
     7
 10
314.8387050848428
 20
1232.927791660533
 30
0.0
 70
    32
  0
VERTEX
  5
3DD
  8
0
  6
CONTINUOUS
 62
     7
 10
314.8381874814437
 20
1232.908025184194
 30
0.0
 70
    32
  0
VERTEX
  5
3DE
  8
0
  6
CONTINUOUS
 62
     7
 10
314.8376887034069
 20
1232.888977619438
 30
0.0
 70
    32
  0
SEQEND
  5
8A0
  8
0
  6
CONTINUOUS
 62
     7
  0
LINE
  5
188
  8
0
  6
CONTINUOUS
 62
     7
 10
312.5722632528793
 20
1238.059590045528
 30
0.0
 11
312.817812017829
 21
1247.436719061606
 31
0.0
  0
LINE
  5
18D
  8
0
  6
CONTINUOUS
 62
     7
 10
4686.674140331183
 20
1228.406182963929
 30
0.0
 11
4684.840393384788
 21
1228.358164610215
 31
0.0
  0
LINE
  5
18E
  8
0
  6
CONTINUOUS
 62
     7
 10
4684.840393384788
 20
1222.856279251516
 30
0.0
 11
4686.818113546871
 21
1222.908067676564
 31
0.0
  0
ARC
  5
18F
  8
0
  6
CONTINUOUS
 62
     7
 10
4686.681993415676
 20
1228.106285766436
 30
0.0
 40
0.3000000000003306
 50
1.499999999909843
 51
91.4999999999544
  0
ARC
  5
190
  8
0
  6
CONTINUOUS
 62
     7
 10
4686.810260462379
 20
1223.207964874057
 30
0.0
 40
0.3000000000001092
 50
271.4999999999552
 51
1.499999999914389
  0
LINE
  5
191
  8
0
  6
CONTINUOUS
 62
     7
 10
4688.062374288343
 20
1232.693992017538
 30
0.0
 11
4688.812565065657
 21
1232.713636454394
 31
0.0
  0
LINE
  5
192
  8
0
  6
CONTINUOUS
 62
     7
 10
4688.28902609952
 20
1252.706782953905
 30
0.0
 11
4687.538835322205
 21
1252.68713851705
 31
0.0
  0
ARC
  5
193
  8
0
  6
CONTINUOUS
 62
     7
 10
4688.781152727689
 20
1233.913225244365
 30
0.0
 40
1.200000000000186
 50
271.4999999999121
 51
356.5000000029921
  0
ARC
  5
194
  8
0
  6
CONTINUOUS
 62
     7
 10
4688.320438437489
 20
1251.507194163934
 30
0.0
 40
1.200000000000011
 50
6.499999996883224
 51
91.49999999995495
  0
ARC
  5
195
  8
0
  6
CONTINUOUS
 62
     7
 10
4688.057138898681
 20
1232.893923482533
 30
0.0
 40
0.2000000000000808
 50
181.4999999999803
 51
271.5000000000421
  0
ARC
  5
196
  8
0
  6
CONTINUOUS
 62
     7
 10
4687.544070711867
 20
1252.487207052054
 30
0.0
 40
0.2000000000005294
 50
91.50000000004123
 51
181.4999999999735
  0
LINE
  5
197
  8
0
  6
CONTINUOUS
 62
     7
 10
4689.978914485797
 20
1233.83996699705
 30
0.0
 11
4690.076949506086
 21
1235.442825410254
 31
0.0
  0
LINE
  5
198
  8
0
  6
CONTINUOUS
 62
     7
 10
4689.694512458783
 20
1250.047507025401
 30
0.0
 11
4689.51272466431
 21
1251.643038020324
 31
0.0
  0
ARC
  5
199
  8
0
  6
CONTINUOUS
 62
     7
 10
4660.132905553424
 20
1237.274281596324
 30
0.0
 40
30.00000000000287
 50
356.4999999999425
 51
1.499999999939605
  0
ARC
  5
19A
  8
0
  6
CONTINUOUS
 62
     7
 10
4659.887356788475
 20
1246.651410612399
 30
0.0
 40
30.00000000000244
 50
1.499999999943992
 51
6.499999999942183
  0
LINE
  5
19B
  8
0
  6
CONTINUOUS
 62
     7
 10
4690.002324411118
 20
1242.653695747066
 30
0.0
 11
4689.999850920221
 21
1242.748154553501
 31
0.0
  0
POLYLINE
  5
19C
  8
0
  6
CONTINUOUS
 62
     7
 66
     1
 10
0.0
 20
0.0
 30
0.0
  0
VERTEX
  5
3DF
  8
0
  6
CONTINUOUS
 62
     7
 10
4687.218640945172
 20
1238.173783441088
 30
0.0
  0
VERTEX
  5
3E0
  8
0
  6
CONTINUOUS
 62
     7
 10
4687.235220210227
 20
1238.172129141099
 30
0.0
  0
VERTEX
  5
3E1
  8
0
  6
CONTINUOUS
 62
     7
 10
4687.251782549839
 20
1238.170424138209
 30
0.0
  0
VERTEX
  5
3E2
  8
0
  6
CONTINUOUS
 62
     7
 10
4687.268311038567
 20
1238.168617729518
 30
0.0
  0
VERTEX
  5
3E3
  8
0
  6
CONTINUOUS
 62
     7
 10
4687.284788750966
 20
1238.166659212126
 30
0.0
  0
VERTEX
  5
3E4
  8
0
  6
CONTINUOUS
 62
     7
 10
4687.30119876159
 20
1238.164497883131
 30
0.0
  0
VERTEX
  5
3E5
  8
0
  6
CONTINUOUS
 62
     7
 10
4687.317524145001
 20
1238.162083039635
 30
0.0
  0
VERTEX
  5
3E6
  8
0
  6
CONTINUOUS
 62
     7
 10
4687.333747975754
 20
1238.159363978736
 30
0.0
  0
VERTEX
  5
3E7
  8
0
  6
CONTINUOUS
 62
     7
 10
4687.349853328405
 20
1238.156289997534
 30
0.0
  0
VERTEX
  5
3E8
  8
0
  6
CONTINUOUS
 62
     7
 10
4687.365823277511
 20
1238.152810393128
 30
0.0
  0
VERTEX
  5
3E9
  8
0
  6
CONTINUOUS
 62
     7
 10
4687.381640897631
 20
1238.148874462619
 30
0.0
  0
VERTEX
  5
3EA
  8
0
  6
CONTINUOUS
 62
     7
 10
4687.397289263321
 20
1238.144431503104
 30
0.0
  0
VERTEX
  5
3EB
  8
0
  6
CONTINUOUS
 62
     7
 10
4687.412751449137
 20
1238.139430811685
 30
0.0
  0
VERTEX
  5
3EC
  8
0
  6
CONTINUOUS
 62
     7
 10
4687.428010529636
 20
1238.133821685466
 30
0.0
  0
VERTEX
  5
3ED
  8
0
  6
CONTINUOUS
 62
     7
 10
4687.443050316869
 20
1238.127566316216
 30
0.0
  0
VERTEX
  5
3EE
  8
0
  6
CONTINUOUS
 62
     7
 10
4687.457857504807
 20
1238.120677284691
 30
0.0
  0
VERTEX
  5
3EF
  8
0
  6
CONTINUOUS
 62
     7
 10
4687.472419491279
 20
1238.113179478302
 30
0.0
  0
VERTEX
  5
3F0
  8
0
  6
CONTINUOUS
 62
     7
 10
4687.486723674123
 20
1238.105097784462
 30
0.0
  0
VERTEX
  5
3F1
  8
0
  6
CONTINUOUS
 62
     7
 10
4687.500757451167
 20
1238.096457090586
 30
0.0
  0
VERTEX
  5
3F2
  8
0
  6
CONTINUOUS
 62
     7
 10
4687.514508220248
 20
1238.087282284084
 30
0.0
  0
VERTEX
  5
3F3
  8
0
  6
CONTINUOUS
 62
     7
 10
4687.527963379194
 20
1238.077598252371
 30
0.0
  0
VERTEX
  5
3F4
  8
0
  6
CONTINUOUS
 62
     7
 10
4687.541110325844
 20
1238.067429882859
 30
0.0
  0
VERTEX
  5
3F5
  8
0
  6
CONTINUOUS
 62
     7
 10
4687.553936458025
 20
1238.05680206296
 30
0.0
  0
VERTEX
  5
3F6
  8
0
  6
CONTINUOUS
 62
     7
 10
4687.566429173572
 20
1238.045739680089
 30
0.0
  0
VERTEX
  5
3F7
  8
0
  6
CONTINUOUS
 62
     7
 10
4687.578575870318
 20
1238.034267621657
 30
0.0
  0
VERTEX
  5
3F8
  8
0
  6
CONTINUOUS
 62
     7
 10
4687.590363946094
 20
1238.022410775078
 30
0.0
  0
VERTEX
  5
3F9
  8
0
  6
CONTINUOUS
 62
     7
 10
4687.601780798735
 20
1238.010194027765
 30
0.0
  0
VERTEX
  5
3FA
  8
0
  6
CONTINUOUS
 62
     7
 10
4687.612813826071
 20
1237.997642267129
 30
0.0
  0
VERTEX
  5
3FB
  8
0
  6
CONTINUOUS
 62
     7
 10
4687.623448783023
 20
1237.984778198236
 30
0.0
  0
VERTEX
  5
3FC
  8
0
  6
CONTINUOUS
 62
     7
 10
4687.633664142735
 20
1237.97161485348
 30
0.0
  0
VERTEX
  5
3FD
  8
0
  6
CONTINUOUS
 62
     7
 10
4687.643436361612
 20
1237.958162586336
 30
0.0
  0
VERTEX
  5
3FE
  8
0
  6
CONTINUOUS
 62
     7
 10
4687.652741895979
 20
1237.94443175018
 30
0.0
  0
VERTEX
  5
3FF
  8
0
  6
CONTINUOUS
 62
     7
 10
4687.66155720217
 20
1237.930432698389
 30
0.0
  0
VERTEX
  5
400
  8
0
  6
CONTINUOUS
 62
     7
 10
4687.669858736513
 20
1237.916175784341
 30
0.0
  0
VERTEX
  5
401
  8
0
  6
CONTINUOUS
 62
     7
 10
4687.677622955336
 20
1237.901671361412
 30
0.0
  0
VERTEX
  5
402
  8
0
  6
CONTINUOUS
 62
     7
 10
4687.684826314967
 20
1237.886929782979
 30
0.0
  0
VERTEX
  5
403
  8
0
  6
CONTINUOUS
 62
     7
 10
4687.69144527174
 20
1237.871961402419
 30
0.0
  0
VERTEX
  5
404
  8
0
  6
CONTINUOUS
 62
     7
 10
4687.697456281981
 20
1237.856776573111
 30
0.0
  0
VERTEX
  5
405
  8
0
  6
CONTINUOUS
 62
     7
 10
4687.702835805423
 20
1237.841385648782
 30
0.0
  0
VERTEX
  5
406
  8
0
  6
CONTINUOUS
 62
     7
 10
4687.70757792226
 20
1237.825800807761
 30
0.0
  0
VERTEX
  5
407
  8
0
  6
CONTINUOUS
 62
     7
 10
4687.711735393003
 20
1237.810040304722
 30
0.0
  0
VERTEX
  5
408
  8
0
  6
CONTINUOUS
 62
     7
 10
4687.715373178326
 20
1237.794123657668
 30
0.0
  0
VERTEX
  5
409
  8
0
  6
CONTINUOUS
 62
     7
 10
4687.718556238911
 20
1237.778070384601
 30
0.0
  0
VERTEX
  5
40A
  8
0
  6
CONTINUOUS
 62
     7
 10
4687.721349535432
 20
1237.761900003522
 30
0.0
  0
VERTEX
  5
40B
  8
0
  6
CONTINUOUS
 62
     7
 10
4687.723818028566
 20
1237.745632032433
 30
0.0
  0
VERTEX
  5
40C
  8
0
  6
CONTINUOUS
 62
     7
 10
4687.726026678993
 20
1237.729285989336
 30
0.0
  0
VERTEX
  5
40D
  8
0
  6
CONTINUOUS
 62
     7
 10
4687.728040447387
 20
1237.712881392234
 30
0.0
  0
VERTEX
  5
40E
  8
0
  6
CONTINUOUS
 62
     7
 10
4687.729924294426
 20
1237.696437759128
 30
0.0
  0
VERTEX
  5
40F
  8
0
  6
CONTINUOUS
 62
     7
 10
4687.73174318079
 20
1237.67997460802
 30
0.0
  0
SEQEND
  5
8A1
  8
0
  6
CONTINUOUS
 62
     7
  0
POLYLINE
  5
19D
  8
0
  6
CONTINUOUS
 62
     7
 66
     1
 10
0.0
 20
0.0
 30
0.0
  0
VERTEX
  5
410
  8
0
  6
CONTINUOUS
 62
     7
 10
4687.469603499769
 20
1247.690685147241
 30
0.0
  0
VERTEX
  5
411
  8
0
  6
CONTINUOUS
 62
     7
 10
4687.468188224465
 20
1247.674086118307
 30
0.0
  0
VERTEX
  5
412
  8
0
  6
CONTINUOUS
 62
     7
 10
4687.466721823206
 20
1247.657503283137
 30
0.0
  0
VERTEX
  5
413
  8
0
  6
CONTINUOUS
 62
     7
 10
4687.465153170039
 20
1247.640952835491
 30
0.0
  0
VERTEX
  5
414
  8
0
  6
CONTINUOUS
 62
     7
 10
4687.463431139008
 20
1247.624450969133
 30
0.0
  0
VERTEX
  5
415
  8
0
  6
CONTINUOUS
 62
     7
 10
4687.461504604157
 20
1247.608013877825
 30
0.0
  0
VERTEX
  5
416
  8
0
  6
CONTINUOUS
 62
     7
 10
4687.459322439536
 20
1247.59165775533
 30
0.0
  0
VERTEX
  5
417
  8
0
  6
CONTINUOUS
 62
     7
 10
4687.456833519186
 20
1247.57539879541
 30
0.0
  0
VERTEX
  5
418
  8
0
  6
CONTINUOUS
 62
     7
 10
4687.453986717153
 20
1247.559253191828
 30
0.0
  0
VERTEX
  5
419
  8
0
  6
CONTINUOUS
 62
     7
 10
4687.450730907486
 20
1247.543237138347
 30
0.0
  0
VERTEX
  5
41A
  8
0
  6
CONTINUOUS
 62
     7
 10
4687.447014964227
 20
1247.527366828728
 30
0.0
  0
VERTEX
  5
41B
  8
0
  6
CONTINUOUS
 62
     7
 10
4687.442787761423
 20
1247.511658456735
 30
0.0
  0
VERTEX
  5
41C
  8
0
  6
CONTINUOUS
 62
     7
 10
4687.437998173117
 20
1247.49612821613
 30
0.0
  0
VERTEX
  5
41D
  8
0
  6
CONTINUOUS
 62
     7
 10
4687.43259507659
 20
1247.480792300538
 30
0.0
  0
VERTEX
  5
41E
  8
0
  6
CONTINUOUS
 62
     7
 10
4687.426542519342
 20
1247.465666256075
 30
0.0
  0
VERTEX
  5
41F
  8
0
  6
CONTINUOUS
 62
     7
 10
4687.419854744292
 20
1247.450763486377
 30
0.0
  0
VERTEX
  5
420
  8
0
  6
CONTINUOUS
 62
     7
 10
4687.41255636209
 20
1247.436096952555
 30
0.0
  0
VERTEX
  5
421
  8
0
  6
CONTINUOUS
 62
     7
 10
4687.404671983386
 20
1247.421679615721
 30
0.0
  0
VERTEX
  5
422
  8
0
  6
CONTINUOUS
 62
     7
 10
4687.39622621883
 20
1247.407524436986
 30
0.0
  0
VERTEX
  5
423
  8
0
  6
CONTINUOUS
 62
     7
 10
4687.38724367907
 20
1247.393644377461
 30
0.0
  0
VERTEX
  5
424
  8
0
  6
CONTINUOUS
 62
     7
 10
4687.377748974757
 20
1247.380052398259
 30
0.0
  0
VERTEX
  5
425
  8
0
  6
CONTINUOUS
 62
     7
 10
4687.367766716539
 20
1247.36676146049
 30
0.0
  0
VERTEX
  5
426
  8
0
  6
CONTINUOUS
 62
     7
 10
4687.357321515067
 20
1247.353784525266
 30
0.0
  0
VERTEX
  5
427
  8
0
  6
CONTINUOUS
 62
     7
 10
4687.346437980988
 20
1247.341134553698
 30
0.0
  0
VERTEX
  5
428
  8
0
  6
CONTINUOUS
 62
     7
 10
4687.335140724957
 20
1247.328824506899
 30
0.0
  0
VERTEX
  5
429
  8
0
  6
CONTINUOUS
 62
     7
 10
4687.323454357618
 20
1247.316867345978
 30
0.0
  0
VERTEX
  5
42A
  8
0
  6
CONTINUOUS
 62
     7
 10
4687.311403489623
 20
1247.305276032049
 30
0.0
  0
VERTEX
  5
42B
  8
0
  6
CONTINUOUS
 62
     7
 10
4687.299012731502
 20
1247.29406352631
 30
0.0
  0
VERTEX
  5
42C
  8
0
  6
CONTINUOUS
 62
     7
 10
4687.286303987504
 20
1247.283244803672
 30
0.0
  0
VERTEX
  5
42D
  8
0
  6
CONTINUOUS
 62
     7
 10
4687.273289462334
 20
1247.272842056361
 30
0.0
  0
VERTEX
  5
42E
  8
0
  6
CONTINUOUS
 62
     7
 10
4687.259979188476
 20
1247.262879092924
 30
0.0
  0
VERTEX
  5
42F
  8
0
  6
CONTINUOUS
 62
     7
 10
4687.246383198415
 20
1247.253379721908
 30
0.0
  0
VERTEX
  5
430
  8
0
  6
CONTINUOUS
 62
     7
 10
4687.232511524635
 20
1247.244367751859
 30
0.0
  0
VERTEX
  5
431
  8
0
  6
CONTINUOUS
 62
     7
 10
4687.218374199624
 20
1247.235866991324
 30
0.0
  0
VERTEX
  5
432
  8
0
  6
CONTINUOUS
 62
     7
 10
4687.203981255866
 20
1247.227901248848
 30
0.0
  0
VERTEX
  5
433
  8
0
  6
CONTINUOUS
 62
     7
 10
4687.189342725845
 20
1247.220494332979
 30
0.0
  0
VERTEX
  5
434
  8
0
  6
CONTINUOUS
 62
     7
 10
4687.17446864205
 20
1247.213670052262
 30
0.0
  0
VERTEX
  5
435
  8
0
  6
CONTINUOUS
 62
     7
 10
4687.159369036964
 20
1247.207452215244
 30
0.0
  0
VERTEX
  5
436
  8
0
  6
CONTINUOUS
 62
     7
 10
4687.14405394524
 20
1247.201864612084
 30
0.0
  0
VERTEX
  5
437
  8
0
  6
CONTINUOUS
 62
     7
 10
4687.128535749098
 20
1247.196911111466
 30
0.0
  0
VERTEX
  5
438
  8
0
  6
CONTINUOUS
 62
     7
 10
4687.112833650636
 20
1247.19253770853
 30
0.0
  0
VERTEX
  5
439
  8
0
  6
CONTINUOUS
 62
     7
 10
4687.09696808345
 20
1247.18867994798
 30
0.0
  0
VERTEX
  5
43A
  8
0
  6
CONTINUOUS
 62
     7
 10
4687.080959481125
 20
1247.185273374516
 30
0.0
  0
VERTEX
  5
43B
  8
0
  6
CONTINUOUS
 62
     7
 10
4687.064828277256
 20
1247.182253532842
 30
0.0
  0
VERTEX
  5
43C
  8
0
  6
CONTINUOUS
 62
     7
 10
4687.048594905432
 20
1247.179555967658
 30
0.0
  0
VERTEX
  5
43D
  8
0
  6
CONTINUOUS
 62
     7
 10
4687.032279799245
 20
1247.177116223666
 30
0.0
  0
VERTEX
  5
43E
  8
0
  6
CONTINUOUS
 62
     7
 10
4687.015903392286
 20
1247.174869845569
 30
0.0
  0
VERTEX
  5
43F
  8
0
  6
CONTINUOUS
 62
     7
 10
4686.999486118144
 20
1247.172752378069
 30
0.0
  0
VERTEX
  5
440
  8
0
  6
CONTINUOUS
 62
     7
 10
4686.98304841041
 20
1247.170699365866
 30
0.0
  0
SEQEND
  5
8A2
  8
0
  6
CONTINUOUS
 62
     7
  0
LINE
  5
19E
  8
0
  6
CONTINUOUS
 62
     7
 10
4684.840393384788
 20
1238.111506837001
 30
0.0
 11
4687.218640945172
 21
1238.173783441087
 31
0.0
  0
LINE
  5
19F
  8
0
  6
CONTINUOUS
 62
     7
 10
4686.98304841041
 20
1247.170699365867
 30
0.0
 11
4684.840393384788
 21
1247.114591969418
 31
0.0
  0
LINE
  5
1A0
  8
0
  6
CONTINUOUS
 62
     7
 10
4216.840393384782
 20
1194.635708755057
 30
0.0
 11
4216.840393384782
 21
1193.635708755057
 31
0.0
  0
LINE
  5
1A1
  8
0
  6
CONTINUOUS
 62
     7
 10
4234.840393384782
 20
1194.635708755057
 30
0.0
 11
4216.840393384782
 21
1194.635708755057
 31
0.0
  0
LINE
  5
1A2
  8
0
  6
CONTINUOUS
 62
     7
 10
4216.840393384782
 20
1193.635708755057
 30
0.0
 11
4234.840393384782
 21
1193.635708755057
 31
0.0
  0
LINE
  5
1A3
  8
0
  6
CONTINUOUS
 62
     7
 10
4216.840393384782
 20
1287.635708755057
 30
0.0
 11
4216.840393384782
 21
1194.635708755057
 31
0.0
  0
LINE
  5
1A4
  8
0
  6
CONTINUOUS
 62
     7
 10
4216.840393384782
 20
1287.635708755057
 30
0.0
 11
4234.840393384782
 21
1287.635708755057
 31
0.0
  0
LINE
  5
1A5
  8
0
  6
CONTINUOUS
 62
     7
 10
4216.840393384782
 20
1288.635708755057
 30
0.0
 11
4234.840393384782
 21
1288.635708755057
 31
0.0
  0
LINE
  5
1A6
  8
0
  6
CONTINUOUS
 62
     7
 10
4216.840393384782
 20
1288.635708755057
 30
0.0
 11
4216.840393384782
 21
1287.635708755057
 31
0.0
  0
LINE
  5
1A7
  8
0
  6
CONTINUOUS
 62
     7
 10
4214.340393384781
 20
1291.635708755057
 30
0.0
 11
4684.840393384781
 21
1291.635708755057
 31
0.0
  0
LINE
  5
1A8
  8
0
  6
CONTINUOUS
 62
     7
 10
4214.340393384781
 20
1291.635708755057
 30
0.0
 11
4214.340393384781
 21
1308.635708755057
 31
0.0
  0
LINE
  5
1A9
  8
0
  6
CONTINUOUS
 62
     7
 10
4214.340393384781
 20
1308.635708755057
 30
0.0
 11
4684.840393384781
 21
1308.635708755057
 31
0.0
  0
LINE
  5
1AA
  8
0
  6
CONTINUOUS
 62
     7
 10
4684.840393384781
 20
1291.635708755057
 30
0.0
 11
4684.840393384781
 21
1308.635708755057
 31
0.0
  0
LINE
  5
1B9
  8
0
  6
CONTINUOUS
 62
     7
 10
4235.340393384781
 20
1190.546819866168
 30
0.0
 11
4235.340393384781
 21
1291.635708755057
 31
0.0
  0
LINE
  5
1BA
  8
0
  6
CONTINUOUS
 62
     7
 10
4235.340393384781
 20
1190.546819866168
 30
0.0
 11
4234.840393384782
 21
1190.635708755057
 31
0.0
  0
LINE
  5
1BB
  8
0
  6
CONTINUOUS
 62
     7
 10
4234.840393384782
 20
1190.635708755057
 30
0.0
 11
4234.840393384782
 21
1291.635708755057
 31
0.0
  0
LINE
  5
1BC
  8
0
  6
CONTINUOUS
 62
     7
 10
4684.840393384782
 20
1110.635708755057
 30
0.0
 11
4684.840393384782
 21
1291.635708755057
 31
0.0
  0
LINE
  5
1BD
  8
0
  6
CONTINUOUS
 62
     7
 10
4684.840393384782
 20
1110.635708755057
 30
0.0
 11
4235.340393384781
 21
1190.546819866168
 31
0.0
  0
LINE
  5
1BE
  8
0
  6
CONTINUOUS
 62
     7
 10
4684.840393384782
 20
1110.635708755057
 30
0.0
 11
4682.027893384782
 21
1111.135708755057
 31
0.0
  0
LINE
  5
1BF
  8
0
  6
CONTINUOUS
 62
     7
 10
4684.840393384782
 20
1111.135708755057
 30
0.0
 11
4682.027893384782
 21
1111.135708755057
 31
0.0
  0
LINE
  5
1C0
  8
0
  6
CONTINUOUS
 62
     7
 10
4684.840393384782
 20
1111.135708755057
 30
0.0
 11
4684.840393384782
 21
1110.635708755057
 31
0.0
  0
POLYLINE
  5
1C1
  8
0
  6
CONTINUOUS
 62
     7
 10
0.0
 20
0.0
 30
0.0
 66
     1
 70
     8
  0
VERTEX
  5
441
  8
0
  6
CONTINUOUS
 62
     7
 10
4687.04602413652
 20
1225.664978404741
 30
0.0
 70
    32
  0
VERTEX
  5
442
  8
0
  6
CONTINUOUS
 62
     7
 10
4687.047815346454
 20
1225.596574857151
 30
0.0
 70
    32
  0
VERTEX
  5
443
  8
0
  6
CONTINUOUS
 62
     7
 10
4687.049605267849
 20
1225.528220516746
 30
0.0
 70
    32
  0
VERTEX
  5
444
  8
0
  6
CONTINUOUS
 62
     7
 10
4687.051392612175
 20
1225.459964590714
 30
0.0
 70
    32
  0
VERTEX
  5
445
  8
0
  6
CONTINUOUS
 62
     7
 10
4687.053176090893
 20
1225.391856286241
 30
0.0
 70
    32
  0
VERTEX
  5
446
  8
0
  6
CONTINUOUS
 62
     7
 10
4687.054954415471
 20
1225.323944810512
 30
0.0
 70
    32
  0
VERTEX
  5
447
  8
0
  6
CONTINUOUS
 62
     7
 10
4687.056726297371
 20
1225.256279370713
 30
0.0
 70
    32
  0
VERTEX
  5
448
  8
0
  6
CONTINUOUS
 62
     7
 10
4687.058490448057
 20
1225.18890917403
 30
0.0
 70
    32
  0
VERTEX
  5
449
  8
0
  6
CONTINUOUS
 62
     7
 10
4687.060245578995
 20
1225.12188342765
 30
0.0
 70
    32
  0
VERTEX
  5
44A
  8
0
  6
CONTINUOUS
 62
     7
 10
4687.061990401648
 20
1225.055251338759
 30
0.0
 70
    32
  0
VERTEX
  5
44B
  8
0
  6
CONTINUOUS
 62
     7
 10
4687.063723627482
 20
1224.989062114542
 30
0.0
 70
    32
  0
VERTEX
  5
44C
  8
0
  6
CONTINUOUS
 62
     7
 10
4687.065443967963
 20
1224.923364962186
 30
0.0
 70
    32
  0
VERTEX
  5
44D
  8
0
  6
CONTINUOUS
 62
     7
 10
4687.067150134551
 20
1224.858209088877
 30
0.0
 70
    32
  0
VERTEX
  5
44E
  8
0
  6
CONTINUOUS
 62
     7
 10
4687.068840838711
 20
1224.793643701801
 30
0.0
 70
    32
  0
VERTEX
  5
44F
  8
0
  6
CONTINUOUS
 62
     7
 10
4687.070514791226
 20
1224.729718034296
 30
0.0
 70
    32
  0
VERTEX
  5
450
  8
0
  6
CONTINUOUS
 62
     7
 10
4687.072170586915
 20
1224.666485748069
 30
0.0
 70
    32
  0
VERTEX
  5
451
  8
0
  6
CONTINUOUS
 62
     7
 10
4687.073806574927
 20
1224.604009886391
 30
0.0
 70
    32
  0
VERTEX
  5
452
  8
0
  6
CONTINUOUS
 62
     7
 10
4687.075421073117
 20
1224.542354688055
 30
0.0
 70
    32
  0
VERTEX
  5
453
  8
0
  6
CONTINUOUS
 62
     7
 10
4687.077012399326
 20
1224.481584391858
 30
0.0
 70
    32
  0
VERTEX
  5
454
  8
0
  6
CONTINUOUS
 62
     7
 10
4687.078578871407
 20
1224.421763236594
 30
0.0
 70
    32
  0
VERTEX
  5
455
  8
0
  6
CONTINUOUS
 62
     7
 10
4687.080118807205
 20
1224.362955461057
 30
0.0
 70
    32
  0
VERTEX
  5
456
  8
0
  6
CONTINUOUS
 62
     7
 10
4687.081630524568
 20
1224.305225304045
 30
0.0
 70
    32
  0
VERTEX
  5
457
  8
0
  6
CONTINUOUS
 62
     7
 10
4687.083112341345
 20
1224.248637004351
 30
0.0
 70
    32
  0
VERTEX
  5
458
  8
0
  6
CONTINUOUS
 62
     7
 10
4687.084562575385
 20
1224.19325480077
 30
0.0
 70
    32
  0
VERTEX
  5
459
  8
0
  6
CONTINUOUS
 62
     7
 10
4687.085979544534
 20
1224.139142932097
 30
0.0
 70
    32
  0
VERTEX
  5
45A
  8
0
  6
CONTINUOUS
 62
     7
 10
4687.08736156664
 20
1224.086365637129
 30
0.0
 70
    32
  0
VERTEX
  5
45B
  8
0
  6
CONTINUOUS
 62
     7
 10
4687.088706959552
 20
1224.034987154659
 30
0.0
 70
    32
  0
VERTEX
  5
45C
  8
0
  6
CONTINUOUS
 62
     7
 10
4687.090014041119
 20
1223.985071723483
 30
0.0
 70
    32
  0
VERTEX
  5
45D
  8
0
  6
CONTINUOUS
 62
     7
 10
4687.0912811677
 20
1223.936682111615
 30
0.0
 70
    32
  0
VERTEX
  5
45E
  8
0
  6
CONTINUOUS
 62
     7
 10
4687.092507910723
 20
1223.889834685631
 30
0.0
 70
    32
  0
VERTEX
  5
45F
  8
0
  6
CONTINUOUS
 62
     7
 10
4687.093695273805
 20
1223.844491118866
 30
0.0
 70
    32
  0
VERTEX
  5
460
  8
0
  6
CONTINUOUS
 62
     7
 10
4687.094844342874
 20
1223.80060994145
 30
0.0
 70
    32
  0
VERTEX
  5
461
  8
0
  6
CONTINUOUS
 62
     7
 10
4687.095956203859
 20
1223.758149683516
 30
0.0
 70
    32
  0
VERTEX
  5
462
  8
0
  6
CONTINUOUS
 62
     7
 10
4687.097031942683
 20
1223.717068875192
 30
0.0
 70
    32
  0
VERTEX
  5
463
  8
0
  6
CONTINUOUS
 62
     7
 10
4687.098072645275
 20
1223.677326046611
 30
0.0
 70
    32
  0
VERTEX
  5
464
  8
0
  6
CONTINUOUS
 62
     7
 10
4687.099079397561
 20
1223.638879727903
 30
0.0
 70
    32
  0
VERTEX
  5
465
  8
0
  6
CONTINUOUS
 62
     7
 10
4687.100053285469
 20
1223.6016884492
 30
0.0
 70
    32
  0
VERTEX
  5
466
  8
0
  6
CONTINUOUS
 62
     7
 10
4687.100995394925
 20
1223.565710740631
 30
0.0
 70
    32
  0
VERTEX
  5
467
  8
0
  6
CONTINUOUS
 62
     7
 10
4687.101906811852
 20
1223.530905132328
 30
0.0
 70
    32
  0
VERTEX
  5
468
  8
0
  6
CONTINUOUS
 62
     7
 10
4687.102788622183
 20
1223.497230154421
 30
0.0
 70
    32
  0
VERTEX
  5
469
  8
0
  6
CONTINUOUS
 62
     7
 10
4687.103641911841
 20
1223.464644337042
 30
0.0
 70
    32
  0
VERTEX
  5
46A
  8
0
  6
CONTINUOUS
 62
     7
 10
4687.104467766754
 20
1223.433106210322
 30
0.0
 70
    32
  0
VERTEX
  5
46B
  8
0
  6
CONTINUOUS
 62
     7
 10
4687.105266876221
 20
1223.402589450956
 30
0.0
 70
    32
  0
VERTEX
  5
46C
  8
0
  6
CONTINUOUS
 62
     7
 10
4687.10603511892
 20
1223.373251445934
 30
0.0
 70
    32
  0
VERTEX
  5
46D
  8
0
  6
CONTINUOUS
 62
     7
 10
4687.106765172295
 20
1223.345371832341
 30
0.0
 70
    32
  0
VERTEX
  5
46E
  8
0
  6
CONTINUOUS
 62
     7
 10
4687.107449655877
 20
1223.319232458962
 30
0.0
 70
    32
  0
VERTEX
  5
46F
  8
0
  6
CONTINUOUS
 62
     7
 10
4687.108081189193
 20
1223.295115174581
 30
0.0
 70
    32
  0
VERTEX
  5
470
  8
0
  6
CONTINUOUS
 62
     7
 10
4687.108652391776
 20
1223.273301827985
 30
0.0
 70
    32
  0
VERTEX
  5
471
  8
0
  6
CONTINUOUS
 62
     7
 10
4687.109155883155
 20
1223.25407426796
 30
0.0
 70
    32
  0
VERTEX
  5
472
  8
0
  6
CONTINUOUS
 62
     7
 10
4687.10958428286
 20
1223.237714343289
 30
0.0
 70
    32
  0
VERTEX
  5
473
  8
0
  6
CONTINUOUS
 62
     7
 10
4687.109930210419
 20
1223.22450390276
 30
0.0
 70
    32
  0
VERTEX
  5
474
  8
0
  6
CONTINUOUS
 62
     7
 10
4687.110186285364
 20
1223.214724795156
 30
0.0
 70
    32
  0
VERTEX
  5
475
  8
0
  6
CONTINUOUS
 62
     7
 10
4687.110345127224
 20
1223.208658869264
 30
0.0
 70
    32
  0
VERTEX
  5
476
  8
0
  6
CONTINUOUS
 62
     7
 10
4687.110399355528
 20
1223.206587973869
 30
0.0
 70
    32
  0
VERTEX
  5
477
  8
0
  6
CONTINUOUS
 62
     7
 10
4687.110341589806
 20
1223.208793957757
 30
0.0
 70
    32
  0
VERTEX
  5
478
  8
0
  6
CONTINUOUS
 62
     7
 10
4687.110164449589
 20
1223.215558669712
 30
0.0
 70
    32
  0
VERTEX
  5
479
  8
0
  6
CONTINUOUS
 62
     7
 10
4687.109877580931
 20
1223.22651374182
 30
0.0
 70
    32
  0
SEQEND
  5
8A3
  8
0
  6
CONTINUOUS
 62
     7
  0
POLYLINE
  5
1C2
  8
0
  6
CONTINUOUS
 62
     7
 66
     1
 10
0.0
 20
0.0
 30
0.0
  0
VERTEX
  5
47A
  8
0
  6
CONTINUOUS
 62
     7
 10
4686.982164407442
 20
1228.103683069482
 30
0.0
  0
VERTEX
  5
47B
  8
0
  6
CONTINUOUS
 62
     7
 10
4686.982341994188
 20
1228.09690130558
 30
0.0
  0
VERTEX
  5
47C
  8
0
  6
CONTINUOUS
 62
     7
 10
4686.982526671791
 20
1228.089848752697
 30
0.0
  0
VERTEX
  5
47D
  8
0
  6
CONTINUOUS
 62
     7
 10
4686.982725531111
 20
1228.082254621853
 30
0.0
  0
VERTEX
  5
47E
  8
0
  6
CONTINUOUS
 62
     7
 10
4686.98294566301
 20
1228.073848124069
 30
0.0
  0
VERTEX
  5
47F
  8
0
  6
CONTINUOUS
 62
     7
 10
4686.983194158341
 20
1228.064358470363
 30
0.0
  0
VERTEX
  5
480
  8
0
  6
CONTINUOUS
 62
     7
 10
4686.983478107965
 20
1228.053514871755
 30
0.0
  0
VERTEX
  5
481
  8
0
  6
CONTINUOUS
 62
     7
 10
4686.983804602742
 20
1228.041046539267
 30
0.0
  0
VERTEX
  5
482
  8
0
  6
CONTINUOUS
 62
     7
 10
4686.98418073353
 20
1228.026682683915
 30
0.0
  0
VERTEX
  5
483
  8
0
  6
CONTINUOUS
 62
     7
 10
4686.984613591187
 20
1228.010152516722
 30
0.0
  0
VERTEX
  5
484
  8
0
  6
CONTINUOUS
 62
     7
 10
4686.985110266572
 20
1227.991185248705
 30
0.0
  0
VERTEX
  5
485
  8
0
  6
CONTINUOUS
 62
     7
 10
4686.985677850543
 20
1227.969510090886
 30
0.0
  0
VERTEX
  5
486
  8
0
  6
CONTINUOUS
 62
     7
 10
4686.986323124702
 20
1227.944868064291
 30
0.0
  0
VERTEX
  5
487
  8
0
  6
CONTINUOUS
 62
     7
 10
4686.987047540147
 20
1227.917203753938
 30
0.0
  0
VERTEX
  5
488
  8
0
  6
CONTINUOUS
 62
     7
 10
4686.987848052279
 20
1227.886633428134
 30
0.0
  0
VERTEX
  5
489
  8
0
  6
CONTINUOUS
 62
     7
 10
4686.988721475744
 20
1227.853278731004
 30
0.0
  0
VERTEX
  5
48A
  8
0
  6
CONTINUOUS
 62
     7
 10
4686.989664625175
 20
1227.817261306678
 30
0.0
  0
VERTEX
  5
48B
  8
0
  6
CONTINUOUS
 62
     7
 10
4686.99067431521
 20
1227.77870279928
 30
0.0
  0
VERTEX
  5
48C
  8
0
  6
CONTINUOUS
 62
     7
 10
4686.991747360489
 20
1227.73772485294
 30
0.0
  0
VERTEX
  5
48D
  8
0
  6
CONTINUOUS
 62
     7
 10
4686.99288057565
 20
1227.694449111784
 30
0.0
  0
VERTEX
  5
48E
  8
0
  6
CONTINUOUS
 62
     7
 10
4686.994070775329
 20
1227.648997219939
 30
0.0
  0
VERTEX
  5
48F
  8
0
  6
CONTINUOUS
 62
     7
 10
4686.995314774165
 20
1227.601490821533
 30
0.0
  0
VERTEX
  5
490
  8
0
  6
CONTINUOUS
 62
     7
 10
4686.996609386798
 20
1227.552051560693
 30
0.0
  0
VERTEX
  5
491
  8
0
  6
CONTINUOUS
 62
     7
 10
4686.997951427863
 20
1227.500801081545
 30
0.0
  0
VERTEX
  5
492
  8
0
  6
CONTINUOUS
 62
     7
 10
4686.99933773161
 20
1227.447860279313
 30
0.0
  0
VERTEX
  5
493
  8
0
  6
CONTINUOUS
 62
     7
 10
4687.000766007279
 20
1227.393316634529
 30
0.0
  0
VERTEX
  5
494
  8
0
  6
CONTINUOUS
 62
     7
 10
4687.002235170574
 20
1227.337211554544
 30
0.0
  0
VERTEX
  5
495
  8
0
  6
CONTINUOUS
 62
     7
 10
4687.003744225259
 20
1227.279583083916
 30
0.0
  0
VERTEX
  5
496
  8
0
  6
CONTINUOUS
 62
     7
 10
4687.005292175095
 20
1227.220469267209
 30
0.0
  0
VERTEX
  5
497
  8
0
  6
CONTINUOUS
 62
     7
 10
4687.006878023843
 20
1227.159908148984
 30
0.0
  0
VERTEX
  5
498
  8
0
  6
CONTINUOUS
 62
     7
 10
4687.008500775269
 20
1227.097937773801
 30
0.0
  0
VERTEX
  5
499
  8
0
  6
CONTINUOUS
 62
     7
 10
4687.010159433131
 20
1227.034596186224
 30
0.0
  0
VERTEX
  5
49A
  8
0
  6
CONTINUOUS
 62
     7
 10
4687.011853001194
 20
1226.969921430812
 30
0.0
  0
VERTEX
  5
49B
  8
0
  6
CONTINUOUS
 62
     7
 10
4687.013580483219
 20
1226.903951552129
 30
0.0
  0
VERTEX
  5
49C
  8
0
  6
CONTINUOUS
 62
     7
 10
4687.015340882967
 20
1226.836724594735
 30
0.0
  0
VERTEX
  5
49D
  8
0
  6
CONTINUOUS
 62
     7
 10
4687.017133204202
 20
1226.768278603191
 30
0.0
  0
VERTEX
  5
49E
  8
0
  6
CONTINUOUS
 62
     7
 10
4687.018956449021
 20
1226.698651685663
 30
0.0
  0
VERTEX
  5
49F
  8
0
  6
CONTINUOUS
 62
     7
 10
4687.020809212822
 20
1226.627897481514
 30
0.0
  0
VERTEX
  5
4A0
  8
0
  6
CONTINUOUS
 62
     7
 10
4687.022689155758
 20
1226.556105346195
 30
0.0
  0
VERTEX
  5
4A1
  8
0
  6
CONTINUOUS
 62
     7
 10
4687.024593806995
 20
1226.483369637085
 30
0.0
  0
VERTEX
  5
4A2
  8
0
  6
CONTINUOUS
 62
     7
 10
4687.026520695705
 20
1226.409784711562
 30
0.0
  0
VERTEX
  5
4A3
  8
0
  6
CONTINUOUS
 62
     7
 10
4687.028467351057
 20
1226.335444927007
 30
0.0
  0
VERTEX
  5
4A4
  8
0
  6
CONTINUOUS
 62
     7
 10
4687.030431302222
 20
1226.260444640798
 30
0.0
  0
VERTEX
  5
4A5
  8
0
  6
CONTINUOUS
 62
     7
 10
4687.032410078367
 20
1226.184878210314
 30
0.0
  0
VERTEX
  5
4A6
  8
0
  6
CONTINUOUS
 62
     7
 10
4687.034401208663
 20
1226.108839992934
 30
0.0
  0
VERTEX
  5
4A7
  8
0
  6
CONTINUOUS
 62
     7
 10
4687.03640222228
 20
1226.032424346038
 30
0.0
  0
VERTEX
  5
4A8
  8
0
  6
CONTINUOUS
 62
     7
 10
4687.03841064839
 20
1225.955725627004
 30
0.0
  0
VERTEX
  5
4A9
  8
0
  6
CONTINUOUS
 62
     7
 10
4687.040424016158
 20
1225.878838193212
 30
0.0
  0
VERTEX
  5
4AA
  8
0
  6
CONTINUOUS
 62
     7
 10
4687.042439854758
 20
1225.801856402041
 30
0.0
  0
SEQEND
  5
8A4
  8
0
  6
CONTINUOUS
 62
     7
  0
LINE
  5
1C3
  8
0
  6
CONTINUOUS
 62
     7
 10
4687.042439854758
 20
1225.801856402041
 30
0.0
 11
4687.04602413652
 21
1225.664978404741
 31
0.0
  0
POLYLINE
  5
1C4
  8
0
  6
CONTINUOUS
 62
     7
 10
0.0
 20
0.0
 30
0.0
 66
     1
 70
     8
  0
VERTEX
  5
4AB
  8
0
  6
CONTINUOUS
 62
     7
 10
4687.600673340279
 20
1242.68532987763
 30
0.0
 70
    32
  0
VERTEX
  5
4AC
  8
0
  6
CONTINUOUS
 62
     7
 10
4687.594410788028
 20
1242.924487099407
 30
0.0
 70
    32
  0
VERTEX
  5
4AD
  8
0
  6
CONTINUOUS
 62
     7
 10
4687.588151801775
 20
1243.16350814119
 30
0.0
 70
    32
  0
VERTEX
  5
4AE
  8
0
  6
CONTINUOUS
 62
     7
 10
4687.581899947518
 20
1243.402256822983
 30
0.0
 70
    32
  0
VERTEX
  5
4AF
  8
0
  6
CONTINUOUS
 62
     7
 10
4687.575658791258
 20
1243.640596964794
 30
0.0
 70
    32
  0
VERTEX
  5
4B0
  8
0
  6
CONTINUOUS
 62
     7
 10
4687.569431898994
 20
1243.878392386626
 30
0.0
 70
    32
  0
VERTEX
  5
4B1
  8
0
  6
CONTINUOUS
 62
     7
 10
4687.563222836721
 20
1244.115506908487
 30
0.0
 70
    32
  0
VERTEX
  5
4B2
  8
0
  6
CONTINUOUS
 62
     7
 10
4687.557035170441
 20
1244.351804350381
 30
0.0
 70
    32
  0
VERTEX
  5
4B3
  8
0
  6
CONTINUOUS
 62
     7
 10
4687.55087246615
 20
1244.587148532314
 30
0.0
 70
    32
  0
VERTEX
  5
4B4
  8
0
  6
CONTINUOUS
 62
     7
 10
4687.544738289851
 20
1244.821403274292
 30
0.0
 70
    32
  0
VERTEX
  5
4B5
  8
0
  6
CONTINUOUS
 62
     7
 10
4687.538636207539
 20
1245.05443239632
 30
0.0
 70
    32
  0
VERTEX
  5
4B6
  8
0
  6
CONTINUOUS
 62
     7
 10
4687.532569785212
 20
1245.286099718404
 30
0.0
 70
    32
  0
VERTEX
  5
4B7
  8
0
  6
CONTINUOUS
 62
     7
 10
4687.526542589907
 20
1245.516269021028
 30
0.0
 70
    32
  0
VERTEX
  5
4B8
  8
0
  6
CONTINUOUS
 62
     7
 10
4687.520558229975
 20
1245.744802506694
 30
0.0
 70
    32
  0
VERTEX
  5
4B9
  8
0
  6
CONTINUOUS
 62
     7
 10
4687.514620368089
 20
1245.971560303684
 30
0.0
 70
    32
  0
VERTEX
  5
4BA
  8
0
  6
CONTINUOUS
 62
     7
 10
4687.508732670611
 20
1246.196402399179
 30
0.0
 70
    32
  0
VERTEX
  5
4BB
  8
0
  6
CONTINUOUS
 62
     7
 10
4687.502898803906
 20
1246.419188780357
 30
0.0
 70
    32
  0
VERTEX
  5
4BC
  8
0
  6
CONTINUOUS
 62
     7
 10
4687.497122434341
 20
1246.639779434398
 30
0.0
 70
    32
  0
VERTEX
  5
4BD
  8
0
  6
CONTINUOUS
 62
     7
 10
4687.491407228279
 20
1246.858034348481
 30
0.0
 70
    32
  0
VERTEX
  5
4BE
  8
0
  6
CONTINUOUS
 62
     7
 10
4687.485756852086
 20
1247.073813509786
 30
0.0
 70
    32
  0
VERTEX
  5
4BF
  8
0
  6
CONTINUOUS
 62
     7
 10
4687.480174972124
 20
1247.286976905491
 30
0.0
 70
    32
  0
VERTEX
  5
4C0
  8
0
  6
CONTINUOUS
 62
     7
 10
4687.47466525476
 20
1247.497384522777
 30
0.0
 70
    32
  0
VERTEX
  5
4C1
  8
0
  6
CONTINUOUS
 62
     7
 10
4687.469231366358
 20
1247.704896348822
 30
0.0
 70
    32
  0
VERTEX
  5
4C2
  8
0
  6
CONTINUOUS
 62
     7
 10
4687.463876973285
 20
1247.909372370806
 30
0.0
 70
    32
  0
VERTEX
  5
4C3
  8
0
  6
CONTINUOUS
 62
     7
 10
4687.458605741902
 20
1248.110672575909
 30
0.0
 70
    32
  0
VERTEX
  5
4C4
  8
0
  6
CONTINUOUS
 62
     7
 10
4687.453421338576
 20
1248.308656951309
 30
0.0
 70
    32
  0
VERTEX
  5
4C5
  8
0
  6
CONTINUOUS
 62
     7
 10
4687.448327429671
 20
1248.503185484186
 30
0.0
 70
    32
  0
VERTEX
  5
4C6
  8
0
  6
CONTINUOUS
 62
     7
 10
4687.44332760467
 20
1248.694121097767
 30
0.0
 70
    32
  0
VERTEX
  5
4C7
  8
0
  6
CONTINUOUS
 62
     7
 10
4687.438424785228
 20
1248.881352218504
 30
0.0
 70
    32
  0
VERTEX
  5
4C8
  8
0
  6
CONTINUOUS
 62
     7
 10
4687.433621549709
 20
1249.064780382609
 30
0.0
 70
    32
  0
VERTEX
  5
4C9
  8
0
  6
CONTINUOUS
 62
     7
 10
4687.42892047366
 20
1249.244307233989
 30
0.0
 70
    32
  0
VERTEX
  5
4CA
  8
0
  6
CONTINUOUS
 62
     7
 10
4687.424324132624
 20
1249.419834416555
 30
0.0
 70
    32
  0
VERTEX
  5
4CB
  8
0
  6
CONTINUOUS
 62
     7
 10
4687.419835102146
 20
1249.591263574216
 30
0.0
 70
    32
  0
VERTEX
  5
4CC
  8
0
  6
CONTINUOUS
 62
     7
 10
4687.415455957772
 20
1249.75849635088
 30
0.0
 70
    32
  0
VERTEX
  5
4CD
  8
0
  6
CONTINUOUS
 62
     7
 10
4687.411189275048
 20
1249.921434390458
 30
0.0
 70
    32
  0
VERTEX
  5
4CE
  8
0
  6
CONTINUOUS
 62
     7
 10
4687.407037627195
 20
1250.079979425525
 30
0.0
 70
    32
  0
VERTEX
  5
4CF
  8
0
  6
CONTINUOUS
 62
     7
 10
4687.403003068089
 20
1250.234053021693
 30
0.0
 70
    32
  0
VERTEX
  5
4D0
  8
0
  6
CONTINUOUS
 62
     7
 10
4687.399086479272
 20
1250.38362151435
 30
0.0
 70
    32
  0
VERTEX
  5
4D1
  8
0
  6
CONTINUOUS
 62
     7
 10
4687.395288581524
 20
1250.528657377894
 30
0.0
 70
    32
  0
VERTEX
  5
4D2
  8
0
  6
CONTINUOUS
 62
     7
 10
4687.39161009563
 20
1250.669133086723
 30
0.0
 70
    32
  0
VERTEX
  5
4D3
  8
0
  6
CONTINUOUS
 62
     7
 10
4687.388051742373
 20
1250.805021115236
 30
0.0
 70
    32
  0
VERTEX
  5
4D4
  8
0
  6
CONTINUOUS
 62
     7
 10
4687.384614242537
 20
1250.936293937829
 30
0.0
 70
    32
  0
VERTEX
  5
4D5
  8
0
  6
CONTINUOUS
 62
     7
 10
4687.381298316905
 20
1251.062924028903
 30
0.0
 70
    32
  0
VERTEX
  5
4D6
  8
0
  6
CONTINUOUS
 62
     7
 10
4687.378104686258
 20
1251.184883862854
 30
0.0
 70
    32
  0
VERTEX
  5
4D7
  8
0
  6
CONTINUOUS
 62
     7
 10
4687.375034071382
 20
1251.30214591408
 30
0.0
 70
    32
  0
VERTEX
  5
4D8
  8
0
  6
CONTINUOUS
 62
     7
 10
4687.372087997717
 20
1251.414651928284
 30
0.0
 70
    32
  0
VERTEX
  5
4D9
  8
0
  6
CONTINUOUS
 62
     7
 10
4687.369272001234
 20
1251.522190495413
 30
0.0
 70
    32
  0
VERTEX
  5
4DA
  8
0
  6
CONTINUOUS
 62
     7
 10
4687.366592864917
 20
1251.624502583592
 30
0.0
 70
    32
  0
VERTEX
  5
4DB
  8
0
  6
CONTINUOUS
 62
     7
 10
4687.364057372151
 20
1251.721329145876
 30
0.0
 70
    32
  0
VERTEX
  5
4DC
  8
0
  6
CONTINUOUS
 62
     7
 10
4687.36167230632
 20
1251.81241113532
 30
0.0
 70
    32
  0
VERTEX
  5
4DD
  8
0
  6
CONTINUOUS
 62
     7
 10
4687.359444450805
 20
1251.897489504977
 30
0.0
 70
    32
  0
VERTEX
  5
4DE
  8
0
  6
CONTINUOUS
 62
     7
 10
4687.357380588989
 20
1251.976305207902
 30
0.0
 70
    32
  0
VERTEX
  5
4DF
  8
0
  6
CONTINUOUS
 62
     7
 10
4687.355487504257
 20
1252.048599197151
 30
0.0
 70
    32
  0
VERTEX
  5
4E0
  8
0
  6
CONTINUOUS
 62
     7
 10
4687.353771979991
 20
1252.114112425776
 30
0.0
 70
    32
  0
VERTEX
  5
4E1
  8
0
  6
CONTINUOUS
 62
     7
 10
4687.352240793542
 20
1252.17258607713
 30
0.0
 70
    32
  0
VERTEX
  5
4E2
  8
0
  6
CONTINUOUS
 62
     7
 10
4687.350894874202
 20
1252.223984663103
 30
0.0
 70
    32
  0
VERTEX
  5
4E3
  8
0
  6
CONTINUOUS
 62
     7
 10
4687.349718383121
 20
1252.268913044834
 30
0.0
 70
    32
  0
VERTEX
  5
4E4
  8
0
  6
CONTINUOUS
 62
     7
 10
4687.348692494939
 20
1252.308090133903
 30
0.0
 70
    32
  0
VERTEX
  5
4E5
  8
0
  6
CONTINUOUS
 62
     7
 10
4687.347798384294
 20
1252.342234841894
 30
0.0
 70
    32
  0
VERTEX
  5
4E6
  8
0
  6
CONTINUOUS
 62
     7
 10
4687.347017225823
 20
1252.37206608039
 30
0.0
 70
    32
  0
VERTEX
  5
4E7
  8
0
  6
CONTINUOUS
 62
     7
 10
4687.346330194163
 20
1252.398302760972
 30
0.0
 70
    32
  0
VERTEX
  5
4E8
  8
0
  6
CONTINUOUS
 62
     7
 10
4687.345718463952
 20
1252.421663795224
 30
0.0
 70
    32
  0
VERTEX
  5
4E9
  8
0
  6
CONTINUOUS
 62
     7
 10
4687.345163209829
 20
1252.442868094728
 30
0.0
 70
    32
  0
VERTEX
  5
4EA
  8
0
  6
CONTINUOUS
 62
     7
 10
4687.34464560643
 20
1252.462634571067
 30
0.0
 70
    32
  0
VERTEX
  5
4EB
  8
0
  6
CONTINUOUS
 62
     7
 10
4687.344146828393
 20
1252.481682135823
 30
0.0
 70
    32
  0
SEQEND
  5
8A5
  8
0
  6
CONTINUOUS
 62
     7
  0
POLYLINE
  5
1C5
  8
0
  6
CONTINUOUS
 62
     7
 10
0.0
 20
0.0
 30
0.0
 66
     1
 70
     8
  0
VERTEX
  5
4EC
  8
0
  6
CONTINUOUS
 62
     7
 10
4687.85697374524
 20
1232.897612294592
 30
0.0
 70
    32
  0
VERTEX
  5
4ED
  8
0
  6
CONTINUOUS
 62
     7
 10
4687.856568493272
 20
1232.913088242923
 30
0.0
 70
    32
  0
VERTEX
  5
4EE
  8
0
  6
CONTINUOUS
 62
     7
 10
4687.85614370952
 20
1232.9293100799
 30
0.0
 70
    32
  0
VERTEX
  5
4EF
  8
0
  6
CONTINUOUS
 62
     7
 10
4687.855679862206
 20
1232.94702369417
 30
0.0
 70
    32
  0
VERTEX
  5
4F0
  8
0
  6
CONTINUOUS
 62
     7
 10
4687.855157419548
 20
1232.96697497438
 30
0.0
 70
    32
  0
VERTEX
  5
4F1
  8
0
  6
CONTINUOUS
 62
     7
 10
4687.854556849763
 20
1232.989909809177
 30
0.0
 70
    32
  0
VERTEX
  5
4F2
  8
0
  6
CONTINUOUS
 62
     7
 10
4687.85385862107
 20
1233.016574087206
 30
0.0
 70
    32
  0
VERTEX
  5
4F3
  8
0
  6
CONTINUOUS
 62
     7
 10
4687.853043201687
 20
1233.047713697116
 30
0.0
 70
    32
  0
VERTEX
  5
4F4
  8
0
  6
CONTINUOUS
 62
     7
 10
4687.852091059833
 20
1233.084074527551
 30
0.0
 70
    32
  0
VERTEX
  5
4F5
  8
0
  6
CONTINUOUS
 62
     7
 10
4687.850982663726
 20
1233.126402467159
 30
0.0
 70
    32
  0
VERTEX
  5
4F6
  8
0
  6
CONTINUOUS
 62
     7
 10
4687.849698497479
 20
1233.175442797644
 30
0.0
 70
    32
  0
VERTEX
  5
4F7
  8
0
  6
CONTINUOUS
 62
     7
 10
4687.848225774515
 20
1233.231683818624
 30
0.0
 70
    32
  0
VERTEX
  5
4F8
  8
0
  6
CONTINUOUS
 62
     7
 10
4687.846568856035
 20
1233.294958982545
 30
0.0
 70
    32
  0
VERTEX
  5
4F9
  8
0
  6
CONTINUOUS
 62
     7
 10
4687.844734794831
 20
1233.364998954185
 30
0.0
 70
    32
  0
VERTEX
  5
4FA
  8
0
  6
CONTINUOUS
 62
     7
 10
4687.842730643694
 20
1233.441534398323
 30
0.0
 70
    32
  0
VERTEX
  5
4FB
  8
0
  6
CONTINUOUS
 62
     7
 10
4687.840563455413
 20
1233.524295979735
 30
0.0
 70
    32
  0
VERTEX
  5
4FC
  8
0
  6
CONTINUOUS
 62
     7
 10
4687.838240282783
 20
1233.613014363201
 30
0.0
 70
    32
  0
VERTEX
  5
4FD
  8
0
  6
CONTINUOUS
 62
     7
 10
4687.835768178591
 20
1233.707420213496
 30
0.0
 70
    32
  0
VERTEX
  5
4FE
  8
0
  6
CONTINUOUS
 62
     7
 10
4687.83315419563
 20
1233.807244195399
 30
0.0
 70
    32
  0
VERTEX
  5
4FF
  8
0
  6
CONTINUOUS
 62
     7
 10
4687.830405386691
 20
1233.912216973687
 30
0.0
 70
    32
  0
VERTEX
  5
500
  8
0
  6
CONTINUOUS
 62
     7
 10
4687.82752877805
 20
1234.022070225707
 30
0.0
 70
    32
  0
VERTEX
  5
501
  8
0
  6
CONTINUOUS
 62
     7
 10
4687.824529169497
 20
1234.136620654879
 30
0.0
 70
    32
  0
VERTEX
  5
502
  8
0
  6
CONTINUOUS
 62
     7
 10
4687.821407484106
 20
1234.255833010325
 30
0.0
 70
    32
  0
VERTEX
  5
503
  8
0
  6
CONTINUOUS
 62
     7
 10
4687.818164256233
 20
1234.379686885975
 30
0.0
 70
    32
  0
VERTEX
  5
504
  8
0
  6
CONTINUOUS
 62
     7
 10
4687.814800020226
 20
1234.508161875762
 30
0.0
 70
    32
  0
VERTEX
  5
505
  8
0
  6
CONTINUOUS
 62
     7
 10
4687.81131531044
 20
1234.641237573615
 30
0.0
 70
    32
  0
VERTEX
  5
506
  8
0
  6
CONTINUOUS
 62
     7
 10
4687.807710661225
 20
1234.778893573467
 30
0.0
 70
    32
  0
VERTEX
  5
507
  8
0
  6
CONTINUOUS
 62
     7
 10
4687.803986606932
 20
1234.921109469248
 30
0.0
 70
    32
  0
VERTEX
  5
508
  8
0
  6
CONTINUOUS
 62
     7
 10
4687.800143681914
 20
1235.067864854891
 30
0.0
 70
    32
  0
VERTEX
  5
509
  8
0
  6
CONTINUOUS
 62
     7
 10
4687.796182420521
 20
1235.219139324325
 30
0.0
 70
    32
  0
VERTEX
  5
50A
  8
0
  6
CONTINUOUS
 62
     7
 10
4687.792103671049
 20
1235.374900482624
 30
0.0
 70
    32
  0
VERTEX
  5
50B
  8
0
  6
CONTINUOUS
 62
     7
 10
4687.787909633339
 20
1235.535064320931
 30
0.0
 70
    32
  0
VERTEX
  5
50C
  8
0
  6
CONTINUOUS
 62
     7
 10
4687.783602870887
 20
1235.699532943571
 30
0.0
 70
    32
  0
VERTEX
  5
50D
  8
0
  6
CONTINUOUS
 62
     7
 10
4687.779185947182
 20
1235.868208454681
 30
0.0
 70
    32
  0
VERTEX
  5
50E
  8
0
  6
CONTINUOUS
 62
     7
 10
4687.77466142572
 20
1236.040992958396
 30
0.0
 70
    32
  0
VERTEX
  5
50F
  8
0
  6
CONTINUOUS
 62
     7
 10
4687.770031869993
 20
1236.21778855885
 30
0.0
 70
    32
  0
VERTEX
  5
510
  8
0
  6
CONTINUOUS
 62
     7
 10
4687.765299843494
 20
1236.39849736018
 30
0.0
 70
    32
  0
VERTEX
  5
511
  8
0
  6
CONTINUOUS
 62
     7
 10
4687.760467909718
 20
1236.58302146652
 30
0.0
 70
    32
  0
VERTEX
  5
512
  8
0
  6
CONTINUOUS
 62
     7
 10
4687.755538640878
 20
1236.771262649
 30
0.0
 70
    32
  0
VERTEX
  5
513
  8
0
  6
CONTINUOUS
 62
     7
 10
4687.75051499526
 20
1236.963107935159
 30
0.0
 70
    32
  0
VERTEX
  5
514
  8
0
  6
CONTINUOUS
 62
     7
 10
4687.745400461757
 20
1237.158424089733
 30
0.0
 70
    32
  0
VERTEX
  5
515
  8
0
  6
CONTINUOUS
 62
     7
 10
4687.740198567797
 20
1237.3570764055
 30
0.0
 70
    32
  0
VERTEX
  5
516
  8
0
  6
CONTINUOUS
 62
     7
 10
4687.734912840814
 20
1237.558930175237
 30
0.0
 70
    32
  0
VERTEX
  5
517
  8
0
  6
CONTINUOUS
 62
     7
 10
4687.729546808242
 20
1237.763850691722
 30
0.0
 70
    32
  0
VERTEX
  5
518
  8
0
  6
CONTINUOUS
 62
     7
 10
4687.724103997512
 20
1237.971703247734
 30
0.0
 70
    32
  0
VERTEX
  5
519
  8
0
  6
CONTINUOUS
 62
     7
 10
4687.718587936059
 20
1238.182353136051
 30
0.0
 70
    32
  0
VERTEX
  5
51A
  8
0
  6
CONTINUOUS
 62
     7
 10
4687.713002151314
 20
1238.39566564945
 30
0.0
 70
    32
  0
VERTEX
  5
51B
  8
0
  6
CONTINUOUS
 62
     7
 10
4687.707350170709
 20
1238.611506080709
 30
0.0
 70
    32
  0
VERTEX
  5
51C
  8
0
  6
CONTINUOUS
 62
     7
 10
4687.701635521678
 20
1238.829739722607
 30
0.0
 70
    32
  0
VERTEX
  5
51D
  8
0
  6
CONTINUOUS
 62
     7
 10
4687.695861731655
 20
1239.050231867923
 30
0.0
 70
    32
  0
VERTEX
  5
51E
  8
0
  6
CONTINUOUS
 62
     7
 10
4687.690032328071
 20
1239.272847809432
 30
0.0
 70
    32
  0
VERTEX
  5
51F
  8
0
  6
CONTINUOUS
 62
     7
 10
4687.684150838359
 20
1239.497452839914
 30
0.0
 70
    32
  0
VERTEX
  5
520
  8
0
  6
CONTINUOUS
 62
     7
 10
4687.678220789951
 20
1239.723912252146
 30
0.0
 70
    32
  0
VERTEX
  5
521
  8
0
  6
CONTINUOUS
 62
     7
 10
4687.672245721467
 20
1239.952090911797
 30
0.0
 70
    32
  0
VERTEX
  5
522
  8
0
  6
CONTINUOUS
 62
     7
 10
4687.666229303949
 20
1240.181848627283
 30
0.0
 70
    32
  0
VERTEX
  5
523
  8
0
  6
CONTINUOUS
 62
     7
 10
4687.660175295042
 20
1240.413041900021
 30
0.0
 70
    32
  0
VERTEX
  5
524
  8
0
  6
CONTINUOUS
 62
     7
 10
4687.654087453885
 20
1240.645527174285
 30
0.0
 70
    32
  0
VERTEX
  5
525
  8
0
  6
CONTINUOUS
 62
     7
 10
4687.647969539616
 20
1240.87916089435
 30
0.0
 70
    32
  0
VERTEX
  5
526
  8
0
  6
CONTINUOUS
 62
     7
 10
4687.641825311373
 20
1241.11379950449
 30
0.0
 70
    32
  0
VERTEX
  5
527
  8
0
  6
CONTINUOUS
 62
     7
 10
4687.635658528297
 20
1241.349299448981
 30
0.0
 70
    32
  0
VERTEX
  5
528
  8
0
  6
CONTINUOUS
 62
     7
 10
4687.629472949528
 20
1241.585517172098
 30
0.0
 70
    32
  0
VERTEX
  5
529
  8
0
  6
CONTINUOUS
 62
     7
 10
4687.623272334201
 20
1241.822309118115
 30
0.0
 70
    32
  0
VERTEX
  5
52A
  8
0
  6
CONTINUOUS
 62
     7
 10
4687.617060441457
 20
1242.059531731308
 30
0.0
 70
    32
  0
VERTEX
  5
52B
  8
0
  6
CONTINUOUS
 62
     7
 10
4687.610841030436
 20
1242.297041455951
 30
0.0
 70
    32
  0
VERTEX
  5
52C
  8
0
  6
CONTINUOUS
 62
     7
 10
4687.604617860276
 20
1242.534694736319
 30
0.0
 70
    32
  0
SEQEND
  5
8A6
  8
0
  6
CONTINUOUS
 62
     7
  0
LINE
  5
1C6
  8
0
  6
CONTINUOUS
 62
     7
 10
4690.002324411121
 20
1242.653695746965
 30
0.0
 11
4690.122625302694
 21
1238.059590045528
 31
0.0
  0
LINE
  5
1C7
  8
0
  6
CONTINUOUS
 62
     7
 10
4689.877076537745
 20
1247.436719061606
 30
0.0
 11
4689.999850920221
 21
1242.748154553501
 31
0.0
  0
POLYLINE
  5
1C8
  8
0
  6
CONTINUOUS
 62
     7
 66
     1
 10
0.0
 20
0.0
 30
0.0
  0
VERTEX
  5
52D
  8
0
  6
CONTINUOUS
 62
     7
 10
1676.920902083239
 20
2841.155996237073
 30
0.0
  0
VERTEX
  5
52E
  8
0
  6
CONTINUOUS
 62
     7
 10
1676.924035573317
 20
2841.201956004505
 30
0.0
  0
VERTEX
  5
52F
  8
0
  6
CONTINUOUS
 62
     7
 10
1676.92641922686
 20
2841.24784640771
 30
0.0
  0
VERTEX
  5
530
  8
0
  6
CONTINUOUS
 62
     7
 10
1676.927303207334
 20
2841.293598082461
 30
0.0
  0
VERTEX
  5
531
  8
0
  6
CONTINUOUS
 62
     7
 10
1676.925937678206
 20
2841.33914166453
 30
0.0
  0
VERTEX
  5
532
  8
0
  6
CONTINUOUS
 62
     7
 10
1676.921625070886
 20
2841.384407683523
 30
0.0
  0
VERTEX
  5
533
  8
0
  6
CONTINUOUS
 62
     7
 10
1676.914245822776
 20
2841.429325495008
 30
0.0
  0
VERTEX
  5
534
  8
0
  6
CONTINUOUS
 62
     7
 10
1676.904039683996
 20
2841.473823724714
 30
0.0
  0
VERTEX
  5
535
  8
0
  6
CONTINUOUS
 62
     7
 10
1676.891251811038
 20
2841.517830987392
 30
0.0
  0
VERTEX
  5
536
  8
0
  6
CONTINUOUS
 62
     7
 10
1676.876127360397
 20
2841.561275897792
 30
0.0
  0
VERTEX
  5
537
  8
0
  6
CONTINUOUS
 62
     7
 10
1676.858911488567
 20
2841.604087070664
 30
0.0
  0
VERTEX
  5
538
  8
0
  6
CONTINUOUS
 62
     7
 10
1676.839849352041
 20
2841.64619312076
 30
0.0
  0
VERTEX
  5
539
  8
0
  6
CONTINUOUS
 62
     7
 10
1676.819186107315
 20
2841.687522662829
 30
0.0
  0
VERTEX
  5
53A
  8
0
  6
CONTINUOUS
 62
     7
 10
1676.797166910881
 20
2841.728004311621
 30
0.0
  0
VERTEX
  5
53B
  8
0
  6
CONTINUOUS
 62
     7
 10
1676.774026212247
 20
2841.767567230042
 30
0.0
  0
VERTEX
  5
53C
  8
0
  6
CONTINUOUS
 62
     7
 10
1676.74985980042
 20
2841.80614767987
 30
0.0
  0
VERTEX
  5
53D
  8
0
  6
CONTINUOUS
 62
     7
 10
1676.724666770891
 20
2841.843686873206
 30
0.0
  0
VERTEX
  5
53E
  8
0
  6
CONTINUOUS
 62
     7
 10
1676.698444248978
 20
2841.88012612302
 30
0.0
  0
VERTEX
  5
53F
  8
0
  6
CONTINUOUS
 62
     7
 10
1676.671189359996
 20
2841.91540674228
 30
0.0
  0
VERTEX
  5
540
  8
0
  6
CONTINUOUS
 62
     7
 10
1676.642899229264
 20
2841.949470043954
 30
0.0
  0
VERTEX
  5
541
  8
0
  6
CONTINUOUS
 62
     7
 10
1676.613570982096
 20
2841.98225734101
 30
0.0
  0
VERTEX
  5
542
  8
0
  6
CONTINUOUS
 62
     7
 10
1676.583202233326
 20
2842.013709972055
 30
0.0
  0
VERTEX
  5
543
  8
0
  6
CONTINUOUS
 62
     7
 10
1676.551853786854
 20
2842.043772584896
 30
0.0
  0
VERTEX
  5
544
  8
0
  6
CONTINUOUS
 62
     7
 10
1676.519711357722
 20
2842.072396368933
 30
0.0
  0
VERTEX
  5
545
  8
0
  6
CONTINUOUS
 62
     7
 10
1676.48697532269
 20
2842.099533281395
 30
0.0
  0
VERTEX
  5
546
  8
0
  6
CONTINUOUS
 62
     7
 10
1676.453846058519
 20
2842.125135279514
 30
0.0
  0
VERTEX
  5
547
  8
0
  6
CONTINUOUS
 62
     7
 10
1676.420523941973
 20
2842.14915432052
 30
0.0
  0
VERTEX
  5
548
  8
0
  6
CONTINUOUS
 62
     7
 10
1676.387209349812
 20
2842.171542361642
 30
0.0
  0
VERTEX
  5
549
  8
0
  6
CONTINUOUS
 62
     7
 10
1676.354102608815
 20
2842.192259773748
 30
0.0
  0
VERTEX
  5
54A
  8
0
  6
CONTINUOUS
 62
     7
 10
1676.321403680388
 20
2842.211328429164
 30
0.0
  0
VERTEX
  5
54B
  8
0
  6
CONTINUOUS
 62
     7
 10
1676.289312363749
 20
2842.228797501282
 30
0.0
  0
VERTEX
  5
54C
  8
0
  6
CONTINUOUS
 62
     7
 10
1676.258028457377
 20
2842.244716286709
 30
0.0
  0
VERTEX
  5
54D
  8
0
  6
CONTINUOUS
 62
     7
 10
1676.22775175976
 20
2842.25913408206
 30
0.0
  0
VERTEX
  5
54E
  8
0
  6
CONTINUOUS
 62
     7
 10
1676.1986819742
 20
2842.272100216395
 30
0.0
  0
VERTEX
  5
54F
  8
0
  6
CONTINUOUS
 62
     7
 10
1676.170961365415
 20
2842.283683602313
 30
0.0
  0
VERTEX
  5
550
  8
0
  6
CONTINUOUS
 62
     7
 10
1676.144577531976
 20
2842.294005885441
 30
0.0
  0
VERTEX
  5
551
  8
0
  6
CONTINUOUS
 62
     7
 10
1676.119492303271
 20
2842.303197497339
 30
0.0
  0
VERTEX
  5
552
  8
0
  6
CONTINUOUS
 62
     7
 10
1676.095667508692
 20
2842.311388869568
 30
0.0
  0
VERTEX
  5
553
  8
0
  6
CONTINUOUS
 62
     7
 10
1676.073064977631
 20
2842.318710433691
 30
0.0
  0
VERTEX
  5
554
  8
0
  6
CONTINUOUS
 62
     7
 10
1676.051645043709
 20
2842.325290862002
 30
0.0
  0
VERTEX
  5
555
  8
0
  6
CONTINUOUS
 62
     7
 10
1676.031339469066
 20
2842.331225222139
 30
0.0
  0
VERTEX
  5
556
  8
0
  6
CONTINUOUS
 62
     7
 10
1676.012054351353
 20
2842.336578396173
 30
0.0
  0
VERTEX
  5
557
  8
0
  6
CONTINUOUS
 62
     7
 10
1675.993694875955
 20
2842.341414193203
 30
0.0
  0
VERTEX
  5
558
  8
0
  6
CONTINUOUS
 62
     7
 10
1675.976166228256
 20
2842.345796422326
 30
0.0
  0
VERTEX
  5
559
  8
0
  6
CONTINUOUS
 62
     7
 10
1675.95937359364
 20
2842.349788892644
 30
0.0
  0
VERTEX
  5
55A
  8
0
  6
CONTINUOUS
 62
     7
 10
1675.943222157492
 20
2842.353455413252
 30
0.0
  0
VERTEX
  5
55B
  8
0
  6
CONTINUOUS
 62
     7
 10
1675.927617105195
 20
2842.356859793249
 30
0.0
  0
VERTEX
  5
55C
  8
0
  6
CONTINUOUS
 62
     7
 10
1675.912467148567
 20
2842.360062339411
 30
0.0
  0
VERTEX
  5
55D
  8
0
  6
CONTINUOUS
 62
     7
 10
1675.89771389022
 20
2842.363090692586
 30
0.0
  0
VERTEX
  5
55E
  8
0
  6
CONTINUOUS
 62
     7
 10
1675.883316847077
 20
2842.365954701791
 30
0.0
  0
VERTEX
  5
55F
  8
0
  6
CONTINUOUS
 62
     7
 10
1675.869235715969
 20
2842.368664037368
 30
0.0
  0
VERTEX
  5
560
  8
0
  6
CONTINUOUS
 62
     7
 10
1675.855430193722
 20
2842.371228369657
 30
0.0
  0
VERTEX
  5
561
  8
0
  6
CONTINUOUS
 62
     7
 10
1675.841859977168
 20
2842.373657368998
 30
0.0
  0
VERTEX
  5
562
  8
0
  6
CONTINUOUS
 62
     7
 10
1675.828484763134
 20
2842.375960705734
 30
0.0
  0
VERTEX
  5
563
  8
0
  6
CONTINUOUS
 62
     7
 10
1675.815264248449
 20
2842.378148050204
 30
0.0
  0
VERTEX
  5
564
  8
0
  6
CONTINUOUS
 62
     7
 10
1675.802158129943
 20
2842.380229072749
 30
0.0
  0
VERTEX
  5
565
  8
0
  6
CONTINUOUS
 62
     7
 10
1675.789126104444
 20
2842.382213443711
 30
0.0
  0
VERTEX
  5
566
  8
0
  6
CONTINUOUS
 62
     7
 10
1675.776127868781
 20
2842.38411083343
 30
0.0
  0
VERTEX
  5
567
  8
0
  6
CONTINUOUS
 62
     7
 10
1675.763123119782
 20
2842.385930912247
 30
0.0
  0
VERTEX
  5
568
  8
0
  6
CONTINUOUS
 62
     7
 10
1675.750071554279
 20
2842.387683350504
 30
0.0
  0
VERTEX
  5
569
  8
0
  6
CONTINUOUS
 62
     7
 10
1675.736932869098
 20
2842.38937781854
 30
0.0
  0
VERTEX
  5
56A
  8
0
  6
CONTINUOUS
 62
     7
 10
1675.723666761069
 20
2842.391023986697
 30
0.0
  0
VERTEX
  5
56B
  8
0
  6
CONTINUOUS
 62
     7
 10
1675.71023292702
 20
2842.392631525316
 30
0.0
  0
VERTEX
  5
56C
  8
0
  6
CONTINUOUS
 62
     7
 10
1675.696595157239
 20
2842.39420937963
 30
0.0
  0
VERTEX
  5
56D
  8
0
  6
CONTINUOUS
 62
     7
 10
1675.682747881
 20
2842.395761067546
 30
0.0
  0
VERTEX
  5
56E
  8
0
  6
CONTINUOUS
 62
     7
 10
1675.668699412488
 20
2842.397287647422
 30
0.0
  0
VERTEX
  5
56F
  8
0
  6
CONTINUOUS
 62
     7
 10
1675.65445813471
 20
2842.398790165428
 30
0.0
  0
VERTEX
  5
570
  8
0
  6
CONTINUOUS
 62
     7
 10
1675.640032430683
 20
2842.400269667731
 30
0.0
  0
VERTEX
  5
571
  8
0
  6
CONTINUOUS
 62
     7
 10
1675.625430683415
 20
2842.401727200501
 30
0.0
  0
VERTEX
  5
572
  8
0
  6
CONTINUOUS
 62
     7
 10
1675.610661275917
 20
2842.403163809904
 30
0.0
  0
VERTEX
  5
573
  8
0
  6
CONTINUOUS
 62
     7
 10
1675.595732591202
 20
2842.40458054211
 30
0.0
  0
VERTEX
  5
574
  8
0
  6
CONTINUOUS
 62
     7
 10
1675.580653012282
 20
2842.405978443288
 30
0.0
  0
VERTEX
  5
575
  8
0
  6
CONTINUOUS
 62
     7
 10
1675.565430922167
 20
2842.407358559605
 30
0.0
  0
VERTEX
  5
576
  8
0
  6
CONTINUOUS
 62
     7
 10
1675.550074703869
 20
2842.408721937228
 30
0.0
  0
VERTEX
  5
577
  8
0
  6
CONTINUOUS
 62
     7
 10
1675.5345927404
 20
2842.410069622329
 30
0.0
  0
VERTEX
  5
578
  8
0
  6
CONTINUOUS
 62
     7
 10
1675.51899341477
 20
2842.411402661072
 30
0.0
  0
VERTEX
  5
579
  8
0
  6
CONTINUOUS
 62
     7
 10
1675.503285109992
 20
2842.412722099628
 30
0.0
  0
VERTEX
  5
57A
  8
0
  6
CONTINUOUS
 62
     7
 10
1675.487476209076
 20
2842.414028984164
 30
0.0
  0
VERTEX
  5
57B
  8
0
  6
CONTINUOUS
 62
     7
 10
1675.471575095034
 20
2842.41532436085
 30
0.0
  0
VERTEX
  5
57C
  8
0
  6
CONTINUOUS
 62
     7
 10
1675.455590150878
 20
2842.416609275852
 30
0.0
  0
VERTEX
  5
57D
  8
0
  6
CONTINUOUS
 62
     7
 10
1675.439529759619
 20
2842.417884775341
 30
0.0
  0
VERTEX
  5
57E
  8
0
  6
CONTINUOUS
 62
     7
 10
1675.423402304269
 20
2842.419151905483
 30
0.0
  0
VERTEX
  5
57F
  8
0
  6
CONTINUOUS
 62
     7
 10
1675.407216167838
 20
2842.420411712446
 30
0.0
  0
VERTEX
  5
580
  8
0
  6
CONTINUOUS
 62
     7
 10
1675.390979733339
 20
2842.421665242401
 30
0.0
  0
VERTEX
  5
581
  8
0
  6
CONTINUOUS
 62
     7
 10
1675.374701383783
 20
2842.422913541513
 30
0.0
  0
VERTEX
  5
582
  8
0
  6
CONTINUOUS
 62
     7
 10
1675.358389502181
 20
2842.424157655953
 30
0.0
  0
VERTEX
  5
583
  8
0
  6
CONTINUOUS
 62
     7
 10
1675.342052471544
 20
2842.425398631887
 30
0.0
  0
VERTEX
  5
584
  8
0
  6
CONTINUOUS
 62
     7
 10
1675.325698674885
 20
2842.426637515486
 30
0.0
  0
VERTEX
  5
585
  8
0
  6
CONTINUOUS
 62
     7
 10
1675.309336495214
 20
2842.427875352916
 30
0.0
  0
SEQEND
  5
8A7
  8
0
  6
CONTINUOUS
 62
     7
  0
POLYLINE
  5
1C9
  8
0
  6
CONTINUOUS
 62
     7
 66
     1
 10
0.0
 20
0.0
 30
0.0
  0
VERTEX
  5
586
  8
0
  6
CONTINUOUS
 62
     7
 10
1658.591534257751
 20
2842.430569322061
 30
0.0
  0
VERTEX
  5
587
  8
0
  6
CONTINUOUS
 62
     7
 10
1658.568685873021
 20
2842.429266092579
 30
0.0
  0
VERTEX
  5
588
  8
0
  6
CONTINUOUS
 62
     7
 10
1658.546083807596
 20
2842.427962790268
 30
0.0
  0
VERTEX
  5
589
  8
0
  6
CONTINUOUS
 62
     7
 10
1658.523974364265
 20
2842.426659342131
 30
0.0
  0
VERTEX
  5
58A
  8
0
  6
CONTINUOUS
 62
     7
 10
1658.502546831158
 20
2842.425355100615
 30
0.0
  0
VERTEX
  5
58B
  8
0
  6
CONTINUOUS
 62
     7
 10
1658.481805899329
 20
2842.424047557913
 30
0.0
  0
VERTEX
  5
58C
  8
0
  6
CONTINUOUS
 62
     7
 10
1658.46171896787
 20
2842.422733830415
 30
0.0
  0
VERTEX
  5
58D
  8
0
  6
CONTINUOUS
 62
     7
 10
1658.442253435874
 20
2842.421411034511
 30
0.0
  0
VERTEX
  5
58E
  8
0
  6
CONTINUOUS
 62
     7
 10
1658.423376702437
 20
2842.420076286591
 30
0.0
  0
VERTEX
  5
58F
  8
0
  6
CONTINUOUS
 62
     7
 10
1658.40505616665
 20
2842.418726703043
 30
0.0
  0
VERTEX
  5
590
  8
0
  6
CONTINUOUS
 62
     7
 10
1658.387259227607
 20
2842.417359400258
 30
0.0
  0
VERTEX
  5
591
  8
0
  6
CONTINUOUS
 62
     7
 10
1658.369953284401
 20
2842.415971494624
 30
0.0
  0
VERTEX
  5
592
  8
0
  6
CONTINUOUS
 62
     7
 10
1658.353105736126
 20
2842.41456010253
 30
0.0
  0
VERTEX
  5
593
  8
0
  6
CONTINUOUS
 62
     7
 10
1658.336683981876
 20
2842.413122340367
 30
0.0
  0
VERTEX
  5
594
  8
0
  6
CONTINUOUS
 62
     7
 10
1658.320655420744
 20
2842.411655324524
 30
0.0
  0
VERTEX
  5
595
  8
0
  6
CONTINUOUS
 62
     7
 10
1658.304987451822
 20
2842.41015617139
 30
0.0
  0
VERTEX
  5
596
  8
0
  6
CONTINUOUS
 62
     7
 10
1658.289647474205
 20
2842.408621997354
 30
0.0
  0
VERTEX
  5
597
  8
0
  6
CONTINUOUS
 62
     7
 10
1658.274602886985
 20
2842.407049918807
 30
0.0
  0
VERTEX
  5
598
  8
0
  6
CONTINUOUS
 62
     7
 10
1658.259821089257
 20
2842.405437052138
 30
0.0
  0
VERTEX
  5
599
  8
0
  6
CONTINUOUS
 62
     7
 10
1658.245269480113
 20
2842.403780513735
 30
0.0
  0
VERTEX
  5
59A
  8
0
  6
CONTINUOUS
 62
     7
 10
1658.230915458647
 20
2842.402077419989
 30
0.0
  0
VERTEX
  5
59B
  8
0
  6
CONTINUOUS
 62
     7
 10
1658.216726423952
 20
2842.400324887289
 30
0.0
  0
VERTEX
  5
59C
  8
0
  6
CONTINUOUS
 62
     7
 10
1658.202669775123
 20
2842.398520032024
 30
0.0
  0
VERTEX
  5
59D
  8
0
  6
CONTINUOUS
 62
     7
 10
1658.188712911251
 20
2842.396659970584
 30
0.0
  0
VERTEX
  5
59E
  8
0
  6
CONTINUOUS
 62
     7
 10
1658.17482323143
 20
2842.394741819358
 30
0.0
  0
VERTEX
  5
59F
  8
0
  6
CONTINUOUS
 62
     7
 10
1658.160968134755
 20
2842.392762694737
 30
0.0
  0
VERTEX
  5
5A0
  8
0
  6
CONTINUOUS
 62
     7
 10
1658.147115020318
 20
2842.390719713107
 30
0.0
  0
VERTEX
  5
5A1
  8
0
  6
CONTINUOUS
 62
     7
 10
1658.133231287212
 20
2842.38860999086
 30
0.0
  0
VERTEX
  5
5A2
  8
0
  6
CONTINUOUS
 62
     7
 10
1658.119284334531
 20
2842.386430644386
 30
0.0
  0
VERTEX
  5
5A3
  8
0
  6
CONTINUOUS
 62
     7
 10
1658.105241561369
 20
2842.384178790073
 30
0.0
  0
VERTEX
  5
5A4
  8
0
  6
CONTINUOUS
 62
     7
 10
1658.091070366818
 20
2842.38185154431
 30
0.0
  0
VERTEX
  5
5A5
  8
0
  6
CONTINUOUS
 62
     7
 10
1658.076738149972
 20
2842.379446023489
 30
0.0
  0
VERTEX
  5
5A6
  8
0
  6
CONTINUOUS
 62
     7
 10
1658.062212309926
 20
2842.376959343997
 30
0.0
  0
VERTEX
  5
5A7
  8
0
  6
CONTINUOUS
 62
     7
 10
1658.04746024577
 20
2842.374388622224
 30
0.0
  0
VERTEX
  5
5A8
  8
0
  6
CONTINUOUS
 62
     7
 10
1658.0324493566
 20
2842.371730974559
 30
0.0
  0
VERTEX
  5
5A9
  8
0
  6
CONTINUOUS
 62
     7
 10
1658.017147041509
 20
2842.368983517393
 30
0.0
  0
VERTEX
  5
5AA
  8
0
  6
CONTINUOUS
 62
     7
 10
1658.00152069959
 20
2842.366143367114
 30
0.0
  0
VERTEX
  5
5AB
  8
0
  6
CONTINUOUS
 62
     7
 10
1657.985537285337
 20
2842.363207157365
 30
0.0
  0
VERTEX
  5
5AC
  8
0
  6
CONTINUOUS
 62
     7
 10
1657.969132067186
 20
2842.360137116922
 30
0.0
  0
VERTEX
  5
5AD
  8
0
  6
CONTINUOUS
 62
     7
 10
1657.952188079737
 20
2842.356838758838
 30
0.0
  0
VERTEX
  5
5AE
  8
0
  6
CONTINUOUS
 62
     7
 10
1657.934583478763
 20
2842.353212298707
 30
0.0
  0
VERTEX
  5
5AF
  8
0
  6
CONTINUOUS
 62
     7
 10
1657.91619642003
 20
2842.349157952119
 30
0.0
  0
VERTEX
  5
5B0
  8
0
  6
CONTINUOUS
 62
     7
 10
1657.896905059312
 20
2842.344575934672
 30
0.0
  0
VERTEX
  5
5B1
  8
0
  6
CONTINUOUS
 62
     7
 10
1657.876587552377
 20
2842.339366461956
 30
0.0
  0
VERTEX
  5
5B2
  8
0
  6
CONTINUOUS
 62
     7
 10
1657.855122054996
 20
2842.333429749567
 30
0.0
  0
VERTEX
  5
5B3
  8
0
  6
CONTINUOUS
 62
     7
 10
1657.83238672294
 20
2842.326666013098
 30
0.0
  0
VERTEX
  5
5B4
  8
0
  6
CONTINUOUS
 62
     7
 10
1657.808259711977
 20
2842.318975468143
 30
0.0
  0
VERTEX
  5
5B5
  8
0
  6
CONTINUOUS
 62
     7
 10
1657.78261917788
 20
2842.310258330295
 30
0.0
  0
VERTEX
  5
5B6
  8
0
  6
CONTINUOUS
 62
     7
 10
1657.755343276417
 20
2842.300414815148
 30
0.0
  0
VERTEX
  5
5B7
  8
0
  6
CONTINUOUS
 62
     7
 10
1657.726325347195
 20
2842.289342008183
 30
0.0
  0
VERTEX
  5
5B8
  8
0
  6
CONTINUOUS
 62
     7
 10
1657.695625019576
 20
2842.276902714626
 30
0.0
  0
VERTEX
  5
5B9
  8
0
  6
CONTINUOUS
 62
     7
 10
1657.663404544055
 20
2842.262938584591
 30
0.0
  0
VERTEX
  5
5BA
  8
0
  6
CONTINUOUS
 62
     7
 10
1657.629827683697
 20
2842.247290956379
 30
0.0
  0
VERTEX
  5
5BB
  8
0
  6
CONTINUOUS
 62
     7
 10
1657.595058201567
 20
2842.229801168291
 30
0.0
  0
VERTEX
  5
5BC
  8
0
  6
CONTINUOUS
 62
     7
 10
1657.559259860729
 20
2842.210310558627
 30
0.0
  0
VERTEX
  5
5BD
  8
0
  6
CONTINUOUS
 62
     7
 10
1657.522611514047
 20
2842.188681491821
 30
0.0
  0
VERTEX
  5
5BE
  8
0
  6
CONTINUOUS
 62
     7
 10
1657.485393357907
 20
2842.164917544382
 30
0.0
  0
VERTEX
  5
5BF
  8
0
  6
CONTINUOUS
 62
     7
 10
1657.44792731276
 20
2842.139080431148
 30
0.0
  0
VERTEX
  5
5C0
  8
0
  6
CONTINUOUS
 62
     7
 10
1657.41053542844
 20
2842.111232047234
 30
0.0
  0
VERTEX
  5
5C1
  8
0
  6
CONTINUOUS
 62
     7
 10
1657.373539754783
 20
2842.081434287762
 30
0.0
  0
VERTEX
  5
5C2
  8
0
  6
CONTINUOUS
 62
     7
 10
1657.337262341621
 20
2842.049749047845
 30
0.0
  0
VERTEX
  5
5C3
  8
0
  6
CONTINUOUS
 62
     7
 10
1657.302024612092
 20
2842.01623826094
 30
0.0
  0
VERTEX
  5
5C4
  8
0
  6
CONTINUOUS
 62
     7
 10
1657.268051447166
 20
2841.98096976617
 30
0.0
  0
VERTEX
  5
5C5
  8
0
  6
CONTINUOUS
 62
     7
 10
1657.235367905464
 20
2841.944023626176
 30
0.0
  0
VERTEX
  5
5C6
  8
0
  6
CONTINUOUS
 62
     7
 10
1657.20397426848
 20
2841.905481419262
 30
0.0
  0
VERTEX
  5
5C7
  8
0
  6
CONTINUOUS
 62
     7
 10
1657.173870817712
 20
2841.865424723733
 30
0.0
  0
VERTEX
  5
5C8
  8
0
  6
CONTINUOUS
 62
     7
 10
1657.145057834656
 20
2841.823935117894
 30
0.0
  0
VERTEX
  5
5C9
  8
0
  6
CONTINUOUS
 62
     7
 10
1657.117535600809
 20
2841.781094180047
 30
0.0
  0
VERTEX
  5
5CA
  8
0
  6
CONTINUOUS
 62
     7
 10
1657.091304397666
 20
2841.7369834885
 30
0.0
  0
VERTEX
  5
5CB
  8
0
  6
CONTINUOUS
 62
     7
 10
1657.066369285976
 20
2841.691685037067
 30
0.0
  0
VERTEX
  5
5CC
  8
0
  6
CONTINUOUS
 62
     7
 10
1657.042892529617
 20
2841.645294486895
 30
0.0
  0
VERTEX
  5
5CD
  8
0
  6
CONTINUOUS
 62
     7
 10
1657.021225451679
 20
2841.597923936052
 30
0.0
  0
VERTEX
  5
5CE
  8
0
  6
CONTINUOUS
 62
     7
 10
1657.001730593796
 20
2841.54968645795
 30
0.0
  0
VERTEX
  5
5CF
  8
0
  6
CONTINUOUS
 62
     7
 10
1656.984770497604
 20
2841.500695126005
 30
0.0
  0
VERTEX
  5
5D0
  8
0
  6
CONTINUOUS
 62
     7
 10
1656.970707704738
 20
2841.45106301363
 30
0.0
  0
VERTEX
  5
5D1
  8
0
  6
CONTINUOUS
 62
     7
 10
1656.959904756834
 20
2841.400903194237
 30
0.0
  0
VERTEX
  5
5D2
  8
0
  6
CONTINUOUS
 62
     7
 10
1656.952724195526
 20
2841.350328741242
 30
0.0
  0
VERTEX
  5
5D3
  8
0
  6
CONTINUOUS
 62
     7
 10
1656.949528562449
 20
2841.299452728056
 30
0.0
  0
VERTEX
  5
5D4
  8
0
  6
CONTINUOUS
 62
     7
 10
1656.950434130802
 20
2841.248381398243
 30
0.0
  0
VERTEX
  5
5D5
  8
0
  6
CONTINUOUS
 62
     7
 10
1656.954328726302
 20
2841.19718692638
 30
0.0
  0
VERTEX
  5
5D6
  8
0
  6
CONTINUOUS
 62
     7
 10
1656.959717896495
 20
2841.145930885187
 30
0.0
  0
SEQEND
  5
8A8
  8
0
  6
CONTINUOUS
 62
     7
  0
LINE
  5
1CA
  8
0
  6
CONTINUOUS
 62
     7
 10
1676.941286479931
 20
2840.405339645818
 30
0.0
 11
1676.941286479931
 21
2841.155530423133
 31
0.0
  0
LINE
  5
1CB
  8
0
  6
CONTINUOUS
 62
     7
 10
1656.941286479931
 20
2841.155530423133
 30
0.0
 11
1656.941286479931
 21
2840.405339645818
 31
0.0
  0
LINE
  5
1CC
  8
0
  6
CONTINUOUS
 62
     7
 10
1675.437660704443
 20
2842.420321226571
 30
0.0
 11
1673.911254766297
 21
2842.547698761062
 31
0.0
  0
LINE
  5
1CD
  8
0
  6
CONTINUOUS
 62
     7
 10
1659.971318193564
 20
2842.547698761062
 30
0.0
 11
1658.444912255418
 21
2842.420321226571
 31
0.0
  0
POLYLINE
  5
1CE
  8
0
  6
CONTINUOUS
 62
     7
 66
     1
 10
0.0
 20
0.0
 30
0.0
  0
VERTEX
  5
5D7
  8
0
  6
CONTINUOUS
 62
     7
 10
1673.821288838296
 20
2842.552800533862
 30
0.0
  0
VERTEX
  5
5D8
  8
0
  6
CONTINUOUS
 62
     7
 10
1673.724187150739
 20
2842.56051836066
 30
0.0
  0
VERTEX
  5
5D9
  8
0
  6
CONTINUOUS
 62
     7
 10
1673.627276619236
 20
2842.568171283382
 30
0.0
  0
VERTEX
  5
5DA
  8
0
  6
CONTINUOUS
 62
     7
 10
1673.530748399839
 20
2842.57569439795
 30
0.0
  0
VERTEX
  5
5DB
  8
0
  6
CONTINUOUS
 62
     7
 10
1673.434793648603
 20
2842.583022800289
 30
0.0
  0
VERTEX
  5
5DC
  8
0
  6
CONTINUOUS
 62
     7
 10
1673.339603521581
 20
2842.590091586322
 30
0.0
  0
VERTEX
  5
5DD
  8
0
  6
CONTINUOUS
 62
     7
 10
1673.245369174825
 20
2842.596835851972
 30
0.0
  0
VERTEX
  5
5DE
  8
0
  6
CONTINUOUS
 62
     7
 10
1673.152276728937
 20
2842.603192325399
 30
0.0
  0
VERTEX
  5
5DF
  8
0
  6
CONTINUOUS
 62
     7
 10
1673.06037579028
 20
2842.609141985653
 30
0.0
  0
VERTEX
  5
5E0
  8
0
  6
CONTINUOUS
 62
     7
 10
1672.969566853679
 20
2842.614714146077
 30
0.0
  0
VERTEX
  5
5E1
  8
0
  6
CONTINUOUS
 62
     7
 10
1672.879742852892
 20
2842.619940570923
 30
0.0
  0
VERTEX
  5
5E2
  8
0
  6
CONTINUOUS
 62
     7
 10
1672.790796721677
 20
2842.624853024441
 30
0.0
  0
VERTEX
  5
5E3
  8
0
  6
CONTINUOUS
 62
     7
 10
1672.702621393792
 20
2842.629483270885
 30
0.0
  0
VERTEX
  5
5E4
  8
0
  6
CONTINUOUS
 62
     7
 10
1672.615109802994
 20
2842.633863074505
 30
0.0
  0
VERTEX
  5
5E5
  8
0
  6
CONTINUOUS
 62
     7
 10
1672.52815488304
 20
2842.638024199554
 30
0.0
  0
VERTEX
  5
5E6
  8
0
  6
CONTINUOUS
 62
     7
 10
1672.441649567689
 20
2842.641998410282
 30
0.0
  0
VERTEX
  5
5E7
  8
0
  6
CONTINUOUS
 62
     7
 10
1672.355486790698
 20
2842.645817470942
 30
0.0
  0
VERTEX
  5
5E8
  8
0
  6
CONTINUOUS
 62
     7
 10
1672.269560734115
 20
2842.649512445459
 30
0.0
  0
VERTEX
  5
5E9
  8
0
  6
CONTINUOUS
 62
     7
 10
1672.183791489098
 20
2842.653099862045
 30
0.0
  0
VERTEX
  5
5EA
  8
0
  6
CONTINUOUS
 62
     7
 10
1672.0981235889
 20
2842.656582536228
 30
0.0
  0
VERTEX
  5
5EB
  8
0
  6
CONTINUOUS
 62
     7
 10
1672.012502521352
 20
2842.659962747991
 30
0.0
  0
VERTEX
  5
5EC
  8
0
  6
CONTINUOUS
 62
     7
 10
1671.926873774285
 20
2842.663242777321
 30
0.0
  0
VERTEX
  5
5ED
  8
0
  6
CONTINUOUS
 62
     7
 10
1671.841182835529
 20
2842.666424904201
 30
0.0
  0
VERTEX
  5
5EE
  8
0
  6
CONTINUOUS
 62
     7
 10
1671.755375192915
 20
2842.669511408615
 30
0.0
  0
VERTEX
  5
5EF
  8
0
  6
CONTINUOUS
 62
     7
 10
1671.669396334274
 20
2842.672504570548
 30
0.0
  0
VERTEX
  5
5F0
  8
0
  6
CONTINUOUS
 62
     7
 10
1671.583191747436
 20
2842.675406669985
 30
0.0
  0
VERTEX
  5
5F1
  8
0
  6
CONTINUOUS
 62
     7
 10
1671.496706920232
 20
2842.678219986909
 30
0.0
  0
VERTEX
  5
5F2
  8
0
  6
CONTINUOUS
 62
     7
 10
1671.409887340494
 20
2842.680946801308
 30
0.0
  0
VERTEX
  5
5F3
  8
0
  6
CONTINUOUS
 62
     7
 10
1671.322678496051
 20
2842.683589393162
 30
0.0
  0
VERTEX
  5
5F4
  8
0
  6
CONTINUOUS
 62
     7
 10
1671.235025874733
 20
2842.68615004246
 30
0.0
  0
VERTEX
  5
5F5
  8
0
  6
CONTINUOUS
 62
     7
 10
1671.146875116
 20
2842.68863102746
 30
0.0
  0
VERTEX
  5
5F6
  8
0
  6
CONTINUOUS
 62
     7
 10
1671.058186418824
 20
2842.691034461062
 30
0.0
  0
VERTEX
  5
5F7
  8
0
  6
CONTINUOUS
 62
     7
 10
1670.968946421254
 20
2842.693362155869
 30
0.0
  0
VERTEX
  5
5F8
  8
0
  6
CONTINUOUS
 62
     7
 10
1670.87914455735
 20
2842.69561589273
 30
0.0
  0
VERTEX
  5
5F9
  8
0
  6
CONTINUOUS
 62
     7
 10
1670.788770261172
 20
2842.697797452492
 30
0.0
  0
VERTEX
  5
5FA
  8
0
  6
CONTINUOUS
 62
     7
 10
1670.697812966778
 20
2842.699908616003
 30
0.0
  0
VERTEX
  5
5FB
  8
0
  6
CONTINUOUS
 62
     7
 10
1670.606262108227
 20
2842.701951164111
 30
0.0
  0
VERTEX
  5
5FC
  8
0
  6
CONTINUOUS
 62
     7
 10
1670.51410711958
 20
2842.703926877664
 30
0.0
  0
VERTEX
  5
5FD
  8
0
  6
CONTINUOUS
 62
     7
 10
1670.421337434896
 20
2842.70583753751
 30
0.0
  0
VERTEX
  5
5FE
  8
0
  6
CONTINUOUS
 62
     7
 10
1670.327942488233
 20
2842.707684924496
 30
0.0
  0
VERTEX
  5
5FF
  8
0
  6
CONTINUOUS
 62
     7
 10
1670.233911713651
 20
2842.709470819471
 30
0.0
  0
VERTEX
  5
600
  8
0
  6
CONTINUOUS
 62
     7
 10
1670.13923454521
 20
2842.711197003282
 30
0.0
  0
VERTEX
  5
601
  8
0
  6
CONTINUOUS
 62
     7
 10
1670.043900416969
 20
2842.712865256777
 30
0.0
  0
VERTEX
  5
602
  8
0
  6
CONTINUOUS
 62
     7
 10
1669.947898762987
 20
2842.714477360802
 30
0.0
  0
VERTEX
  5
603
  8
0
  6
CONTINUOUS
 62
     7
 10
1669.851219127034
 20
2842.716035089026
 30
0.0
  0
VERTEX
  5
604
  8
0
  6
CONTINUOUS
 62
     7
 10
1669.753860606353
 20
2842.717539589582
 30
0.0
  0
VERTEX
  5
605
  8
0
  6
CONTINUOUS
 62
     7
 10
1669.655839127025
 20
2842.718990908715
 30
0.0
  0
VERTEX
  5
606
  8
0
  6
CONTINUOUS
 62
     7
 10
1669.557172327804
 20
2842.72038898053
 30
0.0
  0
VERTEX
  5
607
  8
0
  6
CONTINUOUS
 62
     7
 10
1669.457877847446
 20
2842.721733739131
 30
0.0
  0
VERTEX
  5
608
  8
0
  6
CONTINUOUS
 62
     7
 10
1669.3579733247
 20
2842.723025118623
 30
0.0
  0
VERTEX
  5
609
  8
0
  6
CONTINUOUS
 62
     7
 10
1669.257476398321
 20
2842.724263053109
 30
0.0
  0
VERTEX
  5
60A
  8
0
  6
CONTINUOUS
 62
     7
 10
1669.156404707063
 20
2842.725447476695
 30
0.0
  0
VERTEX
  5
60B
  8
0
  6
CONTINUOUS
 62
     7
 10
1669.054775889677
 20
2842.726578323485
 30
0.0
  0
VERTEX
  5
60C
  8
0
  6
CONTINUOUS
 62
     7
 10
1668.952607584917
 20
2842.727655527583
 30
0.0
  0
VERTEX
  5
60D
  8
0
  6
CONTINUOUS
 62
     7
 10
1668.849917431536
 20
2842.728679023094
 30
0.0
  0
VERTEX
  5
60E
  8
0
  6
CONTINUOUS
 62
     7
 10
1668.746723068287
 20
2842.729648744122
 30
0.0
  0
VERTEX
  5
60F
  8
0
  6
CONTINUOUS
 62
     7
 10
1668.643042133923
 20
2842.730564624771
 30
0.0
  0
VERTEX
  5
610
  8
0
  6
CONTINUOUS
 62
     7
 10
1668.538892320325
 20
2842.731426597507
 30
0.0
  0
VERTEX
  5
611
  8
0
  6
CONTINUOUS
 62
     7
 10
1668.434296340348
 20
2842.732234439763
 30
0.0
  0
VERTEX
  5
612
  8
0
  6
CONTINUOUS
 62
     7
 10
1668.329285980363
 20
2842.732987648821
 30
0.0
  0
VERTEX
  5
613
  8
0
  6
CONTINUOUS
 62
     7
 10
1668.223893980455
 20
2842.733685692512
 30
0.0
  0
VERTEX
  5
614
  8
0
  6
CONTINUOUS
 62
     7
 10
1668.118153080711
 20
2842.734328038669
 30
0.0
  0
VERTEX
  5
615
  8
0
  6
CONTINUOUS
 62
     7
 10
1668.012096021216
 20
2842.734914155124
 30
0.0
  0
VERTEX
  5
616
  8
0
  6
CONTINUOUS
 62
     7
 10
1667.905755542056
 20
2842.735443509711
 30
0.0
  0
VERTEX
  5
617
  8
0
  6
CONTINUOUS
 62
     7
 10
1667.799164383317
 20
2842.735915570262
 30
0.0
  0
VERTEX
  5
618
  8
0
  6
CONTINUOUS
 62
     7
 10
1667.692355285086
 20
2842.736329804608
 30
0.0
  0
VERTEX
  5
619
  8
0
  6
CONTINUOUS
 62
     7
 10
1667.585360987447
 20
2842.736685680584
 30
0.0
  0
VERTEX
  5
61A
  8
0
  6
CONTINUOUS
 62
     7
 10
1667.478214230487
 20
2842.736982666022
 30
0.0
  0
VERTEX
  5
61B
  8
0
  6
CONTINUOUS
 62
     7
 10
1667.370947754291
 20
2842.737220228753
 30
0.0
  0
VERTEX
  5
61C
  8
0
  6
CONTINUOUS
 62
     7
 10
1667.263594298946
 20
2842.737397836611
 30
0.0
  0
VERTEX
  5
61D
  8
0
  6
CONTINUOUS
 62
     7
 10
1667.156185715043
 20
2842.737516213032
 30
0.0
  0
VERTEX
  5
61E
  8
0
  6
CONTINUOUS
 62
     7
 10
1667.048744287719
 20
2842.737589583981
 30
0.0
  0
VERTEX
  5
61F
  8
0
  6
CONTINUOUS
 62
     7
 10
1666.94128647993
 20
2842.737640393971
 30
0.0
  0
SEQEND
  5
8A9
  8
0
  6
CONTINUOUS
 62
     7
  0
POLYLINE
  5
1CF
  8
0
  6
CONTINUOUS
 62
     7
 66
     1
 10
0.0
 20
0.0
 30
0.0
  0
VERTEX
  5
620
  8
0
  6
CONTINUOUS
 62
     7
 10
1666.94128647993
 20
2842.737640393971
 30
0.0
  0
VERTEX
  5
621
  8
0
  6
CONTINUOUS
 62
     7
 10
1666.822140198654
 20
2842.737511935832
 30
0.0
  0
VERTEX
  5
622
  8
0
  6
CONTINUOUS
 62
     7
 10
1666.703030690499
 20
2842.737370325583
 30
0.0
  0
VERTEX
  5
623
  8
0
  6
CONTINUOUS
 62
     7
 10
1666.583994728591
 20
2842.737202411113
 30
0.0
  0
VERTEX
  5
624
  8
0
  6
CONTINUOUS
 62
     7
 10
1666.465069086049
 20
2842.736995040314
 30
0.0
  0
VERTEX
  5
625
  8
0
  6
CONTINUOUS
 62
     7
 10
1666.346290535998
 20
2842.736735061075
 30
0.0
  0
VERTEX
  5
626
  8
0
  6
CONTINUOUS
 62
     7
 10
1666.22769585156
 20
2842.736409321287
 30
0.0
  0
VERTEX
  5
627
  8
0
  6
CONTINUOUS
 62
     7
 10
1666.109322032145
 20
2842.736005854524
 30
0.0
  0
VERTEX
  5
628
  8
0
  6
CONTINUOUS
 62
     7
 10
1665.991207858152
 20
2842.735522026214
 30
0.0
  0
VERTEX
  5
629
  8
0
  6
CONTINUOUS
 62
     7
 10
1665.873392952779
 20
2842.734959617811
 30
0.0
  0
VERTEX
  5
62A
  8
0
  6
CONTINUOUS
 62
     7
 10
1665.755916944253
 20
2842.734320437126
 30
0.0
  0
VERTEX
  5
62B
  8
0
  6
CONTINUOUS
 62
     7
 10
1665.638819460802
 20
2842.733606291964
 30
0.0
  0
VERTEX
  5
62C
  8
0
  6
CONTINUOUS
 62
     7
 10
1665.522140130654
 20
2842.732818990137
 30
0.0
  0
VERTEX
  5
62D
  8
0
  6
CONTINUOUS
 62
     7
 10
1665.405918582036
 20
2842.731960339451
 30
0.0
  0
VERTEX
  5
62E
  8
0
  6
CONTINUOUS
 62
     7
 10
1665.290194443176
 20
2842.731032147716
 30
0.0
  0
VERTEX
  5
62F
  8
0
  6
CONTINUOUS
 62
     7
 10
1665.175007342302
 20
2842.730036222738
 30
0.0
  0
VERTEX
  5
630
  8
0
  6
CONTINUOUS
 62
     7
 10
1665.060396907641
 20
2842.728974372329
 30
0.0
  0
VERTEX
  5
631
  8
0
  6
CONTINUOUS
 62
     7
 10
1664.946402767422
 20
2842.727848404295
 30
0.0
  0
VERTEX
  5
632
  8
0
  6
CONTINUOUS
 62
     7
 10
1664.833064549871
 20
2842.726660126446
 30
0.0
  0
VERTEX
  5
633
  8
0
  6
CONTINUOUS
 62
     7
 10
1664.720419551067
 20
2842.725411041749
 30
0.0
  0
VERTEX
  5
634
  8
0
  6
CONTINUOUS
 62
     7
 10
1664.608487119371
 20
2842.724100307191
 30
0.0
  0
VERTEX
  5
635
  8
0
  6
CONTINUOUS
 62
     7
 10
1664.497278271758
 20
2842.72272599075
 30
0.0
  0
VERTEX
  5
636
  8
0
  6
CONTINUOUS
 62
     7
 10
1664.386803979343
 20
2842.721286154405
 30
0.0
  0
VERTEX
  5
637
  8
0
  6
CONTINUOUS
 62
     7
 10
1664.277075213238
 20
2842.719778860137
 30
0.0
  0
VERTEX
  5
638
  8
0
  6
CONTINUOUS
 62
     7
 10
1664.168102944558
 20
2842.718202169927
 30
0.0
  0
VERTEX
  5
639
  8
0
  6
CONTINUOUS
 62
     7
 10
1664.059898144416
 20
2842.716554145756
 30
0.0
  0
VERTEX
  5
63A
  8
0
  6
CONTINUOUS
 62
     7
 10
1663.952471783926
 20
2842.714832849605
 30
0.0
  0
VERTEX
  5
63B
  8
0
  6
CONTINUOUS
 62
     7
 10
1663.845834834202
 20
2842.713036343453
 30
0.0
  0
VERTEX
  5
63C
  8
0
  6
CONTINUOUS
 62
     7
 10
1663.739998266357
 20
2842.711162689284
 30
0.0
  0
VERTEX
  5
63D
  8
0
  6
CONTINUOUS
 62
     7
 10
1663.634973051505
 20
2842.709209949076
 30
0.0
  0
VERTEX
  5
63E
  8
0
  6
CONTINUOUS
 62
     7
 10
1663.53077016076
 20
2842.707176184811
 30
0.0
  0
VERTEX
  5
63F
  8
0
  6
CONTINUOUS
 62
     7
 10
1663.427399964688
 20
2842.705059503771
 30
0.0
  0
VERTEX
  5
640
  8
0
  6
CONTINUOUS
 62
     7
 10
1663.32485406129
 20
2842.702859429292
 30
0.0
  0
VERTEX
  5
641
  8
0
  6
CONTINUOUS
 62
     7
 10
1663.223102020665
 20
2842.700577146326
 30
0.0
  0
VERTEX
  5
642
  8
0
  6
CONTINUOUS
 62
     7
 10
1663.122112156077
 20
2842.698213934628
 30
0.0
  0
VERTEX
  5
643
  8
0
  6
CONTINUOUS
 62
     7
 10
1663.02185278079
 20
2842.695771073957
 30
0.0
  0
VERTEX
  5
644
  8
0
  6
CONTINUOUS
 62
     7
 10
1662.922292208067
 20
2842.693249844066
 30
0.0
  0
VERTEX
  5
645
  8
0
  6
CONTINUOUS
 62
     7
 10
1662.82339875117
 20
2842.690651524714
 30
0.0
  0
VERTEX
  5
646
  8
0
  6
CONTINUOUS
 62
     7
 10
1662.725140723363
 20
2842.687977395657
 30
0.0
  0
VERTEX
  5
647
  8
0
  6
CONTINUOUS
 62
     7
 10
1662.62748643791
 20
2842.685228736651
 30
0.0
  0
VERTEX
  5
648
  8
0
  6
CONTINUOUS
 62
     7
 10
1662.530404208073
 20
2842.682406827453
 30
0.0
  0
VERTEX
  5
649
  8
0
  6
CONTINUOUS
 62
     7
 10
1662.433862347117
 20
2842.679512947819
 30
0.0
  0
VERTEX
  5
64A
  8
0
  6
CONTINUOUS
 62
     7
 10
1662.337829168303
 20
2842.676548377506
 30
0.0
  0
VERTEX
  5
64B
  8
0
  6
CONTINUOUS
 62
     7
 10
1662.242272984896
 20
2842.67351439627
 30
0.0
  0
VERTEX
  5
64C
  8
0
  6
CONTINUOUS
 62
     7
 10
1662.147162110158
 20
2842.670412283868
 30
0.0
  0
VERTEX
  5
64D
  8
0
  6
CONTINUOUS
 62
     7
 10
1662.052450300529
 20
2842.667239247018
 30
0.0
  0
VERTEX
  5
64E
  8
0
  6
CONTINUOUS
 62
     7
 10
1661.958012320474
 20
2842.663970390268
 30
0.0
  0
VERTEX
  5
64F
  8
0
  6
CONTINUOUS
 62
     7
 10
1661.863696266764
 20
2842.66057335648
 30
0.0
  0
VERTEX
  5
650
  8
0
  6
CONTINUOUS
 62
     7
 10
1661.769350215479
 20
2842.657015782719
 30
0.0
  0
VERTEX
  5
651
  8
0
  6
CONTINUOUS
 62
     7
 10
1661.674822242702
 20
2842.653265306054
 30
0.0
  0
VERTEX
  5
652
  8
0
  6
CONTINUOUS
 62
     7
 10
1661.579960424512
 20
2842.649289563555
 30
0.0
  0
VERTEX
  5
653
  8
0
  6
CONTINUOUS
 62
     7
 10
1661.484612836993
 20
2842.64505619229
 30
0.0
  0
VERTEX
  5
654
  8
0
  6
CONTINUOUS
 62
     7
 10
1661.388627556224
 20
2842.640532829327
 30
0.0
  0
VERTEX
  5
655
  8
0
  6
CONTINUOUS
 62
     7
 10
1661.291852658288
 20
2842.635687111735
 30
0.0
  0
VERTEX
  5
656
  8
0
  6
CONTINUOUS
 62
     7
 10
1661.194136219265
 20
2842.630486676584
 30
0.0
  0
VERTEX
  5
657
  8
0
  6
CONTINUOUS
 62
     7
 10
1661.095326315237
 20
2842.62489916094
 30
0.0
  0
VERTEX
  5
658
  8
0
  6
CONTINUOUS
 62
     7
 10
1660.995271022286
 20
2842.618892201873
 30
0.0
  0
VERTEX
  5
659
  8
0
  6
CONTINUOUS
 62
     7
 10
1660.893853844183
 20
2842.612443073519
 30
0.0
  0
VERTEX
  5
65A
  8
0
  6
CONTINUOUS
 62
     7
 10
1660.791173917657
 20
2842.605587706658
 30
0.0
  0
VERTEX
  5
65B
  8
0
  6
CONTINUOUS
 62
     7
 10
1660.687411509476
 20
2842.598384101124
 30
0.0
  0
VERTEX
  5
65C
  8
0
  6
CONTINUOUS
 62
     7
 10
1660.582747033249
 20
2842.590890296697
 30
0.0
  0
VERTEX
  5
65D
  8
0
  6
CONTINUOUS
 62
     7
 10
1660.477360902586
 20
2842.583164333153
 30
0.0
  0
VERTEX
  5
65E
  8
0
  6
CONTINUOUS
 62
     7
 10
1660.371433531094
 20
2842.575264250274
 30
0.0
  0
VERTEX
  5
65F
  8
0
  6
CONTINUOUS
 62
     7
 10
1660.265145332384
 20
2842.567248087837
 30
0.0
  0
VERTEX
  5
660
  8
0
  6
CONTINUOUS
 62
     7
 10
1660.158676720065
 20
2842.559173885621
 30
0.0
  0
SEQEND
  5
8AA
  8
0
  6
CONTINUOUS
 62
     7
  0
LINE
  5
1D0
  8
0
  6
CONTINUOUS
 62
     7
 10
1671.441286479931
 20
2837.445128225326
 30
0.0
 11
1671.441286479931
 21
2839.705579518335
 31
0.0
  0
LINE
  5
1D1
  8
0
  6
CONTINUOUS
 62
     7
 10
1662.441286479931
 20
2839.705579518336
 30
0.0
 11
1662.441286479931
 21
2837.445128225326
 31
0.0
  0
POLYLINE
  5
1D2
  8
0
  6
CONTINUOUS
 62
     7
 66
     1
 10
0.0
 20
0.0
 30
0.0
  0
VERTEX
  5
661
  8
0
  6
CONTINUOUS
 62
     7
 10
3403.42090208324
 20
2841.155996237073
 30
0.0
  0
VERTEX
  5
662
  8
0
  6
CONTINUOUS
 62
     7
 10
3403.424035573317
 20
2841.201956004505
 30
0.0
  0
VERTEX
  5
663
  8
0
  6
CONTINUOUS
 62
     7
 10
3403.426419226859
 20
2841.24784640771
 30
0.0
  0
VERTEX
  5
664
  8
0
  6
CONTINUOUS
 62
     7
 10
3403.427303207334
 20
2841.293598082461
 30
0.0
  0
VERTEX
  5
665
  8
0
  6
CONTINUOUS
 62
     7
 10
3403.425937678205
 20
2841.33914166453
 30
0.0
  0
VERTEX
  5
666
  8
0
  6
CONTINUOUS
 62
     7
 10
3403.421625070886
 20
2841.384407683524
 30
0.0
  0
VERTEX
  5
667
  8
0
  6
CONTINUOUS
 62
     7
 10
3403.414245822776
 20
2841.429325495008
 30
0.0
  0
VERTEX
  5
668
  8
0
  6
CONTINUOUS
 62
     7
 10
3403.404039683995
 20
2841.473823724714
 30
0.0
  0
VERTEX
  5
669
  8
0
  6
CONTINUOUS
 62
     7
 10
3403.391251811038
 20
2841.517830987392
 30
0.0
  0
VERTEX
  5
66A
  8
0
  6
CONTINUOUS
 62
     7
 10
3403.376127360397
 20
2841.561275897791
 30
0.0
  0
VERTEX
  5
66B
  8
0
  6
CONTINUOUS
 62
     7
 10
3403.358911488568
 20
2841.604087070665
 30
0.0
  0
VERTEX
  5
66C
  8
0
  6
CONTINUOUS
 62
     7
 10
3403.339849352042
 20
2841.64619312076
 30
0.0
  0
VERTEX
  5
66D
  8
0
  6
CONTINUOUS
 62
     7
 10
3403.319186107315
 20
2841.687522662829
 30
0.0
  0
VERTEX
  5
66E
  8
0
  6
CONTINUOUS
 62
     7
 10
3403.297166910881
 20
2841.728004311621
 30
0.0
  0
VERTEX
  5
66F
  8
0
  6
CONTINUOUS
 62
     7
 10
3403.274026212247
 20
2841.767567230042
 30
0.0
  0
VERTEX
  5
670
  8
0
  6
CONTINUOUS
 62
     7
 10
3403.249859800419
 20
2841.806147679869
 30
0.0
  0
VERTEX
  5
671
  8
0
  6
CONTINUOUS
 62
     7
 10
3403.224666770891
 20
2841.843686873206
 30
0.0
  0
VERTEX
  5
672
  8
0
  6
CONTINUOUS
 62
     7
 10
3403.198444248977
 20
2841.88012612302
 30
0.0
  0
VERTEX
  5
673
  8
0
  6
CONTINUOUS
 62
     7
 10
3403.171189359997
 20
2841.91540674228
 30
0.0
  0
VERTEX
  5
674
  8
0
  6
CONTINUOUS
 62
     7
 10
3403.142899229263
 20
2841.949470043954
 30
0.0
  0
VERTEX
  5
675
  8
0
  6
CONTINUOUS
 62
     7
 10
3403.113570982096
 20
2841.98225734101
 30
0.0
  0
VERTEX
  5
676
  8
0
  6
CONTINUOUS
 62
     7
 10
3403.083202233325
 20
2842.013709972054
 30
0.0
  0
VERTEX
  5
677
  8
0
  6
CONTINUOUS
 62
     7
 10
3403.051853786855
 20
2842.043772584896
 30
0.0
  0
VERTEX
  5
678
  8
0
  6
CONTINUOUS
 62
     7
 10
3403.019711357722
 20
2842.072396368933
 30
0.0
  0
VERTEX
  5
679
  8
0
  6
CONTINUOUS
 62
     7
 10
3402.98697532269
 20
2842.099533281396
 30
0.0
  0
VERTEX
  5
67A
  8
0
  6
CONTINUOUS
 62
     7
 10
3402.953846058519
 20
2842.125135279514
 30
0.0
  0
VERTEX
  5
67B
  8
0
  6
CONTINUOUS
 62
     7
 10
3402.920523941973
 20
2842.14915432052
 30
0.0
  0
VERTEX
  5
67C
  8
0
  6
CONTINUOUS
 62
     7
 10
3402.887209349812
 20
2842.171542361642
 30
0.0
  0
VERTEX
  5
67D
  8
0
  6
CONTINUOUS
 62
     7
 10
3402.854102608815
 20
2842.192259773748
 30
0.0
  0
VERTEX
  5
67E
  8
0
  6
CONTINUOUS
 62
     7
 10
3402.821403680389
 20
2842.211328429164
 30
0.0
  0
VERTEX
  5
67F
  8
0
  6
CONTINUOUS
 62
     7
 10
3402.789312363748
 20
2842.228797501282
 30
0.0
  0
VERTEX
  5
680
  8
0
  6
CONTINUOUS
 62
     7
 10
3402.758028457376
 20
2842.24471628671
 30
0.0
  0
VERTEX
  5
681
  8
0
  6
CONTINUOUS
 62
     7
 10
3402.727751759759
 20
2842.259134082061
 30
0.0
  0
VERTEX
  5
682
  8
0
  6
CONTINUOUS
 62
     7
 10
3402.6986819742
 20
2842.272100216395
 30
0.0
  0
VERTEX
  5
683
  8
0
  6
CONTINUOUS
 62
     7
 10
3402.670961365415
 20
2842.283683602313
 30
0.0
  0
VERTEX
  5
684
  8
0
  6
CONTINUOUS
 62
     7
 10
3402.644577531975
 20
2842.294005885441
 30
0.0
  0
VERTEX
  5
685
  8
0
  6
CONTINUOUS
 62
     7
 10
3402.61949230327
 20
2842.303197497339
 30
0.0
  0
VERTEX
  5
686
  8
0
  6
CONTINUOUS
 62
     7
 10
3402.595667508692
 20
2842.311388869568
 30
0.0
  0
VERTEX
  5
687
  8
0
  6
CONTINUOUS
 62
     7
 10
3402.573064977631
 20
2842.318710433691
 30
0.0
  0
VERTEX
  5
688
  8
0
  6
CONTINUOUS
 62
     7
 10
3402.551645043709
 20
2842.325290862002
 30
0.0
  0
VERTEX
  5
689
  8
0
  6
CONTINUOUS
 62
     7
 10
3402.531339469066
 20
2842.331225222139
 30
0.0
  0
VERTEX
  5
68A
  8
0
  6
CONTINUOUS
 62
     7
 10
3402.512054351354
 20
2842.336578396173
 30
0.0
  0
VERTEX
  5
68B
  8
0
  6
CONTINUOUS
 62
     7
 10
3402.493694875955
 20
2842.341414193203
 30
0.0
  0
VERTEX
  5
68C
  8
0
  6
CONTINUOUS
 62
     7
 10
3402.476166228256
 20
2842.345796422327
 30
0.0
  0
VERTEX
  5
68D
  8
0
  6
CONTINUOUS
 62
     7
 10
3402.45937359364
 20
2842.349788892644
 30
0.0
  0
VERTEX
  5
68E
  8
0
  6
CONTINUOUS
 62
     7
 10
3402.443222157493
 20
2842.353455413251
 30
0.0
  0
VERTEX
  5
68F
  8
0
  6
CONTINUOUS
 62
     7
 10
3402.427617105195
 20
2842.356859793248
 30
0.0
  0
VERTEX
  5
690
  8
0
  6
CONTINUOUS
 62
     7
 10
3402.412467148567
 20
2842.36006233941
 30
0.0
  0
VERTEX
  5
691
  8
0
  6
CONTINUOUS
 62
     7
 10
3402.397713890219
 20
2842.363090692586
 30
0.0
  0
VERTEX
  5
692
  8
0
  6
CONTINUOUS
 62
     7
 10
3402.383316847077
 20
2842.365954701791
 30
0.0
  0
VERTEX
  5
693
  8
0
  6
CONTINUOUS
 62
     7
 10
3402.369235715969
 20
2842.368664037368
 30
0.0
  0
VERTEX
  5
694
  8
0
  6
CONTINUOUS
 62
     7
 10
3402.355430193722
 20
2842.371228369657
 30
0.0
  0
VERTEX
  5
695
  8
0
  6
CONTINUOUS
 62
     7
 10
3402.341859977169
 20
2842.373657368999
 30
0.0
  0
VERTEX
  5
696
  8
0
  6
CONTINUOUS
 62
     7
 10
3402.328484763133
 20
2842.375960705734
 30
0.0
  0
VERTEX
  5
697
  8
0
  6
CONTINUOUS
 62
     7
 10
3402.31526424845
 20
2842.378148050203
 30
0.0
  0
VERTEX
  5
698
  8
0
  6
CONTINUOUS
 62
     7
 10
3402.302158129943
 20
2842.380229072749
 30
0.0
  0
VERTEX
  5
699
  8
0
  6
CONTINUOUS
 62
     7
 10
3402.289126104444
 20
2842.382213443711
 30
0.0
  0
VERTEX
  5
69A
  8
0
  6
CONTINUOUS
 62
     7
 10
3402.276127868781
 20
2842.38411083343
 30
0.0
  0
VERTEX
  5
69B
  8
0
  6
CONTINUOUS
 62
     7
 10
3402.263123119783
 20
2842.385930912248
 30
0.0
  0
VERTEX
  5
69C
  8
0
  6
CONTINUOUS
 62
     7
 10
3402.250071554279
 20
2842.387683350504
 30
0.0
  0
VERTEX
  5
69D
  8
0
  6
CONTINUOUS
 62
     7
 10
3402.236932869097
 20
2842.38937781854
 30
0.0
  0
VERTEX
  5
69E
  8
0
  6
CONTINUOUS
 62
     7
 10
3402.223666761069
 20
2842.391023986697
 30
0.0
  0
VERTEX
  5
69F
  8
0
  6
CONTINUOUS
 62
     7
 10
3402.21023292702
 20
2842.392631525316
 30
0.0
  0
VERTEX
  5
6A0
  8
0
  6
CONTINUOUS
 62
     7
 10
3402.196595157239
 20
2842.39420937963
 30
0.0
  0
VERTEX
  5
6A1
  8
0
  6
CONTINUOUS
 62
     7
 10
3402.182747881001
 20
2842.395761067546
 30
0.0
  0
VERTEX
  5
6A2
  8
0
  6
CONTINUOUS
 62
     7
 10
3402.168699412487
 20
2842.397287647421
 30
0.0
  0
VERTEX
  5
6A3
  8
0
  6
CONTINUOUS
 62
     7
 10
3402.154458134711
 20
2842.398790165427
 30
0.0
  0
VERTEX
  5
6A4
  8
0
  6
CONTINUOUS
 62
     7
 10
3402.140032430683
 20
2842.400269667731
 30
0.0
  0
VERTEX
  5
6A5
  8
0
  6
CONTINUOUS
 62
     7
 10
3402.125430683415
 20
2842.4017272005
 30
0.0
  0
VERTEX
  5
6A6
  8
0
  6
CONTINUOUS
 62
     7
 10
3402.110661275918
 20
2842.403163809905
 30
0.0
  0
VERTEX
  5
6A7
  8
0
  6
CONTINUOUS
 62
     7
 10
3402.095732591202
 20
2842.404580542111
 30
0.0
  0
VERTEX
  5
6A8
  8
0
  6
CONTINUOUS
 62
     7
 10
3402.080653012282
 20
2842.405978443288
 30
0.0
  0
VERTEX
  5
6A9
  8
0
  6
CONTINUOUS
 62
     7
 10
3402.065430922167
 20
2842.407358559604
 30
0.0
  0
VERTEX
  5
6AA
  8
0
  6
CONTINUOUS
 62
     7
 10
3402.05007470387
 20
2842.408721937229
 30
0.0
  0
VERTEX
  5
6AB
  8
0
  6
CONTINUOUS
 62
     7
 10
3402.034592740401
 20
2842.410069622329
 30
0.0
  0
VERTEX
  5
6AC
  8
0
  6
CONTINUOUS
 62
     7
 10
3402.01899341477
 20
2842.411402661071
 30
0.0
  0
VERTEX
  5
6AD
  8
0
  6
CONTINUOUS
 62
     7
 10
3402.003285109992
 20
2842.412722099627
 30
0.0
  0
VERTEX
  5
6AE
  8
0
  6
CONTINUOUS
 62
     7
 10
3401.987476209076
 20
2842.414028984164
 30
0.0
  0
VERTEX
  5
6AF
  8
0
  6
CONTINUOUS
 62
     7
 10
3401.971575095034
 20
2842.41532436085
 30
0.0
  0
VERTEX
  5
6B0
  8
0
  6
CONTINUOUS
 62
     7
 10
3401.955590150878
 20
2842.416609275852
 30
0.0
  0
VERTEX
  5
6B1
  8
0
  6
CONTINUOUS
 62
     7
 10
3401.939529759619
 20
2842.417884775341
 30
0.0
  0
VERTEX
  5
6B2
  8
0
  6
CONTINUOUS
 62
     7
 10
3401.923402304269
 20
2842.419151905482
 30
0.0
  0
VERTEX
  5
6B3
  8
0
  6
CONTINUOUS
 62
     7
 10
3401.907216167839
 20
2842.420411712447
 30
0.0
  0
VERTEX
  5
6B4
  8
0
  6
CONTINUOUS
 62
     7
 10
3401.890979733339
 20
2842.4216652424
 30
0.0
  0
VERTEX
  5
6B5
  8
0
  6
CONTINUOUS
 62
     7
 10
3401.874701383783
 20
2842.422913541513
 30
0.0
  0
VERTEX
  5
6B6
  8
0
  6
CONTINUOUS
 62
     7
 10
3401.858389502181
 20
2842.424157655953
 30
0.0
  0
VERTEX
  5
6B7
  8
0
  6
CONTINUOUS
 62
     7
 10
3401.842052471545
 20
2842.425398631888
 30
0.0
  0
VERTEX
  5
6B8
  8
0
  6
CONTINUOUS
 62
     7
 10
3401.825698674885
 20
2842.426637515486
 30
0.0
  0
VERTEX
  5
6B9
  8
0
  6
CONTINUOUS
 62
     7
 10
3401.809336495214
 20
2842.427875352916
 30
0.0
  0
SEQEND
  5
8AB
  8
0
  6
CONTINUOUS
 62
     7
  0
POLYLINE
  5
1D3
  8
0
  6
CONTINUOUS
 62
     7
 66
     1
 10
0.0
 20
0.0
 30
0.0
  0
VERTEX
  5
6BA
  8
0
  6
CONTINUOUS
 62
     7
 10
3385.091534257751
 20
2842.430569322061
 30
0.0
  0
VERTEX
  5
6BB
  8
0
  6
CONTINUOUS
 62
     7
 10
3385.068685873021
 20
2842.429266092579
 30
0.0
  0
VERTEX
  5
6BC
  8
0
  6
CONTINUOUS
 62
     7
 10
3385.046083807597
 20
2842.427962790268
 30
0.0
  0
VERTEX
  5
6BD
  8
0
  6
CONTINUOUS
 62
     7
 10
3385.023974364265
 20
2842.426659342131
 30
0.0
  0
VERTEX
  5
6BE
  8
0
  6
CONTINUOUS
 62
     7
 10
3385.002546831159
 20
2842.425355100614
 30
0.0
  0
VERTEX
  5
6BF
  8
0
  6
CONTINUOUS
 62
     7
 10
3384.98180589933
 20
2842.424047557913
 30
0.0
  0
VERTEX
  5
6C0
  8
0
  6
CONTINUOUS
 62
     7
 10
3384.96171896787
 20
2842.422733830415
 30
0.0
  0
VERTEX
  5
6C1
  8
0
  6
CONTINUOUS
 62
     7
 10
3384.942253435875
 20
2842.421411034511
 30
0.0
  0
VERTEX
  5
6C2
  8
0
  6
CONTINUOUS
 62
     7
 10
3384.923376702438
 20
2842.420076286591
 30
0.0
  0
VERTEX
  5
6C3
  8
0
  6
CONTINUOUS
 62
     7
 10
3384.90505616665
 20
2842.418726703044
 30
0.0
  0
VERTEX
  5
6C4
  8
0
  6
CONTINUOUS
 62
     7
 10
3384.887259227607
 20
2842.417359400258
 30
0.0
  0
VERTEX
  5
6C5
  8
0
  6
CONTINUOUS
 62
     7
 10
3384.869953284401
 20
2842.415971494623
 30
0.0
  0
VERTEX
  5
6C6
  8
0
  6
CONTINUOUS
 62
     7
 10
3384.853105736127
 20
2842.41456010253
 30
0.0
  0
VERTEX
  5
6C7
  8
0
  6
CONTINUOUS
 62
     7
 10
3384.836683981876
 20
2842.413122340367
 30
0.0
  0
VERTEX
  5
6C8
  8
0
  6
CONTINUOUS
 62
     7
 10
3384.820655420745
 20
2842.411655324524
 30
0.0
  0
VERTEX
  5
6C9
  8
0
  6
CONTINUOUS
 62
     7
 10
3384.804987451822
 20
2842.41015617139
 30
0.0
  0
VERTEX
  5
6CA
  8
0
  6
CONTINUOUS
 62
     7
 10
3384.789647474205
 20
2842.408621997354
 30
0.0
  0
VERTEX
  5
6CB
  8
0
  6
CONTINUOUS
 62
     7
 10
3384.774602886985
 20
2842.407049918807
 30
0.0
  0
VERTEX
  5
6CC
  8
0
  6
CONTINUOUS
 62
     7
 10
3384.759821089257
 20
2842.405437052138
 30
0.0
  0
VERTEX
  5
6CD
  8
0
  6
CONTINUOUS
 62
     7
 10
3384.745269480114
 20
2842.403780513735
 30
0.0
  0
VERTEX
  5
6CE
  8
0
  6
CONTINUOUS
 62
     7
 10
3384.730915458648
 20
2842.402077419989
 30
0.0
  0
VERTEX
  5
6CF
  8
0
  6
CONTINUOUS
 62
     7
 10
3384.716726423953
 20
2842.400324887289
 30
0.0
  0
VERTEX
  5
6D0
  8
0
  6
CONTINUOUS
 62
     7
 10
3384.702669775123
 20
2842.398520032024
 30
0.0
  0
VERTEX
  5
6D1
  8
0
  6
CONTINUOUS
 62
     7
 10
3384.688712911252
 20
2842.396659970585
 30
0.0
  0
VERTEX
  5
6D2
  8
0
  6
CONTINUOUS
 62
     7
 10
3384.674823231431
 20
2842.394741819358
 30
0.0
  0
VERTEX
  5
6D3
  8
0
  6
CONTINUOUS
 62
     7
 10
3384.660968134755
 20
2842.392762694737
 30
0.0
  0
VERTEX
  5
6D4
  8
0
  6
CONTINUOUS
 62
     7
 10
3384.647115020318
 20
2842.390719713107
 30
0.0
  0
VERTEX
  5
6D5
  8
0
  6
CONTINUOUS
 62
     7
 10
3384.633231287212
 20
2842.38860999086
 30
0.0
  0
VERTEX
  5
6D6
  8
0
  6
CONTINUOUS
 62
     7
 10
3384.619284334532
 20
2842.386430644386
 30
0.0
  0
VERTEX
  5
6D7
  8
0
  6
CONTINUOUS
 62
     7
 10
3384.605241561369
 20
2842.384178790073
 30
0.0
  0
VERTEX
  5
6D8
  8
0
  6
CONTINUOUS
 62
     7
 10
3384.591070366819
 20
2842.381851544311
 30
0.0
  0
VERTEX
  5
6D9
  8
0
  6
CONTINUOUS
 62
     7
 10
3384.576738149974
 20
2842.379446023488
 30
0.0
  0
VERTEX
  5
6DA
  8
0
  6
CONTINUOUS
 62
     7
 10
3384.562212309926
 20
2842.376959343996
 30
0.0
  0
VERTEX
  5
6DB
  8
0
  6
CONTINUOUS
 62
     7
 10
3384.547460245771
 20
2842.374388622223
 30
0.0
  0
VERTEX
  5
6DC
  8
0
  6
CONTINUOUS
 62
     7
 10
3384.532449356601
 20
2842.371730974559
 30
0.0
  0
VERTEX
  5
6DD
  8
0
  6
CONTINUOUS
 62
     7
 10
3384.51714704151
 20
2842.368983517392
 30
0.0
  0
VERTEX
  5
6DE
  8
0
  6
CONTINUOUS
 62
     7
 10
3384.50152069959
 20
2842.366143367114
 30
0.0
  0
VERTEX
  5
6DF
  8
0
  6
CONTINUOUS
 62
     7
 10
3384.485537285337
 20
2842.363207157364
 30
0.0
  0
VERTEX
  5
6E0
  8
0
  6
CONTINUOUS
 62
     7
 10
3384.469132067187
 20
2842.360137116922
 30
0.0
  0
VERTEX
  5
6E1
  8
0
  6
CONTINUOUS
 62
     7
 10
3384.452188079738
 20
2842.356838758839
 30
0.0
  0
VERTEX
  5
6E2
  8
0
  6
CONTINUOUS
 62
     7
 10
3384.434583478763
 20
2842.353212298707
 30
0.0
  0
VERTEX
  5
6E3
  8
0
  6
CONTINUOUS
 62
     7
 10
3384.416196420031
 20
2842.34915795212
 30
0.0
  0
VERTEX
  5
6E4
  8
0
  6
CONTINUOUS
 62
     7
 10
3384.396905059311
 20
2842.344575934671
 30
0.0
  0
VERTEX
  5
6E5
  8
0
  6
CONTINUOUS
 62
     7
 10
3384.376587552377
 20
2842.339366461956
 30
0.0
  0
VERTEX
  5
6E6
  8
0
  6
CONTINUOUS
 62
     7
 10
3384.355122054996
 20
2842.333429749567
 30
0.0
  0
VERTEX
  5
6E7
  8
0
  6
CONTINUOUS
 62
     7
 10
3384.33238672294
 20
2842.326666013098
 30
0.0
  0
VERTEX
  5
6E8
  8
0
  6
CONTINUOUS
 62
     7
 10
3384.308259711976
 20
2842.318975468143
 30
0.0
  0
VERTEX
  5
6E9
  8
0
  6
CONTINUOUS
 62
     7
 10
3384.28261917788
 20
2842.310258330295
 30
0.0
  0
VERTEX
  5
6EA
  8
0
  6
CONTINUOUS
 62
     7
 10
3384.255343276417
 20
2842.300414815149
 30
0.0
  0
VERTEX
  5
6EB
  8
0
  6
CONTINUOUS
 62
     7
 10
3384.226325347196
 20
2842.289342008183
 30
0.0
  0
VERTEX
  5
6EC
  8
0
  6
CONTINUOUS
 62
     7
 10
3384.195625019577
 20
2842.276902714627
 30
0.0
  0
VERTEX
  5
6ED
  8
0
  6
CONTINUOUS
 62
     7
 10
3384.163404544056
 20
2842.262938584592
 30
0.0
  0
VERTEX
  5
6EE
  8
0
  6
CONTINUOUS
 62
     7
 10
3384.129827683699
 20
2842.247290956379
 30
0.0
  0
VERTEX
  5
6EF
  8
0
  6
CONTINUOUS
 62
     7
 10
3384.095058201568
 20
2842.229801168291
 30
0.0
  0
VERTEX
  5
6F0
  8
0
  6
CONTINUOUS
 62
     7
 10
3384.05925986073
 20
2842.210310558627
 30
0.0
  0
VERTEX
  5
6F1
  8
0
  6
CONTINUOUS
 62
     7
 10
3384.022611514047
 20
2842.188681491819
 30
0.0
  0
VERTEX
  5
6F2
  8
0
  6
CONTINUOUS
 62
     7
 10
3383.985393357908
 20
2842.164917544382
 30
0.0
  0
VERTEX
  5
6F3
  8
0
  6
CONTINUOUS
 62
     7
 10
3383.947927312761
 20
2842.139080431148
 30
0.0
  0
VERTEX
  5
6F4
  8
0
  6
CONTINUOUS
 62
     7
 10
3383.910535428441
 20
2842.111232047235
 30
0.0
  0
VERTEX
  5
6F5
  8
0
  6
CONTINUOUS
 62
     7
 10
3383.873539754782
 20
2842.081434287762
 30
0.0
  0
VERTEX
  5
6F6
  8
0
  6
CONTINUOUS
 62
     7
 10
3383.837262341621
 20
2842.049749047845
 30
0.0
  0
VERTEX
  5
6F7
  8
0
  6
CONTINUOUS
 62
     7
 10
3383.802024612093
 20
2842.016238260941
 30
0.0
  0
VERTEX
  5
6F8
  8
0
  6
CONTINUOUS
 62
     7
 10
3383.768051447166
 20
2841.98096976617
 30
0.0
  0
VERTEX
  5
6F9
  8
0
  6
CONTINUOUS
 62
     7
 10
3383.735367905463
 20
2841.944023626176
 30
0.0
  0
VERTEX
  5
6FA
  8
0
  6
CONTINUOUS
 62
     7
 10
3383.703974268479
 20
2841.905481419262
 30
0.0
  0
VERTEX
  5
6FB
  8
0
  6
CONTINUOUS
 62
     7
 10
3383.673870817712
 20
2841.865424723734
 30
0.0
  0
VERTEX
  5
6FC
  8
0
  6
CONTINUOUS
 62
     7
 10
3383.645057834655
 20
2841.823935117893
 30
0.0
  0
VERTEX
  5
6FD
  8
0
  6
CONTINUOUS
 62
     7
 10
3383.617535600809
 20
2841.781094180048
 30
0.0
  0
VERTEX
  5
6FE
  8
0
  6
CONTINUOUS
 62
     7
 10
3383.591304397667
 20
2841.7369834885
 30
0.0
  0
VERTEX
  5
6FF
  8
0
  6
CONTINUOUS
 62
     7
 10
3383.566369285977
 20
2841.691685037066
 30
0.0
  0
VERTEX
  5
700
  8
0
  6
CONTINUOUS
 62
     7
 10
3383.542892529617
 20
2841.645294486895
 30
0.0
  0
VERTEX
  5
701
  8
0
  6
CONTINUOUS
 62
     7
 10
3383.521225451678
 20
2841.597923936052
 30
0.0
  0
VERTEX
  5
702
  8
0
  6
CONTINUOUS
 62
     7
 10
3383.501730593796
 20
2841.549686457951
 30
0.0
  0
VERTEX
  5
703
  8
0
  6
CONTINUOUS
 62
     7
 10
3383.484770497605
 20
2841.500695126006
 30
0.0
  0
VERTEX
  5
704
  8
0
  6
CONTINUOUS
 62
     7
 10
3383.470707704739
 20
2841.45106301363
 30
0.0
  0
VERTEX
  5
705
  8
0
  6
CONTINUOUS
 62
     7
 10
3383.459904756834
 20
2841.400903194237
 30
0.0
  0
VERTEX
  5
706
  8
0
  6
CONTINUOUS
 62
     7
 10
3383.452724195526
 20
2841.350328741242
 30
0.0
  0
VERTEX
  5
707
  8
0
  6
CONTINUOUS
 62
     7
 10
3383.449528562449
 20
2841.299452728056
 30
0.0
  0
VERTEX
  5
708
  8
0
  6
CONTINUOUS
 62
     7
 10
3383.450434130802
 20
2841.248381398243
 30
0.0
  0
VERTEX
  5
709
  8
0
  6
CONTINUOUS
 62
     7
 10
3383.454328726302
 20
2841.19718692638
 30
0.0
  0
VERTEX
  5
70A
  8
0
  6
CONTINUOUS
 62
     7
 10
3383.459717896495
 20
2841.145930885187
 30
0.0
  0
SEQEND
  5
8AC
  8
0
  6
CONTINUOUS
 62
     7
  0
LINE
  5
1D4
  8
0
  6
CONTINUOUS
 62
     7
 10
3403.441286479931
 20
2840.405339645818
 30
0.0
 11
3403.441286479931
 21
2841.155530423133
 31
0.0
  0
LINE
  5
1D5
  8
0
  6
CONTINUOUS
 62
     7
 10
3383.441286479931
 20
2841.155530423133
 30
0.0
 11
3383.441286479931
 21
2840.405339645818
 31
0.0
  0
LINE
  5
1D6
  8
0
  6
CONTINUOUS
 62
     7
 10
3401.937660704443
 20
2842.420321226571
 30
0.0
 11
3400.411254766297
 21
2842.547698761062
 31
0.0
  0
LINE
  5
1D7
  8
0
  6
CONTINUOUS
 62
     7
 10
3386.471318193564
 20
2842.547698761062
 30
0.0
 11
3384.944912255418
 21
2842.420321226571
 31
0.0
  0
POLYLINE
  5
1D8
  8
0
  6
CONTINUOUS
 62
     7
 66
     1
 10
0.0
 20
0.0
 30
0.0
  0
VERTEX
  5
70B
  8
0
  6
CONTINUOUS
 62
     7
 10
3400.321288838295
 20
2842.552800533862
 30
0.0
  0
VERTEX
  5
70C
  8
0
  6
CONTINUOUS
 62
     7
 10
3400.224187150739
 20
2842.560518360661
 30
0.0
  0
VERTEX
  5
70D
  8
0
  6
CONTINUOUS
 62
     7
 10
3400.127276619235
 20
2842.568171283382
 30
0.0
  0
VERTEX
  5
70E
  8
0
  6
CONTINUOUS
 62
     7
 10
3400.030748399839
 20
2842.57569439795
 30
0.0
  0
VERTEX
  5
70F
  8
0
  6
CONTINUOUS
 62
     7
 10
3399.934793648603
 20
2842.583022800289
 30
0.0
  0
VERTEX
  5
710
  8
0
  6
CONTINUOUS
 62
     7
 10
3399.83960352158
 20
2842.590091586322
 30
0.0
  0
VERTEX
  5
711
  8
0
  6
CONTINUOUS
 62
     7
 10
3399.745369174825
 20
2842.596835851973
 30
0.0
  0
VERTEX
  5
712
  8
0
  6
CONTINUOUS
 62
     7
 10
3399.652276728937
 20
2842.603192325399
 30
0.0
  0
VERTEX
  5
713
  8
0
  6
CONTINUOUS
 62
     7
 10
3399.560375790279
 20
2842.609141985653
 30
0.0
  0
VERTEX
  5
714
  8
0
  6
CONTINUOUS
 62
     7
 10
3399.469566853678
 20
2842.614714146077
 30
0.0
  0
VERTEX
  5
715
  8
0
  6
CONTINUOUS
 62
     7
 10
3399.379742852891
 20
2842.619940570922
 30
0.0
  0
VERTEX
  5
716
  8
0
  6
CONTINUOUS
 62
     7
 10
3399.290796721677
 20
2842.624853024441
 30
0.0
  0
VERTEX
  5
717
  8
0
  6
CONTINUOUS
 62
     7
 10
3399.202621393792
 20
2842.629483270885
 30
0.0
  0
VERTEX
  5
718
  8
0
  6
CONTINUOUS
 62
     7
 10
3399.115109802994
 20
2842.633863074505
 30
0.0
  0
VERTEX
  5
719
  8
0
  6
CONTINUOUS
 62
     7
 10
3399.02815488304
 20
2842.638024199554
 30
0.0
  0
VERTEX
  5
71A
  8
0
  6
CONTINUOUS
 62
     7
 10
3398.941649567689
 20
2842.641998410282
 30
0.0
  0
VERTEX
  5
71B
  8
0
  6
CONTINUOUS
 62
     7
 10
3398.855486790698
 20
2842.645817470941
 30
0.0
  0
VERTEX
  5
71C
  8
0
  6
CONTINUOUS
 62
     7
 10
3398.769560734115
 20
2842.649512445459
 30
0.0
  0
VERTEX
  5
71D
  8
0
  6
CONTINUOUS
 62
     7
 10
3398.683791489098
 20
2842.653099862045
 30
0.0
  0
VERTEX
  5
71E
  8
0
  6
CONTINUOUS
 62
     7
 10
3398.5981235889
 20
2842.656582536228
 30
0.0
  0
VERTEX
  5
71F
  8
0
  6
CONTINUOUS
 62
     7
 10
3398.512502521353
 20
2842.659962747993
 30
0.0
  0
VERTEX
  5
720
  8
0
  6
CONTINUOUS
 62
     7
 10
3398.426873774285
 20
2842.663242777321
 30
0.0
  0
VERTEX
  5
721
  8
0
  6
CONTINUOUS
 62
     7
 10
3398.341182835529
 20
2842.666424904201
 30
0.0
  0
VERTEX
  5
722
  8
0
  6
CONTINUOUS
 62
     7
 10
3398.255375192915
 20
2842.669511408614
 30
0.0
  0
VERTEX
  5
723
  8
0
  6
CONTINUOUS
 62
     7
 10
3398.169396334275
 20
2842.672504570548
 30
0.0
  0
VERTEX
  5
724
  8
0
  6
CONTINUOUS
 62
     7
 10
3398.083191747437
 20
2842.675406669985
 30
0.0
  0
VERTEX
  5
725
  8
0
  6
CONTINUOUS
 62
     7
 10
3397.996706920233
 20
2842.67821998691
 30
0.0
  0
VERTEX
  5
726
  8
0
  6
CONTINUOUS
 62
     7
 10
3397.909887340493
 20
2842.680946801307
 30
0.0
  0
VERTEX
  5
727
  8
0
  6
CONTINUOUS
 62
     7
 10
3397.82267849605
 20
2842.683589393162
 30
0.0
  0
VERTEX
  5
728
  8
0
  6
CONTINUOUS
 62
     7
 10
3397.735025874733
 20
2842.686150042459
 30
0.0
  0
VERTEX
  5
729
  8
0
  6
CONTINUOUS
 62
     7
 10
3397.646875116
 20
2842.68863102746
 30
0.0
  0
VERTEX
  5
72A
  8
0
  6
CONTINUOUS
 62
     7
 10
3397.558186418824
 20
2842.691034461062
 30
0.0
  0
VERTEX
  5
72B
  8
0
  6
CONTINUOUS
 62
     7
 10
3397.468946421254
 20
2842.693362155869
 30
0.0
  0
VERTEX
  5
72C
  8
0
  6
CONTINUOUS
 62
     7
 10
3397.379144557351
 20
2842.695615892731
 30
0.0
  0
VERTEX
  5
72D
  8
0
  6
CONTINUOUS
 62
     7
 10
3397.288770261172
 20
2842.697797452492
 30
0.0
  0
VERTEX
  5
72E
  8
0
  6
CONTINUOUS
 62
     7
 10
3397.197812966778
 20
2842.699908616003
 30
0.0
  0
VERTEX
  5
72F
  8
0
  6
CONTINUOUS
 62
     7
 10
3397.106262108227
 20
2842.701951164111
 30
0.0
  0
VERTEX
  5
730
  8
0
  6
CONTINUOUS
 62
     7
 10
3397.01410711958
 20
2842.703926877664
 30
0.0
  0
VERTEX
  5
731
  8
0
  6
CONTINUOUS
 62
     7
 10
3396.921337434896
 20
2842.70583753751
 30
0.0
  0
VERTEX
  5
732
  8
0
  6
CONTINUOUS
 62
     7
 10
3396.827942488233
 20
2842.707684924496
 30
0.0
  0
VERTEX
  5
733
  8
0
  6
CONTINUOUS
 62
     7
 10
3396.733911713651
 20
2842.709470819471
 30
0.0
  0
VERTEX
  5
734
  8
0
  6
CONTINUOUS
 62
     7
 10
3396.639234545211
 20
2842.711197003282
 30
0.0
  0
VERTEX
  5
735
  8
0
  6
CONTINUOUS
 62
     7
 10
3396.543900416969
 20
2842.712865256776
 30
0.0
  0
VERTEX
  5
736
  8
0
  6
CONTINUOUS
 62
     7
 10
3396.447898762987
 20
2842.714477360802
 30
0.0
  0
VERTEX
  5
737
  8
0
  6
CONTINUOUS
 62
     7
 10
3396.351219127034
 20
2842.716035089026
 30
0.0
  0
VERTEX
  5
738
  8
0
  6
CONTINUOUS
 62
     7
 10
3396.253860606353
 20
2842.717539589582
 30
0.0
  0
VERTEX
  5
739
  8
0
  6
CONTINUOUS
 62
     7
 10
3396.155839127025
 20
2842.718990908715
 30
0.0
  0
VERTEX
  5
73A
  8
0
  6
CONTINUOUS
 62
     7
 10
3396.057172327804
 20
2842.720388980531
 30
0.0
  0
VERTEX
  5
73B
  8
0
  6
CONTINUOUS
 62
     7
 10
3395.957877847445
 20
2842.721733739131
 30
0.0
  0
VERTEX
  5
73C
  8
0
  6
CONTINUOUS
 62
     7
 10
3395.857973324701
 20
2842.723025118623
 30
0.0
  0
VERTEX
  5
73D
  8
0
  6
CONTINUOUS
 62
     7
 10
3395.757476398322
 20
2842.724263053109
 30
0.0
  0
VERTEX
  5
73E
  8
0
  6
CONTINUOUS
 62
     7
 10
3395.656404707063
 20
2842.725447476696
 30
0.0
  0
VERTEX
  5
73F
  8
0
  6
CONTINUOUS
 62
     7
 10
3395.554775889676
 20
2842.726578323485
 30
0.0
  0
VERTEX
  5
740
  8
0
  6
CONTINUOUS
 62
     7
 10
3395.452607584917
 20
2842.727655527583
 30
0.0
  0
VERTEX
  5
741
  8
0
  6
CONTINUOUS
 62
     7
 10
3395.349917431537
 20
2842.728679023094
 30
0.0
  0
VERTEX
  5
742
  8
0
  6
CONTINUOUS
 62
     7
 10
3395.246723068287
 20
2842.729648744122
 30
0.0
  0
VERTEX
  5
743
  8
0
  6
CONTINUOUS
 62
     7
 10
3395.143042133924
 20
2842.730564624772
 30
0.0
  0
VERTEX
  5
744
  8
0
  6
CONTINUOUS
 62
     7
 10
3395.038892320325
 20
2842.731426597507
 30
0.0
  0
VERTEX
  5
745
  8
0
  6
CONTINUOUS
 62
     7
 10
3394.934296340349
 20
2842.732234439763
 30
0.0
  0
VERTEX
  5
746
  8
0
  6
CONTINUOUS
 62
     7
 10
3394.829285980363
 20
2842.732987648821
 30
0.0
  0
VERTEX
  5
747
  8
0
  6
CONTINUOUS
 62
     7
 10
3394.723893980455
 20
2842.733685692512
 30
0.0
  0
VERTEX
  5
748
  8
0
  6
CONTINUOUS
 62
     7
 10
3394.618153080711
 20
2842.734328038669
 30
0.0
  0
VERTEX
  5
749
  8
0
  6
CONTINUOUS
 62
     7
 10
3394.512096021217
 20
2842.734914155124
 30
0.0
  0
VERTEX
  5
74A
  8
0
  6
CONTINUOUS
 62
     7
 10
3394.405755542057
 20
2842.735443509711
 30
0.0
  0
VERTEX
  5
74B
  8
0
  6
CONTINUOUS
 62
     7
 10
3394.299164383318
 20
2842.735915570262
 30
0.0
  0
VERTEX
  5
74C
  8
0
  6
CONTINUOUS
 62
     7
 10
3394.192355285087
 20
2842.736329804608
 30
0.0
  0
VERTEX
  5
74D
  8
0
  6
CONTINUOUS
 62
     7
 10
3394.085360987448
 20
2842.736685680584
 30
0.0
  0
VERTEX
  5
74E
  8
0
  6
CONTINUOUS
 62
     7
 10
3393.978214230487
 20
2842.736982666022
 30
0.0
  0
VERTEX
  5
74F
  8
0
  6
CONTINUOUS
 62
     7
 10
3393.870947754292
 20
2842.737220228752
 30
0.0
  0
VERTEX
  5
750
  8
0
  6
CONTINUOUS
 62
     7
 10
3393.763594298946
 20
2842.73739783661
 30
0.0
  0
VERTEX
  5
751
  8
0
  6
CONTINUOUS
 62
     7
 10
3393.656185715044
 20
2842.737516213032
 30
0.0
  0
VERTEX
  5
752
  8
0
  6
CONTINUOUS
 62
     7
 10
3393.54874428772
 20
2842.737589583981
 30
0.0
  0
VERTEX
  5
753
  8
0
  6
CONTINUOUS
 62
     7
 10
3393.441286479931
 20
2842.737640393971
 30
0.0
  0
SEQEND
  5
8AD
  8
0
  6
CONTINUOUS
 62
     7
  0
POLYLINE
  5
1D9
  8
0
  6
CONTINUOUS
 62
     7
 66
     1
 10
0.0
 20
0.0
 30
0.0
  0
VERTEX
  5
754
  8
0
  6
CONTINUOUS
 62
     7
 10
3393.441286479931
 20
2842.737640393971
 30
0.0
  0
VERTEX
  5
755
  8
0
  6
CONTINUOUS
 62
     7
 10
3393.322140198654
 20
2842.737511935832
 30
0.0
  0
VERTEX
  5
756
  8
0
  6
CONTINUOUS
 62
     7
 10
3393.2030306905
 20
2842.737370325583
 30
0.0
  0
VERTEX
  5
757
  8
0
  6
CONTINUOUS
 62
     7
 10
3393.08399472859
 20
2842.737202411113
 30
0.0
  0
VERTEX
  5
758
  8
0
  6
CONTINUOUS
 62
     7
 10
3392.965069086049
 20
2842.736995040314
 30
0.0
  0
VERTEX
  5
759
  8
0
  6
CONTINUOUS
 62
     7
 10
3392.846290535998
 20
2842.736735061076
 30
0.0
  0
VERTEX
  5
75A
  8
0
  6
CONTINUOUS
 62
     7
 10
3392.72769585156
 20
2842.736409321287
 30
0.0
  0
VERTEX
  5
75B
  8
0
  6
CONTINUOUS
 62
     7
 10
3392.609322032145
 20
2842.736005854525
 30
0.0
  0
VERTEX
  5
75C
  8
0
  6
CONTINUOUS
 62
     7
 10
3392.491207858152
 20
2842.735522026214
 30
0.0
  0
VERTEX
  5
75D
  8
0
  6
CONTINUOUS
 62
     7
 10
3392.373392952778
 20
2842.734959617811
 30
0.0
  0
VERTEX
  5
75E
  8
0
  6
CONTINUOUS
 62
     7
 10
3392.255916944253
 20
2842.734320437125
 30
0.0
  0
VERTEX
  5
75F
  8
0
  6
CONTINUOUS
 62
     7
 10
3392.138819460803
 20
2842.733606291964
 30
0.0
  0
VERTEX
  5
760
  8
0
  6
CONTINUOUS
 62
     7
 10
3392.022140130654
 20
2842.732818990137
 30
0.0
  0
VERTEX
  5
761
  8
0
  6
CONTINUOUS
 62
     7
 10
3391.905918582037
 20
2842.731960339451
 30
0.0
  0
VERTEX
  5
762
  8
0
  6
CONTINUOUS
 62
     7
 10
3391.790194443176
 20
2842.731032147715
 30
0.0
  0
VERTEX
  5
763
  8
0
  6
CONTINUOUS
 62
     7
 10
3391.675007342302
 20
2842.730036222738
 30
0.0
  0
VERTEX
  5
764
  8
0
  6
CONTINUOUS
 62
     7
 10
3391.560396907641
 20
2842.728974372329
 30
0.0
  0
VERTEX
  5
765
  8
0
  6
CONTINUOUS
 62
     7
 10
3391.446402767422
 20
2842.727848404295
 30
0.0
  0
VERTEX
  5
766
  8
0
  6
CONTINUOUS
 62
     7
 10
3391.333064549871
 20
2842.726660126445
 30
0.0
  0
VERTEX
  5
767
  8
0
  6
CONTINUOUS
 62
     7
 10
3391.220419551066
 20
2842.725411041748
 30
0.0
  0
VERTEX
  5
768
  8
0
  6
CONTINUOUS
 62
     7
 10
3391.108487119371
 20
2842.724100307192
 30
0.0
  0
VERTEX
  5
769
  8
0
  6
CONTINUOUS
 62
     7
 10
3390.997278271759
 20
2842.72272599075
 30
0.0
  0
VERTEX
  5
76A
  8
0
  6
CONTINUOUS
 62
     7
 10
3390.886803979343
 20
2842.721286154405
 30
0.0
  0
VERTEX
  5
76B
  8
0
  6
CONTINUOUS
 62
     7
 10
3390.777075213238
 20
2842.719778860137
 30
0.0
  0
VERTEX
  5
76C
  8
0
  6
CONTINUOUS
 62
     7
 10
3390.668102944558
 20
2842.718202169927
 30
0.0
  0
VERTEX
  5
76D
  8
0
  6
CONTINUOUS
 62
     7
 10
3390.559898144416
 20
2842.716554145756
 30
0.0
  0
VERTEX
  5
76E
  8
0
  6
CONTINUOUS
 62
     7
 10
3390.452471783926
 20
2842.714832849604
 30
0.0
  0
VERTEX
  5
76F
  8
0
  6
CONTINUOUS
 62
     7
 10
3390.345834834202
 20
2842.713036343453
 30
0.0
  0
VERTEX
  5
770
  8
0
  6
CONTINUOUS
 62
     7
 10
3390.239998266356
 20
2842.711162689284
 30
0.0
  0
VERTEX
  5
771
  8
0
  6
CONTINUOUS
 62
     7
 10
3390.134973051505
 20
2842.709209949076
 30
0.0
  0
VERTEX
  5
772
  8
0
  6
CONTINUOUS
 62
     7
 10
3390.030770160761
 20
2842.707176184811
 30
0.0
  0
VERTEX
  5
773
  8
0
  6
CONTINUOUS
 62
     7
 10
3389.927399964688
 20
2842.705059503771
 30
0.0
  0
VERTEX
  5
774
  8
0
  6
CONTINUOUS
 62
     7
 10
3389.824854061289
 20
2842.702859429292
 30
0.0
  0
VERTEX
  5
775
  8
0
  6
CONTINUOUS
 62
     7
 10
3389.723102020665
 20
2842.700577146326
 30
0.0
  0
VERTEX
  5
776
  8
0
  6
CONTINUOUS
 62
     7
 10
3389.622112156077
 20
2842.698213934629
 30
0.0
  0
VERTEX
  5
777
  8
0
  6
CONTINUOUS
 62
     7
 10
3389.521852780789
 20
2842.695771073957
 30
0.0
  0
VERTEX
  5
778
  8
0
  6
CONTINUOUS
 62
     7
 10
3389.422292208067
 20
2842.693249844066
 30
0.0
  0
VERTEX
  5
779
  8
0
  6
CONTINUOUS
 62
     7
 10
3389.323398751169
 20
2842.690651524715
 30
0.0
  0
VERTEX
  5
77A
  8
0
  6
CONTINUOUS
 62
     7
 10
3389.225140723363
 20
2842.687977395657
 30
0.0
  0
VERTEX
  5
77B
  8
0
  6
CONTINUOUS
 62
     7
 10
3389.12748643791
 20
2842.685228736651
 30
0.0
  0
VERTEX
  5
77C
  8
0
  6
CONTINUOUS
 62
     7
 10
3389.030404208072
 20
2842.682406827453
 30
0.0
  0
VERTEX
  5
77D
  8
0
  6
CONTINUOUS
 62
     7
 10
3388.933862347116
 20
2842.679512947819
 30
0.0
  0
VERTEX
  5
77E
  8
0
  6
CONTINUOUS
 62
     7
 10
3388.837829168303
 20
2842.676548377506
 30
0.0
  0
VERTEX
  5
77F
  8
0
  6
CONTINUOUS
 62
     7
 10
3388.742272984895
 20
2842.67351439627
 30
0.0
  0
VERTEX
  5
780
  8
0
  6
CONTINUOUS
 62
     7
 10
3388.647162110158
 20
2842.670412283868
 30
0.0
  0
VERTEX
  5
781
  8
0
  6
CONTINUOUS
 62
     7
 10
3388.552450300529
 20
2842.667239247017
 30
0.0
  0
VERTEX
  5
782
  8
0
  6
CONTINUOUS
 62
     7
 10
3388.458012320473
 20
2842.663970390269
 30
0.0
  0
VERTEX
  5
783
  8
0
  6
CONTINUOUS
 62
     7
 10
3388.363696266763
 20
2842.66057335648
 30
0.0
  0
VERTEX
  5
784
  8
0
  6
CONTINUOUS
 62
     7
 10
3388.269350215478
 20
2842.657015782719
 30
0.0
  0
VERTEX
  5
785
  8
0
  6
CONTINUOUS
 62
     7
 10
3388.174822242701
 20
2842.653265306054
 30
0.0
  0
VERTEX
  5
786
  8
0
  6
CONTINUOUS
 62
     7
 10
3388.079960424511
 20
2842.649289563555
 30
0.0
  0
VERTEX
  5
787
  8
0
  6
CONTINUOUS
 62
     7
 10
3387.984612836993
 20
2842.64505619229
 30
0.0
  0
VERTEX
  5
788
  8
0
  6
CONTINUOUS
 62
     7
 10
3387.888627556224
 20
2842.640532829327
 30
0.0
  0
VERTEX
  5
789
  8
0
  6
CONTINUOUS
 62
     7
 10
3387.791852658288
 20
2842.635687111736
 30
0.0
  0
VERTEX
  5
78A
  8
0
  6
CONTINUOUS
 62
     7
 10
3387.694136219266
 20
2842.630486676584
 30
0.0
  0
VERTEX
  5
78B
  8
0
  6
CONTINUOUS
 62
     7
 10
3387.595326315237
 20
2842.62489916094
 30
0.0
  0
VERTEX
  5
78C
  8
0
  6
CONTINUOUS
 62
     7
 10
3387.495271022285
 20
2842.618892201873
 30
0.0
  0
VERTEX
  5
78D
  8
0
  6
CONTINUOUS
 62
     7
 10
3387.393853844183
 20
2842.612443073519
 30
0.0
  0
VERTEX
  5
78E
  8
0
  6
CONTINUOUS
 62
     7
 10
3387.291173917657
 20
2842.605587706658
 30
0.0
  0
VERTEX
  5
78F
  8
0
  6
CONTINUOUS
 62
     7
 10
3387.187411509477
 20
2842.598384101124
 30
0.0
  0
VERTEX
  5
790
  8
0
  6
CONTINUOUS
 62
     7
 10
3387.082747033249
 20
2842.590890296697
 30
0.0
  0
VERTEX
  5
791
  8
0
  6
CONTINUOUS
 62
     7
 10
3386.977360902586
 20
2842.583164333154
 30
0.0
  0
VERTEX
  5
792
  8
0
  6
CONTINUOUS
 62
     7
 10
3386.871433531094
 20
2842.575264250274
 30
0.0
  0
VERTEX
  5
793
  8
0
  6
CONTINUOUS
 62
     7
 10
3386.765145332384
 20
2842.567248087837
 30
0.0
  0
VERTEX
  5
794
  8
0
  6
CONTINUOUS
 62
     7
 10
3386.658676720065
 20
2842.559173885621
 30
0.0
  0
SEQEND
  5
8AE
  8
0
  6
CONTINUOUS
 62
     7
  0
LINE
  5
1DA
  8
0
  6
CONTINUOUS
 62
     7
 10
3397.94128647993
 20
2837.445128225326
 30
0.0
 11
3397.94128647993
 21
2839.705579518335
 31
0.0
  0
LINE
  5
1DB
  8
0
  6
CONTINUOUS
 62
     7
 10
3388.941286479931
 20
2839.705579518336
 30
0.0
 11
3388.941286479931
 21
2837.445128225326
 31
0.0
  0
LINE
  5
1DC
  8
0
  6
CONTINUOUS
 62
     7
 10
3430.691286479931
 20
2366.945128225326
 30
0.0
 11
3429.691286479931
 21
2366.945128225326
 31
0.0
  0
LINE
  5
1DD
  8
0
  6
CONTINUOUS
 62
     7
 10
3429.691286479931
 20
2837.445128225326
 30
0.0
 11
3429.691286479931
 21
2366.945128225326
 31
0.0
  0
LINE
  5
1DE
  8
0
  6
CONTINUOUS
 62
     7
 10
3430.691286479931
 20
2366.945128225326
 30
0.0
 11
3430.691286479931
 21
2837.445128225326
 31
0.0
  0
LINE
  5
1DF
  8
0
  6
CONTINUOUS
 62
     7
 10
3430.691286479931
 20
2837.445128225326
 30
0.0
 11
3429.691286479931
 21
2837.445128225326
 31
0.0
  0
LINE
  5
1E0
  8
0
  6
CONTINUOUS
 62
     7
 10
3429.691286479931
 20
2367.945128225326
 30
0.0
 11
3429.691286479931
 21
2366.945128225326
 31
0.0
  0
LINE
  5
1E1
  8
0
  6
CONTINUOUS
 62
     7
 10
3429.691286479931
 20
2366.945128225326
 30
0.0
 11
1630.691286479931
 21
2366.945128225326
 31
0.0
  0
LINE
  5
1E2
  8
0
  6
CONTINUOUS
 62
     7
 10
1630.691286479931
 20
2366.945128225326
 30
0.0
 11
1630.691286479931
 21
2367.945128225326
 31
0.0
  0
LINE
  5
1E3
  8
0
  6
CONTINUOUS
 62
     7
 10
3429.691286479931
 20
2367.945128225326
 30
0.0
 11
1630.691286479931
 21
2367.945128225326
 31
0.0
  0
LINE
  5
1E4
  8
0
  6
CONTINUOUS
 62
     7
 10
1630.691286479931
 20
2837.445128225326
 30
0.0
 11
1629.691286479931
 21
2837.445128225326
 31
0.0
  0
LINE
  5
1E5
  8
0
  6
CONTINUOUS
 62
     7
 10
1630.691286479931
 20
2366.945128225326
 30
0.0
 11
1630.691286479931
 21
2837.445128225326
 31
0.0
  0
LINE
  5
1E6
  8
0
  6
CONTINUOUS
 62
     7
 10
1630.691286479931
 20
2366.945128225326
 30
0.0
 11
1629.691286479931
 21
2366.945128225326
 31
0.0
  0
LINE
  5
1E7
  8
0
  6
CONTINUOUS
 62
     7
 10
1629.691286479931
 20
2366.945128225326
 30
0.0
 11
1629.691286479931
 21
2837.445128225326
 31
0.0
  0
LINE
  5
1E8
  8
0
  6
CONTINUOUS
 62
     7
 10
3429.691286479931
 20
2837.445128225326
 30
0.0
 11
1630.691286479931
 21
2837.445128225326
 31
0.0
  0
LINE
  5
1E9
  8
0
  6
CONTINUOUS
 62
     7
 10
1630.691286479931
 20
2367.945128225326
 30
0.0
 11
1630.691286479931
 21
2837.445128225326
 31
0.0
  0
LINE
  5
1EA
  8
0
  6
CONTINUOUS
 62
     7
 10
3429.691286479931
 20
2837.445128225326
 30
0.0
 11
3429.691286479931
 21
2367.945128225326
 31
0.0
  0
ARC
  5
209
  8
0
  6
CONTINUOUS
 62
     7
 10
1667.944627347016
 20
3032.421250937128
 30
0.0
 40
190.3064363766893
 50
269.6979216020305
 51
271.9898299979885
  0
ARC
  5
20A
  8
0
  6
CONTINUOUS
 62
     7
 10
1666.376595405993
 20
3076.697610404339
 30
0.0
 40
234.5808305723961
 50
268.5008299501642
 51
270.1379245117107
  0
ARC
  5
20B
  8
0
  6
CONTINUOUS
 62
     7
 10
1669.784225567798
 20
2922.67752522576
 30
0.0
 40
82.58290404799514
 50
268.0271873052005
 51
274.971785139039
  0
ARC
  5
20C
  8
0
  6
CONTINUOUS
 62
     7
 10
1664.321672648301
 20
2931.208896171633
 30
0.0
 40
91.10299653541087
 50
265.3532935281041
 51
271.647734027659
  0
POLYLINE
  5
20D
  8
0
  6
CONTINUOUS
 62
     7
 66
     1
 10
0.0
 20
0.0
 30
0.0
  0
VERTEX
  5
795
  8
0
  6
CONTINUOUS
 62
     7
 10
1676.74128647993
 20
2840.205408180823
 30
0.0
  0
VERTEX
  5
796
  8
0
  6
CONTINUOUS
 62
     7
 10
1676.718426406301
 20
2840.198251574556
 30
0.0
  0
VERTEX
  5
797
  8
0
  6
CONTINUOUS
 62
     7
 10
1676.694646051163
 20
2840.191100268456
 30
0.0
  0
VERTEX
  5
798
  8
0
  6
CONTINUOUS
 62
     7
 10
1676.669025133009
 20
2840.18395956269
 30
0.0
  0
VERTEX
  5
799
  8
0
  6
CONTINUOUS
 62
     7
 10
1676.640643370331
 20
2840.176834757427
 30
0.0
  0
VERTEX
  5
79A
  8
0
  6
CONTINUOUS
 62
     7
 10
1676.608580481619
 20
2840.169731152831
 30
0.0
  0
VERTEX
  5
79B
  8
0
  6
CONTINUOUS
 62
     7
 10
1676.571916185367
 20
2840.162654049071
 30
0.0
  0
VERTEX
  5
79C
  8
0
  6
CONTINUOUS
 62
     7
 10
1676.529730200066
 20
2840.155608746313
 30
0.0
  0
VERTEX
  5
79D
  8
0
  6
CONTINUOUS
 62
     7
 10
1676.481102244207
 20
2840.148600544725
 30
0.0
  0
VERTEX
  5
79E
  8
0
  6
CONTINUOUS
 62
     7
 10
1676.425112036284
 20
2840.141634744476
 30
0.0
  0
VERTEX
  5
79F
  8
0
  6
CONTINUOUS
 62
     7
 10
1676.360839294787
 20
2840.134716645729
 30
0.0
  0
VERTEX
  5
7A0
  8
0
  6
CONTINUOUS
 62
     7
 10
1676.287487246673
 20
2840.127851574458
 30
0.0
  0
VERTEX
  5
7A1
  8
0
  6
CONTINUOUS
 62
     7
 10
1676.205048067802
 20
2840.121045021467
 30
0.0
  0
VERTEX
  5
7A2
  8
0
  6
CONTINUOUS
 62
     7
 10
1676.11382429581
 20
2840.114302542402
 30
0.0
  0
VERTEX
  5
7A3
  8
0
  6
CONTINUOUS
 62
     7
 10
1676.014119212089
 20
2840.107629693066
 30
0.0
  0
VERTEX
  5
7A4
  8
0
  6
CONTINUOUS
 62
     7
 10
1675.906236098031
 20
2840.101032029262
 30
0.0
  0
VERTEX
  5
7A5
  8
0
  6
CONTINUOUS
 62
     7
 10
1675.790478235028
 20
2840.094515106789
 30
0.0
  0
VERTEX
  5
7A6
  8
0
  6
CONTINUOUS
 62
     7
 10
1675.667148904474
 20
2840.088084481454
 30
0.0
  0
VERTEX
  5
7A7
  8
0
  6
CONTINUOUS
 62
     7
 10
1675.536551387758
 20
2840.081745709057
 30
0.0
  0
VERTEX
  5
7A8
  8
0
  6
CONTINUOUS
 62
     7
 10
1675.398988966273
 20
2840.075504345398
 30
0.0
  0
VERTEX
  5
7A9
  8
0
  6
CONTINUOUS
 62
     7
 10
1675.254764921412
 20
2840.069365946284
 30
0.0
  0
VERTEX
  5
7AA
  8
0
  6
CONTINUOUS
 62
     7
 10
1675.104182534566
 20
2840.063336067514
 30
0.0
  0
VERTEX
  5
7AB
  8
0
  6
CONTINUOUS
 62
     7
 10
1674.947545087128
 20
2840.057420264891
 30
0.0
  0
VERTEX
  5
7AC
  8
0
  6
CONTINUOUS
 62
     7
 10
1674.785155859033
 20
2840.051624094205
 30
0.0
  0
VERTEX
  5
7AD
  8
0
  6
CONTINUOUS
 62
     7
 10
1674.617268336379
 20
2840.045952677123
 30
0.0
  0
VERTEX
  5
7AE
  8
0
  6
CONTINUOUS
 62
     7
 10
1674.443954921222
 20
2840.040409556543
 30
0.0
  0
VERTEX
  5
7AF
  8
0
  6
CONTINUOUS
 62
     7
 10
1674.265246863393
 20
2840.034997916583
 30
0.0
  0
VERTEX
  5
7B0
  8
0
  6
CONTINUOUS
 62
     7
 10
1674.081175412718
 20
2840.029720941361
 30
0.0
  0
VERTEX
  5
7B1
  8
0
  6
CONTINUOUS
 62
     7
 10
1673.891771819027
 20
2840.024581814995
 30
0.0
  0
VERTEX
  5
7B2
  8
0
  6
CONTINUOUS
 62
     7
 10
1673.697067332148
 20
2840.019583721601
 30
0.0
  0
VERTEX
  5
7B3
  8
0
  6
CONTINUOUS
 62
     7
 10
1673.49709320191
 20
2840.014729845298
 30
0.0
  0
VERTEX
  5
7B4
  8
0
  6
CONTINUOUS
 62
     7
 10
1673.291885291563
 20
2840.010023377114
 30
0.0
  0
VERTEX
  5
7B5
  8
0
  6
CONTINUOUS
 62
     7
 10
1673.08156560737
 20
2840.00546763711
 30
0.0
  0
VERTEX
  5
7B6
  8
0
  6
CONTINUOUS
 62
     7
 10
1672.866332480095
 20
2840.001066059675
 30
0.0
  0
VERTEX
  5
7B7
  8
0
  6
CONTINUOUS
 62
     7
 10
1672.646386881206
 20
2839.996822083156
 30
0.0
  0
VERTEX
  5
7B8
  8
0
  6
CONTINUOUS
 62
     7
 10
1672.421929782169
 20
2839.992739145897
 30
0.0
  0
VERTEX
  5
7B9
  8
0
  6
CONTINUOUS
 62
     7
 10
1672.193162154453
 20
2839.988820686244
 30
0.0
  0
VERTEX
  5
7BA
  8
0
  6
CONTINUOUS
 62
     7
 10
1671.960284969523
 20
2839.985070142541
 30
0.0
  0
VERTEX
  5
7BB
  8
0
  6
CONTINUOUS
 62
     7
 10
1671.723499198848
 20
2839.981490953132
 30
0.0
  0
VERTEX
  5
7BC
  8
0
  6
CONTINUOUS
 62
     7
 10
1671.483005690215
 20
2839.97808653665
 30
0.0
  0
VERTEX
  5
7BD
  8
0
  6
CONTINUOUS
 62
     7
 10
1671.239001368339
 20
2839.97485968639
 30
0.0
  0
VERTEX
  5
7BE
  8
0
  6
CONTINUOUS
 62
     7
 10
1670.991678521623
 20
2839.971812456623
 30
0.0
  0
VERTEX
  5
7BF
  8
0
  6
CONTINUOUS
 62
     7
 10
1670.741229170896
 20
2839.968946858971
 30
0.0
  0
VERTEX
  5
7C0
  8
0
  6
CONTINUOUS
 62
     7
 10
1670.48784533699
 20
2839.966264905056
 30
0.0
  0
VERTEX
  5
7C1
  8
0
  6
CONTINUOUS
 62
     7
 10
1670.231719040736
 20
2839.963768606497
 30
0.0
  0
VERTEX
  5
7C2
  8
0
  6
CONTINUOUS
 62
     7
 10
1669.973042302964
 20
2839.961459974917
 30
0.0
  0
VERTEX
  5
7C3
  8
0
  6
CONTINUOUS
 62
     7
 10
1669.712007144505
 20
2839.959341021936
 30
0.0
  0
VERTEX
  5
7C4
  8
0
  6
CONTINUOUS
 62
     7
 10
1669.44880558619
 20
2839.957413759176
 30
0.0
  0
VERTEX
  5
7C5
  8
0
  6
CONTINUOUS
 62
     7
 10
1669.183631800964
 20
2839.955680070792
 30
0.0
  0
VERTEX
  5
7C6
  8
0
  6
CONTINUOUS
 62
     7
 10
1668.916693618585
 20
2839.954141032082
 30
0.0
  0
VERTEX
  5
7C7
  8
0
  6
CONTINUOUS
 62
     7
 10
1668.648204208789
 20
2839.952797402066
 30
0.0
  0
VERTEX
  5
7C8
  8
0
  6
CONTINUOUS
 62
     7
 10
1668.378376753652
 20
2839.951649939034
 30
0.0
  0
VERTEX
  5
7C9
  8
0
  6
CONTINUOUS
 62
     7
 10
1668.10742443525
 20
2839.950699401277
 30
0.0
  0
VERTEX
  5
7CA
  8
0
  6
CONTINUOUS
 62
     7
 10
1667.835560435657
 20
2839.949946547084
 30
0.0
  0
VERTEX
  5
7CB
  8
0
  6
CONTINUOUS
 62
     7
 10
1667.56299793695
 20
2839.94939213475
 30
0.0
  0
VERTEX
  5
7CC
  8
0
  6
CONTINUOUS
 62
     7
 10
1667.289950121203
 20
2839.94903692256
 30
0.0
  0
VERTEX
  5
7CD
  8
0
  6
CONTINUOUS
 62
     7
 10
1667.016630170493
 20
2839.948881668809
 30
0.0
  0
VERTEX
  5
7CE
  8
0
  6
CONTINUOUS
 62
     7
 10
1666.743251336922
 20
2839.948926893335
 30
0.0
  0
VERTEX
  5
7CF
  8
0
  6
CONTINUOUS
 62
     7
 10
1666.470027152691
 20
2839.949172162186
 30
0.0
  0
VERTEX
  5
7D0
  8
0
  6
CONTINUOUS
 62
     7
 10
1666.197171220029
 20
2839.949616802963
 30
0.0
  0
VERTEX
  5
7D1
  8
0
  6
CONTINUOUS
 62
     7
 10
1665.924897141164
 20
2839.950260143269
 30
0.0
  0
VERTEX
  5
7D2
  8
0
  6
CONTINUOUS
 62
     7
 10
1665.653418518324
 20
2839.951101510703
 30
0.0
  0
VERTEX
  5
7D3
  8
0
  6
CONTINUOUS
 62
     7
 10
1665.382948953737
 20
2839.952140232868
 30
0.0
  0
VERTEX
  5
7D4
  8
0
  6
CONTINUOUS
 62
     7
 10
1665.113702049631
 20
2839.953375637363
 30
0.0
  0
VERTEX
  5
7D5
  8
0
  6
CONTINUOUS
 62
     7
 10
1664.845891408233
 20
2839.954807051792
 30
0.0
  0
VERTEX
  5
7D6
  8
0
  6
CONTINUOUS
 62
     7
 10
1664.579730619863
 20
2839.956433803019
 30
0.0
  0
VERTEX
  5
7D7
  8
0
  6
CONTINUOUS
 62
     7
 10
1664.31542812119
 20
2839.958254899519
 30
0.0
  0
VERTEX
  5
7D8
  8
0
  6
CONTINUOUS
 62
     7
 10
1664.053179168776
 20
2839.960268535512
 30
0.0
  0
VERTEX
  5
7D9
  8
0
  6
CONTINUOUS
 62
     7
 10
1663.793176942216
 20
2839.962472776899
 30
0.0
  0
VERTEX
  5
7DA
  8
0
  6
CONTINUOUS
 62
     7
 10
1663.535614621105
 20
2839.964865689584
 30
0.0
  0
VERTEX
  5
7DB
  8
0
  6
CONTINUOUS
 62
     7
 10
1663.280685385037
 20
2839.967445339472
 30
0.0
  0
VERTEX
  5
7DC
  8
0
  6
CONTINUOUS
 62
     7
 10
1663.028582413609
 20
2839.970209792465
 30
0.0
  0
VERTEX
  5
7DD
  8
0
  6
CONTINUOUS
 62
     7
 10
1662.779498886415
 20
2839.973157114467
 30
0.0
  0
VERTEX
  5
7DE
  8
0
  6
CONTINUOUS
 62
     7
 10
1662.533627983049
 20
2839.976285371381
 30
0.0
  0
VERTEX
  5
7DF
  8
0
  6
CONTINUOUS
 62
     7
 10
1662.291163175707
 20
2839.979592586573
 30
0.0
  0
VERTEX
  5
7E0
  8
0
  6
CONTINUOUS
 62
     7
 10
1662.052303006461
 20
2839.983076046335
 30
0.0
  0
VERTEX
  5
7E1
  8
0
  6
CONTINUOUS
 62
     7
 10
1661.817250307289
 20
2839.986732413285
 30
0.0
  0
VERTEX
  5
7E2
  8
0
  6
CONTINUOUS
 62
     7
 10
1661.58620804541
 20
2839.990558330374
 30
0.0
  0
VERTEX
  5
7E3
  8
0
  6
CONTINUOUS
 62
     7
 10
1661.35937918804
 20
2839.99455044056
 30
0.0
  0
VERTEX
  5
7E4
  8
0
  6
CONTINUOUS
 62
     7
 10
1661.136966702398
 20
2839.998705386796
 30
0.0
  0
VERTEX
  5
7E5
  8
0
  6
CONTINUOUS
 62
     7
 10
1660.919173555702
 20
2840.003019812038
 30
0.0
  0
VERTEX
  5
7E6
  8
0
  6
CONTINUOUS
 62
     7
 10
1660.70620271517
 20
2840.007490359239
 30
0.0
  0
VERTEX
  5
7E7
  8
0
  6
CONTINUOUS
 62
     7
 10
1660.498254505261
 20
2840.012113674246
 30
0.0
  0
VERTEX
  5
7E8
  8
0
  6
CONTINUOUS
 62
     7
 10
1660.295452867541
 20
2840.0168864865
 30
0.0
  0
VERTEX
  5
7E9
  8
0
  6
CONTINUOUS
 62
     7
 10
1660.09783553526
 20
2840.02180561979
 30
0.0
  0
VERTEX
  5
7EA
  8
0
  6
CONTINUOUS
 62
     7
 10
1659.905435624803
 20
2840.026867902951
 30
0.0
  0
VERTEX
  5
7EB
  8
0
  6
CONTINUOUS
 62
     7
 10
1659.718286252554
 20
2840.032070164827
 30
0.0
  0
VERTEX
  5
7EC
  8
0
  6
CONTINUOUS
 62
     7
 10
1659.536420534899
 20
2840.037409234255
 30
0.0
  0
VERTEX
  5
7ED
  8
0
  6
CONTINUOUS
 62
     7
 10
1659.359871588222
 20
2840.042881940076
 30
0.0
  0
VERTEX
  5
7EE
  8
0
  6
CONTINUOUS
 62
     7
 10
1659.188672528907
 20
2840.048485111129
 30
0.0
  0
VERTEX
  5
7EF
  8
0
  6
CONTINUOUS
 62
     7
 10
1659.022897831685
 20
2840.054215234076
 30
0.0
  0
VERTEX
  5
7F0
  8
0
  6
CONTINUOUS
 62
     7
 10
1658.862803961379
 20
2840.060067289889
 30
0.0
  0
VERTEX
  5
7F1
  8
0
  6
CONTINUOUS
 62
     7
 10
1658.708697425546
 20
2840.066035845514
 30
0.0
  0
VERTEX
  5
7F2
  8
0
  6
CONTINUOUS
 62
     7
 10
1658.560884733201
 20
2840.072115467883
 30
0.0
  0
VERTEX
  5
7F3
  8
0
  6
CONTINUOUS
 62
     7
 10
1658.419672393365
 20
2840.078300723927
 30
0.0
  0
VERTEX
  5
7F4
  8
0
  6
CONTINUOUS
 62
     7
 10
1658.285366915052
 20
2840.08458618058
 30
0.0
  0
VERTEX
  5
7F5
  8
0
  6
CONTINUOUS
 62
     7
 10
1658.15827480728
 20
2840.090966404774
 30
0.0
  0
VERTEX
  5
7F6
  8
0
  6
CONTINUOUS
 62
     7
 10
1658.038702579068
 20
2840.097435963442
 30
0.0
  0
VERTEX
  5
7F7
  8
0
  6
CONTINUOUS
 62
     7
 10
1657.926956739432
 20
2840.103989423517
 30
0.0
  0
VERTEX
  5
7F8
  8
0
  6
CONTINUOUS
 62
     7
 10
1657.82334379739
 20
2840.11062135193
 30
0.0
  0
VERTEX
  5
7F9
  8
0
  6
CONTINUOUS
 62
     7
 10
1657.728170261959
 20
2840.117326315614
 30
0.0
  0
VERTEX
  5
7FA
  8
0
  6
CONTINUOUS
 62
     7
 10
1657.641742642156
 20
2840.124098881502
 30
0.0
  0
VERTEX
  5
7FB
  8
0
  6
CONTINUOUS
 62
     7
 10
1657.564366703238
 20
2840.130933616383
 30
0.0
  0
VERTEX
  5
7FC
  8
0
  6
CONTINUOUS
 62
     7
 10
1657.496037847058
 20
2840.137825026954
 30
0.0
  0
VERTEX
  5
7FD
  8
0
  6
CONTINUOUS
 62
     7
 10
1657.435962523298
 20
2840.144767467171
 30
0.0
  0
VERTEX
  5
7FE
  8
0
  6
CONTINUOUS
 62
     7
 10
1657.383223672797
 20
2840.15175526707
 30
0.0
  0
VERTEX
  5
7FF
  8
0
  6
CONTINUOUS
 62
     7
 10
1657.3369042364
 20
2840.158782756693
 30
0.0
  0
VERTEX
  5
800
  8
0
  6
CONTINUOUS
 62
     7
 10
1657.296087154947
 20
2840.165844266078
 30
0.0
  0
VERTEX
  5
801
  8
0
  6
CONTINUOUS
 62
     7
 10
1657.259855369283
 20
2840.172934125265
 30
0.0
  0
VERTEX
  5
802
  8
0
  6
CONTINUOUS
 62
     7
 10
1657.227291820249
 20
2840.180046664294
 30
0.0
  0
VERTEX
  5
803
  8
0
  6
CONTINUOUS
 62
     7
 10
1657.197479448688
 20
2840.187176213205
 30
0.0
  0
VERTEX
  5
804
  8
0
  6
CONTINUOUS
 62
     7
 10
1657.169501195441
 20
2840.194317102035
 30
0.0
  0
VERTEX
  5
805
  8
0
  6
CONTINUOUS
 62
     7
 10
1657.142440001352
 20
2840.201463660827
 30
0.0
  0
SEQEND
  5
8AF
  8
0
  6
CONTINUOUS
 62
     7
  0
LINE
  5
20E
  8
0
  6
CONTINUOUS
 62
     7
 10
1659.971318193564
 20
2842.547698761062
 30
0.0
 11
1660.023279828908
 21
2842.551866977415
 31
0.0
  0
LINE
  5
20F
  8
0
  6
CONTINUOUS
 62
     7
 10
1664.495437075997
 20
2842.591104632374
 30
0.0
 11
1666.42628647993
 21
2842.591104632387
 31
0.0
  0
LINE
  5
210
  8
0
  6
CONTINUOUS
 62
     7
 10
1666.42628647993
 20
2842.591104632387
 30
0.0
 11
1666.42628647993
 21
2842.540560887352
 31
0.0
  0
ARC
  5
211
  8
0
  6
CONTINUOUS
 62
     7
 10
1666.941286479931
 20
2936.828422017854
 30
0.0
 40
94.28926758419962
 50
269.6870537451384
 51
270.312946254863
  0
LINE
  5
212
  8
0
  6
CONTINUOUS
 62
     7
 10
1667.45628647993
 20
2842.540560887352
 30
0.0
 11
1667.456286479931
 21
2842.591104632387
 31
0.0
  0
LINE
  5
213
  8
0
  6
CONTINUOUS
 62
     7
 10
1667.456286479931
 20
2842.591104632387
 30
0.0
 11
1669.387135883864
 21
2842.591104632374
 31
0.0
  0
POLYLINE
  5
214
  8
0
  6
CONTINUOUS
 62
     7
 66
     1
 10
0.0
 20
0.0
 30
0.0
 70
   128
  0
VERTEX
  5
806
  8
0
  6
CONTINUOUS
 62
     7
 10
1669.387135883864
 20
2842.618066889129
 30
0.0
  0
VERTEX
  5
807
  8
0
  6
CONTINUOUS
 62
     7
 10
1669.410552189743
 20
2842.614728480763
 30
0.0
  0
VERTEX
  5
808
  8
0
  6
CONTINUOUS
 62
     7
 10
1669.427323280717
 20
2842.611362776609
 30
0.0
  0
VERTEX
  5
809
  8
0
  6
CONTINUOUS
 62
     7
 10
1669.437404022922
 20
2842.607978834349
 30
0.0
  0
VERTEX
  5
80A
  8
0
  6
CONTINUOUS
 62
     7
 10
1669.440767287363
 20
2842.604585760751
 30
0.0
  0
VERTEX
  5
80B
  8
0
  6
CONTINUOUS
 62
     7
 10
1669.437404022922
 20
2842.601192687152
 30
0.0
  0
VERTEX
  5
80C
  8
0
  6
CONTINUOUS
 62
     7
 10
1669.427323280717
 20
2842.597808744893
 30
0.0
  0
VERTEX
  5
80D
  8
0
  6
CONTINUOUS
 62
     7
 10
1669.410552189743
 20
2842.594443040738
 30
0.0
  0
VERTEX
  5
80E
  8
0
  6
CONTINUOUS
 62
     7
 10
1669.387135883864
 20
2842.591104632374
 30
0.0
  0
SEQEND
  5
8B0
  8
0
  6
CONTINUOUS
 62
     7
  0
LINE
  5
215
  8
0
  6
CONTINUOUS
 62
     7
 10
1669.387135883864
 20
2842.618066889129
 30
0.0
 11
1667.45628647993
 21
2842.618066889142
 31
0.0
  0
LINE
  5
216
  8
0
  6
CONTINUOUS
 62
     7
 10
1667.45628647993
 20
2842.618066889142
 30
0.0
 11
1667.45628647993
 21
2842.668610634164
 31
0.0
  0
ARC
  5
217
  8
0
  6
CONTINUOUS
 62
     7
 10
1666.941286479931
 20
2748.380749503676
 30
0.0
 40
94.28926758418552
 50
89.68705374513769
 51
90.31294625486245
  0
LINE
  5
218
  8
0
  6
CONTINUOUS
 62
     7
 10
1666.42628647993
 20
2842.668610634164
 30
0.0
 11
1666.42628647993
 21
2842.618066889142
 31
0.0
  0
LINE
  5
219
  8
0
  6
CONTINUOUS
 62
     7
 10
1666.42628647993
 20
2842.618066889142
 30
0.0
 11
1664.495437075997
 21
2842.618066889129
 31
0.0
  0
POLYLINE
  5
21A
  8
0
  6
CONTINUOUS
 62
     7
 66
     1
 10
0.0
 20
0.0
 30
0.0
 70
   128
  0
VERTEX
  5
80F
  8
0
  6
CONTINUOUS
 62
     7
 10
1664.495437075997
 20
2842.591104632374
 30
0.0
  0
VERTEX
  5
810
  8
0
  6
CONTINUOUS
 62
     7
 10
1664.472020770118
 20
2842.594443040739
 30
0.0
  0
VERTEX
  5
811
  8
0
  6
CONTINUOUS
 62
     7
 10
1664.455249679145
 20
2842.597808744894
 30
0.0
  0
VERTEX
  5
812
  8
0
  6
CONTINUOUS
 62
     7
 10
1664.445168936939
 20
2842.601192687152
 30
0.0
  0
VERTEX
  5
813
  8
0
  6
CONTINUOUS
 62
     7
 10
1664.441805672498
 20
2842.604585760751
 30
0.0
  0
VERTEX
  5
814
  8
0
  6
CONTINUOUS
 62
     7
 10
1664.445168936939
 20
2842.60797883435
 30
0.0
  0
VERTEX
  5
815
  8
0
  6
CONTINUOUS
 62
     7
 10
1664.455249679145
 20
2842.611362776609
 30
0.0
  0
VERTEX
  5
816
  8
0
  6
CONTINUOUS
 62
     7
 10
1664.472020770119
 20
2842.614728480763
 30
0.0
  0
VERTEX
  5
817
  8
0
  6
CONTINUOUS
 62
     7
 10
1664.495437075997
 20
2842.618066889129
 30
0.0
  0
SEQEND
  5
8B1
  8
0
  6
CONTINUOUS
 62
     7
  0
LINE
  5
21B
  8
0
  6
CONTINUOUS
 62
     7
 10
1664.509160845449
 20
2842.591104632374
 30
0.0
 11
1664.495437075997
 21
2842.618066889129
 31
0.0
  0
LINE
  5
21C
  8
0
  6
CONTINUOUS
 62
     7
 10
1667.45628647993
 20
2842.618066889142
 30
0.0
 11
1667.45628647993
 21
2842.591104632387
 31
0.0
  0
LINE
  5
21D
  8
0
  6
CONTINUOUS
 62
     7
 10
1666.42628647993
 20
2842.618066889142
 30
0.0
 11
1666.42628647993
 21
2842.591104632387
 31
0.0
  0
ARC
  5
21E
  8
0
  6
CONTINUOUS
 62
     7
 10
3394.444627347016
 20
3032.421250937141
 30
0.0
 40
190.306436376702
 50
269.6979216020305
 51
271.9898299979882
  0
ARC
  5
21F
  8
0
  6
CONTINUOUS
 62
     7
 10
3392.876595405995
 20
3076.697610404555
 30
0.0
 40
234.5808305726121
 50
268.5008299501651
 51
270.1379245117101
  0
ARC
  5
220
  8
0
  6
CONTINUOUS
 62
     7
 10
3396.284225567797
 20
2922.67752522577
 30
0.0
 40
82.58290404800564
 50
268.0271873052014
 51
274.9717851390391
  0
ARC
  5
221
  8
0
  6
CONTINUOUS
 62
     7
 10
3390.821672648301
 20
2931.208896171636
 30
0.0
 40
91.10299653541404
 50
265.3532935281046
 51
271.6477340276591
  0
POLYLINE
  5
222
  8
0
  6
CONTINUOUS
 62
     7
 66
     1
 10
0.0
 20
0.0
 30
0.0
  0
VERTEX
  5
818
  8
0
  6
CONTINUOUS
 62
     7
 10
3403.24128647993
 20
2840.205408180823
 30
0.0
  0
VERTEX
  5
819
  8
0
  6
CONTINUOUS
 62
     7
 10
3403.218426406301
 20
2840.198251574556
 30
0.0
  0
VERTEX
  5
81A
  8
0
  6
CONTINUOUS
 62
     7
 10
3403.194646051163
 20
2840.191100268456
 30
0.0
  0
VERTEX
  5
81B
  8
0
  6
CONTINUOUS
 62
     7
 10
3403.169025133009
 20
2840.18395956269
 30
0.0
  0
VERTEX
  5
81C
  8
0
  6
CONTINUOUS
 62
     7
 10
3403.140643370331
 20
2840.176834757426
 30
0.0
  0
VERTEX
  5
81D
  8
0
  6
CONTINUOUS
 62
     7
 10
3403.10858048162
 20
2840.169731152831
 30
0.0
  0
VERTEX
  5
81E
  8
0
  6
CONTINUOUS
 62
     7
 10
3403.071916185367
 20
2840.16265404907
 30
0.0
  0
VERTEX
  5
81F
  8
0
  6
CONTINUOUS
 62
     7
 10
3403.029730200067
 20
2840.155608746313
 30
0.0
  0
VERTEX
  5
820
  8
0
  6
CONTINUOUS
 62
     7
 10
3402.981102244207
 20
2840.148600544725
 30
0.0
  0
VERTEX
  5
821
  8
0
  6
CONTINUOUS
 62
     7
 10
3402.925112036285
 20
2840.141634744476
 30
0.0
  0
VERTEX
  5
822
  8
0
  6
CONTINUOUS
 62
     7
 10
3402.860839294787
 20
2840.134716645729
 30
0.0
  0
VERTEX
  5
823
  8
0
  6
CONTINUOUS
 62
     7
 10
3402.787487246674
 20
2840.127851574458
 30
0.0
  0
VERTEX
  5
824
  8
0
  6
CONTINUOUS
 62
     7
 10
3402.705048067803
 20
2840.121045021467
 30
0.0
  0
VERTEX
  5
825
  8
0
  6
CONTINUOUS
 62
     7
 10
3402.61382429581
 20
2840.114302542402
 30
0.0
  0
VERTEX
  5
826
  8
0
  6
CONTINUOUS
 62
     7
 10
3402.514119212089
 20
2840.107629693066
 30
0.0
  0
VERTEX
  5
827
  8
0
  6
CONTINUOUS
 62
     7
 10
3402.406236098031
 20
2840.101032029262
 30
0.0
  0
VERTEX
  5
828
  8
0
  6
CONTINUOUS
 62
     7
 10
3402.290478235028
 20
2840.09451510679
 30
0.0
  0
VERTEX
  5
829
  8
0
  6
CONTINUOUS
 62
     7
 10
3402.167148904474
 20
2840.088084481454
 30
0.0
  0
VERTEX
  5
82A
  8
0
  6
CONTINUOUS
 62
     7
 10
3402.036551387759
 20
2840.081745709056
 30
0.0
  0
VERTEX
  5
82B
  8
0
  6
CONTINUOUS
 62
     7
 10
3401.898988966274
 20
2840.075504345399
 30
0.0
  0
VERTEX
  5
82C
  8
0
  6
CONTINUOUS
 62
     7
 10
3401.754764921411
 20
2840.069365946283
 30
0.0
  0
VERTEX
  5
82D
  8
0
  6
CONTINUOUS
 62
     7
 10
3401.604182534566
 20
2840.063336067513
 30
0.0
  0
VERTEX
  5
82E
  8
0
  6
CONTINUOUS
 62
     7
 10
3401.447545087128
 20
2840.057420264891
 30
0.0
  0
VERTEX
  5
82F
  8
0
  6
CONTINUOUS
 62
     7
 10
3401.285155859033
 20
2840.051624094205
 30
0.0
  0
VERTEX
  5
830
  8
0
  6
CONTINUOUS
 62
     7
 10
3401.117268336379
 20
2840.045952677122
 30
0.0
  0
VERTEX
  5
831
  8
0
  6
CONTINUOUS
 62
     7
 10
3400.943954921222
 20
2840.040409556542
 30
0.0
  0
VERTEX
  5
832
  8
0
  6
CONTINUOUS
 62
     7
 10
3400.765246863393
 20
2840.034997916583
 30
0.0
  0
VERTEX
  5
833
  8
0
  6
CONTINUOUS
 62
     7
 10
3400.581175412717
 20
2840.029720941361
 30
0.0
  0
VERTEX
  5
834
  8
0
  6
CONTINUOUS
 62
     7
 10
3400.391771819026
 20
2840.024581814995
 30
0.0
  0
VERTEX
  5
835
  8
0
  6
CONTINUOUS
 62
     7
 10
3400.197067332147
 20
2840.019583721601
 30
0.0
  0
VERTEX
  5
836
  8
0
  6
CONTINUOUS
 62
     7
 10
3399.997093201909
 20
2840.014729845298
 30
0.0
  0
VERTEX
  5
837
  8
0
  6
CONTINUOUS
 62
     7
 10
3399.791885291562
 20
2840.010023377113
 30
0.0
  0
VERTEX
  5
838
  8
0
  6
CONTINUOUS
 62
     7
 10
3399.581565607369
 20
2840.005467637109
 30
0.0
  0
VERTEX
  5
839
  8
0
  6
CONTINUOUS
 62
     7
 10
3399.366332480095
 20
2840.001066059674
 30
0.0
  0
VERTEX
  5
83A
  8
0
  6
CONTINUOUS
 62
     7
 10
3399.146386881206
 20
2839.996822083156
 30
0.0
  0
VERTEX
  5
83B
  8
0
  6
CONTINUOUS
 62
     7
 10
3398.921929782169
 20
2839.992739145897
 30
0.0
  0
VERTEX
  5
83C
  8
0
  6
CONTINUOUS
 62
     7
 10
3398.693162154452
 20
2839.988820686243
 30
0.0
  0
VERTEX
  5
83D
  8
0
  6
CONTINUOUS
 62
     7
 10
3398.460284969523
 20
2839.98507014254
 30
0.0
  0
VERTEX
  5
83E
  8
0
  6
CONTINUOUS
 62
     7
 10
3398.223499198846
 20
2839.981490953132
 30
0.0
  0
VERTEX
  5
83F
  8
0
  6
CONTINUOUS
 62
     7
 10
3397.983005690215
 20
2839.97808653665
 30
0.0
  0
VERTEX
  5
840
  8
0
  6
CONTINUOUS
 62
     7
 10
3397.739001368338
 20
2839.974859686389
 30
0.0
  0
VERTEX
  5
841
  8
0
  6
CONTINUOUS
 62
     7
 10
3397.491678521621
 20
2839.971812456623
 30
0.0
  0
VERTEX
  5
842
  8
0
  6
CONTINUOUS
 62
     7
 10
3397.241229170896
 20
2839.968946858971
 30
0.0
  0
VERTEX
  5
843
  8
0
  6
CONTINUOUS
 62
     7
 10
3396.98784533699
 20
2839.966264905055
 30
0.0
  0
VERTEX
  5
844
  8
0
  6
CONTINUOUS
 62
     7
 10
3396.731719040735
 20
2839.963768606497
 30
0.0
  0
VERTEX
  5
845
  8
0
  6
CONTINUOUS
 62
     7
 10
3396.473042302964
 20
2839.961459974917
 30
0.0
  0
VERTEX
  5
846
  8
0
  6
CONTINUOUS
 62
     7
 10
3396.212007144505
 20
2839.959341021936
 30
0.0
  0
VERTEX
  5
847
  8
0
  6
CONTINUOUS
 62
     7
 10
3395.948805586189
 20
2839.957413759176
 30
0.0
  0
VERTEX
  5
848
  8
0
  6
CONTINUOUS
 62
     7
 10
3395.683631800963
 20
2839.955680070792
 30
0.0
  0
VERTEX
  5
849
  8
0
  6
CONTINUOUS
 62
     7
 10
3395.416693618585
 20
2839.954141032082
 30
0.0
  0
VERTEX
  5
84A
  8
0
  6
CONTINUOUS
 62
     7
 10
3395.148204208789
 20
2839.952797402065
 30
0.0
  0
VERTEX
  5
84B
  8
0
  6
CONTINUOUS
 62
     7
 10
3394.878376753652
 20
2839.951649939033
 30
0.0
  0
VERTEX
  5
84C
  8
0
  6
CONTINUOUS
 62
     7
 10
3394.60742443525
 20
2839.950699401277
 30
0.0
  0
VERTEX
  5
84D
  8
0
  6
CONTINUOUS
 62
     7
 10
3394.335560435657
 20
2839.949946547085
 30
0.0
  0
VERTEX
  5
84E
  8
0
  6
CONTINUOUS
 62
     7
 10
3394.062997936949
 20
2839.949392134749
 30
0.0
  0
VERTEX
  5
84F
  8
0
  6
CONTINUOUS
 62
     7
 10
3393.789950121203
 20
2839.94903692256
 30
0.0
  0
VERTEX
  5
850
  8
0
  6
CONTINUOUS
 62
     7
 10
3393.516630170493
 20
2839.948881668809
 30
0.0
  0
VERTEX
  5
851
  8
0
  6
CONTINUOUS
 62
     7
 10
3393.24325133692
 20
2839.948926893334
 30
0.0
  0
VERTEX
  5
852
  8
0
  6
CONTINUOUS
 62
     7
 10
3392.97002715269
 20
2839.949172162186
 30
0.0
  0
VERTEX
  5
853
  8
0
  6
CONTINUOUS
 62
     7
 10
3392.697171220029
 20
2839.949616802964
 30
0.0
  0
VERTEX
  5
854
  8
0
  6
CONTINUOUS
 62
     7
 10
3392.424897141164
 20
2839.950260143269
 30
0.0
  0
VERTEX
  5
855
  8
0
  6
CONTINUOUS
 62
     7
 10
3392.153418518324
 20
2839.951101510703
 30
0.0
  0
VERTEX
  5
856
  8
0
  6
CONTINUOUS
 62
     7
 10
3391.882948953737
 20
2839.952140232868
 30
0.0
  0
VERTEX
  5
857
  8
0
  6
CONTINUOUS
 62
     7
 10
3391.613702049631
 20
2839.953375637364
 30
0.0
  0
VERTEX
  5
858
  8
0
  6
CONTINUOUS
 62
     7
 10
3391.345891408234
 20
2839.954807051793
 30
0.0
  0
VERTEX
  5
859
  8
0
  6
CONTINUOUS
 62
     7
 10
3391.079730619863
 20
2839.956433803019
 30
0.0
  0
VERTEX
  5
85A
  8
0
  6
CONTINUOUS
 62
     7
 10
3390.815428121191
 20
2839.958254899519
 30
0.0
  0
VERTEX
  5
85B
  8
0
  6
CONTINUOUS
 62
     7
 10
3390.553179168777
 20
2839.960268535513
 30
0.0
  0
VERTEX
  5
85C
  8
0
  6
CONTINUOUS
 62
     7
 10
3390.293176942215
 20
2839.962472776898
 30
0.0
  0
VERTEX
  5
85D
  8
0
  6
CONTINUOUS
 62
     7
 10
3390.035614621104
 20
2839.964865689584
 30
0.0
  0
VERTEX
  5
85E
  8
0
  6
CONTINUOUS
 62
     7
 10
3389.780685385038
 20
2839.967445339472
 30
0.0
  0
VERTEX
  5
85F
  8
0
  6
CONTINUOUS
 62
     7
 10
3389.528582413609
 20
2839.970209792465
 30
0.0
  0
VERTEX
  5
860
  8
0
  6
CONTINUOUS
 62
     7
 10
3389.279498886415
 20
2839.973157114467
 30
0.0
  0
VERTEX
  5
861
  8
0
  6
CONTINUOUS
 62
     7
 10
3389.033627983049
 20
2839.976285371381
 30
0.0
  0
VERTEX
  5
862
  8
0
  6
CONTINUOUS
 62
     7
 10
3388.791163175707
 20
2839.979592586572
 30
0.0
  0
VERTEX
  5
863
  8
0
  6
CONTINUOUS
 62
     7
 10
3388.552303006461
 20
2839.983076046335
 30
0.0
  0
VERTEX
  5
864
  8
0
  6
CONTINUOUS
 62
     7
 10
3388.317250307289
 20
2839.986732413284
 30
0.0
  0
VERTEX
  5
865
  8
0
  6
CONTINUOUS
 62
     7
 10
3388.08620804541
 20
2839.990558330373
 30
0.0
  0
VERTEX
  5
866
  8
0
  6
CONTINUOUS
 62
     7
 10
3387.859379188041
 20
2839.99455044056
 30
0.0
  0
VERTEX
  5
867
  8
0
  6
CONTINUOUS
 62
     7
 10
3387.636966702399
 20
2839.998705386796
 30
0.0
  0
VERTEX
  5
868
  8
0
  6
CONTINUOUS
 62
     7
 10
3387.419173555702
 20
2840.003019812038
 30
0.0
  0
VERTEX
  5
869
  8
0
  6
CONTINUOUS
 62
     7
 10
3387.20620271517
 20
2840.007490359239
 30
0.0
  0
VERTEX
  5
86A
  8
0
  6
CONTINUOUS
 62
     7
 10
3386.998254505261
 20
2840.012113674246
 30
0.0
  0
VERTEX
  5
86B
  8
0
  6
CONTINUOUS
 62
     7
 10
3386.79545286754
 20
2840.016886486501
 30
0.0
  0
VERTEX
  5
86C
  8
0
  6
CONTINUOUS
 62
     7
 10
3386.597835535259
 20
2840.02180561979
 30
0.0
  0
VERTEX
  5
86D
  8
0
  6
CONTINUOUS
 62
     7
 10
3386.405435624802
 20
2840.026867902951
 30
0.0
  0
VERTEX
  5
86E
  8
0
  6
CONTINUOUS
 62
     7
 10
3386.218286252554
 20
2840.032070164827
 30
0.0
  0
VERTEX
  5
86F
  8
0
  6
CONTINUOUS
 62
     7
 10
3386.036420534899
 20
2840.037409234255
 30
0.0
  0
VERTEX
  5
870
  8
0
  6
CONTINUOUS
 62
     7
 10
3385.859871588222
 20
2840.042881940076
 30
0.0
  0
VERTEX
  5
871
  8
0
  6
CONTINUOUS
 62
     7
 10
3385.688672528906
 20
2840.048485111128
 30
0.0
  0
VERTEX
  5
872
  8
0
  6
CONTINUOUS
 62
     7
 10
3385.522897831683
 20
2840.054215234075
 30
0.0
  0
VERTEX
  5
873
  8
0
  6
CONTINUOUS
 62
     7
 10
3385.36280396138
 20
2840.06006728989
 30
0.0
  0
VERTEX
  5
874
  8
0
  6
CONTINUOUS
 62
     7
 10
3385.208697425546
 20
2840.066035845515
 30
0.0
  0
VERTEX
  5
875
  8
0
  6
CONTINUOUS
 62
     7
 10
3385.060884733201
 20
2840.072115467883
 30
0.0
  0
VERTEX
  5
876
  8
0
  6
CONTINUOUS
 62
     7
 10
3384.919672393364
 20
2840.078300723927
 30
0.0
  0
VERTEX
  5
877
  8
0
  6
CONTINUOUS
 62
     7
 10
3384.785366915051
 20
2840.084586180581
 30
0.0
  0
VERTEX
  5
878
  8
0
  6
CONTINUOUS
 62
     7
 10
3384.65827480728
 20
2840.090966404774
 30
0.0
  0
VERTEX
  5
879
  8
0
  6
CONTINUOUS
 62
     7
 10
3384.538702579068
 20
2840.097435963443
 30
0.0
  0
VERTEX
  5
87A
  8
0
  6
CONTINUOUS
 62
     7
 10
3384.426956739432
 20
2840.103989423517
 30
0.0
  0
VERTEX
  5
87B
  8
0
  6
CONTINUOUS
 62
     7
 10
3384.323343797389
 20
2840.11062135193
 30
0.0
  0
VERTEX
  5
87C
  8
0
  6
CONTINUOUS
 62
     7
 10
3384.228170261958
 20
2840.117326315613
 30
0.0
  0
VERTEX
  5
87D
  8
0
  6
CONTINUOUS
 62
     7
 10
3384.141742642157
 20
2840.124098881502
 30
0.0
  0
VERTEX
  5
87E
  8
0
  6
CONTINUOUS
 62
     7
 10
3384.064366703237
 20
2840.130933616383
 30
0.0
  0
VERTEX
  5
87F
  8
0
  6
CONTINUOUS
 62
     7
 10
3383.996037847058
 20
2840.137825026954
 30
0.0
  0
VERTEX
  5
880
  8
0
  6
CONTINUOUS
 62
     7
 10
3383.935962523297
 20
2840.144767467171
 30
0.0
  0
VERTEX
  5
881
  8
0
  6
CONTINUOUS
 62
     7
 10
3383.883223672797
 20
2840.151755267071
 30
0.0
  0
VERTEX
  5
882
  8
0
  6
CONTINUOUS
 62
     7
 10
3383.836904236399
 20
2840.158782756693
 30
0.0
  0
VERTEX
  5
883
  8
0
  6
CONTINUOUS
 62
     7
 10
3383.796087154947
 20
2840.165844266078
 30
0.0
  0
VERTEX
  5
884
  8
0
  6
CONTINUOUS
 62
     7
 10
3383.759855369283
 20
2840.172934125265
 30
0.0
  0
VERTEX
  5
885
  8
0
  6
CONTINUOUS
 62
     7
 10
3383.727291820249
 20
2840.180046664294
 30
0.0
  0
VERTEX
  5
886
  8
0
  6
CONTINUOUS
 62
     7
 10
3383.697479448688
 20
2840.187176213205
 30
0.0
  0
VERTEX
  5
887
  8
0
  6
CONTINUOUS
 62
     7
 10
3383.669501195442
 20
2840.194317102036
 30
0.0
  0
VERTEX
  5
888
  8
0
  6
CONTINUOUS
 62
     7
 10
3383.642440001353
 20
2840.201463660827
 30
0.0
  0
SEQEND
  5
8B2
  8
0
  6
CONTINUOUS
 62
     7
  0
LINE
  5
223
  8
0
  6
CONTINUOUS
 62
     7
 10
3386.471318193564
 20
2842.547698761062
 30
0.0
 11
3386.523279828908
 21
2842.551866977415
 31
0.0
  0
LINE
  5
224
  8
0
  6
CONTINUOUS
 62
     7
 10
3390.995437075997
 20
2842.591104632374
 30
0.0
 11
3392.926286479931
 21
2842.591104632387
 31
0.0
  0
LINE
  5
225
  8
0
  6
CONTINUOUS
 62
     7
 10
3392.926286479931
 20
2842.591104632387
 30
0.0
 11
3392.926286479931
 21
2842.540560887352
 31
0.0
  0
ARC
  5
226
  8
0
  6
CONTINUOUS
 62
     7
 10
3393.441286479931
 20
2936.828422017764
 30
0.0
 40
94.28926758410958
 50
269.6870537451383
 51
270.3129462548633
  0
LINE
  5
227
  8
0
  6
CONTINUOUS
 62
     7
 10
3393.95628647993
 20
2842.540560887352
 30
0.0
 11
3393.956286479931
 21
2842.591104632387
 31
0.0
  0
LINE
  5
228
  8
0
  6
CONTINUOUS
 62
     7
 10
3393.956286479931
 20
2842.591104632387
 30
0.0
 11
3395.887135883864
 21
2842.591104632374
 31
0.0
  0
POLYLINE
  5
229
  8
0
  6
CONTINUOUS
 62
     7
 66
     1
 10
0.0
 20
0.0
 30
0.0
 70
   128
  0
VERTEX
  5
889
  8
0
  6
CONTINUOUS
 62
     7
 10
3395.887135883864
 20
2842.618066889129
 30
0.0
  0
VERTEX
  5
88A
  8
0
  6
CONTINUOUS
 62
     7
 10
3395.910552189743
 20
2842.614728480763
 30
0.0
  0
VERTEX
  5
88B
  8
0
  6
CONTINUOUS
 62
     7
 10
3395.927323280717
 20
2842.611362776609
 30
0.0
  0
VERTEX
  5
88C
  8
0
  6
CONTINUOUS
 62
     7
 10
3395.937404022922
 20
2842.607978834349
 30
0.0
  0
VERTEX
  5
88D
  8
0
  6
CONTINUOUS
 62
     7
 10
3395.940767287363
 20
2842.604585760751
 30
0.0
  0
VERTEX
  5
88E
  8
0
  6
CONTINUOUS
 62
     7
 10
3395.937404022922
 20
2842.601192687152
 30
0.0
  0
VERTEX
  5
88F
  8
0
  6
CONTINUOUS
 62
     7
 10
3395.927323280716
 20
2842.597808744893
 30
0.0
  0
VERTEX
  5
890
  8
0
  6
CONTINUOUS
 62
     7
 10
3395.910552189743
 20
2842.594443040738
 30
0.0
  0
VERTEX
  5
891
  8
0
  6
CONTINUOUS
 62
     7
 10
3395.887135883864
 20
2842.591104632374
 30
0.0
  0
SEQEND
  5
8B3
  8
0
  6
CONTINUOUS
 62
     7
  0
LINE
  5
22A
  8
0
  6
CONTINUOUS
 62
     7
 10
3395.887135883864
 20
2842.618066889129
 30
0.0
 11
3393.95628647993
 21
2842.618066889142
 31
0.0
  0
LINE
  5
22B
  8
0
  6
CONTINUOUS
 62
     7
 10
3393.95628647993
 20
2842.618066889142
 30
0.0
 11
3393.95628647993
 21
2842.668610634164
 31
0.0
  0
ARC
  5
22C
  8
0
  6
CONTINUOUS
 62
     7
 10
3393.441286479931
 20
2748.380749503725
 30
0.0
 40
94.2892675841364
 50
89.68705374513752
 51
90.31294625486247
  0
LINE
  5
22D
  8
0
  6
CONTINUOUS
 62
     7
 10
3392.926286479931
 20
2842.668610634164
 30
0.0
 11
3392.926286479931
 21
2842.618066889142
 31
0.0
  0
LINE
  5
22E
  8
0
  6
CONTINUOUS
 62
     7
 10
3392.926286479931
 20
2842.618066889142
 30
0.0
 11
3390.995437075997
 21
2842.618066889129
 31
0.0
  0
POLYLINE
  5
22F
  8
0
  6
CONTINUOUS
 62
     7
 66
     1
 10
0.0
 20
0.0
 30
0.0
 70
   128
  0
VERTEX
  5
892
  8
0
  6
CONTINUOUS
 62
     7
 10
3390.995437075997
 20
2842.591104632374
 30
0.0
  0
VERTEX
  5
893
  8
0
  6
CONTINUOUS
 62
     7
 10
3390.972020770118
 20
2842.594443040739
 30
0.0
  0
VERTEX
  5
894
  8
0
  6
CONTINUOUS
 62
     7
 10
3390.955249679144
 20
2842.597808744894
 30
0.0
  0
VERTEX
  5
895
  8
0
  6
CONTINUOUS
 62
     7
 10
3390.945168936939
 20
2842.601192687152
 30
0.0
  0
VERTEX
  5
896
  8
0
  6
CONTINUOUS
 62
     7
 10
3390.941805672498
 20
2842.604585760751
 30
0.0
  0
VERTEX
  5
897
  8
0
  6
CONTINUOUS
 62
     7
 10
3390.945168936939
 20
2842.60797883435
 30
0.0
  0
VERTEX
  5
898
  8
0
  6
CONTINUOUS
 62
     7
 10
3390.955249679144
 20
2842.611362776609
 30
0.0
  0
VERTEX
  5
899
  8
0
  6
CONTINUOUS
 62
     7
 10
3390.972020770118
 20
2842.614728480763
 30
0.0
  0
VERTEX
  5
89A
  8
0
  6
CONTINUOUS
 62
     7
 10
3390.995437075997
 20
2842.618066889129
 30
0.0
  0
SEQEND
  5
8B4
  8
0
  6
CONTINUOUS
 62
     7
  0
LINE
  5
230
  8
0
  6
CONTINUOUS
 62
     7
 10
3391.009160845449
 20
2842.591104632374
 30
0.0
 11
3390.995437075997
 21
2842.618066889129
 31
0.0
  0
LINE
  5
231
  8
0
  6
CONTINUOUS
 62
     7
 10
3393.95628647993
 20
2842.618066889142
 30
0.0
 11
3393.95628647993
 21
2842.591104632387
 31
0.0
  0
LINE
  5
232
  8
0
  6
CONTINUOUS
 62
     7
 10
3392.926286479931
 20
2842.618066889142
 30
0.0
 11
3392.926286479931
 21
2842.591104632387
 31
0.0
  0
ENDSEC
  0
EOF
