  0
SECTION
  2
HEADER
  9
$ACADVER
  1
AC1006
  9
$DWGCODEPAGE
  3
ansi_932
  9
$INSBASE
 10
0.0
 20
0.0
 30
0.0
  9
$EXTMIN
 10
312.5619830021469
 20
165.7088516276313
  9
$EXTMAX
 10
4839.484712179223
 20
3066.145066982254
  9
$LIMMIN
 10
0.0
 20
0.0
  9
$LIMMAX
 10
5000.0
 20
3500.0
  9
$ORTHOMODE
 70
     0
  9
$REGENMODE
 70
     1
  9
$FILLMODE
 70
     1
  9
$QTEXTMODE
 70
     0
  9
$MIRRTEXT
 70
     1
  9
$DRAGMODE
 70
     2
  9
$LTSCALE
 40
1.0
  9
$OSMODE
 70
    37
  9
$ATTMODE
 70
     1
  9
$TEXTSIZE
 40
3.5
  9
$TRACEWID
 40
1.0
  9
$TEXTSTYLE
  7
STANDARD
  9
$CLAYER
  8
0
  9
$CELTYPE
  6
BYLAYER
  9
$CECOLOR
 62
   256
  9
$DIMSCALE
 40
1.0
  9
$DIMASZ
 40
3.302
  9
$DIMEXO
 40
1.0
  9
$DIMDLI
 40
3.75
  9
$DIMRND
 40
0.0
  9
$DIMDLE
 40
0.0
  9
$DIMEXE
 40
1.0
  9
$DIMTP
 40
0.0
  9
$DIMTM
 40
0.0
  9
$DIMTXT
 40
3.5
  9
$DIMCEN
 40
2.5
  9
$DIMTSZ
 40
0.0
  9
$DIMTOL
 70
     0
  9
$DIMLIM
 70
     0
  9
$DIMTIH
 70
     1
  9
$DIMTOH
 70
     1
  9
$DIMSE1
 70
     0
  9
$DIMSE2
 70
     0
  9
$DIMTAD
 70
     1
  9
$DIMZIN
 70
     0
  9
$DIMBLK
  1

  9
$DIMASO
 70
     1
  9
$DIMSHO
 70
     1
  9
$DIMPOST
  1

  9
$DIMAPOST
  1

  9
$DIMALT
 70
     0
  9
$DIMALTD
 70
     3
  9
$DIMALTF
 40
0.0393700787401575
  9
$DIMLFAC
 40
1.0
  9
$DIMTOFL
 70
     1
  9
$DIMTVP
 40
0.0
  9
$DIMTIX
 70
     0
  9
$DIMSOXD
 70
     0
  9
$DIMSAH
 70
     0
  9
$DIMBLK1
  1

  9
$DIMBLK2
  1

  9
$LUNITS
 70
     2
  9
$LUPREC
 70
     2
  9
$SKETCHINC
 40
1.0
  9
$FILLETRAD
 40
10.0
  9
$AUNITS
 70
     0
  9
$AUPREC
 70
     2
  9
$MENU
  1
.
  9
$ELEVATION
 40
0.0
  9
$THICKNESS
 40
0.0
  9
$LIMCHECK
 70
     0
  9
$CHAMFERA
 40
0.0
  9
$CHAMFERB
 40
0.0
  9
$SKPOLY
 70
     0
  9
$TDCREATE
 40
2458991.335741227
  9
$TDUPDATE
 40
2460138.588424606
  9
$TDINDWG
 40
0.0007266435
  9
$TDUSRTIMER
 40
0.0007266435
  9
$USRTIMER
 70
     1
  9
$ANGBASE
 50
0.0
  9
$ANGDIR
 70
     0
  9
$PDMODE
 70
     0
  9
$PDSIZE
 40
-1.0
  9
$PLINEWID
 40
0.0
  9
$COORDS
 70
     1
  9
$SPLFRAME
 70
     0
  9
$SPLINETYPE
 70
     6
  9
$SPLINESEGS
 70
     8
  9
$ATTDIA
 70
     0
  9
$ATTREQ
 70
     1
  9
$HANDLING
 70
     1
  9
$HANDSEED
  5
875
  9
$SURFTAB1
 70
     6
  9
$SURFTAB2
 70
     6
  9
$SURFTYPE
 70
     6
  9
$SURFU
 70
     6
  9
$SURFV
 70
     6
  9
$UCSNAME
  2

  9
$UCSORG
 10
0.0
 20
0.0
 30
0.0
  9
$UCSXDIR
 10
1.0
 20
0.0
 30
0.0
  9
$UCSYDIR
 10
0.0
 20
1.0
 30
0.0
  9
$USERI1
 70
     0
  9
$USERI2
 70
     0
  9
$USERI3
 70
     0
  9
$USERI4
 70
     0
  9
$USERI5
 70
     0
  9
$USERR1
 40
0.0
  9
$USERR2
 40
0.0
  9
$USERR3
 40
0.0
  9
$USERR4
 40
0.0
  9
$USERR5
 40
0.0
  9
$WORLDVIEW
 70
     1
  0
ENDSEC
  0
SECTION
  2
TABLES
  0
TABLE
  2
VPORT
 70
     1
  0
VPORT
  2
*ACTIVE
 70
     0
 10
0.0
 20
0.0
 11
1.0
 21
1.0
 12
3126.338877204912
 22
1814.383968064734
 13
0.0
 23
0.0
 14
10.0
 24
10.0
 15
10.0
 25
10.0
 16
0.0
 26
0.0
 36
1.0
 17
0.0
 27
0.0
 37
0.0
 40
3793.505352142615
 41
1.876558603491272
 42
50.0
 43
0.0
 44
0.0
 50
0.0
 51
0.0
 71
     0
 72
  2000
 73
     1
 74
     3
 75
     0
 76
     0
 77
     0
 78
     0
  0
ENDTAB
  0
TABLE
  2
LTYPE
 70
     6
  0
LTYPE
  2
CONTINUOUS
 70
     0
  3
Solid line
 72
    65
 73
     0
 40
0.0
  0
LTYPE
  2
HIDDEN
 70
     0
  3
Hidden __ __ __ __ __ __ __ __ __ __ __ __ __ __
 72
    65
 73
     2
 40
1.905
 49
1.27
 49
-0.635
  0
LTYPE
  2
PHANTOM
 70
     0
  3
Phantom ______  __  __  ______  __  __  ______
 72
    65
 73
     6
 40
12.7
 49
6.35
 49
-1.27
 49
1.27
 49
-1.27
 49
1.27
 49
-1.27
  0
LTYPE
  2
CENTER
 70
     0
  3
Center ____ _ ____ _ ____ _ ____ _ ____ _ ____
 72
    65
 73
     4
 40
10.16
 49
6.35
 49
-1.27
 49
1.27
 49
-1.27
  0
LTYPE
  2
CENTERX2
 70
     0
  3
Center (2x) ________  __  ________  __  _____
 72
    65
 73
     4
 40
20.32
 49
12.7
 49
-2.54
 49
2.54
 49
-2.54
  0
LTYPE
  2
DOT2
 70
     0
  3
Dot (.5x) ........................................
 72
    65
 73
     2
 40
0.635
 49
0.0
 49
-0.635
  0
ENDTAB
  0
TABLE
  2
LAYER
 70
     3
  0
LAYER
  2
0
 70
     0
 62
     7
  6
CONTINUOUS
  0
LAYER
  2
SLD-0
 70
     0
 62
   179
  6
CONTINUOUS
  0
LAYER
  2
寸法
 70
     0
 62
   179
  6
CONTINUOUS
  0
ENDTAB
  0
TABLE
  2
STYLE
 70
     2
  0
STYLE
  2
STANDARD
 70
     0
 40
0.0
 41
1.0
 50
0.0
 71
     0
 42
3.5
  3
txt
  4
bigfont
  0
STYLE
  2
SLDTEXTSTYLE0
 70
     0
 40
0.0
 41
0.75
 50
0.0
 71
     0
 42
3.5
  3
TXT
  4
bigfont
  0
ENDTAB
  0
TABLE
  2
VIEW
 70
     0
  0
ENDTAB
  0
TABLE
  2
UCS
 70
     0
  0
ENDTAB
  0
ENDSEC
  0
SECTION
  2
BLOCKS
  0
ENDSEC
  0
SECTION
  2
ENTITIES
  0
LINE
  5
75
  8
0
  6
CONTINUOUS
 62
     7
 10
4839.484712179223
 20
258.5233124172521
 30
0.0
 11
3312.374599790194
 21
258.5233124172519
 31
0.0
  0
TEXT
  5
77
  8
0
  6
CONTINUOUS
 62
     7
 10
1655.363757320875
 20
3013.228400315587
 30
0.0
 40
52.91666666666666
  1
＜上面＞
 41
0.75
  7
SLDTEXTSTYLE0
  0
TEXT
  5
78
  8
0
  6
CONTINUOUS
 62
     7
 10
340.4564745328014
 20
1797.422665617469
 30
0.0
 40
52.91666666666666
  1
＜左側面＞
 41
0.75
  7
SLDTEXTSTYLE0
  0
TEXT
  5
79
  8
0
  6
CONTINUOUS
 62
     7
 10
4271.252345055726
 20
1797.422665617467
 30
0.0
 40
52.91666666666666
  1
＜右側面＞
 41
0.75
  7
SLDTEXTSTYLE0
  0
TEXT
  5
7A
  8
0
  6
CONTINUOUS
 62
     7
 10
1655.363757320875
 20
1797.422665617469
 30
0.0
 40
52.91666666666666
  1
＜正面＞
 41
0.75
  7
SLDTEXTSTYLE0
  0
TEXT
  5
7B
  8
0
  6
CONTINUOUS
 62
     7
 10
3377.814243189123
 20
326.489054196763
 30
0.0
 40
52.91666666666666
  1
品名：
 41
0.75
  7
SLDTEXTSTYLE0
  0
TEXT
  5
7C
  8
0
  6
CONTINUOUS
 62
     7
 10
3596.719089054346
 20
326.4179256298013
 30
0.0
 40
66.14583333333331
  1
MA-122D-T
 41
0.75
  7
SLDTEXTSTYLE0
  0
TEXT
  5
7D
  8
0
  6
CONTINUOUS
 62
     7
 10
4446.663437481703
 20
332.3177187478654
 30
0.0
 40
52.91666666666666
  1
Pamouna
 41
0.75
  7
SLDTEXTSTYLE0
  0
TEXT
  5
7E
  8
寸法
  6
CONTINUOUS
 62
     7
 10
4688.007304885427
 20
165.7088516276312
 30
0.0
 40
52.91666666666666
  1
1/1
 41
0.75
  7
SLDTEXTSTYLE0
  0
TEXT
  5
7F
  8
寸法
  6
CONTINUOUS
 62
     7
 10
4198.79693921183
 20
165.7088544215994
 30
0.0
 40
52.91666666666666
  1
2022/9/9
 41
0.75
  7
SLDTEXTSTYLE0
  0
LINE
  5
80
  8
0
  6
CONTINUOUS
 62
     7
 10
1729.308634023
 20
1151.535708755057
 30
0.0
 11
1728.808634023
 21
1151.535708755057
 31
0.0
  0
LINE
  5
81
  8
0
  6
CONTINUOUS
 62
     7
 10
1728.808634023
 20
1143.735708755057
 30
0.0
 11
1729.308634023
 21
1143.735708755057
 31
0.0
  0
LINE
  5
82
  8
0
  6
CONTINUOUS
 62
     7
 10
2894.808634022999
 20
1143.735708755057
 30
0.0
 11
2895.308634022999
 21
1143.735708755057
 31
0.0
  0
LINE
  5
83
  8
0
  6
CONTINUOUS
 62
     7
 10
2895.308634022999
 20
1151.535708755057
 30
0.0
 11
2894.808634022999
 21
1151.535708755057
 31
0.0
  0
LINE
  5
84
  8
0
  6
CONTINUOUS
 62
     7
 10
1729.058634023
 20
1291.635708755057
 30
0.0
 11
1729.058634023
 21
1288.635708755057
 31
0.0
  0
LINE
  5
85
  8
0
  6
CONTINUOUS
 62
     7
 10
2895.058634023
 20
1288.635708755057
 30
0.0
 11
2895.058634023
 21
1291.635708755057
 31
0.0
  0
LINE
  5
86
  8
0
  6
CONTINUOUS
 62
     7
 10
2914.058634022999
 20
1291.635708755057
 30
0.0
 11
2914.058634022999
 21
1308.635708755057
 31
0.0
  0
LINE
  5
87
  8
0
  6
CONTINUOUS
 62
     7
 10
2913.058634022999
 20
1308.635708755057
 30
0.0
 11
2913.058634022999
 21
1291.635708755057
 31
0.0
  0
LINE
  5
88
  8
0
  6
CONTINUOUS
 62
     7
 10
2914.058634022999
 20
1308.635708755057
 30
0.0
 11
2913.058634022999
 21
1308.635708755057
 31
0.0
  0
LINE
  5
89
  8
0
  6
CONTINUOUS
 62
     7
 10
2913.058634022999
 20
1291.635708755057
 30
0.0
 11
2914.058634022999
 21
1291.635708755057
 31
0.0
  0
LINE
  5
8A
  8
0
  6
CONTINUOUS
 62
     7
 10
1711.058634023
 20
1291.635708755057
 30
0.0
 11
2913.058634022999
 21
1291.635708755057
 31
0.0
  0
LINE
  5
8B
  8
0
  6
CONTINUOUS
 62
     7
 10
1711.058634023
 20
1291.635708755057
 30
0.0
 11
1711.058634023
 21
1308.635708755057
 31
0.0
  0
LINE
  5
8C
  8
0
  6
CONTINUOUS
 62
     7
 10
2913.058634022999
 20
1308.635708755057
 30
0.0
 11
1711.058634023
 21
1308.635708755057
 31
0.0
  0
LINE
  5
8D
  8
0
  6
CONTINUOUS
 62
     7
 10
1711.058634023
 20
1308.635708755057
 30
0.0
 11
1710.058634023
 21
1308.635708755057
 31
0.0
  0
LINE
  5
8E
  8
0
  6
CONTINUOUS
 62
     7
 10
1710.058634023
 20
1308.635708755057
 30
0.0
 11
1710.058634023
 21
1291.635708755057
 31
0.0
  0
LINE
  5
8F
  8
0
  6
CONTINUOUS
 62
     7
 10
1710.058634023
 20
1291.635708755057
 30
0.0
 11
1711.058634023
 21
1291.635708755057
 31
0.0
  0
LINE
  5
90
  8
0
  6
CONTINUOUS
 62
     7
 10
1729.308634023
 20
1124.135708755057
 30
0.0
 11
1729.308634023
 21
1123.635708755057
 31
0.0
  0
LINE
  5
91
  8
0
  6
CONTINUOUS
 62
     7
 10
2894.808634022999
 20
1124.135708755057
 30
0.0
 11
1729.308634023
 21
1124.135708755057
 31
0.0
  0
LINE
  5
92
  8
0
  6
CONTINUOUS
 62
     7
 10
2894.808634022999
 20
1124.135708755057
 30
0.0
 11
2894.808634022999
 21
1123.635708755057
 31
0.0
  0
LINE
  5
93
  8
0
  6
CONTINUOUS
 62
     7
 10
1729.308634023
 20
1123.635708755057
 30
0.0
 11
2894.808634022999
 21
1123.635708755057
 31
0.0
  0
CIRCLE
  5
94
  8
0
  6
CONTINUOUS
 62
     7
 10
2514.808634022999
 20
1168.635708755057
 30
0.0
 40
1.511300000000119
  0
CIRCLE
  5
95
  8
0
  6
CONTINUOUS
 62
     7
 10
2514.808634022999
 20
1168.635708755057
 30
0.0
 40
1.500000048000402
  0
CIRCLE
  5
96
  8
0
  6
CONTINUOUS
 62
     7
 10
1879.308634023
 20
1168.635708755057
 30
0.0
 40
1.511299999999892
  0
CIRCLE
  5
97
  8
0
  6
CONTINUOUS
 62
     7
 10
1879.308634023
 20
1168.635708755057
 30
0.0
 40
1.50000004799972
  0
CIRCLE
  5
98
  8
0
  6
CONTINUOUS
 62
     7
 10
2744.808634022999
 20
1168.635708755057
 30
0.0
 40
1.511300000000119
  0
CIRCLE
  5
99
  8
0
  6
CONTINUOUS
 62
     7
 10
2744.808634022999
 20
1168.635708755057
 30
0.0
 40
1.500000048000402
  0
CIRCLE
  5
9A
  8
0
  6
CONTINUOUS
 62
     7
 10
2109.308634022999
 20
1168.635708755057
 30
0.0
 40
1.511300000000119
  0
CIRCLE
  5
9B
  8
0
  6
CONTINUOUS
 62
     7
 10
2109.308634022999
 20
1168.635708755057
 30
0.0
 40
1.500000047999947
  0
LINE
  5
9C
  8
0
  6
CONTINUOUS
 62
     7
 10
1729.308634023
 20
1193.635708755057
 30
0.0
 11
1729.308634023
 21
1124.135708755057
 31
0.0
  0
LINE
  5
9D
  8
0
  6
CONTINUOUS
 62
     7
 10
2894.808634022999
 20
1193.635708755057
 30
0.0
 11
2894.808634022999
 21
1124.135708755057
 31
0.0
  0
LINE
  5
9E
  8
0
  6
CONTINUOUS
 62
     7
 10
2325.808634022999
 20
1191.524410272764
 30
0.0
 11
2325.308634023
 21
1191.524410272764
 31
0.0
  0
LINE
  5
9F
  8
0
  6
CONTINUOUS
 62
     7
 10
2325.308634023
 20
1125.635708755057
 30
0.0
 11
2325.808634022999
 21
1125.635708755057
 31
0.0
  0
LINE
  5
A0
  8
0
  6
CONTINUOUS
 62
     7
 10
2325.808634022999
 20
1191.524410272764
 30
0.0
 11
2325.808634022999
 21
1125.635708755057
 31
0.0
  0
LINE
  5
A1
  8
0
  6
CONTINUOUS
 62
     7
 10
2325.308634023
 20
1125.635708755057
 30
0.0
 11
2325.308634023
 21
1191.524410272764
 31
0.0
  0
LINE
  5
A2
  8
0
  6
CONTINUOUS
 62
     7
 10
2298.808634023
 20
1191.524410272764
 30
0.0
 11
2298.808634023
 21
1125.635708755057
 31
0.0
  0
LINE
  5
A3
  8
0
  6
CONTINUOUS
 62
     7
 10
2298.308634022999
 20
1125.635708755057
 30
0.0
 11
2298.808634023
 21
1125.635708755057
 31
0.0
  0
LINE
  5
A4
  8
0
  6
CONTINUOUS
 62
     7
 10
2298.308634022999
 20
1125.635708755057
 30
0.0
 11
2298.308634022999
 21
1191.524410272764
 31
0.0
  0
LINE
  5
A5
  8
0
  6
CONTINUOUS
 62
     7
 10
2298.808634023
 20
1191.524410272764
 30
0.0
 11
2298.308634022999
 21
1191.524410272764
 31
0.0
  0
LINE
  5
A6
  8
0
  6
CONTINUOUS
 62
     7
 10
2325.308634023
 20
1191.524410272764
 30
0.0
 11
2298.808634023
 21
1191.524410272764
 31
0.0
  0
LINE
  5
A7
  8
0
  6
CONTINUOUS
 62
     7
 10
2298.808634023
 20
1125.635708755057
 30
0.0
 11
2325.308634023
 21
1125.635708755057
 31
0.0
  0
LINE
  5
A8
  8
0
  6
CONTINUOUS
 62
     7
 10
2298.308634022999
 20
1193.635708755057
 30
0.0
 11
2298.308634022999
 21
1191.635708755057
 31
0.0
  0
LINE
  5
A9
  8
0
  6
CONTINUOUS
 62
     7
 10
2325.808634022999
 20
1191.635708755057
 30
0.0
 11
2325.808634022999
 21
1193.635708755057
 31
0.0
  0
LINE
  5
AA
  8
0
  6
CONTINUOUS
 62
     7
 10
2325.808634022999
 20
1191.635708755057
 30
0.0
 11
2298.308634022999
 21
1191.635708755057
 31
0.0
  0
LINE
  5
AB
  8
0
  6
CONTINUOUS
 62
     7
 10
2313.808634022999
 20
1274.635708755057
 30
0.0
 11
2310.308634022999
 21
1274.635708755057
 31
0.0
  0
LINE
  5
AC
  8
0
  6
CONTINUOUS
 62
     7
 10
2325.808634022999
 20
1191.524410272764
 30
0.0
 11
2298.308634022999
 21
1191.524410272764
 31
0.0
  0
LINE
  5
AD
  8
0
  6
CONTINUOUS
 62
     7
 10
2325.808634022999
 20
1191.635708755057
 30
0.0
 11
2325.808634022999
 21
1191.524410272764
 31
0.0
  0
LINE
  5
AE
  8
0
  6
CONTINUOUS
 62
     7
 10
2298.308634022999
 20
1191.635708755057
 30
0.0
 11
2298.308634022999
 21
1191.524410272764
 31
0.0
  0
LINE
  5
AF
  8
0
  6
CONTINUOUS
 62
     7
 10
2907.308634023
 20
1194.635708755057
 30
0.0
 11
2313.808634022999
 21
1194.635708755057
 31
0.0
  0
LINE
  5
B0
  8
0
  6
CONTINUOUS
 62
     7
 10
2907.308634023
 20
1194.635708755057
 30
0.0
 11
2907.308634023
 21
1193.635708755057
 31
0.0
  0
LINE
  5
B1
  8
0
  6
CONTINUOUS
 62
     7
 10
2313.808634022999
 20
1193.635708755057
 30
0.0
 11
2907.308634023
 21
1193.635708755057
 31
0.0
  0
LINE
  5
B2
  8
0
  6
CONTINUOUS
 62
     7
 10
2313.808634022999
 20
1194.635708755057
 30
0.0
 11
2313.808634022999
 21
1193.635708755057
 31
0.0
  0
LINE
  5
B3
  8
0
  6
CONTINUOUS
 62
     7
 10
2907.308634023
 20
1194.635708755057
 30
0.0
 11
2906.308634023
 21
1194.635708755057
 31
0.0
  0
LINE
  5
B4
  8
0
  6
CONTINUOUS
 62
     7
 10
2906.308634023
 20
1287.635708755057
 30
0.0
 11
2906.308634023
 21
1194.635708755057
 31
0.0
  0
LINE
  5
B5
  8
0
  6
CONTINUOUS
 62
     7
 10
2906.308634023
 20
1287.635708755057
 30
0.0
 11
2907.308634023
 21
1287.635708755057
 31
0.0
  0
LINE
  5
B6
  8
0
  6
CONTINUOUS
 62
     7
 10
2907.308634023
 20
1287.635708755057
 30
0.0
 11
2907.308634023
 21
1194.635708755057
 31
0.0
  0
LINE
  5
B7
  8
0
  6
CONTINUOUS
 62
     7
 10
2907.308634023
 20
1288.635708755057
 30
0.0
 11
2907.308634023
 21
1287.635708755057
 31
0.0
  0
LINE
  5
B8
  8
0
  6
CONTINUOUS
 62
     7
 10
2313.808634022999
 20
1287.635708755057
 30
0.0
 11
2907.308634023
 21
1287.635708755057
 31
0.0
  0
LINE
  5
B9
  8
0
  6
CONTINUOUS
 62
     7
 10
2313.808634022999
 20
1288.635708755057
 30
0.0
 11
2313.808634022999
 21
1287.635708755057
 31
0.0
  0
LINE
  5
BA
  8
0
  6
CONTINUOUS
 62
     7
 10
2313.808634022999
 20
1288.635708755057
 30
0.0
 11
2907.308634023
 21
1288.635708755057
 31
0.0
  0
LINE
  5
BB
  8
0
  6
CONTINUOUS
 62
     7
 10
2313.808634022999
 20
1287.635708755057
 30
0.0
 11
2313.808634022999
 21
1194.635708755057
 31
0.0
  0
LINE
  5
BC
  8
0
  6
CONTINUOUS
 62
     7
 10
2313.808634022999
 20
1287.635708755057
 30
0.0
 11
2314.808634022999
 21
1287.635708755057
 31
0.0
  0
LINE
  5
BD
  8
0
  6
CONTINUOUS
 62
     7
 10
2314.808634023
 20
1194.635708755057
 30
0.0
 11
2314.808634022999
 21
1287.635708755057
 31
0.0
  0
LINE
  5
BE
  8
0
  6
CONTINUOUS
 62
     7
 10
2314.808634023
 20
1194.635708755057
 30
0.0
 11
2313.808634022999
 21
1194.635708755057
 31
0.0
  0
LINE
  5
BF
  8
0
  6
CONTINUOUS
 62
     7
 10
2314.808634022999
 20
1287.635708755057
 30
0.0
 11
2906.308634023
 21
1287.635708755057
 31
0.0
  0
LINE
  5
C0
  8
0
  6
CONTINUOUS
 62
     7
 10
2906.308634023
 20
1194.635708755057
 30
0.0
 11
2314.808634023
 21
1194.635708755057
 31
0.0
  0
LINE
  5
C1
  8
0
  6
CONTINUOUS
 62
     7
 10
1716.808634023
 20
1194.635708755057
 30
0.0
 11
1716.808634023
 21
1193.635708755057
 31
0.0
  0
LINE
  5
C2
  8
0
  6
CONTINUOUS
 62
     7
 10
2310.308634022999
 20
1194.635708755057
 30
0.0
 11
1716.808634023
 21
1194.635708755057
 31
0.0
  0
LINE
  5
C3
  8
0
  6
CONTINUOUS
 62
     7
 10
2310.308634022999
 20
1194.635708755057
 30
0.0
 11
2310.308634022999
 21
1193.635708755057
 31
0.0
  0
LINE
  5
C4
  8
0
  6
CONTINUOUS
 62
     7
 10
1716.808634023
 20
1193.635708755057
 30
0.0
 11
2310.308634022999
 21
1193.635708755057
 31
0.0
  0
LINE
  5
C5
  8
0
  6
CONTINUOUS
 62
     7
 10
2310.308634022999
 20
1287.635708755057
 30
0.0
 11
2310.308634022999
 21
1194.635708755057
 31
0.0
  0
LINE
  5
C6
  8
0
  6
CONTINUOUS
 62
     7
 10
2309.308634023
 20
1287.635708755057
 30
0.0
 11
2310.308634022999
 21
1287.635708755057
 31
0.0
  0
LINE
  5
C7
  8
0
  6
CONTINUOUS
 62
     7
 10
2310.308634022999
 20
1194.635708755057
 30
0.0
 11
2309.308634023
 21
1194.635708755057
 31
0.0
  0
LINE
  5
C8
  8
0
  6
CONTINUOUS
 62
     7
 10
2309.308634023
 20
1287.635708755057
 30
0.0
 11
2309.308634023
 21
1194.635708755057
 31
0.0
  0
LINE
  5
C9
  8
0
  6
CONTINUOUS
 62
     7
 10
1716.808634023
 20
1287.635708755057
 30
0.0
 11
2310.308634022999
 21
1287.635708755057
 31
0.0
  0
LINE
  5
CA
  8
0
  6
CONTINUOUS
 62
     7
 10
1716.808634023
 20
1288.635708755057
 30
0.0
 11
2310.308634022999
 21
1288.635708755057
 31
0.0
  0
LINE
  5
CB
  8
0
  6
CONTINUOUS
 62
     7
 10
1716.808634023
 20
1288.635708755057
 30
0.0
 11
1716.808634023
 21
1287.635708755057
 31
0.0
  0
LINE
  5
CC
  8
0
  6
CONTINUOUS
 62
     7
 10
2310.308634022999
 20
1288.635708755057
 30
0.0
 11
2310.308634022999
 21
1287.635708755057
 31
0.0
  0
LINE
  5
CD
  8
0
  6
CONTINUOUS
 62
     7
 10
1716.808634023
 20
1287.635708755057
 30
0.0
 11
1716.808634023
 21
1194.635708755057
 31
0.0
  0
LINE
  5
CE
  8
0
  6
CONTINUOUS
 62
     7
 10
1716.808634023
 20
1287.635708755057
 30
0.0
 11
1717.808634022999
 21
1287.635708755057
 31
0.0
  0
LINE
  5
CF
  8
0
  6
CONTINUOUS
 62
     7
 10
1717.808634023
 20
1194.635708755057
 30
0.0
 11
1717.808634022999
 21
1287.635708755057
 31
0.0
  0
LINE
  5
D0
  8
0
  6
CONTINUOUS
 62
     7
 10
1717.808634023
 20
1194.635708755057
 30
0.0
 11
1716.808634023
 21
1194.635708755057
 31
0.0
  0
LINE
  5
D1
  8
0
  6
CONTINUOUS
 62
     7
 10
1717.808634022999
 20
1287.635708755057
 30
0.0
 11
2309.308634023
 21
1287.635708755057
 31
0.0
  0
LINE
  5
D2
  8
0
  6
CONTINUOUS
 62
     7
 10
2309.308634023
 20
1194.635708755057
 30
0.0
 11
1717.808634023
 21
1194.635708755057
 31
0.0
  0
LINE
  5
EE
  8
0
  6
CONTINUOUS
 62
     7
 10
2912.808634022999
 20
1110.635708755057
 30
0.0
 11
2912.808634022999
 21
1111.135708755057
 31
0.0
  0
LINE
  5
EF
  8
0
  6
CONTINUOUS
 62
     7
 10
2895.308634022999
 20
1110.635708755057
 30
0.0
 11
2912.808634022999
 21
1110.635708755057
 31
0.0
  0
LINE
  5
F0
  8
0
  6
CONTINUOUS
 62
     7
 10
2895.308634022999
 20
1110.635708755057
 30
0.0
 11
2895.308634022999
 21
1111.135708755057
 31
0.0
  0
LINE
  5
F1
  8
0
  6
CONTINUOUS
 62
     7
 10
2912.808634022999
 20
1111.135708755057
 30
0.0
 11
2895.308634022999
 21
1111.135708755057
 31
0.0
  0
LINE
  5
F2
  8
0
  6
CONTINUOUS
 62
     7
 10
2912.308634022999
 20
1190.514496633845
 30
0.0
 11
2912.808634022999
 21
1190.514496633845
 31
0.0
  0
LINE
  5
F3
  8
0
  6
CONTINUOUS
 62
     7
 10
2912.808634022999
 20
1110.635708755057
 30
0.0
 11
2912.808634022999
 21
1190.514496633845
 31
0.0
  0
LINE
  5
F4
  8
0
  6
CONTINUOUS
 62
     7
 10
2912.308634022999
 20
1110.635708755057
 30
0.0
 11
2912.808634022999
 21
1110.635708755057
 31
0.0
  0
LINE
  5
F5
  8
0
  6
CONTINUOUS
 62
     7
 10
2912.308634022999
 20
1190.514496633845
 30
0.0
 11
2912.308634022999
 21
1110.635708755057
 31
0.0
  0
LINE
  5
F6
  8
0
  6
CONTINUOUS
 62
     7
 10
2895.308634022999
 20
1190.514496633845
 30
0.0
 11
2895.808634022999
 21
1190.514496633845
 31
0.0
  0
LINE
  5
F7
  8
0
  6
CONTINUOUS
 62
     7
 10
2895.808634022999
 20
1110.635708755057
 30
0.0
 11
2895.808634022999
 21
1190.514496633845
 31
0.0
  0
LINE
  5
F8
  8
0
  6
CONTINUOUS
 62
     7
 10
2895.308634022999
 20
1110.635708755057
 30
0.0
 11
2895.808634022999
 21
1110.635708755057
 31
0.0
  0
LINE
  5
F9
  8
0
  6
CONTINUOUS
 62
     7
 10
2895.308634022999
 20
1110.635708755057
 30
0.0
 11
2895.308634022999
 21
1190.514496633845
 31
0.0
  0
LINE
  5
FA
  8
0
  6
CONTINUOUS
 62
     7
 10
2895.808634022999
 20
1190.514496633845
 30
0.0
 11
2912.308634022999
 21
1190.514496633845
 31
0.0
  0
LINE
  5
FB
  8
0
  6
CONTINUOUS
 62
     7
 10
2895.808634022999
 20
1110.635708755057
 30
0.0
 11
2912.308634022999
 21
1110.635708755057
 31
0.0
  0
LINE
  5
FC
  8
0
  6
CONTINUOUS
 62
     7
 10
2912.808634022999
 20
1190.635708755057
 30
0.0
 11
2912.808634022999
 21
1291.635708755057
 31
0.0
  0
LINE
  5
FD
  8
0
  6
CONTINUOUS
 62
     7
 10
2912.808634022999
 20
1190.635708755057
 30
0.0
 11
2895.308634022999
 21
1190.635708755057
 31
0.0
  0
LINE
  5
FE
  8
0
  6
CONTINUOUS
 62
     7
 10
2895.308634022999
 20
1291.635708755057
 30
0.0
 11
2895.308634022999
 21
1288.635708755057
 31
0.0
  0
LINE
  5
FF
  8
0
  6
CONTINUOUS
 62
     7
 10
2895.308634022999
 20
1193.635708755048
 30
0.0
 11
2895.308634022999
 21
1190.635708755057
 31
0.0
  0
LINE
  5
100
  8
0
  6
CONTINUOUS
 62
     7
 10
2895.308634022999
 20
1190.514496633845
 30
0.0
 11
2912.808634022999
 21
1190.514496633845
 31
0.0
  0
LINE
  5
101
  8
0
  6
CONTINUOUS
 62
     7
 10
2895.308634022999
 20
1190.635708755057
 30
0.0
 11
2895.308634022999
 21
1190.514496633845
 31
0.0
  0
LINE
  5
102
  8
0
  6
CONTINUOUS
 62
     7
 10
2912.808634022999
 20
1190.514496633845
 30
0.0
 11
2912.808634022999
 21
1190.635708755057
 31
0.0
  0
LINE
  5
103
  8
0
  6
CONTINUOUS
 62
     7
 10
1711.808634023
 20
1110.635708755057
 30
0.0
 11
1728.308634023
 21
1110.635708755057
 31
0.0
  0
LINE
  5
104
  8
0
  6
CONTINUOUS
 62
     7
 10
1728.308634023
 20
1111.135708755057
 30
0.0
 11
1711.808634023
 21
1111.135708755057
 31
0.0
  0
LINE
  5
105
  8
0
  6
CONTINUOUS
 62
     7
 10
1728.308634023
 20
1111.135708755057
 30
0.0
 11
1728.308634023
 21
1110.635708755057
 31
0.0
  0
LINE
  5
106
  8
0
  6
CONTINUOUS
 62
     7
 10
1711.808634023
 20
1110.635708755057
 30
0.0
 11
1711.808634023
 21
1111.135708755057
 31
0.0
  0
LINE
  5
107
  8
0
  6
CONTINUOUS
 62
     7
 10
1728.308634023
 20
1190.514496633845
 30
0.0
 11
1728.808634023
 21
1190.514496633845
 31
0.0
  0
LINE
  5
108
  8
0
  6
CONTINUOUS
 62
     7
 10
1728.808634023
 20
1111.135708755057
 30
0.0
 11
1728.808634023
 21
1190.514496633845
 31
0.0
  0
LINE
  5
109
  8
0
  6
CONTINUOUS
 62
     7
 10
1728.808634023
 20
1111.135708755057
 30
0.0
 11
1728.308634023
 21
1111.135708755057
 31
0.0
  0
LINE
  5
10A
  8
0
  6
CONTINUOUS
 62
     7
 10
1728.308634023
 20
1190.514496633845
 30
0.0
 11
1728.308634023
 21
1111.135708755057
 31
0.0
  0
LINE
  5
10B
  8
0
  6
CONTINUOUS
 62
     7
 10
1728.808634023
 20
1110.635708755057
 30
0.0
 11
1728.808634023
 21
1111.135708755057
 31
0.0
  0
LINE
  5
10C
  8
0
  6
CONTINUOUS
 62
     7
 10
1728.308634023
 20
1110.635708755057
 30
0.0
 11
1728.808634023
 21
1110.635708755057
 31
0.0
  0
LINE
  5
10D
  8
0
  6
CONTINUOUS
 62
     7
 10
1711.308634023
 20
1110.635708755057
 30
0.0
 11
1711.808634023
 21
1110.635708755057
 31
0.0
  0
LINE
  5
10E
  8
0
  6
CONTINUOUS
 62
     7
 10
1711.308634023
 20
1110.635708755057
 30
0.0
 11
1711.308634023
 21
1111.135708755057
 31
0.0
  0
LINE
  5
10F
  8
0
  6
CONTINUOUS
 62
     7
 10
1711.808634023
 20
1111.135708755057
 30
0.0
 11
1711.308634023
 21
1111.135708755057
 31
0.0
  0
LINE
  5
110
  8
0
  6
CONTINUOUS
 62
     7
 10
1711.308634023
 20
1190.514496633845
 30
0.0
 11
1711.808634023
 21
1190.514496633845
 31
0.0
  0
LINE
  5
111
  8
0
  6
CONTINUOUS
 62
     7
 10
1711.808634023
 20
1111.135708755057
 30
0.0
 11
1711.808634023
 21
1190.514496633845
 31
0.0
  0
LINE
  5
112
  8
0
  6
CONTINUOUS
 62
     7
 10
1711.308634023
 20
1190.514496633845
 30
0.0
 11
1711.308634023
 21
1111.135708755057
 31
0.0
  0
LINE
  5
113
  8
0
  6
CONTINUOUS
 62
     7
 10
1711.808634023
 20
1190.514496633845
 30
0.0
 11
1728.308634023
 21
1190.514496633845
 31
0.0
  0
LINE
  5
114
  8
0
  6
CONTINUOUS
 62
     7
 10
1711.308634023
 20
1190.514496633845
 30
0.0
 11
1711.308634023
 21
1190.635708755057
 31
0.0
  0
LINE
  5
115
  8
0
  6
CONTINUOUS
 62
     7
 10
1728.808634023
 20
1190.635708755057
 30
0.0
 11
1711.308634023
 21
1190.635708755057
 31
0.0
  0
LINE
  5
116
  8
0
  6
CONTINUOUS
 62
     7
 10
1728.808634022999
 20
1190.514496633845
 30
0.0
 11
1728.808634023
 21
1190.635708755057
 31
0.0
  0
LINE
  5
117
  8
0
  6
CONTINUOUS
 62
     7
 10
1711.308634023
 20
1190.514496633845
 30
0.0
 11
1728.808634022999
 21
1190.514496633845
 31
0.0
  0
LINE
  5
118
  8
0
  6
CONTINUOUS
 62
     7
 10
1711.308634023
 20
1291.635708755057
 30
0.0
 11
1711.308634023
 21
1190.635708755057
 31
0.0
  0
LINE
  5
119
  8
0
  6
CONTINUOUS
 62
     7
 10
1728.808634023
 20
1190.635708755057
 30
0.0
 11
1728.808634022999
 21
1193.635708755078
 31
0.0
  0
LINE
  5
11A
  8
0
  6
CONTINUOUS
 62
     7
 10
1728.808634022999
 20
1288.635708755057
 30
0.0
 11
1728.808634022999
 21
1291.635708755057
 31
0.0
  0
ARC
  5
11B
  8
0
  6
CONTINUOUS
 62
     7
 10
1731.460373996438
 20
1193.537228771076
 30
0.0
 40
2.653568011938774
 50
177.8731340290732
 51
215.8174568958069
  0
ARC
  5
11C
  8
0
  6
CONTINUOUS
 62
     7
 10
2892.712909611115
 20
1193.520268344395
 30
0.0
 40
2.598290151394322
 50
323.7629550921001
 51
2.546453983244102
  0
LINE
  5
121
  8
0
  6
CONTINUOUS
 62
     7
 10
315.8767750087027
 20
1222.908067676564
 30
0.0
 11
317.8544951707881
 21
1222.856279251516
 31
0.0
  0
LINE
  5
122
  8
0
  6
CONTINUOUS
 62
     7
 10
317.8544951707881
 20
1228.358164610215
 30
0.0
 11
316.0207482243904
 21
1228.406182963929
 31
0.0
  0
ARC
  5
123
  8
0
  6
CONTINUOUS
 62
     7
 10
315.8846280931948
 20
1223.207964874056
 30
0.0
 40
0.3000000000000465
 50
178.5000000000887
 51
268.5000000000453
  0
ARC
  5
124
  8
0
  6
CONTINUOUS
 62
     7
 10
316.0128951398984
 20
1228.106285766436
 30
0.0
 40
0.2999999999999897
 50
88.50000000006618
 51
178.5000000000884
  0
ARC
  5
125
  8
0
  6
CONTINUOUS
 62
     7
 10
314.3744501180852
 20
1251.507194163934
 30
0.0
 40
1.199999999999975
 50
88.50000000005862
 51
173.5000000031165
  0
ARC
  5
126
  8
0
  6
CONTINUOUS
 62
     7
 10
313.9137358278846
 20
1233.913225244365
 30
0.0
 40
1.200000000000202
 50
183.4999999970084
 51
268.5000000000597
  0
LINE
  5
127
  8
0
  6
CONTINUOUS
 62
     7
 10
315.1560532333683
 20
1252.68713851705
 30
0.0
 11
314.4058624560535
 21
1252.706782953905
 31
0.0
  0
LINE
  5
128
  8
0
  6
CONTINUOUS
 62
     7
 10
313.8823234899163
 20
1232.713636454394
 30
0.0
 11
314.6325142672312
 21
1232.693992017538
 31
0.0
  0
ARC
  5
129
  8
0
  6
CONTINUOUS
 62
     7
 10
315.1508178437069
 20
1252.487207052054
 30
0.0
 40
0.2000000000000704
 50
358.5000000000243
 51
88.50000000007275
  0
ARC
  5
12A
  8
0
  6
CONTINUOUS
 62
     7
 10
314.6377496568925
 20
1232.893923482533
 30
0.0
 40
0.2000000000000748
 50
268.5000000000736
 51
358.5000000000247
  0
LINE
  5
12B
  8
0
  6
CONTINUOUS
 62
     7
 10
313.1821638912641
 20
1251.643038020324
 30
0.0
 11
313.0003760967896
 21
1250.047507025394
 31
0.0
  0
LINE
  5
12C
  8
0
  6
CONTINUOUS
 62
     7
 10
312.6179390494876
 20
1235.442825410261
 30
0.0
 11
312.7159740697761
 21
1233.83996699705
 31
0.0
  0
ARC
  5
12D
  8
0
  6
CONTINUOUS
 62
     7
 10
342.8075317670986
 20
1246.651410612399
 30
0.0
 40
30.00000000000208
 50
173.5000000000582
 51
178.500000000056
  0
ARC
  5
12E
  8
0
  6
CONTINUOUS
 62
     7
 10
342.561983002149
 20
1237.274281596324
 30
0.0
 40
30.00000000000214
 50
178.5000000000604
 51
183.5000000000592
  0
POLYLINE
  5
12F
  8
0
  6
CONTINUOUS
 62
     7
 66
     1
 10
0.0
 20
0.0
 30
0.0
  0
VERTEX
  5
251
  8
0
  6
CONTINUOUS
 62
     7
 10
315.7118401451623
 20
1247.170699365866
 30
0.0
  0
VERTEX
  5
252
  8
0
  6
CONTINUOUS
 62
     7
 10
315.6953701807848
 20
1247.173219090385
 30
0.0
  0
VERTEX
  5
253
  8
0
  6
CONTINUOUS
 62
     7
 10
315.6789197722393
 20
1247.17578856251
 30
0.0
  0
VERTEX
  5
254
  8
0
  6
CONTINUOUS
 62
     7
 10
315.662508475358
 20
1247.178457529843
 30
0.0
  0
VERTEX
  5
255
  8
0
  6
CONTINUOUS
 62
     7
 10
315.6461558459731
 20
1247.18127573999
 30
0.0
  0
VERTEX
  5
256
  8
0
  6
CONTINUOUS
 62
     7
 10
315.6298814399163
 20
1247.184292940556
 30
0.0
  0
VERTEX
  5
257
  8
0
  6
CONTINUOUS
 62
     7
 10
315.6137048130199
 20
1247.187558879144
 30
0.0
  0
VERTEX
  5
258
  8
0
  6
CONTINUOUS
 62
     7
 10
315.597645521116
 20
1247.191123303362
 30
0.0
  0
VERTEX
  5
259
  8
0
  6
CONTINUOUS
 62
     7
 10
315.5817231200365
 20
1247.195035960811
 30
0.0
  0
VERTEX
  5
25A
  8
0
  6
CONTINUOUS
 62
     7
 10
315.5659571656136
 20
1247.199346599097
 30
0.0
  0
VERTEX
  5
25B
  8
0
  6
CONTINUOUS
 62
     7
 10
315.5503672136796
 20
1247.204104965826
 30
0.0
  0
VERTEX
  5
25C
  8
0
  6
CONTINUOUS
 62
     7
 10
315.5349728200661
 20
1247.2093608086
 30
0.0
  0
VERTEX
  5
25D
  8
0
  6
CONTINUOUS
 62
     7
 10
315.5197935406056
 20
1247.215163875026
 30
0.0
  0
VERTEX
  5
25E
  8
0
  6
CONTINUOUS
 62
     7
 10
315.5048489311292
 20
1247.221563912702
 30
0.0
  0
VERTEX
  5
25F
  8
0
  6
CONTINUOUS
 62
     7
 10
315.4901571361336
 20
1247.228597830831
 30
0.0
  0
VERTEX
  5
260
  8
0
  6
CONTINUOUS
 62
     7
 10
315.4757307849857
 20
1247.236252369519
 30
0.0
  0
VERTEX
  5
261
  8
0
  6
CONTINUOUS
 62
     7
 10
315.4615811600756
 20
1247.244502015911
 30
0.0
  0
VERTEX
  5
262
  8
0
  6
CONTINUOUS
 62
     7
 10
315.4477195437932
 20
1247.253321257157
 30
0.0
  0
VERTEX
  5
263
  8
0
  6
CONTINUOUS
 62
     7
 10
315.4341572185283
 20
1247.262684580405
 30
0.0
  0
VERTEX
  5
264
  8
0
  6
CONTINUOUS
 62
     7
 10
315.4209054666708
 20
1247.272566472802
 30
0.0
  0
VERTEX
  5
265
  8
0
  6
CONTINUOUS
 62
     7
 10
315.4079755706106
 20
1247.282941421496
 30
0.0
  0
VERTEX
  5
266
  8
0
  6
CONTINUOUS
 62
     7
 10
315.3953788127377
 20
1247.293783913636
 30
0.0
  0
VERTEX
  5
267
  8
0
  6
CONTINUOUS
 62
     7
 10
315.3831264754419
 20
1247.305068436369
 30
0.0
  0
VERTEX
  5
268
  8
0
  6
CONTINUOUS
 62
     7
 10
315.3712298411132
 20
1247.316769476843
 30
0.0
  0
VERTEX
  5
269
  8
0
  6
CONTINUOUS
 62
     7
 10
315.3597001921415
 20
1247.328861522207
 30
0.0
  0
VERTEX
  5
26A
  8
0
  6
CONTINUOUS
 62
     7
 10
315.3485488109167
 20
1247.341319059608
 30
0.0
  0
VERTEX
  5
26B
  8
0
  6
CONTINUOUS
 62
     7
 10
315.3377869798287
 20
1247.354116576194
 30
0.0
  0
VERTEX
  5
26C
  8
0
  6
CONTINUOUS
 62
     7
 10
315.3274259812674
 20
1247.367228559114
 30
0.0
  0
VERTEX
  5
26D
  8
0
  6
CONTINUOUS
 62
     7
 10
315.3174788525012
 20
1247.380631588889
 30
0.0
  0
VERTEX
  5
26E
  8
0
  6
CONTINUOUS
 62
     7
 10
315.307966408819
 20
1247.394311524357
 30
0.0
  0
VERTEX
  5
26F
  8
0
  6
CONTINUOUS
 62
     7
 10
315.298911619694
 20
1247.408256794056
 30
0.0
  0
VERTEX
  5
270
  8
0
  6
CONTINUOUS
 62
     7
 10
315.2903374546772
 20
1247.422455826618
 30
0.0
  0
VERTEX
  5
271
  8
0
  6
CONTINUOUS
 62
     7
 10
315.2822668833195
 20
1247.436897050674
 30
0.0
  0
VERTEX
  5
272
  8
0
  6
CONTINUOUS
 62
     7
 10
315.2747228751718
 20
1247.451568894855
 30
0.0
  0
VERTEX
  5
273
  8
0
  6
CONTINUOUS
 62
     7
 10
315.267728399785
 20
1247.466459787794
 30
0.0
  0
VERTEX
  5
274
  8
0
  6
CONTINUOUS
 62
     7
 10
315.26130642671
 20
1247.48155815812
 30
0.0
  0
VERTEX
  5
275
  8
0
  6
CONTINUOUS
 62
     7
 10
315.2554799254978
 20
1247.496852434466
 30
0.0
  0
VERTEX
  5
276
  8
0
  6
CONTINUOUS
 62
     7
 10
315.2502718656993
 20
1247.512331045462
 30
0.0
  0
VERTEX
  5
277
  8
0
  6
CONTINUOUS
 62
     7
 10
315.2457052134505
 20
1247.527982419568
 30
0.0
  0
VERTEX
  5
278
  8
0
  6
CONTINUOUS
 62
     7
 10
315.2417852430771
 20
1247.543794085326
 30
0.0
  0
VERTEX
  5
279
  8
0
  6
CONTINUOUS
 62
     7
 10
315.2384583110012
 20
1247.559750574349
 30
0.0
  0
VERTEX
  5
27A
  8
0
  6
CONTINUOUS
 62
     7
 10
315.2356585240787
 20
1247.575835795165
 30
0.0
  0
VERTEX
  5
27B
  8
0
  6
CONTINUOUS
 62
     7
 10
315.2333199891653
 20
1247.592033656299
 30
0.0
  0
VERTEX
  5
27C
  8
0
  6
CONTINUOUS
 62
     7
 10
315.231376813117
 20
1247.608328066277
 30
0.0
  0
VERTEX
  5
27D
  8
0
  6
CONTINUOUS
 62
     7
 10
315.2297631027895
 20
1247.624702933626
 30
0.0
  0
VERTEX
  5
27E
  8
0
  6
CONTINUOUS
 62
     7
 10
315.2284129650387
 20
1247.641142166871
 30
0.0
  0
VERTEX
  5
27F
  8
0
  6
CONTINUOUS
 62
     7
 10
315.2272605067204
 20
1247.657629674537
 30
0.0
  0
VERTEX
  5
280
  8
0
  6
CONTINUOUS
 62
     7
 10
315.2262398346904
 20
1247.674149365152
 30
0.0
  0
VERTEX
  5
281
  8
0
  6
CONTINUOUS
 62
     7
 10
315.2252850558046
 20
1247.69068514724
 30
0.0
  0
SEQEND
  5
85B
  8
0
  6
CONTINUOUS
 62
     7
  0
POLYLINE
  5
130
  8
0
  6
CONTINUOUS
 62
     7
 66
     1
 10
0.0
 20
0.0
 30
0.0
  0
VERTEX
  5
282
  8
0
  6
CONTINUOUS
 62
     7
 10
314.9631453747864
 20
1237.67997460802
 30
0.0
  0
VERTEX
  5
283
  8
0
  6
CONTINUOUS
 62
     7
 10
314.9654274365566
 20
1237.696476818775
 30
0.0
  0
VERTEX
  5
284
  8
0
  6
CONTINUOUS
 62
     7
 10
314.9677597066989
 20
1237.712960182234
 30
0.0
  0
VERTEX
  5
285
  8
0
  6
CONTINUOUS
 62
     7
 10
314.9701923935856
 20
1237.729405851103
 30
0.0
  0
VERTEX
  5
286
  8
0
  6
CONTINUOUS
 62
     7
 10
314.9727757055886
 20
1237.745794978086
 30
0.0
  0
VERTEX
  5
287
  8
0
  6
CONTINUOUS
 62
     7
 10
314.9755598510806
 20
1237.762108715888
 30
0.0
  0
VERTEX
  5
288
  8
0
  6
CONTINUOUS
 62
     7
 10
314.9785950384332
 20
1237.778328217213
 30
0.0
  0
VERTEX
  5
289
  8
0
  6
CONTINUOUS
 62
     7
 10
314.9819314760189
 20
1237.794434634767
 30
0.0
  0
VERTEX
  5
28A
  8
0
  6
CONTINUOUS
 62
     7
 10
314.9856193722099
 20
1237.810409121254
 30
0.0
  0
VERTEX
  5
28B
  8
0
  6
CONTINUOUS
 62
     7
 10
314.9897089353782
 20
1237.826232829378
 30
0.0
  0
VERTEX
  5
28C
  8
0
  6
CONTINUOUS
 62
     7
 10
314.9942503738959
 20
1237.841886911845
 30
0.0
  0
VERTEX
  5
28D
  8
0
  6
CONTINUOUS
 62
     7
 10
314.9992938961353
 20
1237.857352521359
 30
0.0
  0
VERTEX
  5
28E
  8
0
  6
CONTINUOUS
 62
     7
 10
315.0048897104687
 20
1237.872610810625
 30
0.0
  0
VERTEX
  5
28F
  8
0
  6
CONTINUOUS
 62
     7
 10
315.0110880220483
 20
1237.887642932655
 30
0.0
  0
VERTEX
  5
290
  8
0
  6
CONTINUOUS
 62
     7
 10
315.0179239204782
 20
1237.902431481028
 30
0.0
  0
VERTEX
  5
291
  8
0
  6
CONTINUOUS
 62
     7
 10
315.0253824808671
 20
1237.916963815896
 30
0.0
  0
VERTEX
  5
292
  8
0
  6
CONTINUOUS
 62
     7
 10
315.0334384479617
 20
1237.931228281931
 30
0.0
  0
VERTEX
  5
293
  8
0
  6
CONTINUOUS
 62
     7
 10
315.0420665665081
 20
1237.945213223808
 30
0.0
  0
VERTEX
  5
294
  8
0
  6
CONTINUOUS
 62
     7
 10
315.0512415812527
 20
1237.958906986198
 30
0.0
  0
VERTEX
  5
295
  8
0
  6
CONTINUOUS
 62
     7
 10
315.0609382369418
 20
1237.972297913776
 30
0.0
  0
VERTEX
  5
296
  8
0
  6
CONTINUOUS
 62
     7
 10
315.0711312783217
 20
1237.985374351213
 30
0.0
  0
VERTEX
  5
297
  8
0
  6
CONTINUOUS
 62
     7
 10
315.0817954501388
 20
1237.998124643184
 30
0.0
  0
VERTEX
  5
298
  8
0
  6
CONTINUOUS
 62
     7
 10
315.0929054971394
 20
1238.010537134363
 30
0.0
  0
VERTEX
  5
299
  8
0
  6
CONTINUOUS
 62
     7
 10
315.10443616407
 20
1238.022600169421
 30
0.0
  0
VERTEX
  5
29A
  8
0
  6
CONTINUOUS
 62
     7
 10
315.1163621956767
 20
1238.034302093032
 30
0.0
  0
VERTEX
  5
29B
  8
0
  6
CONTINUOUS
 62
     7
 10
315.1286583367059
 20
1238.045631249869
 30
0.0
  0
VERTEX
  5
29C
  8
0
  6
CONTINUOUS
 62
     7
 10
315.141299331904
 20
1238.056575984606
 30
0.0
  0
VERTEX
  5
29D
  8
0
  6
CONTINUOUS
 62
     7
 10
315.1542599261322
 20
1238.06712464182
 30
0.0
  0
VERTEX
  5
29E
  8
0
  6
CONTINUOUS
 62
     7
 10
315.1675174614306
 20
1238.077263413506
 30
0.0
  0
VERTEX
  5
29F
  8
0
  6
CONTINUOUS
 62
     7
 10
315.1810585883742
 20
1238.086970776593
 30
0.0
  0
VERTEX
  5
2A0
  8
0
  6
CONTINUOUS
 62
     7
 10
315.1948720421834
 20
1238.096223480224
 30
0.0
  0
VERTEX
  5
2A1
  8
0
  6
CONTINUOUS
 62
     7
 10
315.2089465580792
 20
1238.104998273542
 30
0.0
  0
VERTEX
  5
2A2
  8
0
  6
CONTINUOUS
 62
     7
 10
315.2232708712818
 20
1238.113271905687
 30
0.0
  0
VERTEX
  5
2A3
  8
0
  6
CONTINUOUS
 62
     7
 10
315.2378337170122
 20
1238.121021125802
 30
0.0
  0
VERTEX
  5
2A4
  8
0
  6
CONTINUOUS
 62
     7
 10
315.252623830491
 20
1238.12822268303
 30
0.0
  0
VERTEX
  5
2A5
  8
0
  6
CONTINUOUS
 62
     7
 10
315.2676299469389
 20
1238.134853326512
 30
0.0
  0
VERTEX
  5
2A6
  8
0
  6
CONTINUOUS
 62
     7
 10
315.2828408015766
 20
1238.140889805391
 30
0.0
  0
VERTEX
  5
2A7
  8
0
  6
CONTINUOUS
 62
     7
 10
315.2982451296247
 20
1238.146308868808
 30
0.0
  0
VERTEX
  5
2A8
  8
0
  6
CONTINUOUS
 62
     7
 10
315.3138316651024
 20
1238.151087284382
 30
0.0
  0
VERTEX
  5
2A9
  8
0
  6
CONTINUOUS
 62
     7
 10
315.3295878402878
 20
1238.155221836766
 30
0.0
  0
VERTEX
  5
2AA
  8
0
  6
CONTINUOUS
 62
     7
 10
315.3454973057925
 20
1238.158767461767
 30
0.0
  0
VERTEX
  5
2AB
  8
0
  6
CONTINUOUS
 62
     7
 10
315.361543029359
 20
1238.161789595761
 30
0.0
  0
VERTEX
  5
2AC
  8
0
  6
CONTINUOUS
 62
     7
 10
315.3777079787293
 20
1238.164353675123
 30
0.0
  0
VERTEX
  5
2AD
  8
0
  6
CONTINUOUS
 62
     7
 10
315.3939751216461
 20
1238.166525136229
 30
0.0
  0
VERTEX
  5
2AE
  8
0
  6
CONTINUOUS
 62
     7
 10
315.4103274258514
 20
1238.168369415456
 30
0.0
  0
VERTEX
  5
2AF
  8
0
  6
CONTINUOUS
 62
     7
 10
315.4267478590875
 20
1238.16995194918
 30
0.0
  0
VERTEX
  5
2B0
  8
0
  6
CONTINUOUS
 62
     7
 10
315.4432193890968
 20
1238.171338173776
 30
0.0
  0
VERTEX
  5
2B1
  8
0
  6
CONTINUOUS
 62
     7
 10
315.4597249836216
 20
1238.17259352562
 30
0.0
  0
VERTEX
  5
2B2
  8
0
  6
CONTINUOUS
 62
     7
 10
315.476247610404
 20
1238.173783441088
 30
0.0
  0
SEQEND
  5
85C
  8
0
  6
CONTINUOUS
 62
     7
  0
LINE
  5
131
  8
0
  6
CONTINUOUS
 62
     7
 10
317.8544951707881
 20
1247.114591969418
 30
0.0
 11
315.7118401451634
 21
1247.170699365867
 31
0.0
  0
LINE
  5
132
  8
0
  6
CONTINUOUS
 62
     7
 10
315.4762476104018
 20
1238.173783441087
 30
0.0
 11
317.8544951707881
 21
1238.111506837001
 31
0.0
  0
LINE
  5
133
  8
0
  6
CONTINUOUS
 62
     7
 10
668.3544951707921
 20
1308.635708755057
 30
0.0
 11
668.3544951707921
 21
1291.635708755057
 31
0.0
  0
LINE
  5
134
  8
0
  6
CONTINUOUS
 62
     7
 10
668.3544951707921
 20
1291.635708755057
 30
0.0
 11
317.8544951707921
 21
1291.635708755057
 31
0.0
  0
LINE
  5
135
  8
0
  6
CONTINUOUS
 62
     7
 10
317.8544951707921
 20
1308.635708755057
 30
0.0
 11
317.8544951707921
 21
1291.635708755057
 31
0.0
  0
LINE
  5
136
  8
0
  6
CONTINUOUS
 62
     7
 10
668.3544951707921
 20
1308.635708755057
 30
0.0
 11
317.8544951707921
 21
1308.635708755057
 31
0.0
  0
LINE
  5
137
  8
0
  6
CONTINUOUS
 62
     7
 10
665.8544951707921
 20
1194.635708755057
 30
0.0
 11
665.8544951707921
 21
1193.635708755057
 31
0.0
  0
LINE
  5
138
  8
0
  6
CONTINUOUS
 62
     7
 10
665.8544951707921
 20
1194.635708755057
 30
0.0
 11
647.8544951707921
 21
1194.635708755057
 31
0.0
  0
LINE
  5
139
  8
0
  6
CONTINUOUS
 62
     7
 10
647.8544951707921
 20
1193.635708755057
 30
0.0
 11
665.8544951707921
 21
1193.635708755057
 31
0.0
  0
LINE
  5
13A
  8
0
  6
CONTINUOUS
 62
     7
 10
665.8544951707921
 20
1288.635708755057
 30
0.0
 11
665.8544951707921
 21
1287.635708755057
 31
0.0
  0
LINE
  5
13B
  8
0
  6
CONTINUOUS
 62
     7
 10
647.8544951707921
 20
1287.635708755057
 30
0.0
 11
665.8544951707921
 21
1287.635708755057
 31
0.0
  0
LINE
  5
13C
  8
0
  6
CONTINUOUS
 62
     7
 10
647.8544951707921
 20
1288.635708755057
 30
0.0
 11
665.8544951707921
 21
1288.635708755057
 31
0.0
  0
LINE
  5
13D
  8
0
  6
CONTINUOUS
 62
     7
 10
665.8544951707921
 20
1287.635708755057
 30
0.0
 11
665.8544951707921
 21
1194.635708755057
 31
0.0
  0
LINE
  5
14A
  8
0
  6
CONTINUOUS
 62
     7
 10
317.8544951707921
 20
1111.135708755057
 30
0.0
 11
317.8544951707921
 21
1110.635708755057
 31
0.0
  0
LINE
  5
14B
  8
0
  6
CONTINUOUS
 62
     7
 10
319.9169951707922
 20
1111.135708755057
 30
0.0
 11
317.8544951707921
 21
1111.135708755057
 31
0.0
  0
LINE
  5
14C
  8
0
  6
CONTINUOUS
 62
     7
 10
317.8544951707921
 20
1110.635708755057
 30
0.0
 11
319.9169951707922
 21
1111.135708755057
 31
0.0
  0
LINE
  5
14D
  8
0
  6
CONTINUOUS
 62
     7
 10
317.8544951707921
 20
1291.635708755057
 30
0.0
 11
317.8544951707921
 21
1111.135708755057
 31
0.0
  0
LINE
  5
14E
  8
0
  6
CONTINUOUS
 62
     7
 10
647.3544951707921
 20
1291.635708755057
 30
0.0
 11
647.3544951707921
 21
1190.514496633845
 31
0.0
  0
LINE
  5
14F
  8
0
  6
CONTINUOUS
 62
     7
 10
647.3544951707921
 20
1190.514496633845
 30
0.0
 11
319.9169951707922
 21
1111.135708755057
 31
0.0
  0
LINE
  5
150
  8
0
  6
CONTINUOUS
 62
     7
 10
647.3544951707922
 20
1190.514496633845
 30
0.0
 11
647.8544951707921
 21
1190.635708755057
 31
0.0
  0
LINE
  5
151
  8
0
  6
CONTINUOUS
 62
     7
 10
647.8544951707921
 20
1291.635708755057
 30
0.0
 11
647.8544951707921
 21
1190.635708755057
 31
0.0
  0
POLYLINE
  5
152
  8
0
  6
CONTINUOUS
 62
     7
 66
     1
 10
0.0
 20
0.0
 30
0.0
  0
VERTEX
  5
2B3
  8
0
  6
CONTINUOUS
 62
     7
 10
315.5850046899735
 20
1223.226273739997
 30
0.0
  0
VERTEX
  5
2B4
  8
0
  6
CONTINUOUS
 62
     7
 10
315.5851822767037
 20
1223.2330555039
 30
0.0
  0
VERTEX
  5
2B5
  8
0
  6
CONTINUOUS
 62
     7
 10
315.5853669542933
 20
1223.240108056784
 30
0.0
  0
VERTEX
  5
2B6
  8
0
  6
CONTINUOUS
 62
     7
 10
315.5855658136016
 20
1223.247702187627
 30
0.0
  0
VERTEX
  5
2B7
  8
0
  6
CONTINUOUS
 62
     7
 10
315.5857859454879
 20
1223.256108685412
 30
0.0
  0
VERTEX
  5
2B8
  8
0
  6
CONTINUOUS
 62
     7
 10
315.5860344408115
 20
1223.265598339118
 30
0.0
  0
VERTEX
  5
2B9
  8
0
  6
CONTINUOUS
 62
     7
 10
315.5863183904319
 20
1223.276441937726
 30
0.0
  0
VERTEX
  5
2BA
  8
0
  6
CONTINUOUS
 62
     7
 10
315.5866448852084
 20
1223.288910270215
 30
0.0
  0
VERTEX
  5
2BB
  8
0
  6
CONTINUOUS
 62
     7
 10
315.5870210160002
 20
1223.303274125566
 30
0.0
  0
VERTEX
  5
2BC
  8
0
  6
CONTINUOUS
 62
     7
 10
315.5874538736668
 20
1223.319804292759
 30
0.0
  0
VERTEX
  5
2BD
  8
0
  6
CONTINUOUS
 62
     7
 10
315.5879505490674
 20
1223.338771560776
 30
0.0
  0
VERTEX
  5
2BE
  8
0
  6
CONTINUOUS
 62
     7
 10
315.5885181330615
 20
1223.360446718594
 30
0.0
  0
VERTEX
  5
2BF
  8
0
  6
CONTINUOUS
 62
     7
 10
315.5891634072523
 20
1223.385088745189
 30
0.0
  0
VERTEX
  5
2C0
  8
0
  6
CONTINUOUS
 62
     7
 10
315.5898878227317
 20
1223.41275305554
 30
0.0
  0
VERTEX
  5
2C1
  8
0
  6
CONTINUOUS
 62
     7
 10
315.5906883349051
 20
1223.443323381344
 30
0.0
  0
VERTEX
  5
2C2
  8
0
  6
CONTINUOUS
 62
     7
 10
315.5915617584076
 20
1223.476678078472
 30
0.0
  0
VERTEX
  5
2C3
  8
0
  6
CONTINUOUS
 62
     7
 10
315.5925049078739
 20
1223.512695502798
 30
0.0
  0
VERTEX
  5
2C4
  8
0
  6
CONTINUOUS
 62
     7
 10
315.5935145979391
 20
1223.551254010194
 30
0.0
  0
VERTEX
  5
2C5
  8
0
  6
CONTINUOUS
 62
     7
 10
315.5945876432377
 20
1223.592231956534
 30
0.0
  0
VERTEX
  5
2C6
  8
0
  6
CONTINUOUS
 62
     7
 10
315.5957208584048
 20
1223.63550769769
 30
0.0
  0
VERTEX
  5
2C7
  8
0
  6
CONTINUOUS
 62
     7
 10
315.5969110580754
 20
1223.680959589535
 30
0.0
  0
VERTEX
  5
2C8
  8
0
  6
CONTINUOUS
 62
     7
 10
315.598155056884
 20
1223.728465987942
 30
0.0
  0
VERTEX
  5
2C9
  8
0
  6
CONTINUOUS
 62
     7
 10
315.5994496694656
 20
1223.777905248784
 30
0.0
  0
VERTEX
  5
2CA
  8
0
  6
CONTINUOUS
 62
     7
 10
315.6007917104552
 20
1223.829155727934
 30
0.0
  0
VERTEX
  5
2CB
  8
0
  6
CONTINUOUS
 62
     7
 10
315.6021780140982
 20
1223.882096530169
 30
0.0
  0
VERTEX
  5
2CC
  8
0
  6
CONTINUOUS
 62
     7
 10
315.603606289638
 20
1223.936640174955
 30
0.0
  0
VERTEX
  5
2CD
  8
0
  6
CONTINUOUS
 62
     7
 10
315.6050754527905
 20
1223.992745254945
 30
0.0
  0
VERTEX
  5
2CE
  8
0
  6
CONTINUOUS
 62
     7
 10
315.6065845073297
 20
1224.050373725576
 30
0.0
  0
VERTEX
  5
2CF
  8
0
  6
CONTINUOUS
 62
     7
 10
315.6081324570295
 20
1224.109487542287
 30
0.0
  0
VERTEX
  5
2D0
  8
0
  6
CONTINUOUS
 62
     7
 10
315.6097183056642
 20
1224.170048660516
 30
0.0
  0
VERTEX
  5
2D1
  8
0
  6
CONTINUOUS
 62
     7
 10
315.6113410570076
 20
1224.2320190357
 30
0.0
  0
VERTEX
  5
2D2
  8
0
  6
CONTINUOUS
 62
     7
 10
315.6129997148336
 20
1224.295360623279
 30
0.0
  0
VERTEX
  5
2D3
  8
0
  6
CONTINUOUS
 62
     7
 10
315.6146932829164
 20
1224.360035378689
 30
0.0
  0
VERTEX
  5
2D4
  8
0
  6
CONTINUOUS
 62
     7
 10
315.6164207650301
 20
1224.426005257371
 30
0.0
  0
VERTEX
  5
2D5
  8
0
  6
CONTINUOUS
 62
     7
 10
315.6181811649485
 20
1224.493232214761
 30
0.0
  0
VERTEX
  5
2D6
  8
0
  6
CONTINUOUS
 62
     7
 10
315.6199734864456
 20
1224.561678206297
 30
0.0
  0
VERTEX
  5
2D7
  8
0
  6
CONTINUOUS
 62
     7
 10
315.6217967316298
 20
1224.631305123816
 30
0.0
  0
VERTEX
  5
2D8
  8
0
  6
CONTINUOUS
 62
     7
 10
315.6236494959082
 20
1224.702059327952
 30
0.0
  0
VERTEX
  5
2D9
  8
0
  6
CONTINUOUS
 62
     7
 10
315.6255294394222
 20
1224.773851463257
 30
0.0
  0
VERTEX
  5
2DA
  8
0
  6
CONTINUOUS
 62
     7
 10
315.6274340913321
 20
1224.846587172349
 30
0.0
  0
VERTEX
  5
2DB
  8
0
  6
CONTINUOUS
 62
     7
 10
315.6293609807983
 20
1224.920172097852
 30
0.0
  0
VERTEX
  5
2DC
  8
0
  6
CONTINUOUS
 62
     7
 10
315.6313076369813
 20
1224.994511882386
 30
0.0
  0
VERTEX
  5
2DD
  8
0
  6
CONTINUOUS
 62
     7
 10
315.6332715890413
 20
1225.069512168572
 30
0.0
  0
VERTEX
  5
2DE
  8
0
  6
CONTINUOUS
 62
     7
 10
315.635250366139
 20
1225.145078599031
 30
0.0
  0
VERTEX
  5
2DF
  8
0
  6
CONTINUOUS
 62
     7
 10
315.6372414974346
 20
1225.221116816384
 30
0.0
  0
VERTEX
  5
2E0
  8
0
  6
CONTINUOUS
 62
     7
 10
315.6392425120886
 20
1225.297532463253
 30
0.0
  0
VERTEX
  5
2E1
  8
0
  6
CONTINUOUS
 62
     7
 10
315.6412509392614
 20
1225.374231182259
 30
0.0
  0
VERTEX
  5
2E2
  8
0
  6
CONTINUOUS
 62
     7
 10
315.6432643081133
 20
1225.451118616023
 30
0.0
  0
VERTEX
  5
2E3
  8
0
  6
CONTINUOUS
 62
     7
 10
315.6452801478049
 20
1225.528100407165
 30
0.0
  0
SEQEND
  5
85D
  8
0
  6
CONTINUOUS
 62
     7
  0
LINE
  5
153
  8
0
  6
CONTINUOUS
 62
     7
 10
315.6452801478049
 20
1225.528100407165
 30
0.0
 11
315.6488644190541
 21
1225.664978404741
 31
0.0
  0
POLYLINE
  5
154
  8
0
  6
CONTINUOUS
 62
     7
 10
0.0
 20
0.0
 30
0.0
 66
     1
 70
     8
  0
VERTEX
  5
2E4
  8
0
  6
CONTINUOUS
 62
     7
 10
315.6488644190541
 20
1225.664978404741
 30
0.0
 70
    32
  0
VERTEX
  5
2E5
  8
0
  6
CONTINUOUS
 62
     7
 10
315.6506556289862
 20
1225.733381952331
 30
0.0
 70
    32
  0
VERTEX
  5
2E6
  8
0
  6
CONTINUOUS
 62
     7
 10
315.6524455503827
 20
1225.801736292735
 30
0.0
 70
    32
  0
VERTEX
  5
2E7
  8
0
  6
CONTINUOUS
 62
     7
 10
315.6542328947082
 20
1225.869992218767
 30
0.0
 70
    32
  0
VERTEX
  5
2E8
  8
0
  6
CONTINUOUS
 62
     7
 10
315.6560163734271
 20
1225.93810052324
 30
0.0
 70
    32
  0
VERTEX
  5
2E9
  8
0
  6
CONTINUOUS
 62
     7
 10
315.657794698004
 20
1226.006011998969
 30
0.0
 70
    32
  0
VERTEX
  5
2EA
  8
0
  6
CONTINUOUS
 62
     7
 10
315.6595665799032
 20
1226.073677438769
 30
0.0
 70
    32
  0
VERTEX
  5
2EB
  8
0
  6
CONTINUOUS
 62
     7
 10
315.6613307305895
 20
1226.141047635451
 30
0.0
 70
    32
  0
VERTEX
  5
2EC
  8
0
  6
CONTINUOUS
 62
     7
 10
315.6630858615271
 20
1226.208073381831
 30
0.0
 70
    32
  0
VERTEX
  5
2ED
  8
0
  6
CONTINUOUS
 62
     7
 10
315.6648306841807
 20
1226.274705470722
 30
0.0
 70
    32
  0
VERTEX
  5
2EE
  8
0
  6
CONTINUOUS
 62
     7
 10
315.6665639100145
 20
1226.340894694939
 30
0.0
 70
    32
  0
VERTEX
  5
2EF
  8
0
  6
CONTINUOUS
 62
     7
 10
315.6682842504933
 20
1226.406591847295
 30
0.0
 70
    32
  0
VERTEX
  5
2F0
  8
0
  6
CONTINUOUS
 62
     7
 10
315.6699904170814
 20
1226.471747720603
 30
0.0
 70
    32
  0
VERTEX
  5
2F1
  8
0
  6
CONTINUOUS
 62
     7
 10
315.6716811212433
 20
1226.53631310768
 30
0.0
 70
    32
  0
VERTEX
  5
2F2
  8
0
  6
CONTINUOUS
 62
     7
 10
315.6733550737587
 20
1226.600238775185
 30
0.0
 70
    32
  0
VERTEX
  5
2F3
  8
0
  6
CONTINUOUS
 62
     7
 10
315.6750108694463
 20
1226.663471061411
 30
0.0
 70
    32
  0
VERTEX
  5
2F4
  8
0
  6
CONTINUOUS
 62
     7
 10
315.6766468574602
 20
1226.725946923089
 30
0.0
 70
    32
  0
VERTEX
  5
2F5
  8
0
  6
CONTINUOUS
 62
     7
 10
315.678261355648
 20
1226.787602121425
 30
0.0
 70
    32
  0
VERTEX
  5
2F6
  8
0
  6
CONTINUOUS
 62
     7
 10
315.6798526818579
 20
1226.848372417622
 30
0.0
 70
    32
  0
VERTEX
  5
2F7
  8
0
  6
CONTINUOUS
 62
     7
 10
315.6814191539378
 20
1226.908193572887
 30
0.0
 70
    32
  0
VERTEX
  5
2F8
  8
0
  6
CONTINUOUS
 62
     7
 10
315.6829590897355
 20
1226.967001348423
 30
0.0
 70
    32
  0
VERTEX
  5
2F9
  8
0
  6
CONTINUOUS
 62
     7
 10
315.6844708070992
 20
1227.024731505435
 30
0.0
 70
    32
  0
VERTEX
  5
2FA
  8
0
  6
CONTINUOUS
 62
     7
 10
315.6859526238767
 20
1227.081319805129
 30
0.0
 70
    32
  0
VERTEX
  5
2FB
  8
0
  6
CONTINUOUS
 62
     7
 10
315.687402857916
 20
1227.13670200871
 30
0.0
 70
    32
  0
VERTEX
  5
2FC
  8
0
  6
CONTINUOUS
 62
     7
 10
315.6888198270649
 20
1227.190813877382
 30
0.0
 70
    32
  0
VERTEX
  5
2FD
  8
0
  6
CONTINUOUS
 62
     7
 10
315.6902018491716
 20
1227.243591172351
 30
0.0
 70
    32
  0
VERTEX
  5
2FE
  8
0
  6
CONTINUOUS
 62
     7
 10
315.6915472420839
 20
1227.294969654821
 30
0.0
 70
    32
  0
VERTEX
  5
2FF
  8
0
  6
CONTINUOUS
 62
     7
 10
315.6928543236496
 20
1227.344885085997
 30
0.0
 70
    32
  0
VERTEX
  5
300
  8
0
  6
CONTINUOUS
 62
     7
 10
315.6941214502308
 20
1227.393274697865
 30
0.0
 70
    32
  0
VERTEX
  5
301
  8
0
  6
CONTINUOUS
 62
     7
 10
315.6953481932532
 20
1227.440122123849
 30
0.0
 70
    32
  0
VERTEX
  5
302
  8
0
  6
CONTINUOUS
 62
     7
 10
315.6965355563362
 20
1227.485465690614
 30
0.0
 70
    32
  0
VERTEX
  5
303
  8
0
  6
CONTINUOUS
 62
     7
 10
315.6976846254063
 20
1227.52934686803
 30
0.0
 70
    32
  0
VERTEX
  5
304
  8
0
  6
CONTINUOUS
 62
     7
 10
315.6987964863903
 20
1227.571807125964
 30
0.0
 70
    32
  0
VERTEX
  5
305
  8
0
  6
CONTINUOUS
 62
     7
 10
315.699872225215
 20
1227.612887934288
 30
0.0
 70
    32
  0
VERTEX
  5
306
  8
0
  6
CONTINUOUS
 62
     7
 10
315.7009129278072
 20
1227.652630762869
 30
0.0
 70
    32
  0
VERTEX
  5
307
  8
0
  6
CONTINUOUS
 62
     7
 10
315.7019196800934
 20
1227.691077081576
 30
0.0
 70
    32
  0
VERTEX
  5
308
  8
0
  6
CONTINUOUS
 62
     7
 10
315.7028935680005
 20
1227.72826836028
 30
0.0
 70
    32
  0
VERTEX
  5
309
  8
0
  6
CONTINUOUS
 62
     7
 10
315.7038356774554
 20
1227.764246068849
 30
0.0
 70
    32
  0
VERTEX
  5
30A
  8
0
  6
CONTINUOUS
 62
     7
 10
315.7047470943845
 20
1227.799051677152
 30
0.0
 70
    32
  0
VERTEX
  5
30B
  8
0
  6
CONTINUOUS
 62
     7
 10
315.7056289047148
 20
1227.832726655058
 30
0.0
 70
    32
  0
VERTEX
  5
30C
  8
0
  6
CONTINUOUS
 62
     7
 10
315.7064821943728
 20
1227.865312472437
 30
0.0
 70
    32
  0
VERTEX
  5
30D
  8
0
  6
CONTINUOUS
 62
     7
 10
315.7073080492856
 20
1227.896850599158
 30
0.0
 70
    32
  0
VERTEX
  5
30E
  8
0
  6
CONTINUOUS
 62
     7
 10
315.7081071587529
 20
1227.927367358524
 30
0.0
 70
    32
  0
VERTEX
  5
30F
  8
0
  6
CONTINUOUS
 62
     7
 10
315.7088754014513
 20
1227.956705363545
 30
0.0
 70
    32
  0
VERTEX
  5
310
  8
0
  6
CONTINUOUS
 62
     7
 10
315.7096054548262
 20
1227.984584977138
 30
0.0
 70
    32
  0
VERTEX
  5
311
  8
0
  6
CONTINUOUS
 62
     7
 10
315.7102899384074
 20
1228.010724350518
 30
0.0
 70
    32
  0
VERTEX
  5
312
  8
0
  6
CONTINUOUS
 62
     7
 10
315.7109214717246
 20
1228.034841634898
 30
0.0
 70
    32
  0
VERTEX
  5
313
  8
0
  6
CONTINUOUS
 62
     7
 10
315.7114926743078
 20
1228.056654981494
 30
0.0
 70
    32
  0
VERTEX
  5
314
  8
0
  6
CONTINUOUS
 62
     7
 10
315.7119961656866
 20
1228.07588254152
 30
0.0
 70
    32
  0
VERTEX
  5
315
  8
0
  6
CONTINUOUS
 62
     7
 10
315.7124245653908
 20
1228.09224246619
 30
0.0
 70
    32
  0
VERTEX
  5
316
  8
0
  6
CONTINUOUS
 62
     7
 10
315.7127704929504
 20
1228.10545290672
 30
0.0
 70
    32
  0
VERTEX
  5
317
  8
0
  6
CONTINUOUS
 62
     7
 10
315.7130265678951
 20
1228.115232014323
 30
0.0
 70
    32
  0
VERTEX
  5
318
  8
0
  6
CONTINUOUS
 62
     7
 10
315.7131854097547
 20
1228.121297940215
 30
0.0
 70
    32
  0
VERTEX
  5
319
  8
0
  6
CONTINUOUS
 62
     7
 10
315.7132396380591
 20
1228.12336883561
 30
0.0
 70
    32
  0
VERTEX
  5
31A
  8
0
  6
CONTINUOUS
 62
     7
 10
315.7131818723381
 20
1228.121162851723
 30
0.0
 70
    32
  0
VERTEX
  5
31B
  8
0
  6
CONTINUOUS
 62
     7
 10
315.7130047321213
 20
1228.114398139768
 30
0.0
 70
    32
  0
VERTEX
  5
31C
  8
0
  6
CONTINUOUS
 62
     7
 10
315.7127178634623
 20
1228.103443067659
 30
0.0
 70
    32
  0
SEQEND
  5
85E
  8
0
  6
CONTINUOUS
 62
     7
  0
POLYLINE
  5
155
  8
0
  6
CONTINUOUS
 62
     7
 10
0.0
 20
0.0
 30
0.0
 66
     1
 70
     8
  0
VERTEX
  5
31D
  8
0
  6
CONTINUOUS
 62
     7
 10
315.3505156202542
 20
1252.473047460668
 30
0.0
 70
    32
  0
VERTEX
  5
31E
  8
0
  6
CONTINUOUS
 62
     7
 10
315.3501103682851
 20
1252.457571512338
 30
0.0
 70
    32
  0
VERTEX
  5
31F
  8
0
  6
CONTINUOUS
 62
     7
 10
315.3496855845343
 20
1252.441349675361
 30
0.0
 70
    32
  0
VERTEX
  5
320
  8
0
  6
CONTINUOUS
 62
     7
 10
315.3492217372202
 20
1252.423636061091
 30
0.0
 70
    32
  0
VERTEX
  5
321
  8
0
  6
CONTINUOUS
 62
     7
 10
315.3486992945615
 20
1252.40368478088
 30
0.0
 70
    32
  0
VERTEX
  5
322
  8
0
  6
CONTINUOUS
 62
     7
 10
315.3480987247763
 20
1252.380749946084
 30
0.0
 70
    32
  0
VERTEX
  5
323
  8
0
  6
CONTINUOUS
 62
     7
 10
315.3474004960831
 20
1252.354085668054
 30
0.0
 70
    32
  0
VERTEX
  5
324
  8
0
  6
CONTINUOUS
 62
     7
 10
315.3465850767004
 20
1252.322946058145
 30
0.0
 70
    32
  0
VERTEX
  5
325
  8
0
  6
CONTINUOUS
 62
     7
 10
315.3456329348464
 20
1252.286585227709
 30
0.0
 70
    32
  0
VERTEX
  5
326
  8
0
  6
CONTINUOUS
 62
     7
 10
315.3445245387397
 20
1252.244257288101
 30
0.0
 70
    32
  0
VERTEX
  5
327
  8
0
  6
CONTINUOUS
 62
     7
 10
315.343240372492
 20
1252.195216957616
 30
0.0
 70
    32
  0
VERTEX
  5
328
  8
0
  6
CONTINUOUS
 62
     7
 10
315.3417676495277
 20
1252.138975936637
 30
0.0
 70
    32
  0
VERTEX
  5
329
  8
0
  6
CONTINUOUS
 62
     7
 10
315.340110731048
 20
1252.075700772716
 30
0.0
 70
    32
  0
VERTEX
  5
32A
  8
0
  6
CONTINUOUS
 62
     7
 10
315.3382766698439
 20
1252.005660801075
 30
0.0
 70
    32
  0
VERTEX
  5
32B
  8
0
  6
CONTINUOUS
 62
     7
 10
315.3362725187067
 20
1251.929125356937
 30
0.0
 70
    32
  0
VERTEX
  5
32C
  8
0
  6
CONTINUOUS
 62
     7
 10
315.3341053304269
 20
1251.846363775525
 30
0.0
 70
    32
  0
VERTEX
  5
32D
  8
0
  6
CONTINUOUS
 62
     7
 10
315.3317821577958
 20
1251.75764539206
 30
0.0
 70
    32
  0
VERTEX
  5
32E
  8
0
  6
CONTINUOUS
 62
     7
 10
315.3293100536044
 20
1251.663239541765
 30
0.0
 70
    32
  0
VERTEX
  5
32F
  8
0
  6
CONTINUOUS
 62
     7
 10
315.3266960706437
 20
1251.563415559862
 30
0.0
 70
    32
  0
VERTEX
  5
330
  8
0
  6
CONTINUOUS
 62
     7
 10
315.3239472617046
 20
1251.458442781573
 30
0.0
 70
    32
  0
VERTEX
  5
331
  8
0
  6
CONTINUOUS
 62
     7
 10
315.3210706530633
 20
1251.348589529553
 30
0.0
 70
    32
  0
VERTEX
  5
332
  8
0
  6
CONTINUOUS
 62
     7
 10
315.3180710445093
 20
1251.234039100381
 30
0.0
 70
    32
  0
VERTEX
  5
333
  8
0
  6
CONTINUOUS
 62
     7
 10
315.3149493591197
 20
1251.114826744936
 30
0.0
 70
    32
  0
VERTEX
  5
334
  8
0
  6
CONTINUOUS
 62
     7
 10
315.311706131246
 20
1250.990972869286
 30
0.0
 70
    32
  0
VERTEX
  5
335
  8
0
  6
CONTINUOUS
 62
     7
 10
315.3083418952399
 20
1250.862497879499
 30
0.0
 70
    32
  0
VERTEX
  5
336
  8
0
  6
CONTINUOUS
 62
     7
 10
315.3048571854534
 20
1250.729422181646
 30
0.0
 70
    32
  0
VERTEX
  5
337
  8
0
  6
CONTINUOUS
 62
     7
 10
315.3012525362378
 20
1250.591766181794
 30
0.0
 70
    32
  0
VERTEX
  5
338
  8
0
  6
CONTINUOUS
 62
     7
 10
315.2975284819452
 20
1250.449550286012
 30
0.0
 70
    32
  0
VERTEX
  5
339
  8
0
  6
CONTINUOUS
 62
     7
 10
315.2936855569271
 20
1250.30279490037
 30
0.0
 70
    32
  0
VERTEX
  5
33A
  8
0
  6
CONTINUOUS
 62
     7
 10
315.2897242955352
 20
1250.151520430936
 30
0.0
 70
    32
  0
VERTEX
  5
33B
  8
0
  6
CONTINUOUS
 62
     7
 10
315.2856455460607
 20
1249.995759272638
 30
0.0
 70
    32
  0
VERTEX
  5
33C
  8
0
  6
CONTINUOUS
 62
     7
 10
315.2814515083526
 20
1249.83559543433
 30
0.0
 70
    32
  0
VERTEX
  5
33D
  8
0
  6
CONTINUOUS
 62
     7
 10
315.2771447458998
 20
1249.67112681169
 30
0.0
 70
    32
  0
VERTEX
  5
33E
  8
0
  6
CONTINUOUS
 62
     7
 10
315.2727278221954
 20
1249.50245130058
 30
0.0
 70
    32
  0
VERTEX
  5
33F
  8
0
  6
CONTINUOUS
 62
     7
 10
315.2682033007329
 20
1249.329666796865
 30
0.0
 70
    32
  0
VERTEX
  5
340
  8
0
  6
CONTINUOUS
 62
     7
 10
315.2635737450058
 20
1249.15287119641
 30
0.0
 70
    32
  0
VERTEX
  5
341
  8
0
  6
CONTINUOUS
 62
     7
 10
315.2588417185075
 20
1248.972162395081
 30
0.0
 70
    32
  0
VERTEX
  5
342
  8
0
  6
CONTINUOUS
 62
     7
 10
315.2540097847315
 20
1248.78763828874
 30
0.0
 70
    32
  0
VERTEX
  5
343
  8
0
  6
CONTINUOUS
 62
     7
 10
315.2490805158912
 20
1248.599397106261
 30
0.0
 70
    32
  0
VERTEX
  5
344
  8
0
  6
CONTINUOUS
 62
     7
 10
315.2440568702746
 20
1248.407551820101
 30
0.0
 70
    32
  0
VERTEX
  5
345
  8
0
  6
CONTINUOUS
 62
     7
 10
315.2389423367699
 20
1248.212235665527
 30
0.0
 70
    32
  0
VERTEX
  5
346
  8
0
  6
CONTINUOUS
 62
     7
 10
315.2337404428098
 20
1248.013583349761
 30
0.0
 70
    32
  0
VERTEX
  5
347
  8
0
  6
CONTINUOUS
 62
     7
 10
315.2284547158272
 20
1247.811729580024
 30
0.0
 70
    32
  0
VERTEX
  5
348
  8
0
  6
CONTINUOUS
 62
     7
 10
315.2230886832548
 20
1247.606809063539
 30
0.0
 70
    32
  0
VERTEX
  5
349
  8
0
  6
CONTINUOUS
 62
     7
 10
315.2176458725253
 20
1247.398956507527
 30
0.0
 70
    32
  0
VERTEX
  5
34A
  8
0
  6
CONTINUOUS
 62
     7
 10
315.2121298110715
 20
1247.18830661921
 30
0.0
 70
    32
  0
VERTEX
  5
34B
  8
0
  6
CONTINUOUS
 62
     7
 10
315.2065440263261
 20
1246.974994105811
 30
0.0
 70
    32
  0
VERTEX
  5
34C
  8
0
  6
CONTINUOUS
 62
     7
 10
315.2008920457219
 20
1246.759153674551
 30
0.0
 70
    32
  0
VERTEX
  5
34D
  8
0
  6
CONTINUOUS
 62
     7
 10
315.1951773966916
 20
1246.540920032653
 30
0.0
 70
    32
  0
VERTEX
  5
34E
  8
0
  6
CONTINUOUS
 62
     7
 10
315.1894036066681
 20
1246.320427887338
 30
0.0
 70
    32
  0
VERTEX
  5
34F
  8
0
  6
CONTINUOUS
 62
     7
 10
315.1835742030839
 20
1246.097811945828
 30
0.0
 70
    32
  0
VERTEX
  5
350
  8
0
  6
CONTINUOUS
 62
     7
 10
315.1776927133719
 20
1245.873206915347
 30
0.0
 70
    32
  0
VERTEX
  5
351
  8
0
  6
CONTINUOUS
 62
     7
 10
315.1717626649648
 20
1245.646747503114
 30
0.0
 70
    32
  0
VERTEX
  5
352
  8
0
  6
CONTINUOUS
 62
     7
 10
315.1657875964798
 20
1245.418568843464
 30
0.0
 70
    32
  0
VERTEX
  5
353
  8
0
  6
CONTINUOUS
 62
     7
 10
315.1597711789624
 20
1245.188811127977
 30
0.0
 70
    32
  0
VERTEX
  5
354
  8
0
  6
CONTINUOUS
 62
     7
 10
315.1537171700556
 20
1244.95761785524
 30
0.0
 70
    32
  0
VERTEX
  5
355
  8
0
  6
CONTINUOUS
 62
     7
 10
315.147629328898
 20
1244.725132580975
 30
0.0
 70
    32
  0
VERTEX
  5
356
  8
0
  6
CONTINUOUS
 62
     7
 10
315.1415114146289
 20
1244.491498860911
 30
0.0
 70
    32
  0
VERTEX
  5
357
  8
0
  6
CONTINUOUS
 62
     7
 10
315.135367186387
 20
1244.25686025077
 30
0.0
 70
    32
  0
VERTEX
  5
358
  8
0
  6
CONTINUOUS
 62
     7
 10
315.1292004033114
 20
1244.021360306279
 30
0.0
 70
    32
  0
VERTEX
  5
359
  8
0
  6
CONTINUOUS
 62
     7
 10
315.123014824541
 20
1243.785142583162
 30
0.0
 70
    32
  0
VERTEX
  5
35A
  8
0
  6
CONTINUOUS
 62
     7
 10
315.1168142092148
 20
1243.548350637145
 30
0.0
 70
    32
  0
VERTEX
  5
35B
  8
0
  6
CONTINUOUS
 62
     7
 10
315.1106023164717
 20
1243.311128023952
 30
0.0
 70
    32
  0
VERTEX
  5
35C
  8
0
  6
CONTINUOUS
 62
     7
 10
315.1043829054506
 20
1243.073618299309
 30
0.0
 70
    32
  0
VERTEX
  5
35D
  8
0
  6
CONTINUOUS
 62
     7
 10
315.0981597352906
 20
1242.835965018941
 30
0.0
 70
    32
  0
SEQEND
  5
85F
  8
0
  6
CONTINUOUS
 62
     7
  0
POLYLINE
  5
156
  8
0
  6
CONTINUOUS
 62
     7
 10
0.0
 20
0.0
 30
0.0
 66
     1
 70
     8
  0
VERTEX
  5
35E
  8
0
  6
CONTINUOUS
 62
     7
 10
315.0942152152948
 20
1242.685329877631
 30
0.0
 70
    32
  0
VERTEX
  5
35F
  8
0
  6
CONTINUOUS
 62
     7
 10
315.0879526630428
 20
1242.446172655854
 30
0.0
 70
    32
  0
VERTEX
  5
360
  8
0
  6
CONTINUOUS
 62
     7
 10
315.0816936767894
 20
1242.207151614072
 30
0.0
 70
    32
  0
VERTEX
  5
361
  8
0
  6
CONTINUOUS
 62
     7
 10
315.0754418225333
 20
1241.968402932278
 30
0.0
 70
    32
  0
VERTEX
  5
362
  8
0
  6
CONTINUOUS
 62
     7
 10
315.0692006662732
 20
1241.730062790468
 30
0.0
 70
    32
  0
VERTEX
  5
363
  8
0
  6
CONTINUOUS
 62
     7
 10
315.0629737740076
 20
1241.492267368635
 30
0.0
 70
    32
  0
VERTEX
  5
364
  8
0
  6
CONTINUOUS
 62
     7
 10
315.0567647117354
 20
1241.255152846774
 30
0.0
 70
    32
  0
VERTEX
  5
365
  8
0
  6
CONTINUOUS
 62
     7
 10
315.050577045455
 20
1241.01885540488
 30
0.0
 70
    32
  0
VERTEX
  5
366
  8
0
  6
CONTINUOUS
 62
     7
 10
315.0444143411653
 20
1240.783511222947
 30
0.0
 70
    32
  0
VERTEX
  5
367
  8
0
  6
CONTINUOUS
 62
     7
 10
315.0382801648648
 20
1240.549256480969
 30
0.0
 70
    32
  0
VERTEX
  5
368
  8
0
  6
CONTINUOUS
 62
     7
 10
315.0321780825522
 20
1240.316227358941
 30
0.0
 70
    32
  0
VERTEX
  5
369
  8
0
  6
CONTINUOUS
 62
     7
 10
315.026111660226
 20
1240.084560036857
 30
0.0
 70
    32
  0
VERTEX
  5
36A
  8
0
  6
CONTINUOUS
 62
     7
 10
315.0200844649201
 20
1239.854390734233
 30
0.0
 70
    32
  0
VERTEX
  5
36B
  8
0
  6
CONTINUOUS
 62
     7
 10
315.0141001049887
 20
1239.625857248567
 30
0.0
 70
    32
  0
VERTEX
  5
36C
  8
0
  6
CONTINUOUS
 62
     7
 10
315.0081622431017
 20
1239.399099451577
 30
0.0
 70
    32
  0
VERTEX
  5
36D
  8
0
  6
CONTINUOUS
 62
     7
 10
315.0022745456238
 20
1239.174257356082
 30
0.0
 70
    32
  0
VERTEX
  5
36E
  8
0
  6
CONTINUOUS
 62
     7
 10
314.9964406789198
 20
1238.951470974903
 30
0.0
 70
    32
  0
VERTEX
  5
36F
  8
0
  6
CONTINUOUS
 62
     7
 10
314.9906643093543
 20
1238.730880320863
 30
0.0
 70
    32
  0
VERTEX
  5
370
  8
0
  6
CONTINUOUS
 62
     7
 10
314.9849491032924
 20
1238.51262540678
 30
0.0
 70
    32
  0
VERTEX
  5
371
  8
0
  6
CONTINUOUS
 62
     7
 10
314.9792987270984
 20
1238.296846245475
 30
0.0
 70
    32
  0
VERTEX
  5
372
  8
0
  6
CONTINUOUS
 62
     7
 10
314.9737168471373
 20
1238.08368284977
 30
0.0
 70
    32
  0
VERTEX
  5
373
  8
0
  6
CONTINUOUS
 62
     7
 10
314.9682071297738
 20
1237.873275232484
 30
0.0
 70
    32
  0
VERTEX
  5
374
  8
0
  6
CONTINUOUS
 62
     7
 10
314.9627732413725
 20
1237.665763406439
 30
0.0
 70
    32
  0
VERTEX
  5
375
  8
0
  6
CONTINUOUS
 62
     7
 10
314.9574188482982
 20
1237.461287384455
 30
0.0
 70
    32
  0
VERTEX
  5
376
  8
0
  6
CONTINUOUS
 62
     7
 10
314.9521476169158
 20
1237.259987179352
 30
0.0
 70
    32
  0
VERTEX
  5
377
  8
0
  6
CONTINUOUS
 62
     7
 10
314.9469632135898
 20
1237.062002803952
 30
0.0
 70
    32
  0
VERTEX
  5
378
  8
0
  6
CONTINUOUS
 62
     7
 10
314.9418693046852
 20
1236.867474271075
 30
0.0
 70
    32
  0
VERTEX
  5
379
  8
0
  6
CONTINUOUS
 62
     7
 10
314.9368694796833
 20
1236.676538657494
 30
0.0
 70
    32
  0
VERTEX
  5
37A
  8
0
  6
CONTINUOUS
 62
     7
 10
314.9319666602406
 20
1236.489307536757
 30
0.0
 70
    32
  0
VERTEX
  5
37B
  8
0
  6
CONTINUOUS
 62
     7
 10
314.927163424722
 20
1236.305879372652
 30
0.0
 70
    32
  0
VERTEX
  5
37C
  8
0
  6
CONTINUOUS
 62
     7
 10
314.9224623486724
 20
1236.126352521272
 30
0.0
 70
    32
  0
VERTEX
  5
37D
  8
0
  6
CONTINUOUS
 62
     7
 10
314.9178660076366
 20
1235.950825338706
 30
0.0
 70
    32
  0
VERTEX
  5
37E
  8
0
  6
CONTINUOUS
 62
     7
 10
314.9133769771596
 20
1235.779396181045
 30
0.0
 70
    32
  0
VERTEX
  5
37F
  8
0
  6
CONTINUOUS
 62
     7
 10
314.9089978327863
 20
1235.612163404381
 30
0.0
 70
    32
  0
VERTEX
  5
380
  8
0
  6
CONTINUOUS
 62
     7
 10
314.9047311500614
 20
1235.449225364803
 30
0.0
 70
    32
  0
VERTEX
  5
381
  8
0
  6
CONTINUOUS
 62
     7
 10
314.9005795022081
 20
1235.290680329735
 30
0.0
 70
    32
  0
VERTEX
  5
382
  8
0
  6
CONTINUOUS
 62
     7
 10
314.8965449431031
 20
1235.136606733567
 30
0.0
 70
    32
  0
VERTEX
  5
383
  8
0
  6
CONTINUOUS
 62
     7
 10
314.8926283542853
 20
1234.98703824091
 30
0.0
 70
    32
  0
VERTEX
  5
384
  8
0
  6
CONTINUOUS
 62
     7
 10
314.888830456538
 20
1234.842002377366
 30
0.0
 70
    32
  0
VERTEX
  5
385
  8
0
  6
CONTINUOUS
 62
     7
 10
314.8851519706444
 20
1234.701526668537
 30
0.0
 70
    32
  0
VERTEX
  5
386
  8
0
  6
CONTINUOUS
 62
     7
 10
314.8815936173876
 20
1234.565638640025
 30
0.0
 70
    32
  0
VERTEX
  5
387
  8
0
  6
CONTINUOUS
 62
     7
 10
314.8781561175512
 20
1234.434365817431
 30
0.0
 70
    32
  0
VERTEX
  5
388
  8
0
  6
CONTINUOUS
 62
     7
 10
314.8748401919182
 20
1234.307735726358
 30
0.0
 70
    32
  0
VERTEX
  5
389
  8
0
  6
CONTINUOUS
 62
     7
 10
314.8716465612718
 20
1234.185775892407
 30
0.0
 70
    32
  0
VERTEX
  5
38A
  8
0
  6
CONTINUOUS
 62
     7
 10
314.8685759463954
 20
1234.06851384118
 30
0.0
 70
    32
  0
VERTEX
  5
38B
  8
0
  6
CONTINUOUS
 62
     7
 10
314.8656298727316
 20
1233.956007826977
 30
0.0
 70
    32
  0
VERTEX
  5
38C
  8
0
  6
CONTINUOUS
 62
     7
 10
314.8628138762472
 20
1233.848469259848
 30
0.0
 70
    32
  0
VERTEX
  5
38D
  8
0
  6
CONTINUOUS
 62
     7
 10
314.8601347399307
 20
1233.746157171669
 30
0.0
 70
    32
  0
VERTEX
  5
38E
  8
0
  6
CONTINUOUS
 62
     7
 10
314.857599247165
 20
1233.649330609384
 30
0.0
 70
    32
  0
VERTEX
  5
38F
  8
0
  6
CONTINUOUS
 62
     7
 10
314.8552141813332
 20
1233.558248619941
 30
0.0
 70
    32
  0
VERTEX
  5
390
  8
0
  6
CONTINUOUS
 62
     7
 10
314.8529863258182
 20
1233.473170250284
 30
0.0
 70
    32
  0
VERTEX
  5
391
  8
0
  6
CONTINUOUS
 62
     7
 10
314.850922464003
 20
1233.394354547358
 30
0.0
 70
    32
  0
VERTEX
  5
392
  8
0
  6
CONTINUOUS
 62
     7
 10
314.8490293792707
 20
1233.32206055811
 30
0.0
 70
    32
  0
VERTEX
  5
393
  8
0
  6
CONTINUOUS
 62
     7
 10
314.8473138550043
 20
1233.256547329484
 30
0.0
 70
    32
  0
VERTEX
  5
394
  8
0
  6
CONTINUOUS
 62
     7
 10
314.8457826685561
 20
1233.198073678131
 30
0.0
 70
    32
  0
VERTEX
  5
395
  8
0
  6
CONTINUOUS
 62
     7
 10
314.8444367492151
 20
1233.146675092157
 30
0.0
 70
    32
  0
VERTEX
  5
396
  8
0
  6
CONTINUOUS
 62
     7
 10
314.8432602581349
 20
1233.101746710427
 30
0.0
 70
    32
  0
VERTEX
  5
397
  8
0
  6
CONTINUOUS
 62
     7
 10
314.8422343699532
 20
1233.062569621357
 30
0.0
 70
    32
  0
VERTEX
  5
398
  8
0
  6
CONTINUOUS
 62
     7
 10
314.8413402593079
 20
1233.028424913366
 30
0.0
 70
    32
  0
VERTEX
  5
399
  8
0
  6
CONTINUOUS
 62
     7
 10
314.8405591008363
 20
1232.998593674871
 30
0.0
 70
    32
  0
VERTEX
  5
39A
  8
0
  6
CONTINUOUS
 62
     7
 10
314.8398720691764
 20
1232.972356994288
 30
0.0
 70
    32
  0
VERTEX
  5
39B
  8
0
  6
CONTINUOUS
 62
     7
 10
314.8392603389657
 20
1232.948995960036
 30
0.0
 70
    32
  0
VERTEX
  5
39C
  8
0
  6
CONTINUOUS
 62
     7
 10
314.838705084842
 20
1232.927791660532
 30
0.0
 70
    32
  0
VERTEX
  5
39D
  8
0
  6
CONTINUOUS
 62
     7
 10
314.838187481443
 20
1232.908025184194
 30
0.0
 70
    32
  0
VERTEX
  5
39E
  8
0
  6
CONTINUOUS
 62
     7
 10
314.8376887034062
 20
1232.888977619438
 30
0.0
 70
    32
  0
SEQEND
  5
860
  8
0
  6
CONTINUOUS
 62
     7
  0
LINE
  5
157
  8
0
  6
CONTINUOUS
 62
     7
 10
312.5722632528793
 20
1238.059590045528
 30
0.0
 11
312.817812017829
 21
1247.436719061606
 31
0.0
  0
LINE
  5
15C
  8
0
  6
CONTINUOUS
 62
     7
 10
4686.674140331183
 20
1228.406182963929
 30
0.0
 11
4684.840393384786
 21
1228.358164610215
 31
0.0
  0
LINE
  5
15D
  8
0
  6
CONTINUOUS
 62
     7
 10
4684.840393384786
 20
1222.856279251515
 30
0.0
 11
4686.818113546871
 21
1222.908067676564
 31
0.0
  0
ARC
  5
15E
  8
0
  6
CONTINUOUS
 62
     7
 10
4686.681993415676
 20
1228.106285766436
 30
0.0
 40
0.3000000000003306
 50
1.499999999909843
 51
91.49999999995553
  0
ARC
  5
15F
  8
0
  6
CONTINUOUS
 62
     7
 10
4686.810260462379
 20
1223.207964874056
 30
0.0
 40
0.2999999999998819
 50
271.4999999999563
 51
1.499999999914389
  0
ARC
  5
160
  8
0
  6
CONTINUOUS
 62
     7
 10
4688.057138898682
 20
1232.893923482533
 30
0.0
 40
0.2000000000005294
 50
181.4999999999735
 51
271.4999999997816
  0
ARC
  5
161
  8
0
  6
CONTINUOUS
 62
     7
 10
4687.544070711867
 20
1252.487207052054
 30
0.0
 40
0.2000000000005294
 50
91.50000000004292
 51
181.4999999999735
  0
LINE
  5
162
  8
0
  6
CONTINUOUS
 62
     7
 10
4688.062374288343
 20
1232.693992017538
 30
0.0
 11
4688.812565065658
 21
1232.713636454394
 31
0.0
  0
LINE
  5
163
  8
0
  6
CONTINUOUS
 62
     7
 10
4688.28902609952
 20
1252.706782953905
 30
0.0
 11
4687.538835322205
 21
1252.687138517049
 31
0.0
  0
ARC
  5
164
  8
0
  6
CONTINUOUS
 62
     7
 10
4688.781152727689
 20
1233.913225244365
 30
0.0
 40
1.20000000000021
 50
271.4999999999555
 51
356.5000000029921
  0
ARC
  5
165
  8
0
  6
CONTINUOUS
 62
     7
 10
4688.320438437489
 20
1251.507194163934
 30
0.0
 40
1.200000000000011
 50
6.499999996883224
 51
91.49999999995495
  0
LINE
  5
166
  8
0
  6
CONTINUOUS
 62
     7
 10
4689.978914485797
 20
1233.83996699705
 30
0.0
 11
4690.076949506086
 21
1235.442825410262
 31
0.0
  0
LINE
  5
167
  8
0
  6
CONTINUOUS
 62
     7
 10
4689.694512458784
 20
1250.047507025393
 30
0.0
 11
4689.51272466431
 21
1251.643038020324
 31
0.0
  0
ARC
  5
168
  8
0
  6
CONTINUOUS
 62
     7
 10
4660.132905553425
 20
1237.274281596323
 30
0.0
 40
30.00000000000195
 50
356.4999999999428
 51
1.499999999940085
  0
ARC
  5
169
  8
0
  6
CONTINUOUS
 62
     7
 10
4659.887356788476
 20
1246.651410612399
 30
0.0
 40
30.00000000000241
 50
1.499999999943992
 51
6.499999999941752
  0
LINE
  5
16A
  8
0
  6
CONTINUOUS
 62
     7
 10
4690.002324411118
 20
1242.653695747066
 30
0.0
 11
4689.999850920221
 21
1242.748154553501
 31
0.0
  0
POLYLINE
  5
16B
  8
0
  6
CONTINUOUS
 62
     7
 66
     1
 10
0.0
 20
0.0
 30
0.0
  0
VERTEX
  5
39F
  8
0
  6
CONTINUOUS
 62
     7
 10
4687.21864094517
 20
1238.173783441088
 30
0.0
  0
VERTEX
  5
3A0
  8
0
  6
CONTINUOUS
 62
     7
 10
4687.235220210226
 20
1238.172129141099
 30
0.0
  0
VERTEX
  5
3A1
  8
0
  6
CONTINUOUS
 62
     7
 10
4687.251782549839
 20
1238.170424138209
 30
0.0
  0
VERTEX
  5
3A2
  8
0
  6
CONTINUOUS
 62
     7
 10
4687.268311038566
 20
1238.168617729517
 30
0.0
  0
VERTEX
  5
3A3
  8
0
  6
CONTINUOUS
 62
     7
 10
4687.284788750964
 20
1238.166659212125
 30
0.0
  0
VERTEX
  5
3A4
  8
0
  6
CONTINUOUS
 62
     7
 10
4687.301198761589
 20
1238.164497883131
 30
0.0
  0
VERTEX
  5
3A5
  8
0
  6
CONTINUOUS
 62
     7
 10
4687.317524145001
 20
1238.162083039635
 30
0.0
  0
VERTEX
  5
3A6
  8
0
  6
CONTINUOUS
 62
     7
 10
4687.333747975752
 20
1238.159363978736
 30
0.0
  0
VERTEX
  5
3A7
  8
0
  6
CONTINUOUS
 62
     7
 10
4687.349853328403
 20
1238.156289997534
 30
0.0
  0
VERTEX
  5
3A8
  8
0
  6
CONTINUOUS
 62
     7
 10
4687.365823277511
 20
1238.152810393128
 30
0.0
  0
VERTEX
  5
3A9
  8
0
  6
CONTINUOUS
 62
     7
 10
4687.381640897629
 20
1238.148874462618
 30
0.0
  0
VERTEX
  5
3AA
  8
0
  6
CONTINUOUS
 62
     7
 10
4687.397289263319
 20
1238.144431503104
 30
0.0
  0
VERTEX
  5
3AB
  8
0
  6
CONTINUOUS
 62
     7
 10
4687.412751449136
 20
1238.139430811685
 30
0.0
  0
VERTEX
  5
3AC
  8
0
  6
CONTINUOUS
 62
     7
 10
4687.428010529635
 20
1238.133821685466
 30
0.0
  0
VERTEX
  5
3AD
  8
0
  6
CONTINUOUS
 62
     7
 10
4687.443050316869
 20
1238.127566316216
 30
0.0
  0
VERTEX
  5
3AE
  8
0
  6
CONTINUOUS
 62
     7
 10
4687.457857504804
 20
1238.120677284691
 30
0.0
  0
VERTEX
  5
3AF
  8
0
  6
CONTINUOUS
 62
     7
 10
4687.472419491279
 20
1238.113179478302
 30
0.0
  0
VERTEX
  5
3B0
  8
0
  6
CONTINUOUS
 62
     7
 10
4687.486723674122
 20
1238.105097784462
 30
0.0
  0
VERTEX
  5
3B1
  8
0
  6
CONTINUOUS
 62
     7
 10
4687.500757451167
 20
1238.096457090586
 30
0.0
  0
VERTEX
  5
3B2
  8
0
  6
CONTINUOUS
 62
     7
 10
4687.514508220246
 20
1238.087282284084
 30
0.0
  0
VERTEX
  5
3B3
  8
0
  6
CONTINUOUS
 62
     7
 10
4687.527963379194
 20
1238.07759825237
 30
0.0
  0
VERTEX
  5
3B4
  8
0
  6
CONTINUOUS
 62
     7
 10
4687.541110325842
 20
1238.067429882858
 30
0.0
  0
VERTEX
  5
3B5
  8
0
  6
CONTINUOUS
 62
     7
 10
4687.553936458024
 20
1238.05680206296
 30
0.0
  0
VERTEX
  5
3B6
  8
0
  6
CONTINUOUS
 62
     7
 10
4687.56642917357
 20
1238.045739680089
 30
0.0
  0
VERTEX
  5
3B7
  8
0
  6
CONTINUOUS
 62
     7
 10
4687.578575870316
 20
1238.034267621657
 30
0.0
  0
VERTEX
  5
3B8
  8
0
  6
CONTINUOUS
 62
     7
 10
4687.590363946092
 20
1238.022410775078
 30
0.0
  0
VERTEX
  5
3B9
  8
0
  6
CONTINUOUS
 62
     7
 10
4687.601780798733
 20
1238.010194027764
 30
0.0
  0
VERTEX
  5
3BA
  8
0
  6
CONTINUOUS
 62
     7
 10
4687.61281382607
 20
1237.997642267129
 30
0.0
  0
VERTEX
  5
3BB
  8
0
  6
CONTINUOUS
 62
     7
 10
4687.623448783022
 20
1237.984778198236
 30
0.0
  0
VERTEX
  5
3BC
  8
0
  6
CONTINUOUS
 62
     7
 10
4687.633664142735
 20
1237.97161485348
 30
0.0
  0
VERTEX
  5
3BD
  8
0
  6
CONTINUOUS
 62
     7
 10
4687.643436361611
 20
1237.958162586335
 30
0.0
  0
VERTEX
  5
3BE
  8
0
  6
CONTINUOUS
 62
     7
 10
4687.652741895979
 20
1237.944431750179
 30
0.0
  0
VERTEX
  5
3BF
  8
0
  6
CONTINUOUS
 62
     7
 10
4687.661557202171
 20
1237.930432698389
 30
0.0
  0
VERTEX
  5
3C0
  8
0
  6
CONTINUOUS
 62
     7
 10
4687.669858736513
 20
1237.91617578434
 30
0.0
  0
VERTEX
  5
3C1
  8
0
  6
CONTINUOUS
 62
     7
 10
4687.677622955334
 20
1237.901671361411
 30
0.0
  0
VERTEX
  5
3C2
  8
0
  6
CONTINUOUS
 62
     7
 10
4687.684826314967
 20
1237.886929782978
 30
0.0
  0
VERTEX
  5
3C3
  8
0
  6
CONTINUOUS
 62
     7
 10
4687.69144527174
 20
1237.871961402419
 30
0.0
  0
VERTEX
  5
3C4
  8
0
  6
CONTINUOUS
 62
     7
 10
4687.697456281981
 20
1237.85677657311
 30
0.0
  0
VERTEX
  5
3C5
  8
0
  6
CONTINUOUS
 62
     7
 10
4687.702835805422
 20
1237.841385648781
 30
0.0
  0
VERTEX
  5
3C6
  8
0
  6
CONTINUOUS
 62
     7
 10
4687.70757792226
 20
1237.82580080776
 30
0.0
  0
VERTEX
  5
3C7
  8
0
  6
CONTINUOUS
 62
     7
 10
4687.711735393002
 20
1237.810040304722
 30
0.0
  0
VERTEX
  5
3C8
  8
0
  6
CONTINUOUS
 62
     7
 10
4687.715373178327
 20
1237.794123657668
 30
0.0
  0
VERTEX
  5
3C9
  8
0
  6
CONTINUOUS
 62
     7
 10
4687.718556238911
 20
1237.7780703846
 30
0.0
  0
VERTEX
  5
3CA
  8
0
  6
CONTINUOUS
 62
     7
 10
4687.721349535432
 20
1237.761900003521
 30
0.0
  0
VERTEX
  5
3CB
  8
0
  6
CONTINUOUS
 62
     7
 10
4687.723818028566
 20
1237.745632032432
 30
0.0
  0
VERTEX
  5
3CC
  8
0
  6
CONTINUOUS
 62
     7
 10
4687.726026678991
 20
1237.729285989336
 30
0.0
  0
VERTEX
  5
3CD
  8
0
  6
CONTINUOUS
 62
     7
 10
4687.728040447386
 20
1237.712881392234
 30
0.0
  0
VERTEX
  5
3CE
  8
0
  6
CONTINUOUS
 62
     7
 10
4687.729924294425
 20
1237.696437759128
 30
0.0
  0
VERTEX
  5
3CF
  8
0
  6
CONTINUOUS
 62
     7
 10
4687.731743180788
 20
1237.67997460802
 30
0.0
  0
SEQEND
  5
861
  8
0
  6
CONTINUOUS
 62
     7
  0
POLYLINE
  5
16C
  8
0
  6
CONTINUOUS
 62
     7
 66
     1
 10
0.0
 20
0.0
 30
0.0
  0
VERTEX
  5
3D0
  8
0
  6
CONTINUOUS
 62
     7
 10
4687.46960349977
 20
1247.69068514724
 30
0.0
  0
VERTEX
  5
3D1
  8
0
  6
CONTINUOUS
 62
     7
 10
4687.468188224466
 20
1247.674086118307
 30
0.0
  0
VERTEX
  5
3D2
  8
0
  6
CONTINUOUS
 62
     7
 10
4687.466721823207
 20
1247.657503283136
 30
0.0
  0
VERTEX
  5
3D3
  8
0
  6
CONTINUOUS
 62
     7
 10
4687.465153170039
 20
1247.64095283549
 30
0.0
  0
VERTEX
  5
3D4
  8
0
  6
CONTINUOUS
 62
     7
 10
4687.463431139008
 20
1247.624450969133
 30
0.0
  0
VERTEX
  5
3D5
  8
0
  6
CONTINUOUS
 62
     7
 10
4687.461504604158
 20
1247.608013877825
 30
0.0
  0
VERTEX
  5
3D6
  8
0
  6
CONTINUOUS
 62
     7
 10
4687.459322439536
 20
1247.591657755329
 30
0.0
  0
VERTEX
  5
3D7
  8
0
  6
CONTINUOUS
 62
     7
 10
4687.456833519187
 20
1247.57539879541
 30
0.0
  0
VERTEX
  5
3D8
  8
0
  6
CONTINUOUS
 62
     7
 10
4687.453986717156
 20
1247.559253191828
 30
0.0
  0
VERTEX
  5
3D9
  8
0
  6
CONTINUOUS
 62
     7
 10
4687.450730907488
 20
1247.543237138347
 30
0.0
  0
VERTEX
  5
3DA
  8
0
  6
CONTINUOUS
 62
     7
 10
4687.447014964228
 20
1247.527366828728
 30
0.0
  0
VERTEX
  5
3DB
  8
0
  6
CONTINUOUS
 62
     7
 10
4687.442787761424
 20
1247.511658456735
 30
0.0
  0
VERTEX
  5
3DC
  8
0
  6
CONTINUOUS
 62
     7
 10
4687.437998173118
 20
1247.49612821613
 30
0.0
  0
VERTEX
  5
3DD
  8
0
  6
CONTINUOUS
 62
     7
 10
4687.432595076591
 20
1247.480792300538
 30
0.0
  0
VERTEX
  5
3DE
  8
0
  6
CONTINUOUS
 62
     7
 10
4687.426542519343
 20
1247.465666256075
 30
0.0
  0
VERTEX
  5
3DF
  8
0
  6
CONTINUOUS
 62
     7
 10
4687.419854744293
 20
1247.450763486377
 30
0.0
  0
VERTEX
  5
3E0
  8
0
  6
CONTINUOUS
 62
     7
 10
4687.412556362093
 20
1247.436096952555
 30
0.0
  0
VERTEX
  5
3E1
  8
0
  6
CONTINUOUS
 62
     7
 10
4687.404671983388
 20
1247.421679615721
 30
0.0
  0
VERTEX
  5
3E2
  8
0
  6
CONTINUOUS
 62
     7
 10
4687.396226218832
 20
1247.407524436986
 30
0.0
  0
VERTEX
  5
3E3
  8
0
  6
CONTINUOUS
 62
     7
 10
4687.387243679072
 20
1247.393644377461
 30
0.0
  0
VERTEX
  5
3E4
  8
0
  6
CONTINUOUS
 62
     7
 10
4687.377748974758
 20
1247.380052398259
 30
0.0
  0
VERTEX
  5
3E5
  8
0
  6
CONTINUOUS
 62
     7
 10
4687.36776671654
 20
1247.36676146049
 30
0.0
  0
VERTEX
  5
3E6
  8
0
  6
CONTINUOUS
 62
     7
 10
4687.357321515068
 20
1247.353784525266
 30
0.0
  0
VERTEX
  5
3E7
  8
0
  6
CONTINUOUS
 62
     7
 10
4687.34643798099
 20
1247.341134553698
 30
0.0
  0
VERTEX
  5
3E8
  8
0
  6
CONTINUOUS
 62
     7
 10
4687.335140724958
 20
1247.328824506898
 30
0.0
  0
VERTEX
  5
3E9
  8
0
  6
CONTINUOUS
 62
     7
 10
4687.323454357619
 20
1247.316867345978
 30
0.0
  0
VERTEX
  5
3EA
  8
0
  6
CONTINUOUS
 62
     7
 10
4687.311403489624
 20
1247.305276032048
 30
0.0
  0
VERTEX
  5
3EB
  8
0
  6
CONTINUOUS
 62
     7
 10
4687.299012731501
 20
1247.29406352631
 30
0.0
  0
VERTEX
  5
3EC
  8
0
  6
CONTINUOUS
 62
     7
 10
4687.286303987506
 20
1247.283244803671
 30
0.0
  0
VERTEX
  5
3ED
  8
0
  6
CONTINUOUS
 62
     7
 10
4687.273289462336
 20
1247.27284205636
 30
0.0
  0
VERTEX
  5
3EE
  8
0
  6
CONTINUOUS
 62
     7
 10
4687.259979188478
 20
1247.262879092924
 30
0.0
  0
VERTEX
  5
3EF
  8
0
  6
CONTINUOUS
 62
     7
 10
4687.246383198416
 20
1247.253379721908
 30
0.0
  0
VERTEX
  5
3F0
  8
0
  6
CONTINUOUS
 62
     7
 10
4687.232511524637
 20
1247.244367751859
 30
0.0
  0
VERTEX
  5
3F1
  8
0
  6
CONTINUOUS
 62
     7
 10
4687.218374199624
 20
1247.235866991324
 30
0.0
  0
VERTEX
  5
3F2
  8
0
  6
CONTINUOUS
 62
     7
 10
4687.203981255866
 20
1247.227901248848
 30
0.0
  0
VERTEX
  5
3F3
  8
0
  6
CONTINUOUS
 62
     7
 10
4687.189342725846
 20
1247.220494332979
 30
0.0
  0
VERTEX
  5
3F4
  8
0
  6
CONTINUOUS
 62
     7
 10
4687.174468642051
 20
1247.213670052262
 30
0.0
  0
VERTEX
  5
3F5
  8
0
  6
CONTINUOUS
 62
     7
 10
4687.159369036965
 20
1247.207452215244
 30
0.0
  0
VERTEX
  5
3F6
  8
0
  6
CONTINUOUS
 62
     7
 10
4687.144053945241
 20
1247.201864612084
 30
0.0
  0
VERTEX
  5
3F7
  8
0
  6
CONTINUOUS
 62
     7
 10
4687.128535749099
 20
1247.196911111465
 30
0.0
  0
VERTEX
  5
3F8
  8
0
  6
CONTINUOUS
 62
     7
 10
4687.112833650638
 20
1247.19253770853
 30
0.0
  0
VERTEX
  5
3F9
  8
0
  6
CONTINUOUS
 62
     7
 10
4687.096968083451
 20
1247.188679947979
 30
0.0
  0
VERTEX
  5
3FA
  8
0
  6
CONTINUOUS
 62
     7
 10
4687.080959481126
 20
1247.185273374516
 30
0.0
  0
VERTEX
  5
3FB
  8
0
  6
CONTINUOUS
 62
     7
 10
4687.064828277257
 20
1247.182253532841
 30
0.0
  0
VERTEX
  5
3FC
  8
0
  6
CONTINUOUS
 62
     7
 10
4687.048594905433
 20
1247.179555967657
 30
0.0
  0
VERTEX
  5
3FD
  8
0
  6
CONTINUOUS
 62
     7
 10
4687.032279799246
 20
1247.177116223666
 30
0.0
  0
VERTEX
  5
3FE
  8
0
  6
CONTINUOUS
 62
     7
 10
4687.015903392286
 20
1247.174869845569
 30
0.0
  0
VERTEX
  5
3FF
  8
0
  6
CONTINUOUS
 62
     7
 10
4686.999486118145
 20
1247.172752378068
 30
0.0
  0
VERTEX
  5
400
  8
0
  6
CONTINUOUS
 62
     7
 10
4686.983048410411
 20
1247.170699365866
 30
0.0
  0
SEQEND
  5
862
  8
0
  6
CONTINUOUS
 62
     7
  0
LINE
  5
16D
  8
0
  6
CONTINUOUS
 62
     7
 10
4684.840393384786
 20
1238.111506837001
 30
0.0
 11
4687.218640945172
 21
1238.173783441087
 31
0.0
  0
LINE
  5
16E
  8
0
  6
CONTINUOUS
 62
     7
 10
4686.98304841041
 20
1247.170699365867
 30
0.0
 11
4684.840393384786
 21
1247.114591969418
 31
0.0
  0
LINE
  5
16F
  8
0
  6
CONTINUOUS
 62
     7
 10
4334.340393384782
 20
1291.635708755057
 30
0.0
 11
4334.340393384782
 21
1308.635708755057
 31
0.0
  0
LINE
  5
170
  8
0
  6
CONTINUOUS
 62
     7
 10
4334.340393384782
 20
1308.635708755057
 30
0.0
 11
4684.840393384781
 21
1308.635708755057
 31
0.0
  0
LINE
  5
171
  8
0
  6
CONTINUOUS
 62
     7
 10
4684.840393384781
 20
1291.635708755057
 30
0.0
 11
4684.840393384781
 21
1308.635708755057
 31
0.0
  0
LINE
  5
172
  8
0
  6
CONTINUOUS
 62
     7
 10
4334.340393384782
 20
1291.635708755057
 30
0.0
 11
4684.840393384781
 21
1291.635708755057
 31
0.0
  0
LINE
  5
173
  8
0
  6
CONTINUOUS
 62
     7
 10
4336.840393384781
 20
1194.635708755057
 30
0.0
 11
4336.840393384781
 21
1193.635708755057
 31
0.0
  0
LINE
  5
174
  8
0
  6
CONTINUOUS
 62
     7
 10
4354.840393384782
 20
1194.635708755057
 30
0.0
 11
4336.840393384781
 21
1194.635708755057
 31
0.0
  0
LINE
  5
175
  8
0
  6
CONTINUOUS
 62
     7
 10
4336.840393384781
 20
1193.635708755057
 30
0.0
 11
4354.840393384782
 21
1193.635708755057
 31
0.0
  0
LINE
  5
176
  8
0
  6
CONTINUOUS
 62
     7
 10
4336.840393384781
 20
1287.635708755057
 30
0.0
 11
4336.840393384781
 21
1194.635708755057
 31
0.0
  0
LINE
  5
177
  8
0
  6
CONTINUOUS
 62
     7
 10
4336.840393384781
 20
1287.635708755057
 30
0.0
 11
4354.840393384782
 21
1287.635708755057
 31
0.0
  0
LINE
  5
178
  8
0
  6
CONTINUOUS
 62
     7
 10
4336.840393384781
 20
1288.635708755057
 30
0.0
 11
4336.840393384781
 21
1287.635708755057
 31
0.0
  0
LINE
  5
179
  8
0
  6
CONTINUOUS
 62
     7
 10
4336.840393384781
 20
1288.635708755057
 30
0.0
 11
4354.840393384782
 21
1288.635708755057
 31
0.0
  0
LINE
  5
17A
  8
0
  6
CONTINUOUS
 62
     7
 10
4654.840393384782
 20
1310.635708755057
 30
0.0
 11
4654.840393384782
 21
1312.635708755057
 31
0.0
  0
LINE
  5
17B
  8
0
  6
CONTINUOUS
 62
     7
 10
4651.840393384781
 20
1310.635708755057
 30
0.0
 11
4654.840393384782
 21
1310.635708755057
 31
0.0
  0
LINE
  5
17C
  8
0
  6
CONTINUOUS
 62
     7
 10
4654.840393384782
 20
1312.635708755057
 30
0.0
 11
4651.840393384781
 21
1312.635708755057
 31
0.0
  0
LINE
  5
17D
  8
0
  6
CONTINUOUS
 62
     7
 10
4651.840393384781
 20
1310.635708755057
 30
0.0
 11
4606.840393384781
 21
1310.635708755057
 31
0.0
  0
LINE
  5
17E
  8
0
  6
CONTINUOUS
 62
     7
 10
4651.840393384781
 20
1312.635708755057
 30
0.0
 11
4606.840393384781
 21
1312.635708755057
 31
0.0
  0
LINE
  5
17F
  8
0
  6
CONTINUOUS
 62
     7
 10
4603.840393384781
 20
1312.635708755057
 30
0.0
 11
4603.840393384781
 21
1310.635708755057
 31
0.0
  0
LINE
  5
180
  8
0
  6
CONTINUOUS
 62
     7
 10
4603.840393384781
 20
1310.635708755057
 30
0.0
 11
4606.840393384781
 21
1310.635708755057
 31
0.0
  0
LINE
  5
181
  8
0
  6
CONTINUOUS
 62
     7
 10
4606.840393384781
 20
1312.635708755057
 30
0.0
 11
4603.840393384781
 21
1312.635708755057
 31
0.0
  0
LINE
  5
182
  8
0
  6
CONTINUOUS
 62
     7
 10
4654.840393384782
 20
1308.635708755057
 30
0.0
 11
4654.840393384782
 21
1310.635708755057
 31
0.0
  0
LINE
  5
183
  8
0
  6
CONTINUOUS
 62
     7
 10
4603.840393384781
 20
1310.635708755057
 30
0.0
 11
4603.840393384781
 21
1308.635708755057
 31
0.0
  0
LINE
  5
188
  8
0
  6
CONTINUOUS
 62
     7
 10
4684.840393384782
 20
1111.135708755057
 30
0.0
 11
4682.777893384782
 21
1111.135708755057
 31
0.0
  0
LINE
  5
189
  8
0
  6
CONTINUOUS
 62
     7
 10
4684.840393384782
 20
1111.135708755057
 30
0.0
 11
4684.840393384782
 21
1110.635708755057
 31
0.0
  0
LINE
  5
18A
  8
0
  6
CONTINUOUS
 62
     7
 10
4684.840393384782
 20
1110.635708755057
 30
0.0
 11
4682.777893384782
 21
1111.135708755057
 31
0.0
  0
LINE
  5
18B
  8
0
  6
CONTINUOUS
 62
     7
 10
4355.340393384781
 20
1190.514496633845
 30
0.0
 11
4355.340393384781
 21
1291.635708755057
 31
0.0
  0
LINE
  5
18C
  8
0
  6
CONTINUOUS
 62
     7
 10
4684.840393384782
 20
1110.635708755057
 30
0.0
 11
4684.840393384782
 21
1291.635708755057
 31
0.0
  0
LINE
  5
18D
  8
0
  6
CONTINUOUS
 62
     7
 10
4684.840393384782
 20
1110.635708755057
 30
0.0
 11
4355.340393384781
 21
1190.514496633845
 31
0.0
  0
LINE
  5
18E
  8
0
  6
CONTINUOUS
 62
     7
 10
4354.840393384782
 20
1190.635708755057
 30
0.0
 11
4354.840393384782
 21
1291.635708755057
 31
0.0
  0
LINE
  5
18F
  8
0
  6
CONTINUOUS
 62
     7
 10
4355.340393384781
 20
1190.514496633845
 30
0.0
 11
4354.840393384782
 21
1190.635708755057
 31
0.0
  0
POLYLINE
  5
190
  8
0
  6
CONTINUOUS
 62
     7
 10
0.0
 20
0.0
 30
0.0
 66
     1
 70
     8
  0
VERTEX
  5
401
  8
0
  6
CONTINUOUS
 62
     7
 10
4687.04602413652
 20
1225.66497840474
 30
0.0
 70
    32
  0
VERTEX
  5
402
  8
0
  6
CONTINUOUS
 62
     7
 10
4687.047815346452
 20
1225.59657485715
 30
0.0
 70
    32
  0
VERTEX
  5
403
  8
0
  6
CONTINUOUS
 62
     7
 10
4687.049605267848
 20
1225.528220516746
 30
0.0
 70
    32
  0
VERTEX
  5
404
  8
0
  6
CONTINUOUS
 62
     7
 10
4687.051392612176
 20
1225.459964590714
 30
0.0
 70
    32
  0
VERTEX
  5
405
  8
0
  6
CONTINUOUS
 62
     7
 10
4687.053176090893
 20
1225.391856286241
 30
0.0
 70
    32
  0
VERTEX
  5
406
  8
0
  6
CONTINUOUS
 62
     7
 10
4687.054954415472
 20
1225.323944810511
 30
0.0
 70
    32
  0
VERTEX
  5
407
  8
0
  6
CONTINUOUS
 62
     7
 10
4687.056726297371
 20
1225.256279370712
 30
0.0
 70
    32
  0
VERTEX
  5
408
  8
0
  6
CONTINUOUS
 62
     7
 10
4687.058490448057
 20
1225.18890917403
 30
0.0
 70
    32
  0
VERTEX
  5
409
  8
0
  6
CONTINUOUS
 62
     7
 10
4687.060245578996
 20
1225.12188342765
 30
0.0
 70
    32
  0
VERTEX
  5
40A
  8
0
  6
CONTINUOUS
 62
     7
 10
4687.061990401648
 20
1225.055251338758
 30
0.0
 70
    32
  0
VERTEX
  5
40B
  8
0
  6
CONTINUOUS
 62
     7
 10
4687.063723627483
 20
1224.989062114542
 30
0.0
 70
    32
  0
VERTEX
  5
40C
  8
0
  6
CONTINUOUS
 62
     7
 10
4687.065443967962
 20
1224.923364962186
 30
0.0
 70
    32
  0
VERTEX
  5
40D
  8
0
  6
CONTINUOUS
 62
     7
 10
4687.067150134551
 20
1224.858209088877
 30
0.0
 70
    32
  0
VERTEX
  5
40E
  8
0
  6
CONTINUOUS
 62
     7
 10
4687.068840838712
 20
1224.793643701801
 30
0.0
 70
    32
  0
VERTEX
  5
40F
  8
0
  6
CONTINUOUS
 62
     7
 10
4687.070514791228
 20
1224.729718034296
 30
0.0
 70
    32
  0
VERTEX
  5
410
  8
0
  6
CONTINUOUS
 62
     7
 10
4687.072170586915
 20
1224.666485748069
 30
0.0
 70
    32
  0
VERTEX
  5
411
  8
0
  6
CONTINUOUS
 62
     7
 10
4687.07380657493
 20
1224.604009886391
 30
0.0
 70
    32
  0
VERTEX
  5
412
  8
0
  6
CONTINUOUS
 62
     7
 10
4687.075421073117
 20
1224.542354688055
 30
0.0
 70
    32
  0
VERTEX
  5
413
  8
0
  6
CONTINUOUS
 62
     7
 10
4687.077012399326
 20
1224.481584391857
 30
0.0
 70
    32
  0
VERTEX
  5
414
  8
0
  6
CONTINUOUS
 62
     7
 10
4687.078578871408
 20
1224.421763236594
 30
0.0
 70
    32
  0
VERTEX
  5
415
  8
0
  6
CONTINUOUS
 62
     7
 10
4687.080118807206
 20
1224.362955461058
 30
0.0
 70
    32
  0
VERTEX
  5
416
  8
0
  6
CONTINUOUS
 62
     7
 10
4687.081630524569
 20
1224.305225304045
 30
0.0
 70
    32
  0
VERTEX
  5
417
  8
0
  6
CONTINUOUS
 62
     7
 10
4687.083112341346
 20
1224.24863700435
 30
0.0
 70
    32
  0
VERTEX
  5
418
  8
0
  6
CONTINUOUS
 62
     7
 10
4687.084562575386
 20
1224.19325480077
 30
0.0
 70
    32
  0
VERTEX
  5
419
  8
0
  6
CONTINUOUS
 62
     7
 10
4687.085979544534
 20
1224.139142932097
 30
0.0
 70
    32
  0
VERTEX
  5
41A
  8
0
  6
CONTINUOUS
 62
     7
 10
4687.087361566641
 20
1224.086365637129
 30
0.0
 70
    32
  0
VERTEX
  5
41B
  8
0
  6
CONTINUOUS
 62
     7
 10
4687.088706959554
 20
1224.034987154659
 30
0.0
 70
    32
  0
VERTEX
  5
41C
  8
0
  6
CONTINUOUS
 62
     7
 10
4687.090014041119
 20
1223.985071723483
 30
0.0
 70
    32
  0
VERTEX
  5
41D
  8
0
  6
CONTINUOUS
 62
     7
 10
4687.091281167701
 20
1223.936682111615
 30
0.0
 70
    32
  0
VERTEX
  5
41E
  8
0
  6
CONTINUOUS
 62
     7
 10
4687.092507910723
 20
1223.889834685631
 30
0.0
 70
    32
  0
VERTEX
  5
41F
  8
0
  6
CONTINUOUS
 62
     7
 10
4687.093695273806
 20
1223.844491118866
 30
0.0
 70
    32
  0
VERTEX
  5
420
  8
0
  6
CONTINUOUS
 62
     7
 10
4687.094844342875
 20
1223.80060994145
 30
0.0
 70
    32
  0
VERTEX
  5
421
  8
0
  6
CONTINUOUS
 62
     7
 10
4687.095956203859
 20
1223.758149683516
 30
0.0
 70
    32
  0
VERTEX
  5
422
  8
0
  6
CONTINUOUS
 62
     7
 10
4687.097031942684
 20
1223.717068875192
 30
0.0
 70
    32
  0
VERTEX
  5
423
  8
0
  6
CONTINUOUS
 62
     7
 10
4687.098072645276
 20
1223.677326046611
 30
0.0
 70
    32
  0
VERTEX
  5
424
  8
0
  6
CONTINUOUS
 62
     7
 10
4687.099079397563
 20
1223.638879727903
 30
0.0
 70
    32
  0
VERTEX
  5
425
  8
0
  6
CONTINUOUS
 62
     7
 10
4687.10005328547
 20
1223.6016884492
 30
0.0
 70
    32
  0
VERTEX
  5
426
  8
0
  6
CONTINUOUS
 62
     7
 10
4687.100995394924
 20
1223.565710740631
 30
0.0
 70
    32
  0
VERTEX
  5
427
  8
0
  6
CONTINUOUS
 62
     7
 10
4687.101906811853
 20
1223.530905132328
 30
0.0
 70
    32
  0
VERTEX
  5
428
  8
0
  6
CONTINUOUS
 62
     7
 10
4687.102788622183
 20
1223.497230154421
 30
0.0
 70
    32
  0
VERTEX
  5
429
  8
0
  6
CONTINUOUS
 62
     7
 10
4687.103641911842
 20
1223.464644337042
 30
0.0
 70
    32
  0
VERTEX
  5
42A
  8
0
  6
CONTINUOUS
 62
     7
 10
4687.104467766755
 20
1223.433106210321
 30
0.0
 70
    32
  0
VERTEX
  5
42B
  8
0
  6
CONTINUOUS
 62
     7
 10
4687.105266876223
 20
1223.402589450956
 30
0.0
 70
    32
  0
VERTEX
  5
42C
  8
0
  6
CONTINUOUS
 62
     7
 10
4687.10603511892
 20
1223.373251445934
 30
0.0
 70
    32
  0
VERTEX
  5
42D
  8
0
  6
CONTINUOUS
 62
     7
 10
4687.106765172296
 20
1223.345371832341
 30
0.0
 70
    32
  0
VERTEX
  5
42E
  8
0
  6
CONTINUOUS
 62
     7
 10
4687.107449655877
 20
1223.319232458962
 30
0.0
 70
    32
  0
VERTEX
  5
42F
  8
0
  6
CONTINUOUS
 62
     7
 10
4687.108081189193
 20
1223.295115174581
 30
0.0
 70
    32
  0
VERTEX
  5
430
  8
0
  6
CONTINUOUS
 62
     7
 10
4687.108652391777
 20
1223.273301827986
 30
0.0
 70
    32
  0
VERTEX
  5
431
  8
0
  6
CONTINUOUS
 62
     7
 10
4687.109155883157
 20
1223.25407426796
 30
0.0
 70
    32
  0
VERTEX
  5
432
  8
0
  6
CONTINUOUS
 62
     7
 10
4687.109584282861
 20
1223.237714343289
 30
0.0
 70
    32
  0
VERTEX
  5
433
  8
0
  6
CONTINUOUS
 62
     7
 10
4687.10993021042
 20
1223.22450390276
 30
0.0
 70
    32
  0
VERTEX
  5
434
  8
0
  6
CONTINUOUS
 62
     7
 10
4687.110186285365
 20
1223.214724795156
 30
0.0
 70
    32
  0
VERTEX
  5
435
  8
0
  6
CONTINUOUS
 62
     7
 10
4687.110345127225
 20
1223.208658869264
 30
0.0
 70
    32
  0
VERTEX
  5
436
  8
0
  6
CONTINUOUS
 62
     7
 10
4687.110399355529
 20
1223.206587973869
 30
0.0
 70
    32
  0
VERTEX
  5
437
  8
0
  6
CONTINUOUS
 62
     7
 10
4687.110341589807
 20
1223.208793957756
 30
0.0
 70
    32
  0
VERTEX
  5
438
  8
0
  6
CONTINUOUS
 62
     7
 10
4687.11016444959
 20
1223.215558669712
 30
0.0
 70
    32
  0
VERTEX
  5
439
  8
0
  6
CONTINUOUS
 62
     7
 10
4687.109877580931
 20
1223.22651374182
 30
0.0
 70
    32
  0
SEQEND
  5
863
  8
0
  6
CONTINUOUS
 62
     7
  0
POLYLINE
  5
191
  8
0
  6
CONTINUOUS
 62
     7
 66
     1
 10
0.0
 20
0.0
 30
0.0
  0
VERTEX
  5
43A
  8
0
  6
CONTINUOUS
 62
     7
 10
4686.982164407443
 20
1228.103683069482
 30
0.0
  0
VERTEX
  5
43B
  8
0
  6
CONTINUOUS
 62
     7
 10
4686.982341994187
 20
1228.09690130558
 30
0.0
  0
VERTEX
  5
43C
  8
0
  6
CONTINUOUS
 62
     7
 10
4686.982526671792
 20
1228.089848752697
 30
0.0
  0
VERTEX
  5
43D
  8
0
  6
CONTINUOUS
 62
     7
 10
4686.982725531112
 20
1228.082254621853
 30
0.0
  0
VERTEX
  5
43E
  8
0
  6
CONTINUOUS
 62
     7
 10
4686.982945663009
 20
1228.073848124069
 30
0.0
  0
VERTEX
  5
43F
  8
0
  6
CONTINUOUS
 62
     7
 10
4686.983194158342
 20
1228.064358470363
 30
0.0
  0
VERTEX
  5
440
  8
0
  6
CONTINUOUS
 62
     7
 10
4686.983478107964
 20
1228.053514871755
 30
0.0
  0
VERTEX
  5
441
  8
0
  6
CONTINUOUS
 62
     7
 10
4686.983804602743
 20
1228.041046539266
 30
0.0
  0
VERTEX
  5
442
  8
0
  6
CONTINUOUS
 62
     7
 10
4686.984180733529
 20
1228.026682683915
 30
0.0
  0
VERTEX
  5
443
  8
0
  6
CONTINUOUS
 62
     7
 10
4686.984613591187
 20
1228.010152516722
 30
0.0
  0
VERTEX
  5
444
  8
0
  6
CONTINUOUS
 62
     7
 10
4686.985110266572
 20
1227.991185248705
 30
0.0
  0
VERTEX
  5
445
  8
0
  6
CONTINUOUS
 62
     7
 10
4686.985677850543
 20
1227.969510090886
 30
0.0
  0
VERTEX
  5
446
  8
0
  6
CONTINUOUS
 62
     7
 10
4686.986323124703
 20
1227.944868064291
 30
0.0
  0
VERTEX
  5
447
  8
0
  6
CONTINUOUS
 62
     7
 10
4686.987047540147
 20
1227.917203753938
 30
0.0
  0
VERTEX
  5
448
  8
0
  6
CONTINUOUS
 62
     7
 10
4686.98784805228
 20
1227.886633428134
 30
0.0
  0
VERTEX
  5
449
  8
0
  6
CONTINUOUS
 62
     7
 10
4686.988721475744
 20
1227.853278731005
 30
0.0
  0
VERTEX
  5
44A
  8
0
  6
CONTINUOUS
 62
     7
 10
4686.989664625175
 20
1227.817261306678
 30
0.0
  0
VERTEX
  5
44B
  8
0
  6
CONTINUOUS
 62
     7
 10
4686.990674315211
 20
1227.778702799281
 30
0.0
  0
VERTEX
  5
44C
  8
0
  6
CONTINUOUS
 62
     7
 10
4686.99174736049
 20
1227.73772485294
 30
0.0
  0
VERTEX
  5
44D
  8
0
  6
CONTINUOUS
 62
     7
 10
4686.99288057565
 20
1227.694449111784
 30
0.0
  0
VERTEX
  5
44E
  8
0
  6
CONTINUOUS
 62
     7
 10
4686.99407077533
 20
1227.648997219939
 30
0.0
  0
VERTEX
  5
44F
  8
0
  6
CONTINUOUS
 62
     7
 10
4686.995314774166
 20
1227.601490821533
 30
0.0
  0
VERTEX
  5
450
  8
0
  6
CONTINUOUS
 62
     7
 10
4686.996609386799
 20
1227.552051560692
 30
0.0
  0
VERTEX
  5
451
  8
0
  6
CONTINUOUS
 62
     7
 10
4686.997951427862
 20
1227.500801081545
 30
0.0
  0
VERTEX
  5
452
  8
0
  6
CONTINUOUS
 62
     7
 10
4686.99933773161
 20
1227.447860279313
 30
0.0
  0
VERTEX
  5
453
  8
0
  6
CONTINUOUS
 62
     7
 10
4687.00076600728
 20
1227.393316634529
 30
0.0
  0
VERTEX
  5
454
  8
0
  6
CONTINUOUS
 62
     7
 10
4687.002235170576
 20
1227.337211554544
 30
0.0
  0
VERTEX
  5
455
  8
0
  6
CONTINUOUS
 62
     7
 10
4687.00374422526
 20
1227.279583083916
 30
0.0
  0
VERTEX
  5
456
  8
0
  6
CONTINUOUS
 62
     7
 10
4687.005292175095
 20
1227.220469267209
 30
0.0
  0
VERTEX
  5
457
  8
0
  6
CONTINUOUS
 62
     7
 10
4687.006878023845
 20
1227.159908148984
 30
0.0
  0
VERTEX
  5
458
  8
0
  6
CONTINUOUS
 62
     7
 10
4687.008500775269
 20
1227.097937773801
 30
0.0
  0
VERTEX
  5
459
  8
0
  6
CONTINUOUS
 62
     7
 10
4687.010159433133
 20
1227.034596186224
 30
0.0
  0
VERTEX
  5
45A
  8
0
  6
CONTINUOUS
 62
     7
 10
4687.011853001194
 20
1226.969921430812
 30
0.0
  0
VERTEX
  5
45B
  8
0
  6
CONTINUOUS
 62
     7
 10
4687.013580483219
 20
1226.903951552129
 30
0.0
  0
VERTEX
  5
45C
  8
0
  6
CONTINUOUS
 62
     7
 10
4687.015340882967
 20
1226.836724594735
 30
0.0
  0
VERTEX
  5
45D
  8
0
  6
CONTINUOUS
 62
     7
 10
4687.017133204202
 20
1226.768278603191
 30
0.0
  0
VERTEX
  5
45E
  8
0
  6
CONTINUOUS
 62
     7
 10
4687.018956449021
 20
1226.698651685663
 30
0.0
  0
VERTEX
  5
45F
  8
0
  6
CONTINUOUS
 62
     7
 10
4687.020809212823
 20
1226.627897481514
 30
0.0
  0
VERTEX
  5
460
  8
0
  6
CONTINUOUS
 62
     7
 10
4687.022689155758
 20
1226.556105346195
 30
0.0
  0
VERTEX
  5
461
  8
0
  6
CONTINUOUS
 62
     7
 10
4687.024593806996
 20
1226.483369637085
 30
0.0
  0
VERTEX
  5
462
  8
0
  6
CONTINUOUS
 62
     7
 10
4687.026520695706
 20
1226.409784711562
 30
0.0
  0
VERTEX
  5
463
  8
0
  6
CONTINUOUS
 62
     7
 10
4687.028467351058
 20
1226.335444927007
 30
0.0
  0
VERTEX
  5
464
  8
0
  6
CONTINUOUS
 62
     7
 10
4687.030431302221
 20
1226.260444640798
 30
0.0
  0
VERTEX
  5
465
  8
0
  6
CONTINUOUS
 62
     7
 10
4687.032410078366
 20
1226.184878210314
 30
0.0
  0
VERTEX
  5
466
  8
0
  6
CONTINUOUS
 62
     7
 10
4687.034401208663
 20
1226.108839992934
 30
0.0
  0
VERTEX
  5
467
  8
0
  6
CONTINUOUS
 62
     7
 10
4687.036402222281
 20
1226.032424346038
 30
0.0
  0
VERTEX
  5
468
  8
0
  6
CONTINUOUS
 62
     7
 10
4687.03841064839
 20
1225.955725627004
 30
0.0
  0
VERTEX
  5
469
  8
0
  6
CONTINUOUS
 62
     7
 10
4687.040424016159
 20
1225.878838193212
 30
0.0
  0
VERTEX
  5
46A
  8
0
  6
CONTINUOUS
 62
     7
 10
4687.042439854758
 20
1225.801856402041
 30
0.0
  0
SEQEND
  5
864
  8
0
  6
CONTINUOUS
 62
     7
  0
LINE
  5
192
  8
0
  6
CONTINUOUS
 62
     7
 10
4687.042439854758
 20
1225.801856402041
 30
0.0
 11
4687.04602413652
 21
1225.66497840474
 31
0.0
  0
POLYLINE
  5
193
  8
0
  6
CONTINUOUS
 62
     7
 10
0.0
 20
0.0
 30
0.0
 66
     1
 70
     8
  0
VERTEX
  5
46B
  8
0
  6
CONTINUOUS
 62
     7
 10
4687.600673340279
 20
1242.68532987763
 30
0.0
 70
    32
  0
VERTEX
  5
46C
  8
0
  6
CONTINUOUS
 62
     7
 10
4687.594410788027
 20
1242.924487099407
 30
0.0
 70
    32
  0
VERTEX
  5
46D
  8
0
  6
CONTINUOUS
 62
     7
 10
4687.588151801775
 20
1243.16350814119
 30
0.0
 70
    32
  0
VERTEX
  5
46E
  8
0
  6
CONTINUOUS
 62
     7
 10
4687.581899947519
 20
1243.402256822983
 30
0.0
 70
    32
  0
VERTEX
  5
46F
  8
0
  6
CONTINUOUS
 62
     7
 10
4687.575658791259
 20
1243.640596964794
 30
0.0
 70
    32
  0
VERTEX
  5
470
  8
0
  6
CONTINUOUS
 62
     7
 10
4687.569431898993
 20
1243.878392386626
 30
0.0
 70
    32
  0
VERTEX
  5
471
  8
0
  6
CONTINUOUS
 62
     7
 10
4687.563222836722
 20
1244.115506908487
 30
0.0
 70
    32
  0
VERTEX
  5
472
  8
0
  6
CONTINUOUS
 62
     7
 10
4687.557035170441
 20
1244.351804350381
 30
0.0
 70
    32
  0
VERTEX
  5
473
  8
0
  6
CONTINUOUS
 62
     7
 10
4687.55087246615
 20
1244.587148532314
 30
0.0
 70
    32
  0
VERTEX
  5
474
  8
0
  6
CONTINUOUS
 62
     7
 10
4687.544738289852
 20
1244.821403274292
 30
0.0
 70
    32
  0
VERTEX
  5
475
  8
0
  6
CONTINUOUS
 62
     7
 10
4687.538636207539
 20
1245.05443239632
 30
0.0
 70
    32
  0
VERTEX
  5
476
  8
0
  6
CONTINUOUS
 62
     7
 10
4687.532569785213
 20
1245.286099718404
 30
0.0
 70
    32
  0
VERTEX
  5
477
  8
0
  6
CONTINUOUS
 62
     7
 10
4687.526542589907
 20
1245.516269021027
 30
0.0
 70
    32
  0
VERTEX
  5
478
  8
0
  6
CONTINUOUS
 62
     7
 10
4687.520558229976
 20
1245.744802506694
 30
0.0
 70
    32
  0
VERTEX
  5
479
  8
0
  6
CONTINUOUS
 62
     7
 10
4687.514620368089
 20
1245.971560303684
 30
0.0
 70
    32
  0
VERTEX
  5
47A
  8
0
  6
CONTINUOUS
 62
     7
 10
4687.508732670612
 20
1246.196402399179
 30
0.0
 70
    32
  0
VERTEX
  5
47B
  8
0
  6
CONTINUOUS
 62
     7
 10
4687.502898803908
 20
1246.419188780357
 30
0.0
 70
    32
  0
VERTEX
  5
47C
  8
0
  6
CONTINUOUS
 62
     7
 10
4687.497122434342
 20
1246.639779434398
 30
0.0
 70
    32
  0
VERTEX
  5
47D
  8
0
  6
CONTINUOUS
 62
     7
 10
4687.49140722828
 20
1246.858034348481
 30
0.0
 70
    32
  0
VERTEX
  5
47E
  8
0
  6
CONTINUOUS
 62
     7
 10
4687.485756852086
 20
1247.073813509786
 30
0.0
 70
    32
  0
VERTEX
  5
47F
  8
0
  6
CONTINUOUS
 62
     7
 10
4687.480174972124
 20
1247.286976905491
 30
0.0
 70
    32
  0
VERTEX
  5
480
  8
0
  6
CONTINUOUS
 62
     7
 10
4687.474665254761
 20
1247.497384522777
 30
0.0
 70
    32
  0
VERTEX
  5
481
  8
0
  6
CONTINUOUS
 62
     7
 10
4687.46923136636
 20
1247.704896348822
 30
0.0
 70
    32
  0
VERTEX
  5
482
  8
0
  6
CONTINUOUS
 62
     7
 10
4687.463876973286
 20
1247.909372370806
 30
0.0
 70
    32
  0
VERTEX
  5
483
  8
0
  6
CONTINUOUS
 62
     7
 10
4687.458605741903
 20
1248.110672575909
 30
0.0
 70
    32
  0
VERTEX
  5
484
  8
0
  6
CONTINUOUS
 62
     7
 10
4687.453421338577
 20
1248.308656951309
 30
0.0
 70
    32
  0
VERTEX
  5
485
  8
0
  6
CONTINUOUS
 62
     7
 10
4687.448327429673
 20
1248.503185484186
 30
0.0
 70
    32
  0
VERTEX
  5
486
  8
0
  6
CONTINUOUS
 62
     7
 10
4687.44332760467
 20
1248.694121097767
 30
0.0
 70
    32
  0
VERTEX
  5
487
  8
0
  6
CONTINUOUS
 62
     7
 10
4687.438424785229
 20
1248.881352218504
 30
0.0
 70
    32
  0
VERTEX
  5
488
  8
0
  6
CONTINUOUS
 62
     7
 10
4687.43362154971
 20
1249.064780382609
 30
0.0
 70
    32
  0
VERTEX
  5
489
  8
0
  6
CONTINUOUS
 62
     7
 10
4687.42892047366
 20
1249.244307233989
 30
0.0
 70
    32
  0
VERTEX
  5
48A
  8
0
  6
CONTINUOUS
 62
     7
 10
4687.424324132623
 20
1249.419834416555
 30
0.0
 70
    32
  0
VERTEX
  5
48B
  8
0
  6
CONTINUOUS
 62
     7
 10
4687.419835102146
 20
1249.591263574215
 30
0.0
 70
    32
  0
VERTEX
  5
48C
  8
0
  6
CONTINUOUS
 62
     7
 10
4687.415455957772
 20
1249.75849635088
 30
0.0
 70
    32
  0
VERTEX
  5
48D
  8
0
  6
CONTINUOUS
 62
     7
 10
4687.411189275049
 20
1249.921434390458
 30
0.0
 70
    32
  0
VERTEX
  5
48E
  8
0
  6
CONTINUOUS
 62
     7
 10
4687.407037627195
 20
1250.079979425525
 30
0.0
 70
    32
  0
VERTEX
  5
48F
  8
0
  6
CONTINUOUS
 62
     7
 10
4687.403003068091
 20
1250.234053021693
 30
0.0
 70
    32
  0
VERTEX
  5
490
  8
0
  6
CONTINUOUS
 62
     7
 10
4687.399086479273
 20
1250.38362151435
 30
0.0
 70
    32
  0
VERTEX
  5
491
  8
0
  6
CONTINUOUS
 62
     7
 10
4687.395288581525
 20
1250.528657377894
 30
0.0
 70
    32
  0
VERTEX
  5
492
  8
0
  6
CONTINUOUS
 62
     7
 10
4687.391610095631
 20
1250.669133086723
 30
0.0
 70
    32
  0
VERTEX
  5
493
  8
0
  6
CONTINUOUS
 62
     7
 10
4687.388051742375
 20
1250.805021115236
 30
0.0
 70
    32
  0
VERTEX
  5
494
  8
0
  6
CONTINUOUS
 62
     7
 10
4687.384614242538
 20
1250.936293937829
 30
0.0
 70
    32
  0
VERTEX
  5
495
  8
0
  6
CONTINUOUS
 62
     7
 10
4687.381298316905
 20
1251.062924028903
 30
0.0
 70
    32
  0
VERTEX
  5
496
  8
0
  6
CONTINUOUS
 62
     7
 10
4687.37810468626
 20
1251.184883862854
 30
0.0
 70
    32
  0
VERTEX
  5
497
  8
0
  6
CONTINUOUS
 62
     7
 10
4687.375034071383
 20
1251.30214591408
 30
0.0
 70
    32
  0
VERTEX
  5
498
  8
0
  6
CONTINUOUS
 62
     7
 10
4687.372087997719
 20
1251.414651928284
 30
0.0
 70
    32
  0
VERTEX
  5
499
  8
0
  6
CONTINUOUS
 62
     7
 10
4687.369272001234
 20
1251.522190495412
 30
0.0
 70
    32
  0
VERTEX
  5
49A
  8
0
  6
CONTINUOUS
 62
     7
 10
4687.366592864917
 20
1251.624502583591
 30
0.0
 70
    32
  0
VERTEX
  5
49B
  8
0
  6
CONTINUOUS
 62
     7
 10
4687.364057372152
 20
1251.721329145876
 30
0.0
 70
    32
  0
VERTEX
  5
49C
  8
0
  6
CONTINUOUS
 62
     7
 10
4687.36167230632
 20
1251.81241113532
 30
0.0
 70
    32
  0
VERTEX
  5
49D
  8
0
  6
CONTINUOUS
 62
     7
 10
4687.359444450805
 20
1251.897489504977
 30
0.0
 70
    32
  0
VERTEX
  5
49E
  8
0
  6
CONTINUOUS
 62
     7
 10
4687.357380588991
 20
1251.976305207903
 30
0.0
 70
    32
  0
VERTEX
  5
49F
  8
0
  6
CONTINUOUS
 62
     7
 10
4687.355487504258
 20
1252.048599197151
 30
0.0
 70
    32
  0
VERTEX
  5
4A0
  8
0
  6
CONTINUOUS
 62
     7
 10
4687.353771979992
 20
1252.114112425776
 30
0.0
 70
    32
  0
VERTEX
  5
4A1
  8
0
  6
CONTINUOUS
 62
     7
 10
4687.352240793544
 20
1252.172586077129
 30
0.0
 70
    32
  0
VERTEX
  5
4A2
  8
0
  6
CONTINUOUS
 62
     7
 10
4687.350894874202
 20
1252.223984663103
 30
0.0
 70
    32
  0
VERTEX
  5
4A3
  8
0
  6
CONTINUOUS
 62
     7
 10
4687.349718383123
 20
1252.268913044834
 30
0.0
 70
    32
  0
VERTEX
  5
4A4
  8
0
  6
CONTINUOUS
 62
     7
 10
4687.348692494941
 20
1252.308090133903
 30
0.0
 70
    32
  0
VERTEX
  5
4A5
  8
0
  6
CONTINUOUS
 62
     7
 10
4687.347798384296
 20
1252.342234841894
 30
0.0
 70
    32
  0
VERTEX
  5
4A6
  8
0
  6
CONTINUOUS
 62
     7
 10
4687.347017225824
 20
1252.37206608039
 30
0.0
 70
    32
  0
VERTEX
  5
4A7
  8
0
  6
CONTINUOUS
 62
     7
 10
4687.346330194165
 20
1252.398302760972
 30
0.0
 70
    32
  0
VERTEX
  5
4A8
  8
0
  6
CONTINUOUS
 62
     7
 10
4687.345718463953
 20
1252.421663795224
 30
0.0
 70
    32
  0
VERTEX
  5
4A9
  8
0
  6
CONTINUOUS
 62
     7
 10
4687.345163209829
 20
1252.442868094728
 30
0.0
 70
    32
  0
VERTEX
  5
4AA
  8
0
  6
CONTINUOUS
 62
     7
 10
4687.34464560643
 20
1252.462634571067
 30
0.0
 70
    32
  0
VERTEX
  5
4AB
  8
0
  6
CONTINUOUS
 62
     7
 10
4687.344146828394
 20
1252.481682135823
 30
0.0
 70
    32
  0
SEQEND
  5
865
  8
0
  6
CONTINUOUS
 62
     7
  0
POLYLINE
  5
194
  8
0
  6
CONTINUOUS
 62
     7
 10
0.0
 20
0.0
 30
0.0
 66
     1
 70
     8
  0
VERTEX
  5
4AC
  8
0
  6
CONTINUOUS
 62
     7
 10
4687.856973745241
 20
1232.897612294592
 30
0.0
 70
    32
  0
VERTEX
  5
4AD
  8
0
  6
CONTINUOUS
 62
     7
 10
4687.856568493273
 20
1232.913088242923
 30
0.0
 70
    32
  0
VERTEX
  5
4AE
  8
0
  6
CONTINUOUS
 62
     7
 10
4687.85614370952
 20
1232.9293100799
 30
0.0
 70
    32
  0
VERTEX
  5
4AF
  8
0
  6
CONTINUOUS
 62
     7
 10
4687.855679862206
 20
1232.94702369417
 30
0.0
 70
    32
  0
VERTEX
  5
4B0
  8
0
  6
CONTINUOUS
 62
     7
 10
4687.855157419548
 20
1232.96697497438
 30
0.0
 70
    32
  0
VERTEX
  5
4B1
  8
0
  6
CONTINUOUS
 62
     7
 10
4687.854556849763
 20
1232.989909809177
 30
0.0
 70
    32
  0
VERTEX
  5
4B2
  8
0
  6
CONTINUOUS
 62
     7
 10
4687.853858621071
 20
1233.016574087206
 30
0.0
 70
    32
  0
VERTEX
  5
4B3
  8
0
  6
CONTINUOUS
 62
     7
 10
4687.853043201688
 20
1233.047713697116
 30
0.0
 70
    32
  0
VERTEX
  5
4B4
  8
0
  6
CONTINUOUS
 62
     7
 10
4687.852091059833
 20
1233.084074527551
 30
0.0
 70
    32
  0
VERTEX
  5
4B5
  8
0
  6
CONTINUOUS
 62
     7
 10
4687.850982663727
 20
1233.126402467159
 30
0.0
 70
    32
  0
VERTEX
  5
4B6
  8
0
  6
CONTINUOUS
 62
     7
 10
4687.849698497479
 20
1233.175442797644
 30
0.0
 70
    32
  0
VERTEX
  5
4B7
  8
0
  6
CONTINUOUS
 62
     7
 10
4687.848225774515
 20
1233.231683818624
 30
0.0
 70
    32
  0
VERTEX
  5
4B8
  8
0
  6
CONTINUOUS
 62
     7
 10
4687.846568856036
 20
1233.294958982545
 30
0.0
 70
    32
  0
VERTEX
  5
4B9
  8
0
  6
CONTINUOUS
 62
     7
 10
4687.844734794831
 20
1233.364998954185
 30
0.0
 70
    32
  0
VERTEX
  5
4BA
  8
0
  6
CONTINUOUS
 62
     7
 10
4687.842730643695
 20
1233.441534398323
 30
0.0
 70
    32
  0
VERTEX
  5
4BB
  8
0
  6
CONTINUOUS
 62
     7
 10
4687.840563455413
 20
1233.524295979735
 30
0.0
 70
    32
  0
VERTEX
  5
4BC
  8
0
  6
CONTINUOUS
 62
     7
 10
4687.838240282784
 20
1233.613014363201
 30
0.0
 70
    32
  0
VERTEX
  5
4BD
  8
0
  6
CONTINUOUS
 62
     7
 10
4687.835768178592
 20
1233.707420213496
 30
0.0
 70
    32
  0
VERTEX
  5
4BE
  8
0
  6
CONTINUOUS
 62
     7
 10
4687.833154195632
 20
1233.807244195399
 30
0.0
 70
    32
  0
VERTEX
  5
4BF
  8
0
  6
CONTINUOUS
 62
     7
 10
4687.830405386693
 20
1233.912216973687
 30
0.0
 70
    32
  0
VERTEX
  5
4C0
  8
0
  6
CONTINUOUS
 62
     7
 10
4687.827528778051
 20
1234.022070225707
 30
0.0
 70
    32
  0
VERTEX
  5
4C1
  8
0
  6
CONTINUOUS
 62
     7
 10
4687.824529169498
 20
1234.136620654879
 30
0.0
 70
    32
  0
VERTEX
  5
4C2
  8
0
  6
CONTINUOUS
 62
     7
 10
4687.821407484107
 20
1234.255833010325
 30
0.0
 70
    32
  0
VERTEX
  5
4C3
  8
0
  6
CONTINUOUS
 62
     7
 10
4687.818164256234
 20
1234.379686885975
 30
0.0
 70
    32
  0
VERTEX
  5
4C4
  8
0
  6
CONTINUOUS
 62
     7
 10
4687.814800020228
 20
1234.508161875761
 30
0.0
 70
    32
  0
VERTEX
  5
4C5
  8
0
  6
CONTINUOUS
 62
     7
 10
4687.81131531044
 20
1234.641237573615
 30
0.0
 70
    32
  0
VERTEX
  5
4C6
  8
0
  6
CONTINUOUS
 62
     7
 10
4687.807710661225
 20
1234.778893573467
 30
0.0
 70
    32
  0
VERTEX
  5
4C7
  8
0
  6
CONTINUOUS
 62
     7
 10
4687.803986606933
 20
1234.921109469248
 30
0.0
 70
    32
  0
VERTEX
  5
4C8
  8
0
  6
CONTINUOUS
 62
     7
 10
4687.800143681915
 20
1235.067864854891
 30
0.0
 70
    32
  0
VERTEX
  5
4C9
  8
0
  6
CONTINUOUS
 62
     7
 10
4687.796182420523
 20
1235.219139324325
 30
0.0
 70
    32
  0
VERTEX
  5
4CA
  8
0
  6
CONTINUOUS
 62
     7
 10
4687.79210367105
 20
1235.374900482623
 30
0.0
 70
    32
  0
VERTEX
  5
4CB
  8
0
  6
CONTINUOUS
 62
     7
 10
4687.78790963334
 20
1235.53506432093
 30
0.0
 70
    32
  0
VERTEX
  5
4CC
  8
0
  6
CONTINUOUS
 62
     7
 10
4687.783602870888
 20
1235.699532943571
 30
0.0
 70
    32
  0
VERTEX
  5
4CD
  8
0
  6
CONTINUOUS
 62
     7
 10
4687.779185947182
 20
1235.868208454681
 30
0.0
 70
    32
  0
VERTEX
  5
4CE
  8
0
  6
CONTINUOUS
 62
     7
 10
4687.77466142572
 20
1236.040992958395
 30
0.0
 70
    32
  0
VERTEX
  5
4CF
  8
0
  6
CONTINUOUS
 62
     7
 10
4687.770031869994
 20
1236.21778855885
 30
0.0
 70
    32
  0
VERTEX
  5
4D0
  8
0
  6
CONTINUOUS
 62
     7
 10
4687.765299843495
 20
1236.39849736018
 30
0.0
 70
    32
  0
VERTEX
  5
4D1
  8
0
  6
CONTINUOUS
 62
     7
 10
4687.760467909718
 20
1236.58302146652
 30
0.0
 70
    32
  0
VERTEX
  5
4D2
  8
0
  6
CONTINUOUS
 62
     7
 10
4687.755538640879
 20
1236.771262649
 30
0.0
 70
    32
  0
VERTEX
  5
4D3
  8
0
  6
CONTINUOUS
 62
     7
 10
4687.750514995261
 20
1236.963107935159
 30
0.0
 70
    32
  0
VERTEX
  5
4D4
  8
0
  6
CONTINUOUS
 62
     7
 10
4687.745400461757
 20
1237.158424089733
 30
0.0
 70
    32
  0
VERTEX
  5
4D5
  8
0
  6
CONTINUOUS
 62
     7
 10
4687.740198567798
 20
1237.357076405499
 30
0.0
 70
    32
  0
VERTEX
  5
4D6
  8
0
  6
CONTINUOUS
 62
     7
 10
4687.734912840815
 20
1237.558930175236
 30
0.0
 70
    32
  0
VERTEX
  5
4D7
  8
0
  6
CONTINUOUS
 62
     7
 10
4687.729546808243
 20
1237.763850691722
 30
0.0
 70
    32
  0
VERTEX
  5
4D8
  8
0
  6
CONTINUOUS
 62
     7
 10
4687.724103997512
 20
1237.971703247734
 30
0.0
 70
    32
  0
VERTEX
  5
4D9
  8
0
  6
CONTINUOUS
 62
     7
 10
4687.71858793606
 20
1238.182353136051
 30
0.0
 70
    32
  0
VERTEX
  5
4DA
  8
0
  6
CONTINUOUS
 62
     7
 10
4687.713002151314
 20
1238.39566564945
 30
0.0
 70
    32
  0
VERTEX
  5
4DB
  8
0
  6
CONTINUOUS
 62
     7
 10
4687.707350170709
 20
1238.611506080709
 30
0.0
 70
    32
  0
VERTEX
  5
4DC
  8
0
  6
CONTINUOUS
 62
     7
 10
4687.701635521678
 20
1238.829739722607
 30
0.0
 70
    32
  0
VERTEX
  5
4DD
  8
0
  6
CONTINUOUS
 62
     7
 10
4687.695861731656
 20
1239.050231867922
 30
0.0
 70
    32
  0
VERTEX
  5
4DE
  8
0
  6
CONTINUOUS
 62
     7
 10
4687.690032328072
 20
1239.272847809432
 30
0.0
 70
    32
  0
VERTEX
  5
4DF
  8
0
  6
CONTINUOUS
 62
     7
 10
4687.68415083836
 20
1239.497452839914
 30
0.0
 70
    32
  0
VERTEX
  5
4E0
  8
0
  6
CONTINUOUS
 62
     7
 10
4687.678220789952
 20
1239.723912252146
 30
0.0
 70
    32
  0
VERTEX
  5
4E1
  8
0
  6
CONTINUOUS
 62
     7
 10
4687.672245721467
 20
1239.952090911796
 30
0.0
 70
    32
  0
VERTEX
  5
4E2
  8
0
  6
CONTINUOUS
 62
     7
 10
4687.66622930395
 20
1240.181848627283
 30
0.0
 70
    32
  0
VERTEX
  5
4E3
  8
0
  6
CONTINUOUS
 62
     7
 10
4687.660175295042
 20
1240.413041900021
 30
0.0
 70
    32
  0
VERTEX
  5
4E4
  8
0
  6
CONTINUOUS
 62
     7
 10
4687.654087453885
 20
1240.645527174285
 30
0.0
 70
    32
  0
VERTEX
  5
4E5
  8
0
  6
CONTINUOUS
 62
     7
 10
4687.647969539616
 20
1240.87916089435
 30
0.0
 70
    32
  0
VERTEX
  5
4E6
  8
0
  6
CONTINUOUS
 62
     7
 10
4687.641825311373
 20
1241.11379950449
 30
0.0
 70
    32
  0
VERTEX
  5
4E7
  8
0
  6
CONTINUOUS
 62
     7
 10
4687.635658528298
 20
1241.349299448981
 30
0.0
 70
    32
  0
VERTEX
  5
4E8
  8
0
  6
CONTINUOUS
 62
     7
 10
4687.629472949528
 20
1241.585517172098
 30
0.0
 70
    32
  0
VERTEX
  5
4E9
  8
0
  6
CONTINUOUS
 62
     7
 10
4687.623272334202
 20
1241.822309118115
 30
0.0
 70
    32
  0
VERTEX
  5
4EA
  8
0
  6
CONTINUOUS
 62
     7
 10
4687.617060441458
 20
1242.059531731308
 30
0.0
 70
    32
  0
VERTEX
  5
4EB
  8
0
  6
CONTINUOUS
 62
     7
 10
4687.610841030437
 20
1242.297041455951
 30
0.0
 70
    32
  0
VERTEX
  5
4EC
  8
0
  6
CONTINUOUS
 62
     7
 10
4687.604617860276
 20
1242.534694736319
 30
0.0
 70
    32
  0
SEQEND
  5
866
  8
0
  6
CONTINUOUS
 62
     7
  0
LINE
  5
195
  8
0
  6
CONTINUOUS
 62
     7
 10
4690.002324411121
 20
1242.653695746965
 30
0.0
 11
4690.122625302694
 21
1238.059590045528
 31
0.0
  0
LINE
  5
196
  8
0
  6
CONTINUOUS
 62
     7
 10
4689.877076537745
 20
1247.436719061606
 30
0.0
 11
4689.999850920221
 21
1242.748154553501
 31
0.0
  0
POLYLINE
  5
197
  8
0
  6
CONTINUOUS
 62
     7
 66
     1
 10
0.0
 20
0.0
 30
0.0
  0
VERTEX
  5
4ED
  8
0
  6
CONTINUOUS
 62
     7
 10
1757.288249626308
 20
2841.155996237073
 30
0.0
  0
VERTEX
  5
4EE
  8
0
  6
CONTINUOUS
 62
     7
 10
1757.291383116386
 20
2841.201956004505
 30
0.0
  0
VERTEX
  5
4EF
  8
0
  6
CONTINUOUS
 62
     7
 10
1757.293766769928
 20
2841.247846407709
 30
0.0
  0
VERTEX
  5
4F0
  8
0
  6
CONTINUOUS
 62
     7
 10
1757.294650750404
 20
2841.293598082461
 30
0.0
  0
VERTEX
  5
4F1
  8
0
  6
CONTINUOUS
 62
     7
 10
1757.293285221275
 20
2841.33914166453
 30
0.0
  0
VERTEX
  5
4F2
  8
0
  6
CONTINUOUS
 62
     7
 10
1757.288972613955
 20
2841.384407683524
 30
0.0
  0
VERTEX
  5
4F3
  8
0
  6
CONTINUOUS
 62
     7
 10
1757.281593365845
 20
2841.429325495008
 30
0.0
  0
VERTEX
  5
4F4
  8
0
  6
CONTINUOUS
 62
     7
 10
1757.271387227064
 20
2841.473823724714
 30
0.0
  0
VERTEX
  5
4F5
  8
0
  6
CONTINUOUS
 62
     7
 10
1757.258599354106
 20
2841.517830987392
 30
0.0
  0
VERTEX
  5
4F6
  8
0
  6
CONTINUOUS
 62
     7
 10
1757.243474903466
 20
2841.561275897792
 30
0.0
  0
VERTEX
  5
4F7
  8
0
  6
CONTINUOUS
 62
     7
 10
1757.226259031636
 20
2841.604087070664
 30
0.0
  0
VERTEX
  5
4F8
  8
0
  6
CONTINUOUS
 62
     7
 10
1757.20719689511
 20
2841.64619312076
 30
0.0
  0
VERTEX
  5
4F9
  8
0
  6
CONTINUOUS
 62
     7
 10
1757.186533650384
 20
2841.687522662829
 30
0.0
  0
VERTEX
  5
4FA
  8
0
  6
CONTINUOUS
 62
     7
 10
1757.164514453949
 20
2841.728004311621
 30
0.0
  0
VERTEX
  5
4FB
  8
0
  6
CONTINUOUS
 62
     7
 10
1757.141373755315
 20
2841.767567230042
 30
0.0
  0
VERTEX
  5
4FC
  8
0
  6
CONTINUOUS
 62
     7
 10
1757.117207343489
 20
2841.806147679869
 30
0.0
  0
VERTEX
  5
4FD
  8
0
  6
CONTINUOUS
 62
     7
 10
1757.09201431396
 20
2841.843686873206
 30
0.0
  0
VERTEX
  5
4FE
  8
0
  6
CONTINUOUS
 62
     7
 10
1757.065791792047
 20
2841.88012612302
 30
0.0
  0
VERTEX
  5
4FF
  8
0
  6
CONTINUOUS
 62
     7
 10
1757.038536903065
 20
2841.91540674228
 30
0.0
  0
VERTEX
  5
500
  8
0
  6
CONTINUOUS
 62
     7
 10
1757.010246772332
 20
2841.949470043954
 30
0.0
  0
VERTEX
  5
501
  8
0
  6
CONTINUOUS
 62
     7
 10
1756.980918525165
 20
2841.98225734101
 30
0.0
  0
VERTEX
  5
502
  8
0
  6
CONTINUOUS
 62
     7
 10
1756.950549776394
 20
2842.013709972054
 30
0.0
  0
VERTEX
  5
503
  8
0
  6
CONTINUOUS
 62
     7
 10
1756.919201329924
 20
2842.043772584896
 30
0.0
  0
VERTEX
  5
504
  8
0
  6
CONTINUOUS
 62
     7
 10
1756.887058900791
 20
2842.072396368933
 30
0.0
  0
VERTEX
  5
505
  8
0
  6
CONTINUOUS
 62
     7
 10
1756.854322865758
 20
2842.099533281395
 30
0.0
  0
VERTEX
  5
506
  8
0
  6
CONTINUOUS
 62
     7
 10
1756.821193601588
 20
2842.125135279514
 30
0.0
  0
VERTEX
  5
507
  8
0
  6
CONTINUOUS
 62
     7
 10
1756.787871485042
 20
2842.14915432052
 30
0.0
  0
VERTEX
  5
508
  8
0
  6
CONTINUOUS
 62
     7
 10
1756.754556892881
 20
2842.171542361642
 30
0.0
  0
VERTEX
  5
509
  8
0
  6
CONTINUOUS
 62
     7
 10
1756.721450151885
 20
2842.192259773748
 30
0.0
  0
VERTEX
  5
50A
  8
0
  6
CONTINUOUS
 62
     7
 10
1756.688751223458
 20
2842.211328429164
 30
0.0
  0
VERTEX
  5
50B
  8
0
  6
CONTINUOUS
 62
     7
 10
1756.656659906818
 20
2842.228797501282
 30
0.0
  0
VERTEX
  5
50C
  8
0
  6
CONTINUOUS
 62
     7
 10
1756.625376000447
 20
2842.24471628671
 30
0.0
  0
VERTEX
  5
50D
  8
0
  6
CONTINUOUS
 62
     7
 10
1756.595099302828
 20
2842.259134082061
 30
0.0
  0
VERTEX
  5
50E
  8
0
  6
CONTINUOUS
 62
     7
 10
1756.566029517269
 20
2842.272100216395
 30
0.0
  0
VERTEX
  5
50F
  8
0
  6
CONTINUOUS
 62
     7
 10
1756.538308908484
 20
2842.283683602313
 30
0.0
  0
VERTEX
  5
510
  8
0
  6
CONTINUOUS
 62
     7
 10
1756.511925075044
 20
2842.29400588544
 30
0.0
  0
VERTEX
  5
511
  8
0
  6
CONTINUOUS
 62
     7
 10
1756.48683984634
 20
2842.303197497339
 30
0.0
  0
VERTEX
  5
512
  8
0
  6
CONTINUOUS
 62
     7
 10
1756.463015051761
 20
2842.311388869568
 30
0.0
  0
VERTEX
  5
513
  8
0
  6
CONTINUOUS
 62
     7
 10
1756.4404125207
 20
2842.318710433691
 30
0.0
  0
VERTEX
  5
514
  8
0
  6
CONTINUOUS
 62
     7
 10
1756.418992586779
 20
2842.325290862002
 30
0.0
  0
VERTEX
  5
515
  8
0
  6
CONTINUOUS
 62
     7
 10
1756.398687012135
 20
2842.331225222139
 30
0.0
  0
VERTEX
  5
516
  8
0
  6
CONTINUOUS
 62
     7
 10
1756.379401894422
 20
2842.336578396173
 30
0.0
  0
VERTEX
  5
517
  8
0
  6
CONTINUOUS
 62
     7
 10
1756.361042419024
 20
2842.341414193202
 30
0.0
  0
VERTEX
  5
518
  8
0
  6
CONTINUOUS
 62
     7
 10
1756.343513771325
 20
2842.345796422326
 30
0.0
  0
VERTEX
  5
519
  8
0
  6
CONTINUOUS
 62
     7
 10
1756.326721136709
 20
2842.349788892643
 30
0.0
  0
VERTEX
  5
51A
  8
0
  6
CONTINUOUS
 62
     7
 10
1756.310569700561
 20
2842.353455413251
 30
0.0
  0
VERTEX
  5
51B
  8
0
  6
CONTINUOUS
 62
     7
 10
1756.294964648264
 20
2842.356859793248
 30
0.0
  0
VERTEX
  5
51C
  8
0
  6
CONTINUOUS
 62
     7
 10
1756.279814691635
 20
2842.36006233941
 30
0.0
  0
VERTEX
  5
51D
  8
0
  6
CONTINUOUS
 62
     7
 10
1756.265061433289
 20
2842.363090692586
 30
0.0
  0
VERTEX
  5
51E
  8
0
  6
CONTINUOUS
 62
     7
 10
1756.250664390146
 20
2842.365954701791
 30
0.0
  0
VERTEX
  5
51F
  8
0
  6
CONTINUOUS
 62
     7
 10
1756.236583259038
 20
2842.368664037368
 30
0.0
  0
VERTEX
  5
520
  8
0
  6
CONTINUOUS
 62
     7
 10
1756.222777736792
 20
2842.371228369657
 30
0.0
  0
VERTEX
  5
521
  8
0
  6
CONTINUOUS
 62
     7
 10
1756.209207520237
 20
2842.373657368998
 30
0.0
  0
VERTEX
  5
522
  8
0
  6
CONTINUOUS
 62
     7
 10
1756.195832306203
 20
2842.375960705734
 30
0.0
  0
VERTEX
  5
523
  8
0
  6
CONTINUOUS
 62
     7
 10
1756.182611791518
 20
2842.378148050204
 30
0.0
  0
VERTEX
  5
524
  8
0
  6
CONTINUOUS
 62
     7
 10
1756.169505673012
 20
2842.380229072749
 30
0.0
  0
VERTEX
  5
525
  8
0
  6
CONTINUOUS
 62
     7
 10
1756.156473647513
 20
2842.382213443711
 30
0.0
  0
VERTEX
  5
526
  8
0
  6
CONTINUOUS
 62
     7
 10
1756.14347541185
 20
2842.38411083343
 30
0.0
  0
VERTEX
  5
527
  8
0
  6
CONTINUOUS
 62
     7
 10
1756.130470662852
 20
2842.385930912248
 30
0.0
  0
VERTEX
  5
528
  8
0
  6
CONTINUOUS
 62
     7
 10
1756.117419097348
 20
2842.387683350504
 30
0.0
  0
VERTEX
  5
529
  8
0
  6
CONTINUOUS
 62
     7
 10
1756.104280412167
 20
2842.38937781854
 30
0.0
  0
VERTEX
  5
52A
  8
0
  6
CONTINUOUS
 62
     7
 10
1756.091014304138
 20
2842.391023986697
 30
0.0
  0
VERTEX
  5
52B
  8
0
  6
CONTINUOUS
 62
     7
 10
1756.077580470089
 20
2842.392631525316
 30
0.0
  0
VERTEX
  5
52C
  8
0
  6
CONTINUOUS
 62
     7
 10
1756.063942700308
 20
2842.394209379631
 30
0.0
  0
VERTEX
  5
52D
  8
0
  6
CONTINUOUS
 62
     7
 10
1756.05009542407
 20
2842.395761067546
 30
0.0
  0
VERTEX
  5
52E
  8
0
  6
CONTINUOUS
 62
     7
 10
1756.036046955556
 20
2842.397287647421
 30
0.0
  0
VERTEX
  5
52F
  8
0
  6
CONTINUOUS
 62
     7
 10
1756.02180567778
 20
2842.398790165428
 30
0.0
  0
VERTEX
  5
530
  8
0
  6
CONTINUOUS
 62
     7
 10
1756.007379973751
 20
2842.400269667731
 30
0.0
  0
VERTEX
  5
531
  8
0
  6
CONTINUOUS
 62
     7
 10
1755.992778226483
 20
2842.401727200501
 30
0.0
  0
VERTEX
  5
532
  8
0
  6
CONTINUOUS
 62
     7
 10
1755.978008818986
 20
2842.403163809905
 30
0.0
  0
VERTEX
  5
533
  8
0
  6
CONTINUOUS
 62
     7
 10
1755.963080134271
 20
2842.40458054211
 30
0.0
  0
VERTEX
  5
534
  8
0
  6
CONTINUOUS
 62
     7
 10
1755.948000555351
 20
2842.405978443288
 30
0.0
  0
VERTEX
  5
535
  8
0
  6
CONTINUOUS
 62
     7
 10
1755.932778465236
 20
2842.407358559604
 30
0.0
  0
VERTEX
  5
536
  8
0
  6
CONTINUOUS
 62
     7
 10
1755.917422246938
 20
2842.408721937229
 30
0.0
  0
VERTEX
  5
537
  8
0
  6
CONTINUOUS
 62
     7
 10
1755.901940283469
 20
2842.410069622329
 30
0.0
  0
VERTEX
  5
538
  8
0
  6
CONTINUOUS
 62
     7
 10
1755.886340957839
 20
2842.411402661072
 30
0.0
  0
VERTEX
  5
539
  8
0
  6
CONTINUOUS
 62
     7
 10
1755.870632653061
 20
2842.412722099628
 30
0.0
  0
VERTEX
  5
53A
  8
0
  6
CONTINUOUS
 62
     7
 10
1755.854823752145
 20
2842.414028984164
 30
0.0
  0
VERTEX
  5
53B
  8
0
  6
CONTINUOUS
 62
     7
 10
1755.838922638103
 20
2842.41532436085
 30
0.0
  0
VERTEX
  5
53C
  8
0
  6
CONTINUOUS
 62
     7
 10
1755.822937693947
 20
2842.416609275853
 30
0.0
  0
VERTEX
  5
53D
  8
0
  6
CONTINUOUS
 62
     7
 10
1755.806877302688
 20
2842.417884775341
 30
0.0
  0
VERTEX
  5
53E
  8
0
  6
CONTINUOUS
 62
     7
 10
1755.790749847338
 20
2842.419151905483
 30
0.0
  0
VERTEX
  5
53F
  8
0
  6
CONTINUOUS
 62
     7
 10
1755.774563710907
 20
2842.420411712446
 30
0.0
  0
VERTEX
  5
540
  8
0
  6
CONTINUOUS
 62
     7
 10
1755.758327276408
 20
2842.421665242401
 30
0.0
  0
VERTEX
  5
541
  8
0
  6
CONTINUOUS
 62
     7
 10
1755.742048926852
 20
2842.422913541513
 30
0.0
  0
VERTEX
  5
542
  8
0
  6
CONTINUOUS
 62
     7
 10
1755.725737045249
 20
2842.424157655953
 30
0.0
  0
VERTEX
  5
543
  8
0
  6
CONTINUOUS
 62
     7
 10
1755.709400014613
 20
2842.425398631888
 30
0.0
  0
VERTEX
  5
544
  8
0
  6
CONTINUOUS
 62
     7
 10
1755.693046217953
 20
2842.426637515486
 30
0.0
  0
VERTEX
  5
545
  8
0
  6
CONTINUOUS
 62
     7
 10
1755.676684038283
 20
2842.427875352916
 30
0.0
  0
SEQEND
  5
867
  8
0
  6
CONTINUOUS
 62
     7
  0
POLYLINE
  5
198
  8
0
  6
CONTINUOUS
 62
     7
 66
     1
 10
0.0
 20
0.0
 30
0.0
  0
VERTEX
  5
546
  8
0
  6
CONTINUOUS
 62
     7
 10
1738.95888180082
 20
2842.430569322061
 30
0.0
  0
VERTEX
  5
547
  8
0
  6
CONTINUOUS
 62
     7
 10
1738.936033416089
 20
2842.429266092579
 30
0.0
  0
VERTEX
  5
548
  8
0
  6
CONTINUOUS
 62
     7
 10
1738.913431350666
 20
2842.427962790268
 30
0.0
  0
VERTEX
  5
549
  8
0
  6
CONTINUOUS
 62
     7
 10
1738.891321907334
 20
2842.426659342131
 30
0.0
  0
VERTEX
  5
54A
  8
0
  6
CONTINUOUS
 62
     7
 10
1738.869894374227
 20
2842.425355100615
 30
0.0
  0
VERTEX
  5
54B
  8
0
  6
CONTINUOUS
 62
     7
 10
1738.849153442398
 20
2842.424047557913
 30
0.0
  0
VERTEX
  5
54C
  8
0
  6
CONTINUOUS
 62
     7
 10
1738.829066510938
 20
2842.422733830415
 30
0.0
  0
VERTEX
  5
54D
  8
0
  6
CONTINUOUS
 62
     7
 10
1738.809600978943
 20
2842.421411034511
 30
0.0
  0
VERTEX
  5
54E
  8
0
  6
CONTINUOUS
 62
     7
 10
1738.790724245506
 20
2842.420076286591
 30
0.0
  0
VERTEX
  5
54F
  8
0
  6
CONTINUOUS
 62
     7
 10
1738.772403709718
 20
2842.418726703043
 30
0.0
  0
VERTEX
  5
550
  8
0
  6
CONTINUOUS
 62
     7
 10
1738.754606770675
 20
2842.417359400258
 30
0.0
  0
VERTEX
  5
551
  8
0
  6
CONTINUOUS
 62
     7
 10
1738.73730082747
 20
2842.415971494624
 30
0.0
  0
VERTEX
  5
552
  8
0
  6
CONTINUOUS
 62
     7
 10
1738.720453279195
 20
2842.41456010253
 30
0.0
  0
VERTEX
  5
553
  8
0
  6
CONTINUOUS
 62
     7
 10
1738.704031524945
 20
2842.413122340367
 30
0.0
  0
VERTEX
  5
554
  8
0
  6
CONTINUOUS
 62
     7
 10
1738.688002963812
 20
2842.411655324524
 30
0.0
  0
VERTEX
  5
555
  8
0
  6
CONTINUOUS
 62
     7
 10
1738.672334994891
 20
2842.41015617139
 30
0.0
  0
VERTEX
  5
556
  8
0
  6
CONTINUOUS
 62
     7
 10
1738.656995017274
 20
2842.408621997354
 30
0.0
  0
VERTEX
  5
557
  8
0
  6
CONTINUOUS
 62
     7
 10
1738.641950430054
 20
2842.407049918807
 30
0.0
  0
VERTEX
  5
558
  8
0
  6
CONTINUOUS
 62
     7
 10
1738.627168632326
 20
2842.405437052138
 30
0.0
  0
VERTEX
  5
559
  8
0
  6
CONTINUOUS
 62
     7
 10
1738.612617023182
 20
2842.403780513735
 30
0.0
  0
VERTEX
  5
55A
  8
0
  6
CONTINUOUS
 62
     7
 10
1738.598263001716
 20
2842.402077419989
 30
0.0
  0
VERTEX
  5
55B
  8
0
  6
CONTINUOUS
 62
     7
 10
1738.584073967021
 20
2842.400324887289
 30
0.0
  0
VERTEX
  5
55C
  8
0
  6
CONTINUOUS
 62
     7
 10
1738.570017318192
 20
2842.398520032024
 30
0.0
  0
VERTEX
  5
55D
  8
0
  6
CONTINUOUS
 62
     7
 10
1738.556060454319
 20
2842.396659970584
 30
0.0
  0
VERTEX
  5
55E
  8
0
  6
CONTINUOUS
 62
     7
 10
1738.542170774499
 20
2842.394741819358
 30
0.0
  0
VERTEX
  5
55F
  8
0
  6
CONTINUOUS
 62
     7
 10
1738.528315677824
 20
2842.392762694737
 30
0.0
  0
VERTEX
  5
560
  8
0
  6
CONTINUOUS
 62
     7
 10
1738.514462563387
 20
2842.390719713107
 30
0.0
  0
VERTEX
  5
561
  8
0
  6
CONTINUOUS
 62
     7
 10
1738.500578830281
 20
2842.38860999086
 30
0.0
  0
VERTEX
  5
562
  8
0
  6
CONTINUOUS
 62
     7
 10
1738.4866318776
 20
2842.386430644386
 30
0.0
  0
VERTEX
  5
563
  8
0
  6
CONTINUOUS
 62
     7
 10
1738.472589104438
 20
2842.384178790073
 30
0.0
  0
VERTEX
  5
564
  8
0
  6
CONTINUOUS
 62
     7
 10
1738.458417909887
 20
2842.38185154431
 30
0.0
  0
VERTEX
  5
565
  8
0
  6
CONTINUOUS
 62
     7
 10
1738.444085693041
 20
2842.379446023489
 30
0.0
  0
VERTEX
  5
566
  8
0
  6
CONTINUOUS
 62
     7
 10
1738.429559852994
 20
2842.376959343997
 30
0.0
  0
VERTEX
  5
567
  8
0
  6
CONTINUOUS
 62
     7
 10
1738.414807788839
 20
2842.374388622224
 30
0.0
  0
VERTEX
  5
568
  8
0
  6
CONTINUOUS
 62
     7
 10
1738.399796899669
 20
2842.371730974559
 30
0.0
  0
VERTEX
  5
569
  8
0
  6
CONTINUOUS
 62
     7
 10
1738.384494584578
 20
2842.368983517393
 30
0.0
  0
VERTEX
  5
56A
  8
0
  6
CONTINUOUS
 62
     7
 10
1738.368868242659
 20
2842.366143367114
 30
0.0
  0
VERTEX
  5
56B
  8
0
  6
CONTINUOUS
 62
     7
 10
1738.352884828406
 20
2842.363207157365
 30
0.0
  0
VERTEX
  5
56C
  8
0
  6
CONTINUOUS
 62
     7
 10
1738.336479610255
 20
2842.360137116922
 30
0.0
  0
VERTEX
  5
56D
  8
0
  6
CONTINUOUS
 62
     7
 10
1738.319535622806
 20
2842.356838758838
 30
0.0
  0
VERTEX
  5
56E
  8
0
  6
CONTINUOUS
 62
     7
 10
1738.301931021831
 20
2842.353212298707
 30
0.0
  0
VERTEX
  5
56F
  8
0
  6
CONTINUOUS
 62
     7
 10
1738.283543963099
 20
2842.349157952119
 30
0.0
  0
VERTEX
  5
570
  8
0
  6
CONTINUOUS
 62
     7
 10
1738.264252602381
 20
2842.344575934672
 30
0.0
  0
VERTEX
  5
571
  8
0
  6
CONTINUOUS
 62
     7
 10
1738.243935095446
 20
2842.339366461956
 30
0.0
  0
VERTEX
  5
572
  8
0
  6
CONTINUOUS
 62
     7
 10
1738.222469598065
 20
2842.333429749567
 30
0.0
  0
VERTEX
  5
573
  8
0
  6
CONTINUOUS
 62
     7
 10
1738.199734266009
 20
2842.326666013098
 30
0.0
  0
VERTEX
  5
574
  8
0
  6
CONTINUOUS
 62
     7
 10
1738.175607255046
 20
2842.318975468143
 30
0.0
  0
VERTEX
  5
575
  8
0
  6
CONTINUOUS
 62
     7
 10
1738.149966720949
 20
2842.310258330295
 30
0.0
  0
VERTEX
  5
576
  8
0
  6
CONTINUOUS
 62
     7
 10
1738.122690819486
 20
2842.300414815148
 30
0.0
  0
VERTEX
  5
577
  8
0
  6
CONTINUOUS
 62
     7
 10
1738.093672890264
 20
2842.289342008183
 30
0.0
  0
VERTEX
  5
578
  8
0
  6
CONTINUOUS
 62
     7
 10
1738.062972562645
 20
2842.276902714626
 30
0.0
  0
VERTEX
  5
579
  8
0
  6
CONTINUOUS
 62
     7
 10
1738.030752087124
 20
2842.262938584591
 30
0.0
  0
VERTEX
  5
57A
  8
0
  6
CONTINUOUS
 62
     7
 10
1737.997175226766
 20
2842.247290956379
 30
0.0
  0
VERTEX
  5
57B
  8
0
  6
CONTINUOUS
 62
     7
 10
1737.962405744636
 20
2842.229801168291
 30
0.0
  0
VERTEX
  5
57C
  8
0
  6
CONTINUOUS
 62
     7
 10
1737.926607403798
 20
2842.210310558627
 30
0.0
  0
VERTEX
  5
57D
  8
0
  6
CONTINUOUS
 62
     7
 10
1737.889959057116
 20
2842.188681491821
 30
0.0
  0
VERTEX
  5
57E
  8
0
  6
CONTINUOUS
 62
     7
 10
1737.852740900976
 20
2842.164917544382
 30
0.0
  0
VERTEX
  5
57F
  8
0
  6
CONTINUOUS
 62
     7
 10
1737.815274855829
 20
2842.139080431148
 30
0.0
  0
VERTEX
  5
580
  8
0
  6
CONTINUOUS
 62
     7
 10
1737.777882971509
 20
2842.111232047234
 30
0.0
  0
VERTEX
  5
581
  8
0
  6
CONTINUOUS
 62
     7
 10
1737.740887297851
 20
2842.081434287762
 30
0.0
  0
VERTEX
  5
582
  8
0
  6
CONTINUOUS
 62
     7
 10
1737.70460988469
 20
2842.049749047845
 30
0.0
  0
VERTEX
  5
583
  8
0
  6
CONTINUOUS
 62
     7
 10
1737.669372155161
 20
2842.01623826094
 30
0.0
  0
VERTEX
  5
584
  8
0
  6
CONTINUOUS
 62
     7
 10
1737.635398990235
 20
2841.98096976617
 30
0.0
  0
VERTEX
  5
585
  8
0
  6
CONTINUOUS
 62
     7
 10
1737.602715448532
 20
2841.944023626176
 30
0.0
  0
VERTEX
  5
586
  8
0
  6
CONTINUOUS
 62
     7
 10
1737.571321811548
 20
2841.905481419262
 30
0.0
  0
VERTEX
  5
587
  8
0
  6
CONTINUOUS
 62
     7
 10
1737.54121836078
 20
2841.865424723733
 30
0.0
  0
VERTEX
  5
588
  8
0
  6
CONTINUOUS
 62
     7
 10
1737.512405377725
 20
2841.823935117894
 30
0.0
  0
VERTEX
  5
589
  8
0
  6
CONTINUOUS
 62
     7
 10
1737.484883143878
 20
2841.781094180047
 30
0.0
  0
VERTEX
  5
58A
  8
0
  6
CONTINUOUS
 62
     7
 10
1737.458651940736
 20
2841.7369834885
 30
0.0
  0
VERTEX
  5
58B
  8
0
  6
CONTINUOUS
 62
     7
 10
1737.433716829046
 20
2841.691685037067
 30
0.0
  0
VERTEX
  5
58C
  8
0
  6
CONTINUOUS
 62
     7
 10
1737.410240072686
 20
2841.645294486895
 30
0.0
  0
VERTEX
  5
58D
  8
0
  6
CONTINUOUS
 62
     7
 10
1737.388572994747
 20
2841.597923936052
 30
0.0
  0
VERTEX
  5
58E
  8
0
  6
CONTINUOUS
 62
     7
 10
1737.369078136865
 20
2841.54968645795
 30
0.0
  0
VERTEX
  5
58F
  8
0
  6
CONTINUOUS
 62
     7
 10
1737.352118040673
 20
2841.500695126005
 30
0.0
  0
VERTEX
  5
590
  8
0
  6
CONTINUOUS
 62
     7
 10
1737.338055247807
 20
2841.45106301363
 30
0.0
  0
VERTEX
  5
591
  8
0
  6
CONTINUOUS
 62
     7
 10
1737.327252299903
 20
2841.400903194237
 30
0.0
  0
VERTEX
  5
592
  8
0
  6
CONTINUOUS
 62
     7
 10
1737.320071738595
 20
2841.350328741242
 30
0.0
  0
VERTEX
  5
593
  8
0
  6
CONTINUOUS
 62
     7
 10
1737.316876105518
 20
2841.299452728056
 30
0.0
  0
VERTEX
  5
594
  8
0
  6
CONTINUOUS
 62
     7
 10
1737.317781673871
 20
2841.248381398243
 30
0.0
  0
VERTEX
  5
595
  8
0
  6
CONTINUOUS
 62
     7
 10
1737.321676269371
 20
2841.19718692638
 30
0.0
  0
VERTEX
  5
596
  8
0
  6
CONTINUOUS
 62
     7
 10
1737.327065439564
 20
2841.145930885187
 30
0.0
  0
SEQEND
  5
868
  8
0
  6
CONTINUOUS
 62
     7
  0
LINE
  5
199
  8
0
  6
CONTINUOUS
 62
     7
 10
1757.308634023
 20
2840.405339645818
 30
0.0
 11
1757.308634023
 21
2841.155530423133
 31
0.0
  0
LINE
  5
19A
  8
0
  6
CONTINUOUS
 62
     7
 10
1737.308634023
 20
2841.155530423133
 30
0.0
 11
1737.308634023
 21
2840.405339645818
 31
0.0
  0
LINE
  5
19B
  8
0
  6
CONTINUOUS
 62
     7
 10
1755.805008247512
 20
2842.420321226571
 30
0.0
 11
1754.278602309358
 21
2842.547698761062
 31
0.0
  0
LINE
  5
19C
  8
0
  6
CONTINUOUS
 62
     7
 10
1740.338665736641
 20
2842.547698761062
 30
0.0
 11
1738.812259798487
 21
2842.420321226571
 31
0.0
  0
POLYLINE
  5
19D
  8
0
  6
CONTINUOUS
 62
     7
 66
     1
 10
0.0
 20
0.0
 30
0.0
  0
VERTEX
  5
597
  8
0
  6
CONTINUOUS
 62
     7
 10
1754.188636381365
 20
2842.552800533862
 30
0.0
  0
VERTEX
  5
598
  8
0
  6
CONTINUOUS
 62
     7
 10
1754.091534693808
 20
2842.560518360659
 30
0.0
  0
VERTEX
  5
599
  8
0
  6
CONTINUOUS
 62
     7
 10
1753.994624162304
 20
2842.568171283382
 30
0.0
  0
VERTEX
  5
59A
  8
0
  6
CONTINUOUS
 62
     7
 10
1753.898095942908
 20
2842.57569439795
 30
0.0
  0
VERTEX
  5
59B
  8
0
  6
CONTINUOUS
 62
     7
 10
1753.802141191672
 20
2842.583022800289
 30
0.0
  0
VERTEX
  5
59C
  8
0
  6
CONTINUOUS
 62
     7
 10
1753.706951064649
 20
2842.590091586322
 30
0.0
  0
VERTEX
  5
59D
  8
0
  6
CONTINUOUS
 62
     7
 10
1753.612716717894
 20
2842.596835851973
 30
0.0
  0
VERTEX
  5
59E
  8
0
  6
CONTINUOUS
 62
     7
 10
1753.519624272006
 20
2842.603192325398
 30
0.0
  0
VERTEX
  5
59F
  8
0
  6
CONTINUOUS
 62
     7
 10
1753.427723333349
 20
2842.609141985653
 30
0.0
  0
VERTEX
  5
5A0
  8
0
  6
CONTINUOUS
 62
     7
 10
1753.336914396748
 20
2842.614714146076
 30
0.0
  0
VERTEX
  5
5A1
  8
0
  6
CONTINUOUS
 62
     7
 10
1753.247090395961
 20
2842.619940570923
 30
0.0
  0
VERTEX
  5
5A2
  8
0
  6
CONTINUOUS
 62
     7
 10
1753.158144264746
 20
2842.624853024441
 30
0.0
  0
VERTEX
  5
5A3
  8
0
  6
CONTINUOUS
 62
     7
 10
1753.069968936861
 20
2842.629483270885
 30
0.0
  0
VERTEX
  5
5A4
  8
0
  6
CONTINUOUS
 62
     7
 10
1752.982457346062
 20
2842.633863074505
 30
0.0
  0
VERTEX
  5
5A5
  8
0
  6
CONTINUOUS
 62
     7
 10
1752.895502426109
 20
2842.638024199554
 30
0.0
  0
VERTEX
  5
5A6
  8
0
  6
CONTINUOUS
 62
     7
 10
1752.808997110758
 20
2842.641998410283
 30
0.0
  0
VERTEX
  5
5A7
  8
0
  6
CONTINUOUS
 62
     7
 10
1752.722834333767
 20
2842.645817470941
 30
0.0
  0
VERTEX
  5
5A8
  8
0
  6
CONTINUOUS
 62
     7
 10
1752.636908277184
 20
2842.649512445459
 30
0.0
  0
VERTEX
  5
5A9
  8
0
  6
CONTINUOUS
 62
     7
 10
1752.551139032166
 20
2842.653099862045
 30
0.0
  0
VERTEX
  5
5AA
  8
0
  6
CONTINUOUS
 62
     7
 10
1752.465471131969
 20
2842.656582536227
 30
0.0
  0
VERTEX
  5
5AB
  8
0
  6
CONTINUOUS
 62
     7
 10
1752.379850064421
 20
2842.659962747992
 30
0.0
  0
VERTEX
  5
5AC
  8
0
  6
CONTINUOUS
 62
     7
 10
1752.294221317354
 20
2842.663242777321
 30
0.0
  0
VERTEX
  5
5AD
  8
0
  6
CONTINUOUS
 62
     7
 10
1752.208530378598
 20
2842.666424904201
 30
0.0
  0
VERTEX
  5
5AE
  8
0
  6
CONTINUOUS
 62
     7
 10
1752.122722735984
 20
2842.669511408615
 30
0.0
  0
VERTEX
  5
5AF
  8
0
  6
CONTINUOUS
 62
     7
 10
1752.036743877343
 20
2842.672504570548
 30
0.0
  0
VERTEX
  5
5B0
  8
0
  6
CONTINUOUS
 62
     7
 10
1751.950539290505
 20
2842.675406669985
 30
0.0
  0
VERTEX
  5
5B1
  8
0
  6
CONTINUOUS
 62
     7
 10
1751.864054463301
 20
2842.67821998691
 30
0.0
  0
VERTEX
  5
5B2
  8
0
  6
CONTINUOUS
 62
     7
 10
1751.777234883563
 20
2842.680946801308
 30
0.0
  0
VERTEX
  5
5B3
  8
0
  6
CONTINUOUS
 62
     7
 10
1751.690026039119
 20
2842.683589393163
 30
0.0
  0
VERTEX
  5
5B4
  8
0
  6
CONTINUOUS
 62
     7
 10
1751.602373417802
 20
2842.686150042459
 30
0.0
  0
VERTEX
  5
5B5
  8
0
  6
CONTINUOUS
 62
     7
 10
1751.514222659069
 20
2842.68863102746
 30
0.0
  0
VERTEX
  5
5B6
  8
0
  6
CONTINUOUS
 62
     7
 10
1751.425533961892
 20
2842.691034461062
 30
0.0
  0
VERTEX
  5
5B7
  8
0
  6
CONTINUOUS
 62
     7
 10
1751.336293964323
 20
2842.693362155869
 30
0.0
  0
VERTEX
  5
5B8
  8
0
  6
CONTINUOUS
 62
     7
 10
1751.246492100419
 20
2842.69561589273
 30
0.0
  0
VERTEX
  5
5B9
  8
0
  6
CONTINUOUS
 62
     7
 10
1751.15611780424
 20
2842.697797452492
 30
0.0
  0
VERTEX
  5
5BA
  8
0
  6
CONTINUOUS
 62
     7
 10
1751.065160509846
 20
2842.699908616003
 30
0.0
  0
VERTEX
  5
5BB
  8
0
  6
CONTINUOUS
 62
     7
 10
1750.973609651296
 20
2842.701951164112
 30
0.0
  0
VERTEX
  5
5BC
  8
0
  6
CONTINUOUS
 62
     7
 10
1750.88145466265
 20
2842.703926877665
 30
0.0
  0
VERTEX
  5
5BD
  8
0
  6
CONTINUOUS
 62
     7
 10
1750.788684977965
 20
2842.70583753751
 30
0.0
  0
VERTEX
  5
5BE
  8
0
  6
CONTINUOUS
 62
     7
 10
1750.695290031302
 20
2842.707684924496
 30
0.0
  0
VERTEX
  5
5BF
  8
0
  6
CONTINUOUS
 62
     7
 10
1750.60125925672
 20
2842.70947081947
 30
0.0
  0
VERTEX
  5
5C0
  8
0
  6
CONTINUOUS
 62
     7
 10
1750.50658208828
 20
2842.711197003282
 30
0.0
  0
VERTEX
  5
5C1
  8
0
  6
CONTINUOUS
 62
     7
 10
1750.411247960038
 20
2842.712865256776
 30
0.0
  0
VERTEX
  5
5C2
  8
0
  6
CONTINUOUS
 62
     7
 10
1750.315246306056
 20
2842.714477360803
 30
0.0
  0
VERTEX
  5
5C3
  8
0
  6
CONTINUOUS
 62
     7
 10
1750.218566670103
 20
2842.716035089025
 30
0.0
  0
VERTEX
  5
5C4
  8
0
  6
CONTINUOUS
 62
     7
 10
1750.121208149421
 20
2842.717539589582
 30
0.0
  0
VERTEX
  5
5C5
  8
0
  6
CONTINUOUS
 62
     7
 10
1750.023186670093
 20
2842.718990908715
 30
0.0
  0
VERTEX
  5
5C6
  8
0
  6
CONTINUOUS
 62
     7
 10
1749.924519870873
 20
2842.720388980531
 30
0.0
  0
VERTEX
  5
5C7
  8
0
  6
CONTINUOUS
 62
     7
 10
1749.825225390514
 20
2842.721733739131
 30
0.0
  0
VERTEX
  5
5C8
  8
0
  6
CONTINUOUS
 62
     7
 10
1749.725320867769
 20
2842.723025118623
 30
0.0
  0
VERTEX
  5
5C9
  8
0
  6
CONTINUOUS
 62
     7
 10
1749.62482394139
 20
2842.72426305311
 30
0.0
  0
VERTEX
  5
5CA
  8
0
  6
CONTINUOUS
 62
     7
 10
1749.523752250132
 20
2842.725447476695
 30
0.0
  0
VERTEX
  5
5CB
  8
0
  6
CONTINUOUS
 62
     7
 10
1749.422123432746
 20
2842.726578323485
 30
0.0
  0
VERTEX
  5
5CC
  8
0
  6
CONTINUOUS
 62
     7
 10
1749.319955127986
 20
2842.727655527583
 30
0.0
  0
VERTEX
  5
5CD
  8
0
  6
CONTINUOUS
 62
     7
 10
1749.217264974605
 20
2842.728679023094
 30
0.0
  0
VERTEX
  5
5CE
  8
0
  6
CONTINUOUS
 62
     7
 10
1749.114070611356
 20
2842.729648744122
 30
0.0
  0
VERTEX
  5
5CF
  8
0
  6
CONTINUOUS
 62
     7
 10
1749.010389676992
 20
2842.730564624772
 30
0.0
  0
VERTEX
  5
5D0
  8
0
  6
CONTINUOUS
 62
     7
 10
1748.906239863394
 20
2842.731426597507
 30
0.0
  0
VERTEX
  5
5D1
  8
0
  6
CONTINUOUS
 62
     7
 10
1748.801643883417
 20
2842.732234439764
 30
0.0
  0
VERTEX
  5
5D2
  8
0
  6
CONTINUOUS
 62
     7
 10
1748.696633523432
 20
2842.732987648822
 30
0.0
  0
VERTEX
  5
5D3
  8
0
  6
CONTINUOUS
 62
     7
 10
1748.591241523524
 20
2842.733685692512
 30
0.0
  0
VERTEX
  5
5D4
  8
0
  6
CONTINUOUS
 62
     7
 10
1748.48550062378
 20
2842.734328038669
 30
0.0
  0
VERTEX
  5
5D5
  8
0
  6
CONTINUOUS
 62
     7
 10
1748.379443564285
 20
2842.734914155124
 30
0.0
  0
VERTEX
  5
5D6
  8
0
  6
CONTINUOUS
 62
     7
 10
1748.273103085125
 20
2842.735443509711
 30
0.0
  0
VERTEX
  5
5D7
  8
0
  6
CONTINUOUS
 62
     7
 10
1748.166511926386
 20
2842.735915570262
 30
0.0
  0
VERTEX
  5
5D8
  8
0
  6
CONTINUOUS
 62
     7
 10
1748.059702828154
 20
2842.736329804608
 30
0.0
  0
VERTEX
  5
5D9
  8
0
  6
CONTINUOUS
 62
     7
 10
1747.952708530515
 20
2842.736685680584
 30
0.0
  0
VERTEX
  5
5DA
  8
0
  6
CONTINUOUS
 62
     7
 10
1747.845561773556
 20
2842.736982666022
 30
0.0
  0
VERTEX
  5
5DB
  8
0
  6
CONTINUOUS
 62
     7
 10
1747.73829529736
 20
2842.737220228753
 30
0.0
  0
VERTEX
  5
5DC
  8
0
  6
CONTINUOUS
 62
     7
 10
1747.630941842015
 20
2842.73739783661
 30
0.0
  0
VERTEX
  5
5DD
  8
0
  6
CONTINUOUS
 62
     7
 10
1747.523533258112
 20
2842.737516213032
 30
0.0
  0
VERTEX
  5
5DE
  8
0
  6
CONTINUOUS
 62
     7
 10
1747.416091830788
 20
2842.737589583981
 30
0.0
  0
VERTEX
  5
5DF
  8
0
  6
CONTINUOUS
 62
     7
 10
1747.308634022999
 20
2842.737640393971
 30
0.0
  0
SEQEND
  5
869
  8
0
  6
CONTINUOUS
 62
     7
  0
POLYLINE
  5
19E
  8
0
  6
CONTINUOUS
 62
     7
 66
     1
 10
0.0
 20
0.0
 30
0.0
  0
VERTEX
  5
5E0
  8
0
  6
CONTINUOUS
 62
     7
 10
1747.308634023
 20
2842.737640393971
 30
0.0
  0
VERTEX
  5
5E1
  8
0
  6
CONTINUOUS
 62
     7
 10
1747.189487741723
 20
2842.737511935831
 30
0.0
  0
VERTEX
  5
5E2
  8
0
  6
CONTINUOUS
 62
     7
 10
1747.070378233569
 20
2842.737370325582
 30
0.0
  0
VERTEX
  5
5E3
  8
0
  6
CONTINUOUS
 62
     7
 10
1746.95134227166
 20
2842.737202411113
 30
0.0
  0
VERTEX
  5
5E4
  8
0
  6
CONTINUOUS
 62
     7
 10
1746.832416629119
 20
2842.736995040314
 30
0.0
  0
VERTEX
  5
5E5
  8
0
  6
CONTINUOUS
 62
     7
 10
1746.713638079067
 20
2842.736735061075
 30
0.0
  0
VERTEX
  5
5E6
  8
0
  6
CONTINUOUS
 62
     7
 10
1746.595043394629
 20
2842.736409321287
 30
0.0
  0
VERTEX
  5
5E7
  8
0
  6
CONTINUOUS
 62
     7
 10
1746.476669575214
 20
2842.736005854524
 30
0.0
  0
VERTEX
  5
5E8
  8
0
  6
CONTINUOUS
 62
     7
 10
1746.358555401221
 20
2842.735522026214
 30
0.0
  0
VERTEX
  5
5E9
  8
0
  6
CONTINUOUS
 62
     7
 10
1746.240740495848
 20
2842.734959617811
 30
0.0
  0
VERTEX
  5
5EA
  8
0
  6
CONTINUOUS
 62
     7
 10
1746.123264487322
 20
2842.734320437126
 30
0.0
  0
VERTEX
  5
5EB
  8
0
  6
CONTINUOUS
 62
     7
 10
1746.006167003871
 20
2842.733606291965
 30
0.0
  0
VERTEX
  5
5EC
  8
0
  6
CONTINUOUS
 62
     7
 10
1745.889487673722
 20
2842.732818990137
 30
0.0
  0
VERTEX
  5
5ED
  8
0
  6
CONTINUOUS
 62
     7
 10
1745.773266125105
 20
2842.731960339452
 30
0.0
  0
VERTEX
  5
5EE
  8
0
  6
CONTINUOUS
 62
     7
 10
1745.657541986245
 20
2842.731032147716
 30
0.0
  0
VERTEX
  5
5EF
  8
0
  6
CONTINUOUS
 62
     7
 10
1745.542354885371
 20
2842.730036222739
 30
0.0
  0
VERTEX
  5
5F0
  8
0
  6
CONTINUOUS
 62
     7
 10
1745.42774445071
 20
2842.728974372329
 30
0.0
  0
VERTEX
  5
5F1
  8
0
  6
CONTINUOUS
 62
     7
 10
1745.313750310491
 20
2842.727848404295
 30
0.0
  0
VERTEX
  5
5F2
  8
0
  6
CONTINUOUS
 62
     7
 10
1745.20041209294
 20
2842.726660126445
 30
0.0
  0
VERTEX
  5
5F3
  8
0
  6
CONTINUOUS
 62
     7
 10
1745.087767094135
 20
2842.725411041748
 30
0.0
  0
VERTEX
  5
5F4
  8
0
  6
CONTINUOUS
 62
     7
 10
1744.97583466244
 20
2842.724100307191
 30
0.0
  0
VERTEX
  5
5F5
  8
0
  6
CONTINUOUS
 62
     7
 10
1744.864625814827
 20
2842.72272599075
 30
0.0
  0
VERTEX
  5
5F6
  8
0
  6
CONTINUOUS
 62
     7
 10
1744.754151522412
 20
2842.721286154405
 30
0.0
  0
VERTEX
  5
5F7
  8
0
  6
CONTINUOUS
 62
     7
 10
1744.644422756307
 20
2842.719778860137
 30
0.0
  0
VERTEX
  5
5F8
  8
0
  6
CONTINUOUS
 62
     7
 10
1744.535450487627
 20
2842.718202169927
 30
0.0
  0
VERTEX
  5
5F9
  8
0
  6
CONTINUOUS
 62
     7
 10
1744.427245687485
 20
2842.716554145756
 30
0.0
  0
VERTEX
  5
5FA
  8
0
  6
CONTINUOUS
 62
     7
 10
1744.319819326995
 20
2842.714832849605
 30
0.0
  0
VERTEX
  5
5FB
  8
0
  6
CONTINUOUS
 62
     7
 10
1744.213182377271
 20
2842.713036343454
 30
0.0
  0
VERTEX
  5
5FC
  8
0
  6
CONTINUOUS
 62
     7
 10
1744.107345809426
 20
2842.711162689283
 30
0.0
  0
VERTEX
  5
5FD
  8
0
  6
CONTINUOUS
 62
     7
 10
1744.002320594574
 20
2842.709209949076
 30
0.0
  0
VERTEX
  5
5FE
  8
0
  6
CONTINUOUS
 62
     7
 10
1743.898117703829
 20
2842.707176184811
 30
0.0
  0
VERTEX
  5
5FF
  8
0
  6
CONTINUOUS
 62
     7
 10
1743.794747507757
 20
2842.705059503771
 30
0.0
  0
VERTEX
  5
600
  8
0
  6
CONTINUOUS
 62
     7
 10
1743.692201604358
 20
2842.702859429293
 30
0.0
  0
VERTEX
  5
601
  8
0
  6
CONTINUOUS
 62
     7
 10
1743.590449563734
 20
2842.700577146326
 30
0.0
  0
VERTEX
  5
602
  8
0
  6
CONTINUOUS
 62
     7
 10
1743.489459699146
 20
2842.698213934629
 30
0.0
  0
VERTEX
  5
603
  8
0
  6
CONTINUOUS
 62
     7
 10
1743.389200323859
 20
2842.695771073957
 30
0.0
  0
VERTEX
  5
604
  8
0
  6
CONTINUOUS
 62
     7
 10
1743.289639751135
 20
2842.693249844066
 30
0.0
  0
VERTEX
  5
605
  8
0
  6
CONTINUOUS
 62
     7
 10
1743.190746294239
 20
2842.690651524715
 30
0.0
  0
VERTEX
  5
606
  8
0
  6
CONTINUOUS
 62
     7
 10
1743.092488266432
 20
2842.687977395657
 30
0.0
  0
VERTEX
  5
607
  8
0
  6
CONTINUOUS
 62
     7
 10
1742.994833980979
 20
2842.685228736651
 30
0.0
  0
VERTEX
  5
608
  8
0
  6
CONTINUOUS
 62
     7
 10
1742.897751751142
 20
2842.682406827452
 30
0.0
  0
VERTEX
  5
609
  8
0
  6
CONTINUOUS
 62
     7
 10
1742.801209890185
 20
2842.679512947819
 30
0.0
  0
VERTEX
  5
60A
  8
0
  6
CONTINUOUS
 62
     7
 10
1742.705176711372
 20
2842.676548377506
 30
0.0
  0
VERTEX
  5
60B
  8
0
  6
CONTINUOUS
 62
     7
 10
1742.609620527964
 20
2842.67351439627
 30
0.0
  0
VERTEX
  5
60C
  8
0
  6
CONTINUOUS
 62
     7
 10
1742.514509653227
 20
2842.670412283868
 30
0.0
  0
VERTEX
  5
60D
  8
0
  6
CONTINUOUS
 62
     7
 10
1742.419797843598
 20
2842.667239247017
 30
0.0
  0
VERTEX
  5
60E
  8
0
  6
CONTINUOUS
 62
     7
 10
1742.325359863543
 20
2842.663970390269
 30
0.0
  0
VERTEX
  5
60F
  8
0
  6
CONTINUOUS
 62
     7
 10
1742.231043809832
 20
2842.660573356479
 30
0.0
  0
VERTEX
  5
610
  8
0
  6
CONTINUOUS
 62
     7
 10
1742.136697758548
 20
2842.657015782719
 30
0.0
  0
VERTEX
  5
611
  8
0
  6
CONTINUOUS
 62
     7
 10
1742.042169785771
 20
2842.653265306054
 30
0.0
  0
VERTEX
  5
612
  8
0
  6
CONTINUOUS
 62
     7
 10
1741.947307967582
 20
2842.649289563555
 30
0.0
  0
VERTEX
  5
613
  8
0
  6
CONTINUOUS
 62
     7
 10
1741.851960380062
 20
2842.64505619229
 30
0.0
  0
VERTEX
  5
614
  8
0
  6
CONTINUOUS
 62
     7
 10
1741.755975099293
 20
2842.640532829327
 30
0.0
  0
VERTEX
  5
615
  8
0
  6
CONTINUOUS
 62
     7
 10
1741.659200201357
 20
2842.635687111736
 30
0.0
  0
VERTEX
  5
616
  8
0
  6
CONTINUOUS
 62
     7
 10
1741.561483762334
 20
2842.630486676584
 30
0.0
  0
VERTEX
  5
617
  8
0
  6
CONTINUOUS
 62
     7
 10
1741.462673858306
 20
2842.62489916094
 30
0.0
  0
VERTEX
  5
618
  8
0
  6
CONTINUOUS
 62
     7
 10
1741.362618565355
 20
2842.618892201873
 30
0.0
  0
VERTEX
  5
619
  8
0
  6
CONTINUOUS
 62
     7
 10
1741.261201387251
 20
2842.612443073519
 30
0.0
  0
VERTEX
  5
61A
  8
0
  6
CONTINUOUS
 62
     7
 10
1741.158521460726
 20
2842.605587706658
 30
0.0
  0
VERTEX
  5
61B
  8
0
  6
CONTINUOUS
 62
     7
 10
1741.054759052545
 20
2842.598384101124
 30
0.0
  0
VERTEX
  5
61C
  8
0
  6
CONTINUOUS
 62
     7
 10
1740.950094576318
 20
2842.590890296697
 30
0.0
  0
VERTEX
  5
61D
  8
0
  6
CONTINUOUS
 62
     7
 10
1740.844708445655
 20
2842.583164333153
 30
0.0
  0
VERTEX
  5
61E
  8
0
  6
CONTINUOUS
 62
     7
 10
1740.738781074163
 20
2842.575264250274
 30
0.0
  0
VERTEX
  5
61F
  8
0
  6
CONTINUOUS
 62
     7
 10
1740.632492875453
 20
2842.567248087837
 30
0.0
  0
VERTEX
  5
620
  8
0
  6
CONTINUOUS
 62
     7
 10
1740.526024263134
 20
2842.559173885621
 30
0.0
  0
SEQEND
  5
86A
  8
0
  6
CONTINUOUS
 62
     7
  0
LINE
  5
19F
  8
0
  6
CONTINUOUS
 62
     7
 10
1751.808634023
 20
2837.445128225326
 30
0.0
 11
1751.808634023
 21
2839.705579518335
 31
0.0
  0
LINE
  5
1A0
  8
0
  6
CONTINUOUS
 62
     7
 10
1742.808634023
 20
2839.705579518336
 30
0.0
 11
1742.808634023
 21
2837.445128225326
 31
0.0
  0
POLYLINE
  5
1A1
  8
0
  6
CONTINUOUS
 62
     7
 66
     1
 10
0.0
 20
0.0
 30
0.0
  0
VERTEX
  5
621
  8
0
  6
CONTINUOUS
 62
     7
 10
2886.788249626308
 20
2841.155996237073
 30
0.0
  0
VERTEX
  5
622
  8
0
  6
CONTINUOUS
 62
     7
 10
2886.791383116386
 20
2841.201956004505
 30
0.0
  0
VERTEX
  5
623
  8
0
  6
CONTINUOUS
 62
     7
 10
2886.793766769928
 20
2841.24784640771
 30
0.0
  0
VERTEX
  5
624
  8
0
  6
CONTINUOUS
 62
     7
 10
2886.794650750403
 20
2841.293598082461
 30
0.0
  0
VERTEX
  5
625
  8
0
  6
CONTINUOUS
 62
     7
 10
2886.793285221275
 20
2841.33914166453
 30
0.0
  0
VERTEX
  5
626
  8
0
  6
CONTINUOUS
 62
     7
 10
2886.788972613955
 20
2841.384407683524
 30
0.0
  0
VERTEX
  5
627
  8
0
  6
CONTINUOUS
 62
     7
 10
2886.781593365845
 20
2841.429325495008
 30
0.0
  0
VERTEX
  5
628
  8
0
  6
CONTINUOUS
 62
     7
 10
2886.771387227064
 20
2841.473823724714
 30
0.0
  0
VERTEX
  5
629
  8
0
  6
CONTINUOUS
 62
     7
 10
2886.758599354107
 20
2841.517830987392
 30
0.0
  0
VERTEX
  5
62A
  8
0
  6
CONTINUOUS
 62
     7
 10
2886.743474903466
 20
2841.561275897792
 30
0.0
  0
VERTEX
  5
62B
  8
0
  6
CONTINUOUS
 62
     7
 10
2886.726259031636
 20
2841.604087070665
 30
0.0
  0
VERTEX
  5
62C
  8
0
  6
CONTINUOUS
 62
     7
 10
2886.707196895111
 20
2841.64619312076
 30
0.0
  0
VERTEX
  5
62D
  8
0
  6
CONTINUOUS
 62
     7
 10
2886.686533650384
 20
2841.687522662829
 30
0.0
  0
VERTEX
  5
62E
  8
0
  6
CONTINUOUS
 62
     7
 10
2886.66451445395
 20
2841.728004311621
 30
0.0
  0
VERTEX
  5
62F
  8
0
  6
CONTINUOUS
 62
     7
 10
2886.641373755316
 20
2841.767567230042
 30
0.0
  0
VERTEX
  5
630
  8
0
  6
CONTINUOUS
 62
     7
 10
2886.617207343488
 20
2841.806147679869
 30
0.0
  0
VERTEX
  5
631
  8
0
  6
CONTINUOUS
 62
     7
 10
2886.59201431396
 20
2841.843686873206
 30
0.0
  0
VERTEX
  5
632
  8
0
  6
CONTINUOUS
 62
     7
 10
2886.565791792047
 20
2841.88012612302
 30
0.0
  0
VERTEX
  5
633
  8
0
  6
CONTINUOUS
 62
     7
 10
2886.538536903065
 20
2841.91540674228
 30
0.0
  0
VERTEX
  5
634
  8
0
  6
CONTINUOUS
 62
     7
 10
2886.510246772332
 20
2841.949470043954
 30
0.0
  0
VERTEX
  5
635
  8
0
  6
CONTINUOUS
 62
     7
 10
2886.480918525166
 20
2841.982257341011
 30
0.0
  0
VERTEX
  5
636
  8
0
  6
CONTINUOUS
 62
     7
 10
2886.450549776393
 20
2842.013709972055
 30
0.0
  0
VERTEX
  5
637
  8
0
  6
CONTINUOUS
 62
     7
 10
2886.419201329923
 20
2842.043772584896
 30
0.0
  0
VERTEX
  5
638
  8
0
  6
CONTINUOUS
 62
     7
 10
2886.387058900791
 20
2842.072396368933
 30
0.0
  0
VERTEX
  5
639
  8
0
  6
CONTINUOUS
 62
     7
 10
2886.354322865759
 20
2842.099533281396
 30
0.0
  0
VERTEX
  5
63A
  8
0
  6
CONTINUOUS
 62
     7
 10
2886.321193601588
 20
2842.125135279515
 30
0.0
  0
VERTEX
  5
63B
  8
0
  6
CONTINUOUS
 62
     7
 10
2886.287871485042
 20
2842.149154320521
 30
0.0
  0
VERTEX
  5
63C
  8
0
  6
CONTINUOUS
 62
     7
 10
2886.254556892881
 20
2842.171542361642
 30
0.0
  0
VERTEX
  5
63D
  8
0
  6
CONTINUOUS
 62
     7
 10
2886.221450151884
 20
2842.192259773748
 30
0.0
  0
VERTEX
  5
63E
  8
0
  6
CONTINUOUS
 62
     7
 10
2886.188751223458
 20
2842.211328429164
 30
0.0
  0
VERTEX
  5
63F
  8
0
  6
CONTINUOUS
 62
     7
 10
2886.156659906817
 20
2842.228797501282
 30
0.0
  0
VERTEX
  5
640
  8
0
  6
CONTINUOUS
 62
     7
 10
2886.125376000446
 20
2842.24471628671
 30
0.0
  0
VERTEX
  5
641
  8
0
  6
CONTINUOUS
 62
     7
 10
2886.095099302828
 20
2842.259134082061
 30
0.0
  0
VERTEX
  5
642
  8
0
  6
CONTINUOUS
 62
     7
 10
2886.066029517268
 20
2842.272100216395
 30
0.0
  0
VERTEX
  5
643
  8
0
  6
CONTINUOUS
 62
     7
 10
2886.038308908484
 20
2842.283683602313
 30
0.0
  0
VERTEX
  5
644
  8
0
  6
CONTINUOUS
 62
     7
 10
2886.011925075044
 20
2842.294005885441
 30
0.0
  0
VERTEX
  5
645
  8
0
  6
CONTINUOUS
 62
     7
 10
2885.986839846339
 20
2842.303197497339
 30
0.0
  0
VERTEX
  5
646
  8
0
  6
CONTINUOUS
 62
     7
 10
2885.963015051761
 20
2842.311388869568
 30
0.0
  0
VERTEX
  5
647
  8
0
  6
CONTINUOUS
 62
     7
 10
2885.940412520699
 20
2842.318710433691
 30
0.0
  0
VERTEX
  5
648
  8
0
  6
CONTINUOUS
 62
     7
 10
2885.918992586778
 20
2842.325290862002
 30
0.0
  0
VERTEX
  5
649
  8
0
  6
CONTINUOUS
 62
     7
 10
2885.898687012135
 20
2842.331225222139
 30
0.0
  0
VERTEX
  5
64A
  8
0
  6
CONTINUOUS
 62
     7
 10
2885.879401894422
 20
2842.336578396173
 30
0.0
  0
VERTEX
  5
64B
  8
0
  6
CONTINUOUS
 62
     7
 10
2885.861042419023
 20
2842.341414193203
 30
0.0
  0
VERTEX
  5
64C
  8
0
  6
CONTINUOUS
 62
     7
 10
2885.843513771325
 20
2842.345796422327
 30
0.0
  0
VERTEX
  5
64D
  8
0
  6
CONTINUOUS
 62
     7
 10
2885.826721136708
 20
2842.349788892644
 30
0.0
  0
VERTEX
  5
64E
  8
0
  6
CONTINUOUS
 62
     7
 10
2885.810569700561
 20
2842.353455413252
 30
0.0
  0
VERTEX
  5
64F
  8
0
  6
CONTINUOUS
 62
     7
 10
2885.794964648264
 20
2842.356859793249
 30
0.0
  0
VERTEX
  5
650
  8
0
  6
CONTINUOUS
 62
     7
 10
2885.779814691635
 20
2842.36006233941
 30
0.0
  0
VERTEX
  5
651
  8
0
  6
CONTINUOUS
 62
     7
 10
2885.765061433288
 20
2842.363090692586
 30
0.0
  0
VERTEX
  5
652
  8
0
  6
CONTINUOUS
 62
     7
 10
2885.750664390146
 20
2842.365954701791
 30
0.0
  0
VERTEX
  5
653
  8
0
  6
CONTINUOUS
 62
     7
 10
2885.736583259037
 20
2842.368664037368
 30
0.0
  0
VERTEX
  5
654
  8
0
  6
CONTINUOUS
 62
     7
 10
2885.722777736792
 20
2842.371228369657
 30
0.0
  0
VERTEX
  5
655
  8
0
  6
CONTINUOUS
 62
     7
 10
2885.709207520237
 20
2842.373657368999
 30
0.0
  0
VERTEX
  5
656
  8
0
  6
CONTINUOUS
 62
     7
 10
2885.695832306203
 20
2842.375960705734
 30
0.0
  0
VERTEX
  5
657
  8
0
  6
CONTINUOUS
 62
     7
 10
2885.682611791518
 20
2842.378148050204
 30
0.0
  0
VERTEX
  5
658
  8
0
  6
CONTINUOUS
 62
     7
 10
2885.669505673011
 20
2842.38022907275
 30
0.0
  0
VERTEX
  5
659
  8
0
  6
CONTINUOUS
 62
     7
 10
2885.656473647512
 20
2842.382213443711
 30
0.0
  0
VERTEX
  5
65A
  8
0
  6
CONTINUOUS
 62
     7
 10
2885.64347541185
 20
2842.38411083343
 30
0.0
  0
VERTEX
  5
65B
  8
0
  6
CONTINUOUS
 62
     7
 10
2885.630470662851
 20
2842.385930912249
 30
0.0
  0
VERTEX
  5
65C
  8
0
  6
CONTINUOUS
 62
     7
 10
2885.617419097347
 20
2842.387683350504
 30
0.0
  0
VERTEX
  5
65D
  8
0
  6
CONTINUOUS
 62
     7
 10
2885.604280412166
 20
2842.389377818541
 30
0.0
  0
VERTEX
  5
65E
  8
0
  6
CONTINUOUS
 62
     7
 10
2885.591014304137
 20
2842.391023986698
 30
0.0
  0
VERTEX
  5
65F
  8
0
  6
CONTINUOUS
 62
     7
 10
2885.577580470089
 20
2842.392631525316
 30
0.0
  0
VERTEX
  5
660
  8
0
  6
CONTINUOUS
 62
     7
 10
2885.563942700308
 20
2842.394209379631
 30
0.0
  0
VERTEX
  5
661
  8
0
  6
CONTINUOUS
 62
     7
 10
2885.550095424069
 20
2842.395761067547
 30
0.0
  0
VERTEX
  5
662
  8
0
  6
CONTINUOUS
 62
     7
 10
2885.536046955556
 20
2842.397287647421
 30
0.0
  0
VERTEX
  5
663
  8
0
  6
CONTINUOUS
 62
     7
 10
2885.521805677779
 20
2842.398790165427
 30
0.0
  0
VERTEX
  5
664
  8
0
  6
CONTINUOUS
 62
     7
 10
2885.507379973751
 20
2842.400269667731
 30
0.0
  0
VERTEX
  5
665
  8
0
  6
CONTINUOUS
 62
     7
 10
2885.492778226483
 20
2842.401727200501
 30
0.0
  0
VERTEX
  5
666
  8
0
  6
CONTINUOUS
 62
     7
 10
2885.478008818986
 20
2842.403163809905
 30
0.0
  0
VERTEX
  5
667
  8
0
  6
CONTINUOUS
 62
     7
 10
2885.463080134271
 20
2842.404580542111
 30
0.0
  0
VERTEX
  5
668
  8
0
  6
CONTINUOUS
 62
     7
 10
2885.448000555351
 20
2842.405978443288
 30
0.0
  0
VERTEX
  5
669
  8
0
  6
CONTINUOUS
 62
     7
 10
2885.432778465236
 20
2842.407358559604
 30
0.0
  0
VERTEX
  5
66A
  8
0
  6
CONTINUOUS
 62
     7
 10
2885.417422246938
 20
2842.408721937229
 30
0.0
  0
VERTEX
  5
66B
  8
0
  6
CONTINUOUS
 62
     7
 10
2885.401940283468
 20
2842.410069622329
 30
0.0
  0
VERTEX
  5
66C
  8
0
  6
CONTINUOUS
 62
     7
 10
2885.386340957839
 20
2842.411402661072
 30
0.0
  0
VERTEX
  5
66D
  8
0
  6
CONTINUOUS
 62
     7
 10
2885.370632653061
 20
2842.412722099628
 30
0.0
  0
VERTEX
  5
66E
  8
0
  6
CONTINUOUS
 62
     7
 10
2885.354823752145
 20
2842.414028984165
 30
0.0
  0
VERTEX
  5
66F
  8
0
  6
CONTINUOUS
 62
     7
 10
2885.338922638103
 20
2842.41532436085
 30
0.0
  0
VERTEX
  5
670
  8
0
  6
CONTINUOUS
 62
     7
 10
2885.322937693947
 20
2842.416609275853
 30
0.0
  0
VERTEX
  5
671
  8
0
  6
CONTINUOUS
 62
     7
 10
2885.306877302688
 20
2842.417884775341
 30
0.0
  0
VERTEX
  5
672
  8
0
  6
CONTINUOUS
 62
     7
 10
2885.290749847338
 20
2842.419151905483
 30
0.0
  0
VERTEX
  5
673
  8
0
  6
CONTINUOUS
 62
     7
 10
2885.274563710907
 20
2842.420411712447
 30
0.0
  0
VERTEX
  5
674
  8
0
  6
CONTINUOUS
 62
     7
 10
2885.258327276408
 20
2842.4216652424
 30
0.0
  0
VERTEX
  5
675
  8
0
  6
CONTINUOUS
 62
     7
 10
2885.242048926852
 20
2842.422913541513
 30
0.0
  0
VERTEX
  5
676
  8
0
  6
CONTINUOUS
 62
     7
 10
2885.225737045249
 20
2842.424157655953
 30
0.0
  0
VERTEX
  5
677
  8
0
  6
CONTINUOUS
 62
     7
 10
2885.209400014613
 20
2842.425398631888
 30
0.0
  0
VERTEX
  5
678
  8
0
  6
CONTINUOUS
 62
     7
 10
2885.193046217953
 20
2842.426637515486
 30
0.0
  0
VERTEX
  5
679
  8
0
  6
CONTINUOUS
 62
     7
 10
2885.176684038283
 20
2842.427875352916
 30
0.0
  0
SEQEND
  5
86B
  8
0
  6
CONTINUOUS
 62
     7
  0
POLYLINE
  5
1A2
  8
0
  6
CONTINUOUS
 62
     7
 66
     1
 10
0.0
 20
0.0
 30
0.0
  0
VERTEX
  5
67A
  8
0
  6
CONTINUOUS
 62
     7
 10
2868.45888180082
 20
2842.430569322061
 30
0.0
  0
VERTEX
  5
67B
  8
0
  6
CONTINUOUS
 62
     7
 10
2868.43603341609
 20
2842.429266092579
 30
0.0
  0
VERTEX
  5
67C
  8
0
  6
CONTINUOUS
 62
     7
 10
2868.413431350667
 20
2842.427962790268
 30
0.0
  0
VERTEX
  5
67D
  8
0
  6
CONTINUOUS
 62
     7
 10
2868.391321907335
 20
2842.426659342131
 30
0.0
  0
VERTEX
  5
67E
  8
0
  6
CONTINUOUS
 62
     7
 10
2868.369894374228
 20
2842.425355100614
 30
0.0
  0
VERTEX
  5
67F
  8
0
  6
CONTINUOUS
 62
     7
 10
2868.349153442398
 20
2842.424047557913
 30
0.0
  0
VERTEX
  5
680
  8
0
  6
CONTINUOUS
 62
     7
 10
2868.329066510939
 20
2842.422733830415
 30
0.0
  0
VERTEX
  5
681
  8
0
  6
CONTINUOUS
 62
     7
 10
2868.309600978943
 20
2842.421411034511
 30
0.0
  0
VERTEX
  5
682
  8
0
  6
CONTINUOUS
 62
     7
 10
2868.290724245506
 20
2842.420076286591
 30
0.0
  0
VERTEX
  5
683
  8
0
  6
CONTINUOUS
 62
     7
 10
2868.272403709719
 20
2842.418726703044
 30
0.0
  0
VERTEX
  5
684
  8
0
  6
CONTINUOUS
 62
     7
 10
2868.254606770676
 20
2842.417359400258
 30
0.0
  0
VERTEX
  5
685
  8
0
  6
CONTINUOUS
 62
     7
 10
2868.237300827471
 20
2842.415971494623
 30
0.0
  0
VERTEX
  5
686
  8
0
  6
CONTINUOUS
 62
     7
 10
2868.220453279196
 20
2842.41456010253
 30
0.0
  0
VERTEX
  5
687
  8
0
  6
CONTINUOUS
 62
     7
 10
2868.204031524946
 20
2842.413122340367
 30
0.0
  0
VERTEX
  5
688
  8
0
  6
CONTINUOUS
 62
     7
 10
2868.188002963814
 20
2842.411655324524
 30
0.0
  0
VERTEX
  5
689
  8
0
  6
CONTINUOUS
 62
     7
 10
2868.172334994892
 20
2842.41015617139
 30
0.0
  0
VERTEX
  5
68A
  8
0
  6
CONTINUOUS
 62
     7
 10
2868.156995017274
 20
2842.408621997354
 30
0.0
  0
VERTEX
  5
68B
  8
0
  6
CONTINUOUS
 62
     7
 10
2868.141950430054
 20
2842.407049918807
 30
0.0
  0
VERTEX
  5
68C
  8
0
  6
CONTINUOUS
 62
     7
 10
2868.127168632327
 20
2842.405437052138
 30
0.0
  0
VERTEX
  5
68D
  8
0
  6
CONTINUOUS
 62
     7
 10
2868.112617023182
 20
2842.403780513735
 30
0.0
  0
VERTEX
  5
68E
  8
0
  6
CONTINUOUS
 62
     7
 10
2868.098263001717
 20
2842.402077419989
 30
0.0
  0
VERTEX
  5
68F
  8
0
  6
CONTINUOUS
 62
     7
 10
2868.084073967022
 20
2842.400324887289
 30
0.0
  0
VERTEX
  5
690
  8
0
  6
CONTINUOUS
 62
     7
 10
2868.070017318193
 20
2842.398520032024
 30
0.0
  0
VERTEX
  5
691
  8
0
  6
CONTINUOUS
 62
     7
 10
2868.056060454321
 20
2842.396659970585
 30
0.0
  0
VERTEX
  5
692
  8
0
  6
CONTINUOUS
 62
     7
 10
2868.0421707745
 20
2842.394741819358
 30
0.0
  0
VERTEX
  5
693
  8
0
  6
CONTINUOUS
 62
     7
 10
2868.028315677825
 20
2842.392762694737
 30
0.0
  0
VERTEX
  5
694
  8
0
  6
CONTINUOUS
 62
     7
 10
2868.014462563387
 20
2842.390719713107
 30
0.0
  0
VERTEX
  5
695
  8
0
  6
CONTINUOUS
 62
     7
 10
2868.000578830282
 20
2842.38860999086
 30
0.0
  0
VERTEX
  5
696
  8
0
  6
CONTINUOUS
 62
     7
 10
2867.986631877601
 20
2842.386430644386
 30
0.0
  0
VERTEX
  5
697
  8
0
  6
CONTINUOUS
 62
     7
 10
2867.972589104439
 20
2842.384178790073
 30
0.0
  0
VERTEX
  5
698
  8
0
  6
CONTINUOUS
 62
     7
 10
2867.958417909888
 20
2842.381851544311
 30
0.0
  0
VERTEX
  5
699
  8
0
  6
CONTINUOUS
 62
     7
 10
2867.944085693042
 20
2842.379446023488
 30
0.0
  0
VERTEX
  5
69A
  8
0
  6
CONTINUOUS
 62
     7
 10
2867.929559852995
 20
2842.376959343996
 30
0.0
  0
VERTEX
  5
69B
  8
0
  6
CONTINUOUS
 62
     7
 10
2867.91480778884
 20
2842.374388622223
 30
0.0
  0
VERTEX
  5
69C
  8
0
  6
CONTINUOUS
 62
     7
 10
2867.89979689967
 20
2842.371730974559
 30
0.0
  0
VERTEX
  5
69D
  8
0
  6
CONTINUOUS
 62
     7
 10
2867.884494584578
 20
2842.368983517392
 30
0.0
  0
VERTEX
  5
69E
  8
0
  6
CONTINUOUS
 62
     7
 10
2867.868868242659
 20
2842.366143367114
 30
0.0
  0
VERTEX
  5
69F
  8
0
  6
CONTINUOUS
 62
     7
 10
2867.852884828406
 20
2842.363207157364
 30
0.0
  0
VERTEX
  5
6A0
  8
0
  6
CONTINUOUS
 62
     7
 10
2867.836479610255
 20
2842.360137116922
 30
0.0
  0
VERTEX
  5
6A1
  8
0
  6
CONTINUOUS
 62
     7
 10
2867.819535622806
 20
2842.356838758839
 30
0.0
  0
VERTEX
  5
6A2
  8
0
  6
CONTINUOUS
 62
     7
 10
2867.801931021831
 20
2842.353212298707
 30
0.0
  0
VERTEX
  5
6A3
  8
0
  6
CONTINUOUS
 62
     7
 10
2867.783543963099
 20
2842.34915795212
 30
0.0
  0
VERTEX
  5
6A4
  8
0
  6
CONTINUOUS
 62
     7
 10
2867.76425260238
 20
2842.344575934671
 30
0.0
  0
VERTEX
  5
6A5
  8
0
  6
CONTINUOUS
 62
     7
 10
2867.743935095445
 20
2842.339366461956
 30
0.0
  0
VERTEX
  5
6A6
  8
0
  6
CONTINUOUS
 62
     7
 10
2867.722469598064
 20
2842.333429749567
 30
0.0
  0
VERTEX
  5
6A7
  8
0
  6
CONTINUOUS
 62
     7
 10
2867.699734266008
 20
2842.326666013098
 30
0.0
  0
VERTEX
  5
6A8
  8
0
  6
CONTINUOUS
 62
     7
 10
2867.675607255046
 20
2842.318975468143
 30
0.0
  0
VERTEX
  5
6A9
  8
0
  6
CONTINUOUS
 62
     7
 10
2867.649966720948
 20
2842.310258330295
 30
0.0
  0
VERTEX
  5
6AA
  8
0
  6
CONTINUOUS
 62
     7
 10
2867.622690819486
 20
2842.300414815149
 30
0.0
  0
VERTEX
  5
6AB
  8
0
  6
CONTINUOUS
 62
     7
 10
2867.593672890264
 20
2842.289342008183
 30
0.0
  0
VERTEX
  5
6AC
  8
0
  6
CONTINUOUS
 62
     7
 10
2867.562972562645
 20
2842.276902714627
 30
0.0
  0
VERTEX
  5
6AD
  8
0
  6
CONTINUOUS
 62
     7
 10
2867.530752087125
 20
2842.262938584592
 30
0.0
  0
VERTEX
  5
6AE
  8
0
  6
CONTINUOUS
 62
     7
 10
2867.497175226767
 20
2842.247290956379
 30
0.0
  0
VERTEX
  5
6AF
  8
0
  6
CONTINUOUS
 62
     7
 10
2867.462405744637
 20
2842.229801168291
 30
0.0
  0
VERTEX
  5
6B0
  8
0
  6
CONTINUOUS
 62
     7
 10
2867.426607403798
 20
2842.210310558627
 30
0.0
  0
VERTEX
  5
6B1
  8
0
  6
CONTINUOUS
 62
     7
 10
2867.389959057116
 20
2842.188681491819
 30
0.0
  0
VERTEX
  5
6B2
  8
0
  6
CONTINUOUS
 62
     7
 10
2867.352740900977
 20
2842.164917544382
 30
0.0
  0
VERTEX
  5
6B3
  8
0
  6
CONTINUOUS
 62
     7
 10
2867.315274855829
 20
2842.139080431148
 30
0.0
  0
VERTEX
  5
6B4
  8
0
  6
CONTINUOUS
 62
     7
 10
2867.277882971509
 20
2842.111232047235
 30
0.0
  0
VERTEX
  5
6B5
  8
0
  6
CONTINUOUS
 62
     7
 10
2867.240887297851
 20
2842.081434287762
 30
0.0
  0
VERTEX
  5
6B6
  8
0
  6
CONTINUOUS
 62
     7
 10
2867.20460988469
 20
2842.049749047845
 30
0.0
  0
VERTEX
  5
6B7
  8
0
  6
CONTINUOUS
 62
     7
 10
2867.16937215516
 20
2842.016238260941
 30
0.0
  0
VERTEX
  5
6B8
  8
0
  6
CONTINUOUS
 62
     7
 10
2867.135398990235
 20
2841.98096976617
 30
0.0
  0
VERTEX
  5
6B9
  8
0
  6
CONTINUOUS
 62
     7
 10
2867.102715448531
 20
2841.944023626176
 30
0.0
  0
VERTEX
  5
6BA
  8
0
  6
CONTINUOUS
 62
     7
 10
2867.071321811548
 20
2841.905481419262
 30
0.0
  0
VERTEX
  5
6BB
  8
0
  6
CONTINUOUS
 62
     7
 10
2867.04121836078
 20
2841.865424723734
 30
0.0
  0
VERTEX
  5
6BC
  8
0
  6
CONTINUOUS
 62
     7
 10
2867.012405377725
 20
2841.823935117893
 30
0.0
  0
VERTEX
  5
6BD
  8
0
  6
CONTINUOUS
 62
     7
 10
2866.984883143878
 20
2841.781094180048
 30
0.0
  0
VERTEX
  5
6BE
  8
0
  6
CONTINUOUS
 62
     7
 10
2866.958651940736
 20
2841.7369834885
 30
0.0
  0
VERTEX
  5
6BF
  8
0
  6
CONTINUOUS
 62
     7
 10
2866.933716829045
 20
2841.691685037066
 30
0.0
  0
VERTEX
  5
6C0
  8
0
  6
CONTINUOUS
 62
     7
 10
2866.910240072686
 20
2841.645294486895
 30
0.0
  0
VERTEX
  5
6C1
  8
0
  6
CONTINUOUS
 62
     7
 10
2866.888572994747
 20
2841.597923936052
 30
0.0
  0
VERTEX
  5
6C2
  8
0
  6
CONTINUOUS
 62
     7
 10
2866.869078136865
 20
2841.549686457951
 30
0.0
  0
VERTEX
  5
6C3
  8
0
  6
CONTINUOUS
 62
     7
 10
2866.852118040673
 20
2841.500695126006
 30
0.0
  0
VERTEX
  5
6C4
  8
0
  6
CONTINUOUS
 62
     7
 10
2866.838055247807
 20
2841.45106301363
 30
0.0
  0
VERTEX
  5
6C5
  8
0
  6
CONTINUOUS
 62
     7
 10
2866.827252299903
 20
2841.400903194237
 30
0.0
  0
VERTEX
  5
6C6
  8
0
  6
CONTINUOUS
 62
     7
 10
2866.820071738595
 20
2841.350328741242
 30
0.0
  0
VERTEX
  5
6C7
  8
0
  6
CONTINUOUS
 62
     7
 10
2866.816876105518
 20
2841.299452728056
 30
0.0
  0
VERTEX
  5
6C8
  8
0
  6
CONTINUOUS
 62
     7
 10
2866.817781673872
 20
2841.248381398243
 30
0.0
  0
VERTEX
  5
6C9
  8
0
  6
CONTINUOUS
 62
     7
 10
2866.821676269371
 20
2841.19718692638
 30
0.0
  0
VERTEX
  5
6CA
  8
0
  6
CONTINUOUS
 62
     7
 10
2866.827065439564
 20
2841.145930885187
 30
0.0
  0
SEQEND
  5
86C
  8
0
  6
CONTINUOUS
 62
     7
  0
LINE
  5
1A3
  8
0
  6
CONTINUOUS
 62
     7
 10
2886.808634022999
 20
2840.405339645818
 30
0.0
 11
2886.808634022999
 21
2841.155530423133
 31
0.0
  0
LINE
  5
1A4
  8
0
  6
CONTINUOUS
 62
     7
 10
2866.808634022999
 20
2841.155530423133
 30
0.0
 11
2866.808634022999
 21
2840.405339645818
 31
0.0
  0
LINE
  5
1A5
  8
0
  6
CONTINUOUS
 62
     7
 10
2885.305008247512
 20
2842.420321226571
 30
0.0
 11
2883.778602309358
 21
2842.547698761062
 31
0.0
  0
LINE
  5
1A6
  8
0
  6
CONTINUOUS
 62
     7
 10
2869.838665736641
 20
2842.547698761062
 30
0.0
 11
2868.312259798487
 21
2842.420321226571
 31
0.0
  0
POLYLINE
  5
1A7
  8
0
  6
CONTINUOUS
 62
     7
 66
     1
 10
0.0
 20
0.0
 30
0.0
  0
VERTEX
  5
6CB
  8
0
  6
CONTINUOUS
 62
     7
 10
2883.688636381364
 20
2842.552800533862
 30
0.0
  0
VERTEX
  5
6CC
  8
0
  6
CONTINUOUS
 62
     7
 10
2883.591534693807
 20
2842.56051836066
 30
0.0
  0
VERTEX
  5
6CD
  8
0
  6
CONTINUOUS
 62
     7
 10
2883.494624162304
 20
2842.568171283382
 30
0.0
  0
VERTEX
  5
6CE
  8
0
  6
CONTINUOUS
 62
     7
 10
2883.398095942907
 20
2842.57569439795
 30
0.0
  0
VERTEX
  5
6CF
  8
0
  6
CONTINUOUS
 62
     7
 10
2883.302141191672
 20
2842.58302280029
 30
0.0
  0
VERTEX
  5
6D0
  8
0
  6
CONTINUOUS
 62
     7
 10
2883.206951064649
 20
2842.590091586322
 30
0.0
  0
VERTEX
  5
6D1
  8
0
  6
CONTINUOUS
 62
     7
 10
2883.112716717893
 20
2842.596835851973
 30
0.0
  0
VERTEX
  5
6D2
  8
0
  6
CONTINUOUS
 62
     7
 10
2883.019624272006
 20
2842.603192325399
 30
0.0
  0
VERTEX
  5
6D3
  8
0
  6
CONTINUOUS
 62
     7
 10
2882.927723333348
 20
2842.609141985653
 30
0.0
  0
VERTEX
  5
6D4
  8
0
  6
CONTINUOUS
 62
     7
 10
2882.836914396747
 20
2842.614714146077
 30
0.0
  0
VERTEX
  5
6D5
  8
0
  6
CONTINUOUS
 62
     7
 10
2882.747090395961
 20
2842.619940570923
 30
0.0
  0
VERTEX
  5
6D6
  8
0
  6
CONTINUOUS
 62
     7
 10
2882.658144264746
 20
2842.624853024441
 30
0.0
  0
VERTEX
  5
6D7
  8
0
  6
CONTINUOUS
 62
     7
 10
2882.569968936861
 20
2842.629483270885
 30
0.0
  0
VERTEX
  5
6D8
  8
0
  6
CONTINUOUS
 62
     7
 10
2882.482457346062
 20
2842.633863074505
 30
0.0
  0
VERTEX
  5
6D9
  8
0
  6
CONTINUOUS
 62
     7
 10
2882.395502426109
 20
2842.638024199553
 30
0.0
  0
VERTEX
  5
6DA
  8
0
  6
CONTINUOUS
 62
     7
 10
2882.308997110758
 20
2842.641998410283
 30
0.0
  0
VERTEX
  5
6DB
  8
0
  6
CONTINUOUS
 62
     7
 10
2882.222834333767
 20
2842.645817470942
 30
0.0
  0
VERTEX
  5
6DC
  8
0
  6
CONTINUOUS
 62
     7
 10
2882.136908277184
 20
2842.649512445459
 30
0.0
  0
VERTEX
  5
6DD
  8
0
  6
CONTINUOUS
 62
     7
 10
2882.051139032167
 20
2842.653099862045
 30
0.0
  0
VERTEX
  5
6DE
  8
0
  6
CONTINUOUS
 62
     7
 10
2881.965471131969
 20
2842.656582536228
 30
0.0
  0
VERTEX
  5
6DF
  8
0
  6
CONTINUOUS
 62
     7
 10
2881.879850064421
 20
2842.659962747992
 30
0.0
  0
VERTEX
  5
6E0
  8
0
  6
CONTINUOUS
 62
     7
 10
2881.794221317354
 20
2842.663242777321
 30
0.0
  0
VERTEX
  5
6E1
  8
0
  6
CONTINUOUS
 62
     7
 10
2881.708530378598
 20
2842.666424904201
 30
0.0
  0
VERTEX
  5
6E2
  8
0
  6
CONTINUOUS
 62
     7
 10
2881.622722735985
 20
2842.669511408615
 30
0.0
  0
VERTEX
  5
6E3
  8
0
  6
CONTINUOUS
 62
     7
 10
2881.536743877343
 20
2842.672504570548
 30
0.0
  0
VERTEX
  5
6E4
  8
0
  6
CONTINUOUS
 62
     7
 10
2881.450539290505
 20
2842.675406669985
 30
0.0
  0
VERTEX
  5
6E5
  8
0
  6
CONTINUOUS
 62
     7
 10
2881.364054463302
 20
2842.67821998691
 30
0.0
  0
VERTEX
  5
6E6
  8
0
  6
CONTINUOUS
 62
     7
 10
2881.277234883562
 20
2842.680946801308
 30
0.0
  0
VERTEX
  5
6E7
  8
0
  6
CONTINUOUS
 62
     7
 10
2881.190026039119
 20
2842.683589393163
 30
0.0
  0
VERTEX
  5
6E8
  8
0
  6
CONTINUOUS
 62
     7
 10
2881.102373417802
 20
2842.68615004246
 30
0.0
  0
VERTEX
  5
6E9
  8
0
  6
CONTINUOUS
 62
     7
 10
2881.014222659068
 20
2842.68863102746
 30
0.0
  0
VERTEX
  5
6EA
  8
0
  6
CONTINUOUS
 62
     7
 10
2880.925533961893
 20
2842.691034461062
 30
0.0
  0
VERTEX
  5
6EB
  8
0
  6
CONTINUOUS
 62
     7
 10
2880.836293964322
 20
2842.693362155869
 30
0.0
  0
VERTEX
  5
6EC
  8
0
  6
CONTINUOUS
 62
     7
 10
2880.746492100419
 20
2842.695615892731
 30
0.0
  0
VERTEX
  5
6ED
  8
0
  6
CONTINUOUS
 62
     7
 10
2880.65611780424
 20
2842.697797452493
 30
0.0
  0
VERTEX
  5
6EE
  8
0
  6
CONTINUOUS
 62
     7
 10
2880.565160509846
 20
2842.699908616003
 30
0.0
  0
VERTEX
  5
6EF
  8
0
  6
CONTINUOUS
 62
     7
 10
2880.473609651297
 20
2842.701951164112
 30
0.0
  0
VERTEX
  5
6F0
  8
0
  6
CONTINUOUS
 62
     7
 10
2880.381454662648
 20
2842.703926877664
 30
0.0
  0
VERTEX
  5
6F1
  8
0
  6
CONTINUOUS
 62
     7
 10
2880.288684977964
 20
2842.70583753751
 30
0.0
  0
VERTEX
  5
6F2
  8
0
  6
CONTINUOUS
 62
     7
 10
2880.195290031302
 20
2842.707684924496
 30
0.0
  0
VERTEX
  5
6F3
  8
0
  6
CONTINUOUS
 62
     7
 10
2880.10125925672
 20
2842.709470819471
 30
0.0
  0
VERTEX
  5
6F4
  8
0
  6
CONTINUOUS
 62
     7
 10
2880.006582088279
 20
2842.711197003281
 30
0.0
  0
VERTEX
  5
6F5
  8
0
  6
CONTINUOUS
 62
     7
 10
2879.911247960038
 20
2842.712865256776
 30
0.0
  0
VERTEX
  5
6F6
  8
0
  6
CONTINUOUS
 62
     7
 10
2879.815246306056
 20
2842.714477360802
 30
0.0
  0
VERTEX
  5
6F7
  8
0
  6
CONTINUOUS
 62
     7
 10
2879.718566670103
 20
2842.716035089026
 30
0.0
  0
VERTEX
  5
6F8
  8
0
  6
CONTINUOUS
 62
     7
 10
2879.621208149421
 20
2842.717539589583
 30
0.0
  0
VERTEX
  5
6F9
  8
0
  6
CONTINUOUS
 62
     7
 10
2879.523186670093
 20
2842.718990908716
 30
0.0
  0
VERTEX
  5
6FA
  8
0
  6
CONTINUOUS
 62
     7
 10
2879.424519870873
 20
2842.720388980531
 30
0.0
  0
VERTEX
  5
6FB
  8
0
  6
CONTINUOUS
 62
     7
 10
2879.325225390514
 20
2842.721733739131
 30
0.0
  0
VERTEX
  5
6FC
  8
0
  6
CONTINUOUS
 62
     7
 10
2879.225320867768
 20
2842.723025118623
 30
0.0
  0
VERTEX
  5
6FD
  8
0
  6
CONTINUOUS
 62
     7
 10
2879.12482394139
 20
2842.72426305311
 30
0.0
  0
VERTEX
  5
6FE
  8
0
  6
CONTINUOUS
 62
     7
 10
2879.023752250132
 20
2842.725447476695
 30
0.0
  0
VERTEX
  5
6FF
  8
0
  6
CONTINUOUS
 62
     7
 10
2878.922123432746
 20
2842.726578323485
 30
0.0
  0
VERTEX
  5
700
  8
0
  6
CONTINUOUS
 62
     7
 10
2878.819955127985
 20
2842.727655527583
 30
0.0
  0
VERTEX
  5
701
  8
0
  6
CONTINUOUS
 62
     7
 10
2878.717264974604
 20
2842.728679023094
 30
0.0
  0
VERTEX
  5
702
  8
0
  6
CONTINUOUS
 62
     7
 10
2878.614070611356
 20
2842.729648744122
 30
0.0
  0
VERTEX
  5
703
  8
0
  6
CONTINUOUS
 62
     7
 10
2878.510389676992
 20
2842.730564624772
 30
0.0
  0
VERTEX
  5
704
  8
0
  6
CONTINUOUS
 62
     7
 10
2878.406239863394
 20
2842.731426597508
 30
0.0
  0
VERTEX
  5
705
  8
0
  6
CONTINUOUS
 62
     7
 10
2878.301643883417
 20
2842.732234439764
 30
0.0
  0
VERTEX
  5
706
  8
0
  6
CONTINUOUS
 62
     7
 10
2878.196633523431
 20
2842.732987648822
 30
0.0
  0
VERTEX
  5
707
  8
0
  6
CONTINUOUS
 62
     7
 10
2878.091241523523
 20
2842.733685692513
 30
0.0
  0
VERTEX
  5
708
  8
0
  6
CONTINUOUS
 62
     7
 10
2877.985500623779
 20
2842.734328038669
 30
0.0
  0
VERTEX
  5
709
  8
0
  6
CONTINUOUS
 62
     7
 10
2877.879443564284
 20
2842.734914155124
 30
0.0
  0
VERTEX
  5
70A
  8
0
  6
CONTINUOUS
 62
     7
 10
2877.773103085125
 20
2842.735443509711
 30
0.0
  0
VERTEX
  5
70B
  8
0
  6
CONTINUOUS
 62
     7
 10
2877.666511926386
 20
2842.735915570262
 30
0.0
  0
VERTEX
  5
70C
  8
0
  6
CONTINUOUS
 62
     7
 10
2877.559702828154
 20
2842.736329804608
 30
0.0
  0
VERTEX
  5
70D
  8
0
  6
CONTINUOUS
 62
     7
 10
2877.452708530515
 20
2842.736685680584
 30
0.0
  0
VERTEX
  5
70E
  8
0
  6
CONTINUOUS
 62
     7
 10
2877.345561773555
 20
2842.736982666022
 30
0.0
  0
VERTEX
  5
70F
  8
0
  6
CONTINUOUS
 62
     7
 10
2877.23829529736
 20
2842.737220228753
 30
0.0
  0
VERTEX
  5
710
  8
0
  6
CONTINUOUS
 62
     7
 10
2877.130941842015
 20
2842.737397836611
 30
0.0
  0
VERTEX
  5
711
  8
0
  6
CONTINUOUS
 62
     7
 10
2877.023533258112
 20
2842.737516213032
 30
0.0
  0
VERTEX
  5
712
  8
0
  6
CONTINUOUS
 62
     7
 10
2876.916091830788
 20
2842.737589583981
 30
0.0
  0
VERTEX
  5
713
  8
0
  6
CONTINUOUS
 62
     7
 10
2876.808634022999
 20
2842.737640393971
 30
0.0
  0
SEQEND
  5
86D
  8
0
  6
CONTINUOUS
 62
     7
  0
POLYLINE
  5
1A8
  8
0
  6
CONTINUOUS
 62
     7
 66
     1
 10
0.0
 20
0.0
 30
0.0
  0
VERTEX
  5
714
  8
0
  6
CONTINUOUS
 62
     7
 10
2876.808634022999
 20
2842.737640393971
 30
0.0
  0
VERTEX
  5
715
  8
0
  6
CONTINUOUS
 62
     7
 10
2876.689487741723
 20
2842.737511935832
 30
0.0
  0
VERTEX
  5
716
  8
0
  6
CONTINUOUS
 62
     7
 10
2876.570378233568
 20
2842.737370325582
 30
0.0
  0
VERTEX
  5
717
  8
0
  6
CONTINUOUS
 62
     7
 10
2876.45134227166
 20
2842.737202411114
 30
0.0
  0
VERTEX
  5
718
  8
0
  6
CONTINUOUS
 62
     7
 10
2876.332416629118
 20
2842.736995040315
 30
0.0
  0
VERTEX
  5
719
  8
0
  6
CONTINUOUS
 62
     7
 10
2876.213638079067
 20
2842.736735061075
 30
0.0
  0
VERTEX
  5
71A
  8
0
  6
CONTINUOUS
 62
     7
 10
2876.095043394628
 20
2842.736409321286
 30
0.0
  0
VERTEX
  5
71B
  8
0
  6
CONTINUOUS
 62
     7
 10
2875.976669575214
 20
2842.736005854525
 30
0.0
  0
VERTEX
  5
71C
  8
0
  6
CONTINUOUS
 62
     7
 10
2875.85855540122
 20
2842.735522026214
 30
0.0
  0
VERTEX
  5
71D
  8
0
  6
CONTINUOUS
 62
     7
 10
2875.740740495848
 20
2842.734959617811
 30
0.0
  0
VERTEX
  5
71E
  8
0
  6
CONTINUOUS
 62
     7
 10
2875.623264487322
 20
2842.734320437126
 30
0.0
  0
VERTEX
  5
71F
  8
0
  6
CONTINUOUS
 62
     7
 10
2875.50616700387
 20
2842.733606291964
 30
0.0
  0
VERTEX
  5
720
  8
0
  6
CONTINUOUS
 62
     7
 10
2875.389487673721
 20
2842.732818990137
 30
0.0
  0
VERTEX
  5
721
  8
0
  6
CONTINUOUS
 62
     7
 10
2875.273266125105
 20
2842.731960339451
 30
0.0
  0
VERTEX
  5
722
  8
0
  6
CONTINUOUS
 62
     7
 10
2875.157541986245
 20
2842.731032147716
 30
0.0
  0
VERTEX
  5
723
  8
0
  6
CONTINUOUS
 62
     7
 10
2875.042354885371
 20
2842.730036222739
 30
0.0
  0
VERTEX
  5
724
  8
0
  6
CONTINUOUS
 62
     7
 10
2874.92774445071
 20
2842.728974372329
 30
0.0
  0
VERTEX
  5
725
  8
0
  6
CONTINUOUS
 62
     7
 10
2874.813750310491
 20
2842.727848404296
 30
0.0
  0
VERTEX
  5
726
  8
0
  6
CONTINUOUS
 62
     7
 10
2874.70041209294
 20
2842.726660126445
 30
0.0
  0
VERTEX
  5
727
  8
0
  6
CONTINUOUS
 62
     7
 10
2874.587767094135
 20
2842.725411041748
 30
0.0
  0
VERTEX
  5
728
  8
0
  6
CONTINUOUS
 62
     7
 10
2874.47583466244
 20
2842.724100307192
 30
0.0
  0
VERTEX
  5
729
  8
0
  6
CONTINUOUS
 62
     7
 10
2874.364625814827
 20
2842.72272599075
 30
0.0
  0
VERTEX
  5
72A
  8
0
  6
CONTINUOUS
 62
     7
 10
2874.254151522412
 20
2842.721286154405
 30
0.0
  0
VERTEX
  5
72B
  8
0
  6
CONTINUOUS
 62
     7
 10
2874.144422756307
 20
2842.719778860137
 30
0.0
  0
VERTEX
  5
72C
  8
0
  6
CONTINUOUS
 62
     7
 10
2874.035450487627
 20
2842.718202169927
 30
0.0
  0
VERTEX
  5
72D
  8
0
  6
CONTINUOUS
 62
     7
 10
2873.927245687486
 20
2842.716554145756
 30
0.0
  0
VERTEX
  5
72E
  8
0
  6
CONTINUOUS
 62
     7
 10
2873.819819326995
 20
2842.714832849604
 30
0.0
  0
VERTEX
  5
72F
  8
0
  6
CONTINUOUS
 62
     7
 10
2873.713182377271
 20
2842.713036343453
 30
0.0
  0
VERTEX
  5
730
  8
0
  6
CONTINUOUS
 62
     7
 10
2873.607345809426
 20
2842.711162689284
 30
0.0
  0
VERTEX
  5
731
  8
0
  6
CONTINUOUS
 62
     7
 10
2873.502320594574
 20
2842.709209949076
 30
0.0
  0
VERTEX
  5
732
  8
0
  6
CONTINUOUS
 62
     7
 10
2873.398117703829
 20
2842.707176184811
 30
0.0
  0
VERTEX
  5
733
  8
0
  6
CONTINUOUS
 62
     7
 10
2873.294747507757
 20
2842.705059503771
 30
0.0
  0
VERTEX
  5
734
  8
0
  6
CONTINUOUS
 62
     7
 10
2873.192201604358
 20
2842.702859429292
 30
0.0
  0
VERTEX
  5
735
  8
0
  6
CONTINUOUS
 62
     7
 10
2873.090449563733
 20
2842.700577146326
 30
0.0
  0
VERTEX
  5
736
  8
0
  6
CONTINUOUS
 62
     7
 10
2872.989459699147
 20
2842.698213934629
 30
0.0
  0
VERTEX
  5
737
  8
0
  6
CONTINUOUS
 62
     7
 10
2872.889200323859
 20
2842.695771073957
 30
0.0
  0
VERTEX
  5
738
  8
0
  6
CONTINUOUS
 62
     7
 10
2872.789639751135
 20
2842.693249844066
 30
0.0
  0
VERTEX
  5
739
  8
0
  6
CONTINUOUS
 62
     7
 10
2872.690746294238
 20
2842.690651524714
 30
0.0
  0
VERTEX
  5
73A
  8
0
  6
CONTINUOUS
 62
     7
 10
2872.592488266432
 20
2842.687977395657
 30
0.0
  0
VERTEX
  5
73B
  8
0
  6
CONTINUOUS
 62
     7
 10
2872.494833980979
 20
2842.685228736651
 30
0.0
  0
VERTEX
  5
73C
  8
0
  6
CONTINUOUS
 62
     7
 10
2872.397751751142
 20
2842.682406827453
 30
0.0
  0
VERTEX
  5
73D
  8
0
  6
CONTINUOUS
 62
     7
 10
2872.301209890185
 20
2842.679512947819
 30
0.0
  0
VERTEX
  5
73E
  8
0
  6
CONTINUOUS
 62
     7
 10
2872.205176711372
 20
2842.676548377506
 30
0.0
  0
VERTEX
  5
73F
  8
0
  6
CONTINUOUS
 62
     7
 10
2872.109620527965
 20
2842.67351439627
 30
0.0
  0
VERTEX
  5
740
  8
0
  6
CONTINUOUS
 62
     7
 10
2872.014509653227
 20
2842.670412283868
 30
0.0
  0
VERTEX
  5
741
  8
0
  6
CONTINUOUS
 62
     7
 10
2871.919797843598
 20
2842.667239247018
 30
0.0
  0
VERTEX
  5
742
  8
0
  6
CONTINUOUS
 62
     7
 10
2871.825359863543
 20
2842.663970390269
 30
0.0
  0
VERTEX
  5
743
  8
0
  6
CONTINUOUS
 62
     7
 10
2871.731043809833
 20
2842.66057335648
 30
0.0
  0
VERTEX
  5
744
  8
0
  6
CONTINUOUS
 62
     7
 10
2871.636697758548
 20
2842.657015782719
 30
0.0
  0
VERTEX
  5
745
  8
0
  6
CONTINUOUS
 62
     7
 10
2871.542169785771
 20
2842.653265306054
 30
0.0
  0
VERTEX
  5
746
  8
0
  6
CONTINUOUS
 62
     7
 10
2871.447307967581
 20
2842.649289563555
 30
0.0
  0
VERTEX
  5
747
  8
0
  6
CONTINUOUS
 62
     7
 10
2871.351960380061
 20
2842.64505619229
 30
0.0
  0
VERTEX
  5
748
  8
0
  6
CONTINUOUS
 62
     7
 10
2871.255975099293
 20
2842.640532829327
 30
0.0
  0
VERTEX
  5
749
  8
0
  6
CONTINUOUS
 62
     7
 10
2871.159200201357
 20
2842.635687111735
 30
0.0
  0
VERTEX
  5
74A
  8
0
  6
CONTINUOUS
 62
     7
 10
2871.061483762334
 20
2842.630486676583
 30
0.0
  0
VERTEX
  5
74B
  8
0
  6
CONTINUOUS
 62
     7
 10
2870.962673858306
 20
2842.62489916094
 30
0.0
  0
VERTEX
  5
74C
  8
0
  6
CONTINUOUS
 62
     7
 10
2870.862618565354
 20
2842.618892201873
 30
0.0
  0
VERTEX
  5
74D
  8
0
  6
CONTINUOUS
 62
     7
 10
2870.761201387251
 20
2842.612443073519
 30
0.0
  0
VERTEX
  5
74E
  8
0
  6
CONTINUOUS
 62
     7
 10
2870.658521460726
 20
2842.605587706658
 30
0.0
  0
VERTEX
  5
74F
  8
0
  6
CONTINUOUS
 62
     7
 10
2870.554759052545
 20
2842.598384101124
 30
0.0
  0
VERTEX
  5
750
  8
0
  6
CONTINUOUS
 62
     7
 10
2870.450094576318
 20
2842.590890296697
 30
0.0
  0
VERTEX
  5
751
  8
0
  6
CONTINUOUS
 62
     7
 10
2870.344708445654
 20
2842.583164333153
 30
0.0
  0
VERTEX
  5
752
  8
0
  6
CONTINUOUS
 62
     7
 10
2870.238781074163
 20
2842.575264250274
 30
0.0
  0
VERTEX
  5
753
  8
0
  6
CONTINUOUS
 62
     7
 10
2870.132492875453
 20
2842.567248087837
 30
0.0
  0
VERTEX
  5
754
  8
0
  6
CONTINUOUS
 62
     7
 10
2870.026024263134
 20
2842.559173885621
 30
0.0
  0
SEQEND
  5
86E
  8
0
  6
CONTINUOUS
 62
     7
  0
LINE
  5
1A9
  8
0
  6
CONTINUOUS
 62
     7
 10
2881.308634022999
 20
2837.445128225326
 30
0.0
 11
2881.308634022999
 21
2839.705579518336
 31
0.0
  0
LINE
  5
1AA
  8
0
  6
CONTINUOUS
 62
     7
 10
2872.308634022999
 20
2839.705579518336
 30
0.0
 11
2872.308634022999
 21
2837.445128225326
 31
0.0
  0
LINE
  5
1AB
  8
0
  6
CONTINUOUS
 62
     7
 10
2914.058634022999
 20
2486.945128225326
 30
0.0
 11
2913.058634022999
 21
2486.945128225326
 31
0.0
  0
LINE
  5
1AC
  8
0
  6
CONTINUOUS
 62
     7
 10
2913.058634022999
 20
2837.445128225326
 30
0.0
 11
2913.058634022999
 21
2486.945128225326
 31
0.0
  0
LINE
  5
1AD
  8
0
  6
CONTINUOUS
 62
     7
 10
2914.058634022999
 20
2837.445128225326
 30
0.0
 11
2913.058634022999
 21
2837.445128225326
 31
0.0
  0
LINE
  5
1AE
  8
0
  6
CONTINUOUS
 62
     7
 10
2914.058634022999
 20
2486.945128225326
 30
0.0
 11
2914.058634022999
 21
2837.445128225326
 31
0.0
  0
LINE
  5
1AF
  8
0
  6
CONTINUOUS
 62
     7
 10
2913.058634022999
 20
2486.945128225326
 30
0.0
 11
1711.058634023
 21
2486.945128225326
 31
0.0
  0
LINE
  5
1B0
  8
0
  6
CONTINUOUS
 62
     7
 10
1711.058634023
 20
2486.945128225326
 30
0.0
 11
1711.058634023
 21
2487.945128225326
 31
0.0
  0
LINE
  5
1B1
  8
0
  6
CONTINUOUS
 62
     7
 10
2913.058634022999
 20
2487.945128225326
 30
0.0
 11
2913.058634022999
 21
2486.945128225326
 31
0.0
  0
LINE
  5
1B2
  8
0
  6
CONTINUOUS
 62
     7
 10
2913.058634022999
 20
2487.945128225326
 30
0.0
 11
1711.058634023
 21
2487.945128225326
 31
0.0
  0
LINE
  5
1B3
  8
0
  6
CONTINUOUS
 62
     7
 10
1711.058634023
 20
2837.445128225326
 30
0.0
 11
1710.058634023
 21
2837.445128225326
 31
0.0
  0
LINE
  5
1B4
  8
0
  6
CONTINUOUS
 62
     7
 10
1711.058634023
 20
2486.945128225326
 30
0.0
 11
1711.058634023
 21
2837.445128225326
 31
0.0
  0
LINE
  5
1B5
  8
0
  6
CONTINUOUS
 62
     7
 10
1711.058634023
 20
2486.945128225326
 30
0.0
 11
1710.058634023
 21
2486.945128225326
 31
0.0
  0
LINE
  5
1B6
  8
0
  6
CONTINUOUS
 62
     7
 10
1710.058634023
 20
2486.945128225326
 30
0.0
 11
1710.058634023
 21
2837.445128225326
 31
0.0
  0
LINE
  5
1B7
  8
0
  6
CONTINUOUS
 62
     7
 10
2913.058634022999
 20
2837.445128225326
 30
0.0
 11
1711.058634023
 21
2837.445128225326
 31
0.0
  0
LINE
  5
1B8
  8
0
  6
CONTINUOUS
 62
     7
 10
2913.058634022999
 20
2837.445128225326
 30
0.0
 11
2913.058634022999
 21
2487.945128225326
 31
0.0
  0
LINE
  5
1B9
  8
0
  6
CONTINUOUS
 62
     7
 10
1711.058634023
 20
2487.945128225326
 30
0.0
 11
1711.058634023
 21
2837.445128225326
 31
0.0
  0
ARC
  5
1C9
  8
0
  6
CONTINUOUS
 62
     7
 10
1748.311974890081
 20
3032.421250937425
 30
0.0
 40
190.3064363769857
 50
269.6979216020322
 51
271.9898299979866
  0
ARC
  5
1CA
  8
0
  6
CONTINUOUS
 62
     7
 10
1746.743942949061
 20
3076.69761040434
 30
0.0
 40
234.580830572397
 50
268.5008299501643
 51
270.1379245117108
  0
ARC
  5
1CB
  8
0
  6
CONTINUOUS
 62
     7
 10
1750.151573110866
 20
2922.677525225772
 30
0.0
 40
82.58290404800742
 50
268.0271873052013
 51
274.9717851390387
  0
ARC
  5
1CC
  8
0
  6
CONTINUOUS
 62
     7
 10
1744.689020191369
 20
2931.208896171627
 30
0.0
 40
91.10299653540496
 50
265.353293528104
 51
271.6477340276592
  0
POLYLINE
  5
1CD
  8
0
  6
CONTINUOUS
 62
     7
 66
     1
 10
0.0
 20
0.0
 30
0.0
  0
VERTEX
  5
755
  8
0
  6
CONTINUOUS
 62
     7
 10
1757.108634022999
 20
2840.205408180823
 30
0.0
  0
VERTEX
  5
756
  8
0
  6
CONTINUOUS
 62
     7
 10
1757.085773949369
 20
2840.198251574556
 30
0.0
  0
VERTEX
  5
757
  8
0
  6
CONTINUOUS
 62
     7
 10
1757.061993594232
 20
2840.191100268456
 30
0.0
  0
VERTEX
  5
758
  8
0
  6
CONTINUOUS
 62
     7
 10
1757.036372676078
 20
2840.183959562691
 30
0.0
  0
VERTEX
  5
759
  8
0
  6
CONTINUOUS
 62
     7
 10
1757.007990913399
 20
2840.176834757427
 30
0.0
  0
VERTEX
  5
75A
  8
0
  6
CONTINUOUS
 62
     7
 10
1756.975928024688
 20
2840.169731152831
 30
0.0
  0
VERTEX
  5
75B
  8
0
  6
CONTINUOUS
 62
     7
 10
1756.939263728436
 20
2840.162654049071
 30
0.0
  0
VERTEX
  5
75C
  8
0
  6
CONTINUOUS
 62
     7
 10
1756.897077743135
 20
2840.155608746314
 30
0.0
  0
VERTEX
  5
75D
  8
0
  6
CONTINUOUS
 62
     7
 10
1756.848449787277
 20
2840.148600544726
 30
0.0
  0
VERTEX
  5
75E
  8
0
  6
CONTINUOUS
 62
     7
 10
1756.792459579353
 20
2840.141634744475
 30
0.0
  0
VERTEX
  5
75F
  8
0
  6
CONTINUOUS
 62
     7
 10
1756.728186837856
 20
2840.13471664573
 30
0.0
  0
VERTEX
  5
760
  8
0
  6
CONTINUOUS
 62
     7
 10
1756.654834789743
 20
2840.127851574459
 30
0.0
  0
VERTEX
  5
761
  8
0
  6
CONTINUOUS
 62
     7
 10
1756.572395610871
 20
2840.121045021468
 30
0.0
  0
VERTEX
  5
762
  8
0
  6
CONTINUOUS
 62
     7
 10
1756.481171838878
 20
2840.114302542403
 30
0.0
  0
VERTEX
  5
763
  8
0
  6
CONTINUOUS
 62
     7
 10
1756.381466755157
 20
2840.107629693066
 30
0.0
  0
VERTEX
  5
764
  8
0
  6
CONTINUOUS
 62
     7
 10
1756.2735836411
 20
2840.101032029262
 30
0.0
  0
VERTEX
  5
765
  8
0
  6
CONTINUOUS
 62
     7
 10
1756.157825778098
 20
2840.09451510679
 30
0.0
  0
VERTEX
  5
766
  8
0
  6
CONTINUOUS
 62
     7
 10
1756.034496447543
 20
2840.088084481454
 30
0.0
  0
VERTEX
  5
767
  8
0
  6
CONTINUOUS
 62
     7
 10
1755.903898930826
 20
2840.081745709056
 30
0.0
  0
VERTEX
  5
768
  8
0
  6
CONTINUOUS
 62
     7
 10
1755.766336509342
 20
2840.075504345399
 30
0.0
  0
VERTEX
  5
769
  8
0
  6
CONTINUOUS
 62
     7
 10
1755.622112464481
 20
2840.069365946284
 30
0.0
  0
VERTEX
  5
76A
  8
0
  6
CONTINUOUS
 62
     7
 10
1755.471530077635
 20
2840.063336067514
 30
0.0
  0
VERTEX
  5
76B
  8
0
  6
CONTINUOUS
 62
     7
 10
1755.314892630196
 20
2840.057420264891
 30
0.0
  0
VERTEX
  5
76C
  8
0
  6
CONTINUOUS
 62
     7
 10
1755.152503402103
 20
2840.051624094205
 30
0.0
  0
VERTEX
  5
76D
  8
0
  6
CONTINUOUS
 62
     7
 10
1754.984615879448
 20
2840.045952677123
 30
0.0
  0
VERTEX
  5
76E
  8
0
  6
CONTINUOUS
 62
     7
 10
1754.811302464292
 20
2840.040409556543
 30
0.0
  0
VERTEX
  5
76F
  8
0
  6
CONTINUOUS
 62
     7
 10
1754.632594406462
 20
2840.034997916584
 30
0.0
  0
VERTEX
  5
770
  8
0
  6
CONTINUOUS
 62
     7
 10
1754.448522955787
 20
2840.029720941362
 30
0.0
  0
VERTEX
  5
771
  8
0
  6
CONTINUOUS
 62
     7
 10
1754.259119362095
 20
2840.024581814996
 30
0.0
  0
VERTEX
  5
772
  8
0
  6
CONTINUOUS
 62
     7
 10
1754.064414875216
 20
2840.019583721602
 30
0.0
  0
VERTEX
  5
773
  8
0
  6
CONTINUOUS
 62
     7
 10
1753.864440744978
 20
2840.014729845298
 30
0.0
  0
VERTEX
  5
774
  8
0
  6
CONTINUOUS
 62
     7
 10
1753.659232834632
 20
2840.010023377113
 30
0.0
  0
VERTEX
  5
775
  8
0
  6
CONTINUOUS
 62
     7
 10
1753.448913150438
 20
2840.005467637109
 30
0.0
  0
VERTEX
  5
776
  8
0
  6
CONTINUOUS
 62
     7
 10
1753.233680023164
 20
2840.001066059676
 30
0.0
  0
VERTEX
  5
777
  8
0
  6
CONTINUOUS
 62
     7
 10
1753.013734424275
 20
2839.996822083157
 30
0.0
  0
VERTEX
  5
778
  8
0
  6
CONTINUOUS
 62
     7
 10
1752.789277325238
 20
2839.992739145898
 30
0.0
  0
VERTEX
  5
779
  8
0
  6
CONTINUOUS
 62
     7
 10
1752.560509697521
 20
2839.988820686244
 30
0.0
  0
VERTEX
  5
77A
  8
0
  6
CONTINUOUS
 62
     7
 10
1752.327632512591
 20
2839.985070142541
 30
0.0
  0
VERTEX
  5
77B
  8
0
  6
CONTINUOUS
 62
     7
 10
1752.090846741915
 20
2839.981490953133
 30
0.0
  0
VERTEX
  5
77C
  8
0
  6
CONTINUOUS
 62
     7
 10
1751.850353233284
 20
2839.97808653665
 30
0.0
  0
VERTEX
  5
77D
  8
0
  6
CONTINUOUS
 62
     7
 10
1751.606348911407
 20
2839.97485968639
 30
0.0
  0
VERTEX
  5
77E
  8
0
  6
CONTINUOUS
 62
     7
 10
1751.359026064691
 20
2839.971812456624
 30
0.0
  0
VERTEX
  5
77F
  8
0
  6
CONTINUOUS
 62
     7
 10
1751.108576713965
 20
2839.968946858972
 30
0.0
  0
VERTEX
  5
780
  8
0
  6
CONTINUOUS
 62
     7
 10
1750.855192880059
 20
2839.966264905057
 30
0.0
  0
VERTEX
  5
781
  8
0
  6
CONTINUOUS
 62
     7
 10
1750.599066583805
 20
2839.963768606498
 30
0.0
  0
VERTEX
  5
782
  8
0
  6
CONTINUOUS
 62
     7
 10
1750.340389846032
 20
2839.961459974917
 30
0.0
  0
VERTEX
  5
783
  8
0
  6
CONTINUOUS
 62
     7
 10
1750.079354687574
 20
2839.959341021937
 30
0.0
  0
VERTEX
  5
784
  8
0
  6
CONTINUOUS
 62
     7
 10
1749.816153129258
 20
2839.957413759177
 30
0.0
  0
VERTEX
  5
785
  8
0
  6
CONTINUOUS
 62
     7
 10
1749.550979344032
 20
2839.955680070794
 30
0.0
  0
VERTEX
  5
786
  8
0
  6
CONTINUOUS
 62
     7
 10
1749.284041161653
 20
2839.954141032083
 30
0.0
  0
VERTEX
  5
787
  8
0
  6
CONTINUOUS
 62
     7
 10
1749.015551751858
 20
2839.952797402067
 30
0.0
  0
VERTEX
  5
788
  8
0
  6
CONTINUOUS
 62
     7
 10
1748.745724296721
 20
2839.951649939034
 30
0.0
  0
VERTEX
  5
789
  8
0
  6
CONTINUOUS
 62
     7
 10
1748.474771978319
 20
2839.950699401278
 30
0.0
  0
VERTEX
  5
78A
  8
0
  6
CONTINUOUS
 62
     7
 10
1748.202907978726
 20
2839.949946547086
 30
0.0
  0
VERTEX
  5
78B
  8
0
  6
CONTINUOUS
 62
     7
 10
1747.930345480018
 20
2839.94939213475
 30
0.0
  0
VERTEX
  5
78C
  8
0
  6
CONTINUOUS
 62
     7
 10
1747.657297664272
 20
2839.949036922561
 30
0.0
  0
VERTEX
  5
78D
  8
0
  6
CONTINUOUS
 62
     7
 10
1747.383977713562
 20
2839.948881668809
 30
0.0
  0
VERTEX
  5
78E
  8
0
  6
CONTINUOUS
 62
     7
 10
1747.11059887999
 20
2839.948926893335
 30
0.0
  0
VERTEX
  5
78F
  8
0
  6
CONTINUOUS
 62
     7
 10
1746.83737469576
 20
2839.949172162187
 30
0.0
  0
VERTEX
  5
790
  8
0
  6
CONTINUOUS
 62
     7
 10
1746.564518763097
 20
2839.949616802964
 30
0.0
  0
VERTEX
  5
791
  8
0
  6
CONTINUOUS
 62
     7
 10
1746.292244684232
 20
2839.95026014327
 30
0.0
  0
VERTEX
  5
792
  8
0
  6
CONTINUOUS
 62
     7
 10
1746.020766061393
 20
2839.951101510704
 30
0.0
  0
VERTEX
  5
793
  8
0
  6
CONTINUOUS
 62
     7
 10
1745.750296496806
 20
2839.952140232869
 30
0.0
  0
VERTEX
  5
794
  8
0
  6
CONTINUOUS
 62
     7
 10
1745.481049592699
 20
2839.953375637364
 30
0.0
  0
VERTEX
  5
795
  8
0
  6
CONTINUOUS
 62
     7
 10
1745.213238951302
 20
2839.954807051793
 30
0.0
  0
VERTEX
  5
796
  8
0
  6
CONTINUOUS
 62
     7
 10
1744.947078162931
 20
2839.956433803019
 30
0.0
  0
VERTEX
  5
797
  8
0
  6
CONTINUOUS
 62
     7
 10
1744.682775664259
 20
2839.95825489952
 30
0.0
  0
VERTEX
  5
798
  8
0
  6
CONTINUOUS
 62
     7
 10
1744.420526711844
 20
2839.960268535513
 30
0.0
  0
VERTEX
  5
799
  8
0
  6
CONTINUOUS
 62
     7
 10
1744.160524485285
 20
2839.962472776899
 30
0.0
  0
VERTEX
  5
79A
  8
0
  6
CONTINUOUS
 62
     7
 10
1743.902962164173
 20
2839.964865689585
 30
0.0
  0
VERTEX
  5
79B
  8
0
  6
CONTINUOUS
 62
     7
 10
1743.648032928106
 20
2839.967445339473
 30
0.0
  0
VERTEX
  5
79C
  8
0
  6
CONTINUOUS
 62
     7
 10
1743.395929956678
 20
2839.970209792466
 30
0.0
  0
VERTEX
  5
79D
  8
0
  6
CONTINUOUS
 62
     7
 10
1743.146846429483
 20
2839.973157114467
 30
0.0
  0
VERTEX
  5
79E
  8
0
  6
CONTINUOUS
 62
     7
 10
1742.900975526118
 20
2839.976285371382
 30
0.0
  0
VERTEX
  5
79F
  8
0
  6
CONTINUOUS
 62
     7
 10
1742.658510718777
 20
2839.979592586574
 30
0.0
  0
VERTEX
  5
7A0
  8
0
  6
CONTINUOUS
 62
     7
 10
1742.41965054953
 20
2839.983076046336
 30
0.0
  0
VERTEX
  5
7A1
  8
0
  6
CONTINUOUS
 62
     7
 10
1742.184597850358
 20
2839.986732413285
 30
0.0
  0
VERTEX
  5
7A2
  8
0
  6
CONTINUOUS
 62
     7
 10
1741.953555588478
 20
2839.990558330374
 30
0.0
  0
VERTEX
  5
7A3
  8
0
  6
CONTINUOUS
 62
     7
 10
1741.726726731108
 20
2839.99455044056
 30
0.0
  0
VERTEX
  5
7A4
  8
0
  6
CONTINUOUS
 62
     7
 10
1741.504314245467
 20
2839.998705386797
 30
0.0
  0
VERTEX
  5
7A5
  8
0
  6
CONTINUOUS
 62
     7
 10
1741.286521098771
 20
2840.003019812038
 30
0.0
  0
VERTEX
  5
7A6
  8
0
  6
CONTINUOUS
 62
     7
 10
1741.073550258239
 20
2840.007490359239
 30
0.0
  0
VERTEX
  5
7A7
  8
0
  6
CONTINUOUS
 62
     7
 10
1740.86560204833
 20
2840.012113674247
 30
0.0
  0
VERTEX
  5
7A8
  8
0
  6
CONTINUOUS
 62
     7
 10
1740.66280041061
 20
2840.016886486502
 30
0.0
  0
VERTEX
  5
7A9
  8
0
  6
CONTINUOUS
 62
     7
 10
1740.465183078328
 20
2840.02180561979
 30
0.0
  0
VERTEX
  5
7AA
  8
0
  6
CONTINUOUS
 62
     7
 10
1740.272783167871
 20
2840.026867902952
 30
0.0
  0
VERTEX
  5
7AB
  8
0
  6
CONTINUOUS
 62
     7
 10
1740.085633795623
 20
2840.032070164827
 30
0.0
  0
VERTEX
  5
7AC
  8
0
  6
CONTINUOUS
 62
     7
 10
1739.903768077968
 20
2840.037409234256
 30
0.0
  0
VERTEX
  5
7AD
  8
0
  6
CONTINUOUS
 62
     7
 10
1739.72721913129
 20
2840.042881940077
 30
0.0
  0
VERTEX
  5
7AE
  8
0
  6
CONTINUOUS
 62
     7
 10
1739.556020071975
 20
2840.048485111129
 30
0.0
  0
VERTEX
  5
7AF
  8
0
  6
CONTINUOUS
 62
     7
 10
1739.390245374753
 20
2840.054215234077
 30
0.0
  0
VERTEX
  5
7B0
  8
0
  6
CONTINUOUS
 62
     7
 10
1739.230151504448
 20
2840.060067289891
 30
0.0
  0
VERTEX
  5
7B1
  8
0
  6
CONTINUOUS
 62
     7
 10
1739.076044968614
 20
2840.066035845515
 30
0.0
  0
VERTEX
  5
7B2
  8
0
  6
CONTINUOUS
 62
     7
 10
1738.92823227627
 20
2840.072115467883
 30
0.0
  0
VERTEX
  5
7B3
  8
0
  6
CONTINUOUS
 62
     7
 10
1738.787019936433
 20
2840.078300723928
 30
0.0
  0
VERTEX
  5
7B4
  8
0
  6
CONTINUOUS
 62
     7
 10
1738.65271445812
 20
2840.084586180581
 30
0.0
  0
VERTEX
  5
7B5
  8
0
  6
CONTINUOUS
 62
     7
 10
1738.525622350348
 20
2840.090966404776
 30
0.0
  0
VERTEX
  5
7B6
  8
0
  6
CONTINUOUS
 62
     7
 10
1738.406050122137
 20
2840.097435963444
 30
0.0
  0
VERTEX
  5
7B7
  8
0
  6
CONTINUOUS
 62
     7
 10
1738.2943042825
 20
2840.103989423518
 30
0.0
  0
VERTEX
  5
7B8
  8
0
  6
CONTINUOUS
 62
     7
 10
1738.190691340458
 20
2840.110621351931
 30
0.0
  0
VERTEX
  5
7B9
  8
0
  6
CONTINUOUS
 62
     7
 10
1738.095517805027
 20
2840.117326315615
 30
0.0
  0
VERTEX
  5
7BA
  8
0
  6
CONTINUOUS
 62
     7
 10
1738.009090185225
 20
2840.124098881503
 30
0.0
  0
VERTEX
  5
7BB
  8
0
  6
CONTINUOUS
 62
     7
 10
1737.931714246306
 20
2840.130933616383
 30
0.0
  0
VERTEX
  5
7BC
  8
0
  6
CONTINUOUS
 62
     7
 10
1737.863385390127
 20
2840.137825026955
 30
0.0
  0
VERTEX
  5
7BD
  8
0
  6
CONTINUOUS
 62
     7
 10
1737.803310066367
 20
2840.144767467172
 30
0.0
  0
VERTEX
  5
7BE
  8
0
  6
CONTINUOUS
 62
     7
 10
1737.750571215865
 20
2840.151755267071
 30
0.0
  0
VERTEX
  5
7BF
  8
0
  6
CONTINUOUS
 62
     7
 10
1737.704251779468
 20
2840.158782756694
 30
0.0
  0
VERTEX
  5
7C0
  8
0
  6
CONTINUOUS
 62
     7
 10
1737.663434698016
 20
2840.165844266079
 30
0.0
  0
VERTEX
  5
7C1
  8
0
  6
CONTINUOUS
 62
     7
 10
1737.627202912352
 20
2840.172934125266
 30
0.0
  0
VERTEX
  5
7C2
  8
0
  6
CONTINUOUS
 62
     7
 10
1737.594639363318
 20
2840.180046664294
 30
0.0
  0
VERTEX
  5
7C3
  8
0
  6
CONTINUOUS
 62
     7
 10
1737.564826991756
 20
2840.187176213204
 30
0.0
  0
VERTEX
  5
7C4
  8
0
  6
CONTINUOUS
 62
     7
 10
1737.53684873851
 20
2840.194317102036
 30
0.0
  0
VERTEX
  5
7C5
  8
0
  6
CONTINUOUS
 62
     7
 10
1737.509787544421
 20
2840.201463660827
 30
0.0
  0
SEQEND
  5
86F
  8
0
  6
CONTINUOUS
 62
     7
  0
LINE
  5
1CE
  8
0
  6
CONTINUOUS
 62
     7
 10
1740.338665736641
 20
2842.547698761062
 30
0.0
 11
1740.390627371977
 21
2842.551866977416
 31
0.0
  0
LINE
  5
1CF
  8
0
  6
CONTINUOUS
 62
     7
 10
1744.862784619066
 20
2842.591104632374
 30
0.0
 11
1746.793634022999
 21
2842.591104632388
 31
0.0
  0
LINE
  5
1D0
  8
0
  6
CONTINUOUS
 62
     7
 10
1746.793634022999
 20
2842.591104632388
 30
0.0
 11
1746.793634022999
 21
2842.540560887353
 31
0.0
  0
ARC
  5
1D1
  8
0
  6
CONTINUOUS
 62
     7
 10
1747.308634022999
 20
2936.82842198052
 30
0.0
 40
94.28926754686496
 50
269.6870537450145
 51
270.3129462549871
  0
LINE
  5
1D2
  8
0
  6
CONTINUOUS
 62
     7
 10
1747.823634022999
 20
2842.540560887353
 30
0.0
 11
1747.823634023
 21
2842.591104632388
 31
0.0
  0
LINE
  5
1D3
  8
0
  6
CONTINUOUS
 62
     7
 10
1747.823634023
 20
2842.591104632388
 30
0.0
 11
1749.754483426933
 21
2842.591104632374
 31
0.0
  0
POLYLINE
  5
1D4
  8
0
  6
CONTINUOUS
 62
     7
 66
     1
 10
0.0
 20
0.0
 30
0.0
 70
   128
  0
VERTEX
  5
7C6
  8
0
  6
CONTINUOUS
 62
     7
 10
1749.754483426933
 20
2842.618066889129
 30
0.0
  0
VERTEX
  5
7C7
  8
0
  6
CONTINUOUS
 62
     7
 10
1749.777899732811
 20
2842.614728480763
 30
0.0
  0
VERTEX
  5
7C8
  8
0
  6
CONTINUOUS
 62
     7
 10
1749.794670823786
 20
2842.611362776609
 30
0.0
  0
VERTEX
  5
7C9
  8
0
  6
CONTINUOUS
 62
     7
 10
1749.804751565991
 20
2842.607978834349
 30
0.0
  0
VERTEX
  5
7CA
  8
0
  6
CONTINUOUS
 62
     7
 10
1749.808114830432
 20
2842.604585760751
 30
0.0
  0
VERTEX
  5
7CB
  8
0
  6
CONTINUOUS
 62
     7
 10
1749.804751565991
 20
2842.601192687152
 30
0.0
  0
VERTEX
  5
7CC
  8
0
  6
CONTINUOUS
 62
     7
 10
1749.794670823786
 20
2842.597808744893
 30
0.0
  0
VERTEX
  5
7CD
  8
0
  6
CONTINUOUS
 62
     7
 10
1749.777899732811
 20
2842.594443040738
 30
0.0
  0
VERTEX
  5
7CE
  8
0
  6
CONTINUOUS
 62
     7
 10
1749.754483426933
 20
2842.591104632374
 30
0.0
  0
SEQEND
  5
870
  8
0
  6
CONTINUOUS
 62
     7
  0
LINE
  5
1D5
  8
0
  6
CONTINUOUS
 62
     7
 10
1749.754483426933
 20
2842.618066889129
 30
0.0
 11
1747.823634022999
 21
2842.618066889142
 31
0.0
  0
LINE
  5
1D6
  8
0
  6
CONTINUOUS
 62
     7
 10
1747.823634022999
 20
2842.618066889142
 30
0.0
 11
1747.823634022999
 21
2842.668610634164
 31
0.0
  0
ARC
  5
1D7
  8
0
  6
CONTINUOUS
 62
     7
 10
1747.308634022999
 20
2748.380749503637
 30
0.0
 40
94.28926758422463
 50
89.68705374513767
 51
90.31294625486233
  0
LINE
  5
1D8
  8
0
  6
CONTINUOUS
 62
     7
 10
1746.793634022999
 20
2842.668610634164
 30
0.0
 11
1746.793634022999
 21
2842.618066889142
 31
0.0
  0
LINE
  5
1D9
  8
0
  6
CONTINUOUS
 62
     7
 10
1746.793634022999
 20
2842.618066889142
 30
0.0
 11
1744.862784619066
 21
2842.618066889129
 31
0.0
  0
POLYLINE
  5
1DA
  8
0
  6
CONTINUOUS
 62
     7
 66
     1
 10
0.0
 20
0.0
 30
0.0
 70
   128
  0
VERTEX
  5
7CF
  8
0
  6
CONTINUOUS
 62
     7
 10
1744.862784619066
 20
2842.591104632374
 30
0.0
  0
VERTEX
  5
7D0
  8
0
  6
CONTINUOUS
 62
     7
 10
1744.839368313187
 20
2842.59444304074
 30
0.0
  0
VERTEX
  5
7D1
  8
0
  6
CONTINUOUS
 62
     7
 10
1744.822597222214
 20
2842.597808744894
 30
0.0
  0
VERTEX
  5
7D2
  8
0
  6
CONTINUOUS
 62
     7
 10
1744.812516480008
 20
2842.601192687153
 30
0.0
  0
VERTEX
  5
7D3
  8
0
  6
CONTINUOUS
 62
     7
 10
1744.809153215567
 20
2842.604585760752
 30
0.0
  0
VERTEX
  5
7D4
  8
0
  6
CONTINUOUS
 62
     7
 10
1744.812516480008
 20
2842.60797883435
 30
0.0
  0
VERTEX
  5
7D5
  8
0
  6
CONTINUOUS
 62
     7
 10
1744.822597222214
 20
2842.611362776609
 30
0.0
  0
VERTEX
  5
7D6
  8
0
  6
CONTINUOUS
 62
     7
 10
1744.839368313188
 20
2842.614728480763
 30
0.0
  0
VERTEX
  5
7D7
  8
0
  6
CONTINUOUS
 62
     7
 10
1744.862784619066
 20
2842.618066889129
 30
0.0
  0
SEQEND
  5
871
  8
0
  6
CONTINUOUS
 62
     7
  0
LINE
  5
1DB
  8
0
  6
CONTINUOUS
 62
     7
 10
1744.876508388518
 20
2842.591104632374
 30
0.0
 11
1744.862784619066
 21
2842.618066889129
 31
0.0
  0
LINE
  5
1DC
  8
0
  6
CONTINUOUS
 62
     7
 10
1747.823634022999
 20
2842.618066889142
 30
0.0
 11
1747.823634022999
 21
2842.591104632388
 31
0.0
  0
LINE
  5
1DD
  8
0
  6
CONTINUOUS
 62
     7
 10
1746.793634022999
 20
2842.618066889142
 30
0.0
 11
1746.793634022999
 21
2842.591104632388
 31
0.0
  0
ARC
  5
1DE
  8
0
  6
CONTINUOUS
 62
     7
 10
2877.811974890072
 20
3032.421250938027
 30
0.0
 40
190.3064363775882
 50
269.6979216020359
 51
271.989829997983
  0
ARC
  5
1DF
  8
0
  6
CONTINUOUS
 62
     7
 10
2876.243942949166
 20
3076.697610413161
 30
0.0
 40
234.580830581218
 50
268.5008299501952
 51
270.13792451168
  0
ARC
  5
1E0
  8
0
  6
CONTINUOUS
 62
     7
 10
2879.651573110875
 20
2922.677525225552
 30
0.0
 40
82.58290404778778
 50
268.0271873051896
 51
274.9717851390453
  0
ARC
  5
1E1
  8
0
  6
CONTINUOUS
 62
     7
 10
2874.18902019136
 20
2931.208896171417
 30
0.0
 40
91.10299653519526
 50
265.3532935280992
 51
271.6477340276691
  0
POLYLINE
  5
1E2
  8
0
  6
CONTINUOUS
 62
     7
 66
     1
 10
0.0
 20
0.0
 30
0.0
  0
VERTEX
  5
7D8
  8
0
  6
CONTINUOUS
 62
     7
 10
2886.608634022999
 20
2840.205408180823
 30
0.0
  0
VERTEX
  5
7D9
  8
0
  6
CONTINUOUS
 62
     7
 10
2886.58577394937
 20
2840.198251574557
 30
0.0
  0
VERTEX
  5
7DA
  8
0
  6
CONTINUOUS
 62
     7
 10
2886.561993594232
 20
2840.191100268457
 30
0.0
  0
VERTEX
  5
7DB
  8
0
  6
CONTINUOUS
 62
     7
 10
2886.536372676077
 20
2840.183959562691
 30
0.0
  0
VERTEX
  5
7DC
  8
0
  6
CONTINUOUS
 62
     7
 10
2886.507990913399
 20
2840.176834757427
 30
0.0
  0
VERTEX
  5
7DD
  8
0
  6
CONTINUOUS
 62
     7
 10
2886.475928024688
 20
2840.169731152831
 30
0.0
  0
VERTEX
  5
7DE
  8
0
  6
CONTINUOUS
 62
     7
 10
2886.439263728436
 20
2840.162654049071
 30
0.0
  0
VERTEX
  5
7DF
  8
0
  6
CONTINUOUS
 62
     7
 10
2886.397077743134
 20
2840.155608746314
 30
0.0
  0
VERTEX
  5
7E0
  8
0
  6
CONTINUOUS
 62
     7
 10
2886.348449787277
 20
2840.148600544726
 30
0.0
  0
VERTEX
  5
7E1
  8
0
  6
CONTINUOUS
 62
     7
 10
2886.292459579352
 20
2840.141634744475
 30
0.0
  0
VERTEX
  5
7E2
  8
0
  6
CONTINUOUS
 62
     7
 10
2886.228186837856
 20
2840.13471664573
 30
0.0
  0
VERTEX
  5
7E3
  8
0
  6
CONTINUOUS
 62
     7
 10
2886.154834789743
 20
2840.127851574459
 30
0.0
  0
VERTEX
  5
7E4
  8
0
  6
CONTINUOUS
 62
     7
 10
2886.072395610871
 20
2840.121045021468
 30
0.0
  0
VERTEX
  5
7E5
  8
0
  6
CONTINUOUS
 62
     7
 10
2885.981171838878
 20
2840.114302542403
 30
0.0
  0
VERTEX
  5
7E6
  8
0
  6
CONTINUOUS
 62
     7
 10
2885.881466755157
 20
2840.107629693067
 30
0.0
  0
VERTEX
  5
7E7
  8
0
  6
CONTINUOUS
 62
     7
 10
2885.773583641099
 20
2840.101032029262
 30
0.0
  0
VERTEX
  5
7E8
  8
0
  6
CONTINUOUS
 62
     7
 10
2885.657825778098
 20
2840.094515106791
 30
0.0
  0
VERTEX
  5
7E9
  8
0
  6
CONTINUOUS
 62
     7
 10
2885.534496447542
 20
2840.088084481454
 30
0.0
  0
VERTEX
  5
7EA
  8
0
  6
CONTINUOUS
 62
     7
 10
2885.403898930826
 20
2840.081745709056
 30
0.0
  0
VERTEX
  5
7EB
  8
0
  6
CONTINUOUS
 62
     7
 10
2885.266336509342
 20
2840.075504345399
 30
0.0
  0
VERTEX
  5
7EC
  8
0
  6
CONTINUOUS
 62
     7
 10
2885.122112464481
 20
2840.069365946284
 30
0.0
  0
VERTEX
  5
7ED
  8
0
  6
CONTINUOUS
 62
     7
 10
2884.971530077636
 20
2840.063336067514
 30
0.0
  0
VERTEX
  5
7EE
  8
0
  6
CONTINUOUS
 62
     7
 10
2884.814892630196
 20
2840.057420264892
 30
0.0
  0
VERTEX
  5
7EF
  8
0
  6
CONTINUOUS
 62
     7
 10
2884.652503402103
 20
2840.051624094206
 30
0.0
  0
VERTEX
  5
7F0
  8
0
  6
CONTINUOUS
 62
     7
 10
2884.484615879448
 20
2840.045952677124
 30
0.0
  0
VERTEX
  5
7F1
  8
0
  6
CONTINUOUS
 62
     7
 10
2884.311302464292
 20
2840.040409556543
 30
0.0
  0
VERTEX
  5
7F2
  8
0
  6
CONTINUOUS
 62
     7
 10
2884.132594406462
 20
2840.034997916583
 30
0.0
  0
VERTEX
  5
7F3
  8
0
  6
CONTINUOUS
 62
     7
 10
2883.948522955786
 20
2840.029720941362
 30
0.0
  0
VERTEX
  5
7F4
  8
0
  6
CONTINUOUS
 62
     7
 10
2883.759119362095
 20
2840.024581814995
 30
0.0
  0
VERTEX
  5
7F5
  8
0
  6
CONTINUOUS
 62
     7
 10
2883.564414875216
 20
2840.019583721602
 30
0.0
  0
VERTEX
  5
7F6
  8
0
  6
CONTINUOUS
 62
     7
 10
2883.364440744978
 20
2840.014729845299
 30
0.0
  0
VERTEX
  5
7F7
  8
0
  6
CONTINUOUS
 62
     7
 10
2883.159232834631
 20
2840.010023377114
 30
0.0
  0
VERTEX
  5
7F8
  8
0
  6
CONTINUOUS
 62
     7
 10
2882.948913150438
 20
2840.00546763711
 30
0.0
  0
VERTEX
  5
7F9
  8
0
  6
CONTINUOUS
 62
     7
 10
2882.733680023163
 20
2840.001066059676
 30
0.0
  0
VERTEX
  5
7FA
  8
0
  6
CONTINUOUS
 62
     7
 10
2882.513734424274
 20
2839.996822083157
 30
0.0
  0
VERTEX
  5
7FB
  8
0
  6
CONTINUOUS
 62
     7
 10
2882.289277325238
 20
2839.992739145898
 30
0.0
  0
VERTEX
  5
7FC
  8
0
  6
CONTINUOUS
 62
     7
 10
2882.060509697521
 20
2839.988820686245
 30
0.0
  0
VERTEX
  5
7FD
  8
0
  6
CONTINUOUS
 62
     7
 10
2881.827632512592
 20
2839.985070142542
 30
0.0
  0
VERTEX
  5
7FE
  8
0
  6
CONTINUOUS
 62
     7
 10
2881.590846741915
 20
2839.981490953133
 30
0.0
  0
VERTEX
  5
7FF
  8
0
  6
CONTINUOUS
 62
     7
 10
2881.350353233283
 20
2839.97808653665
 30
0.0
  0
VERTEX
  5
800
  8
0
  6
CONTINUOUS
 62
     7
 10
2881.106348911408
 20
2839.974859686391
 30
0.0
  0
VERTEX
  5
801
  8
0
  6
CONTINUOUS
 62
     7
 10
2880.859026064692
 20
2839.971812456624
 30
0.0
  0
VERTEX
  5
802
  8
0
  6
CONTINUOUS
 62
     7
 10
2880.608576713964
 20
2839.968946858972
 30
0.0
  0
VERTEX
  5
803
  8
0
  6
CONTINUOUS
 62
     7
 10
2880.355192880059
 20
2839.966264905056
 30
0.0
  0
VERTEX
  5
804
  8
0
  6
CONTINUOUS
 62
     7
 10
2880.099066583804
 20
2839.963768606498
 30
0.0
  0
VERTEX
  5
805
  8
0
  6
CONTINUOUS
 62
     7
 10
2879.840389846032
 20
2839.961459974917
 30
0.0
  0
VERTEX
  5
806
  8
0
  6
CONTINUOUS
 62
     7
 10
2879.579354687573
 20
2839.959341021937
 30
0.0
  0
VERTEX
  5
807
  8
0
  6
CONTINUOUS
 62
     7
 10
2879.316153129259
 20
2839.957413759177
 30
0.0
  0
VERTEX
  5
808
  8
0
  6
CONTINUOUS
 62
     7
 10
2879.050979344032
 20
2839.955680070793
 30
0.0
  0
VERTEX
  5
809
  8
0
  6
CONTINUOUS
 62
     7
 10
2878.784041161653
 20
2839.954141032083
 30
0.0
  0
VERTEX
  5
80A
  8
0
  6
CONTINUOUS
 62
     7
 10
2878.515551751857
 20
2839.952797402066
 30
0.0
  0
VERTEX
  5
80B
  8
0
  6
CONTINUOUS
 62
     7
 10
2878.245724296721
 20
2839.951649939035
 30
0.0
  0
VERTEX
  5
80C
  8
0
  6
CONTINUOUS
 62
     7
 10
2877.974771978319
 20
2839.950699401278
 30
0.0
  0
VERTEX
  5
80D
  8
0
  6
CONTINUOUS
 62
     7
 10
2877.702907978725
 20
2839.949946547086
 30
0.0
  0
VERTEX
  5
80E
  8
0
  6
CONTINUOUS
 62
     7
 10
2877.430345480018
 20
2839.94939213475
 30
0.0
  0
VERTEX
  5
80F
  8
0
  6
CONTINUOUS
 62
     7
 10
2877.157297664271
 20
2839.949036922561
 30
0.0
  0
VERTEX
  5
810
  8
0
  6
CONTINUOUS
 62
     7
 10
2876.883977713562
 20
2839.948881668809
 30
0.0
  0
VERTEX
  5
811
  8
0
  6
CONTINUOUS
 62
     7
 10
2876.61059887999
 20
2839.948926893336
 30
0.0
  0
VERTEX
  5
812
  8
0
  6
CONTINUOUS
 62
     7
 10
2876.337374695759
 20
2839.949172162187
 30
0.0
  0
VERTEX
  5
813
  8
0
  6
CONTINUOUS
 62
     7
 10
2876.064518763097
 20
2839.949616802964
 30
0.0
  0
VERTEX
  5
814
  8
0
  6
CONTINUOUS
 62
     7
 10
2875.792244684232
 20
2839.95026014327
 30
0.0
  0
VERTEX
  5
815
  8
0
  6
CONTINUOUS
 62
     7
 10
2875.520766061392
 20
2839.951101510704
 30
0.0
  0
VERTEX
  5
816
  8
0
  6
CONTINUOUS
 62
     7
 10
2875.250296496805
 20
2839.952140232868
 30
0.0
  0
VERTEX
  5
817
  8
0
  6
CONTINUOUS
 62
     7
 10
2874.981049592699
 20
2839.953375637364
 30
0.0
  0
VERTEX
  5
818
  8
0
  6
CONTINUOUS
 62
     7
 10
2874.713238951302
 20
2839.954807051793
 30
0.0
  0
VERTEX
  5
819
  8
0
  6
CONTINUOUS
 62
     7
 10
2874.447078162931
 20
2839.956433803019
 30
0.0
  0
VERTEX
  5
81A
  8
0
  6
CONTINUOUS
 62
     7
 10
2874.182775664259
 20
2839.95825489952
 30
0.0
  0
VERTEX
  5
81B
  8
0
  6
CONTINUOUS
 62
     7
 10
2873.920526711845
 20
2839.960268535512
 30
0.0
  0
VERTEX
  5
81C
  8
0
  6
CONTINUOUS
 62
     7
 10
2873.660524485284
 20
2839.9624727769
 30
0.0
  0
VERTEX
  5
81D
  8
0
  6
CONTINUOUS
 62
     7
 10
2873.402962164173
 20
2839.964865689585
 30
0.0
  0
VERTEX
  5
81E
  8
0
  6
CONTINUOUS
 62
     7
 10
2873.148032928106
 20
2839.967445339473
 30
0.0
  0
VERTEX
  5
81F
  8
0
  6
CONTINUOUS
 62
     7
 10
2872.895929956677
 20
2839.970209792465
 30
0.0
  0
VERTEX
  5
820
  8
0
  6
CONTINUOUS
 62
     7
 10
2872.646846429483
 20
2839.973157114467
 30
0.0
  0
VERTEX
  5
821
  8
0
  6
CONTINUOUS
 62
     7
 10
2872.400975526118
 20
2839.976285371382
 30
0.0
  0
VERTEX
  5
822
  8
0
  6
CONTINUOUS
 62
     7
 10
2872.158510718777
 20
2839.979592586573
 30
0.0
  0
VERTEX
  5
823
  8
0
  6
CONTINUOUS
 62
     7
 10
2871.919650549529
 20
2839.983076046336
 30
0.0
  0
VERTEX
  5
824
  8
0
  6
CONTINUOUS
 62
     7
 10
2871.684597850357
 20
2839.986732413285
 30
0.0
  0
VERTEX
  5
825
  8
0
  6
CONTINUOUS
 62
     7
 10
2871.453555588478
 20
2839.990558330375
 30
0.0
  0
VERTEX
  5
826
  8
0
  6
CONTINUOUS
 62
     7
 10
2871.226726731109
 20
2839.994550440561
 30
0.0
  0
VERTEX
  5
827
  8
0
  6
CONTINUOUS
 62
     7
 10
2871.004314245467
 20
2839.998705386797
 30
0.0
  0
VERTEX
  5
828
  8
0
  6
CONTINUOUS
 62
     7
 10
2870.786521098771
 20
2840.003019812038
 30
0.0
  0
VERTEX
  5
829
  8
0
  6
CONTINUOUS
 62
     7
 10
2870.573550258238
 20
2840.007490359239
 30
0.0
  0
VERTEX
  5
82A
  8
0
  6
CONTINUOUS
 62
     7
 10
2870.365602048329
 20
2840.012113674247
 30
0.0
  0
VERTEX
  5
82B
  8
0
  6
CONTINUOUS
 62
     7
 10
2870.162800410609
 20
2840.016886486501
 30
0.0
  0
VERTEX
  5
82C
  8
0
  6
CONTINUOUS
 62
     7
 10
2869.965183078328
 20
2840.02180561979
 30
0.0
  0
VERTEX
  5
82D
  8
0
  6
CONTINUOUS
 62
     7
 10
2869.772783167871
 20
2840.026867902952
 30
0.0
  0
VERTEX
  5
82E
  8
0
  6
CONTINUOUS
 62
     7
 10
2869.585633795622
 20
2840.032070164828
 30
0.0
  0
VERTEX
  5
82F
  8
0
  6
CONTINUOUS
 62
     7
 10
2869.403768077967
 20
2840.037409234256
 30
0.0
  0
VERTEX
  5
830
  8
0
  6
CONTINUOUS
 62
     7
 10
2869.22721913129
 20
2840.042881940077
 30
0.0
  0
VERTEX
  5
831
  8
0
  6
CONTINUOUS
 62
     7
 10
2869.056020071976
 20
2840.048485111129
 30
0.0
  0
VERTEX
  5
832
  8
0
  6
CONTINUOUS
 62
     7
 10
2868.890245374753
 20
2840.054215234077
 30
0.0
  0
VERTEX
  5
833
  8
0
  6
CONTINUOUS
 62
     7
 10
2868.730151504447
 20
2840.06006728989
 30
0.0
  0
VERTEX
  5
834
  8
0
  6
CONTINUOUS
 62
     7
 10
2868.576044968614
 20
2840.066035845516
 30
0.0
  0
VERTEX
  5
835
  8
0
  6
CONTINUOUS
 62
     7
 10
2868.42823227627
 20
2840.072115467884
 30
0.0
  0
VERTEX
  5
836
  8
0
  6
CONTINUOUS
 62
     7
 10
2868.287019936433
 20
2840.078300723928
 30
0.0
  0
VERTEX
  5
837
  8
0
  6
CONTINUOUS
 62
     7
 10
2868.15271445812
 20
2840.084586180581
 30
0.0
  0
VERTEX
  5
838
  8
0
  6
CONTINUOUS
 62
     7
 10
2868.025622350349
 20
2840.090966404775
 30
0.0
  0
VERTEX
  5
839
  8
0
  6
CONTINUOUS
 62
     7
 10
2867.906050122136
 20
2840.097435963443
 30
0.0
  0
VERTEX
  5
83A
  8
0
  6
CONTINUOUS
 62
     7
 10
2867.7943042825
 20
2840.103989423517
 30
0.0
  0
VERTEX
  5
83B
  8
0
  6
CONTINUOUS
 62
     7
 10
2867.690691340458
 20
2840.110621351931
 30
0.0
  0
VERTEX
  5
83C
  8
0
  6
CONTINUOUS
 62
     7
 10
2867.595517805027
 20
2840.117326315615
 30
0.0
  0
VERTEX
  5
83D
  8
0
  6
CONTINUOUS
 62
     7
 10
2867.509090185225
 20
2840.124098881503
 30
0.0
  0
VERTEX
  5
83E
  8
0
  6
CONTINUOUS
 62
     7
 10
2867.431714246306
 20
2840.130933616384
 30
0.0
  0
VERTEX
  5
83F
  8
0
  6
CONTINUOUS
 62
     7
 10
2867.363385390126
 20
2840.137825026955
 30
0.0
  0
VERTEX
  5
840
  8
0
  6
CONTINUOUS
 62
     7
 10
2867.303310066366
 20
2840.144767467172
 30
0.0
  0
VERTEX
  5
841
  8
0
  6
CONTINUOUS
 62
     7
 10
2867.250571215865
 20
2840.151755267071
 30
0.0
  0
VERTEX
  5
842
  8
0
  6
CONTINUOUS
 62
     7
 10
2867.204251779468
 20
2840.158782756694
 30
0.0
  0
VERTEX
  5
843
  8
0
  6
CONTINUOUS
 62
     7
 10
2867.163434698016
 20
2840.165844266079
 30
0.0
  0
VERTEX
  5
844
  8
0
  6
CONTINUOUS
 62
     7
 10
2867.127202912352
 20
2840.172934125266
 30
0.0
  0
VERTEX
  5
845
  8
0
  6
CONTINUOUS
 62
     7
 10
2867.094639363318
 20
2840.180046664294
 30
0.0
  0
VERTEX
  5
846
  8
0
  6
CONTINUOUS
 62
     7
 10
2867.064826991756
 20
2840.187176213205
 30
0.0
  0
VERTEX
  5
847
  8
0
  6
CONTINUOUS
 62
     7
 10
2867.03684873851
 20
2840.194317102036
 30
0.0
  0
VERTEX
  5
848
  8
0
  6
CONTINUOUS
 62
     7
 10
2867.009787544422
 20
2840.201463660827
 30
0.0
  0
SEQEND
  5
872
  8
0
  6
CONTINUOUS
 62
     7
  0
LINE
  5
1E3
  8
0
  6
CONTINUOUS
 62
     7
 10
2869.838665736641
 20
2842.547698761062
 30
0.0
 11
2869.890627371977
 21
2842.551866977416
 31
0.0
  0
LINE
  5
1E4
  8
0
  6
CONTINUOUS
 62
     7
 10
2874.362784619066
 20
2842.591104632374
 30
0.0
 11
2876.293634022999
 21
2842.591104632388
 31
0.0
  0
LINE
  5
1E5
  8
0
  6
CONTINUOUS
 62
     7
 10
2876.293634022999
 20
2842.591104632388
 30
0.0
 11
2876.293634022999
 21
2842.540560887353
 31
0.0
  0
ARC
  5
1E6
  8
0
  6
CONTINUOUS
 62
     7
 10
2876.808634022999
 20
2936.82842199077
 30
0.0
 40
94.28926755711574
 50
269.687053745049
 51
270.3129462549535
  0
LINE
  5
1E7
  8
0
  6
CONTINUOUS
 62
     7
 10
2877.323634023
 20
2842.540560887353
 30
0.0
 11
2877.323634023
 21
2842.591104632388
 31
0.0
  0
LINE
  5
1E8
  8
0
  6
CONTINUOUS
 62
     7
 10
2877.323634023
 20
2842.591104632388
 30
0.0
 11
2879.254483426933
 21
2842.591104632374
 31
0.0
  0
POLYLINE
  5
1E9
  8
0
  6
CONTINUOUS
 62
     7
 66
     1
 10
0.0
 20
0.0
 30
0.0
 70
   128
  0
VERTEX
  5
849
  8
0
  6
CONTINUOUS
 62
     7
 10
2879.254483426933
 20
2842.618066889129
 30
0.0
  0
VERTEX
  5
84A
  8
0
  6
CONTINUOUS
 62
     7
 10
2879.277899732811
 20
2842.614728480763
 30
0.0
  0
VERTEX
  5
84B
  8
0
  6
CONTINUOUS
 62
     7
 10
2879.294670823786
 20
2842.611362776609
 30
0.0
  0
VERTEX
  5
84C
  8
0
  6
CONTINUOUS
 62
     7
 10
2879.304751565991
 20
2842.607978834349
 30
0.0
  0
VERTEX
  5
84D
  8
0
  6
CONTINUOUS
 62
     7
 10
2879.308114830432
 20
2842.604585760751
 30
0.0
  0
VERTEX
  5
84E
  8
0
  6
CONTINUOUS
 62
     7
 10
2879.304751565991
 20
2842.601192687152
 30
0.0
  0
VERTEX
  5
84F
  8
0
  6
CONTINUOUS
 62
     7
 10
2879.294670823785
 20
2842.597808744893
 30
0.0
  0
VERTEX
  5
850
  8
0
  6
CONTINUOUS
 62
     7
 10
2879.277899732811
 20
2842.594443040738
 30
0.0
  0
VERTEX
  5
851
  8
0
  6
CONTINUOUS
 62
     7
 10
2879.254483426933
 20
2842.591104632374
 30
0.0
  0
SEQEND
  5
873
  8
0
  6
CONTINUOUS
 62
     7
  0
LINE
  5
1EA
  8
0
  6
CONTINUOUS
 62
     7
 10
2879.254483426933
 20
2842.618066889129
 30
0.0
 11
2877.323634023
 21
2842.618066889142
 31
0.0
  0
LINE
  5
1EB
  8
0
  6
CONTINUOUS
 62
     7
 10
2877.323634023
 20
2842.618066889142
 30
0.0
 11
2877.323634023
 21
2842.668610634164
 31
0.0
  0
ARC
  5
1EC
  8
0
  6
CONTINUOUS
 62
     7
 10
2876.808634022999
 20
2748.380749479827
 30
0.0
 40
94.28926760803485
 50
89.68705374521629
 51
90.3129462547829
  0
LINE
  5
1ED
  8
0
  6
CONTINUOUS
 62
     7
 10
2876.293634022999
 20
2842.668610634164
 30
0.0
 11
2876.293634022999
 21
2842.618066889142
 31
0.0
  0
LINE
  5
1EE
  8
0
  6
CONTINUOUS
 62
     7
 10
2876.293634022999
 20
2842.618066889142
 30
0.0
 11
2874.362784619066
 21
2842.618066889129
 31
0.0
  0
POLYLINE
  5
1EF
  8
0
  6
CONTINUOUS
 62
     7
 66
     1
 10
0.0
 20
0.0
 30
0.0
 70
   128
  0
VERTEX
  5
852
  8
0
  6
CONTINUOUS
 62
     7
 10
2874.362784619066
 20
2842.591104632374
 30
0.0
  0
VERTEX
  5
853
  8
0
  6
CONTINUOUS
 62
     7
 10
2874.339368313188
 20
2842.59444304074
 30
0.0
  0
VERTEX
  5
854
  8
0
  6
CONTINUOUS
 62
     7
 10
2874.322597222213
 20
2842.597808744895
 30
0.0
  0
VERTEX
  5
855
  8
0
  6
CONTINUOUS
 62
     7
 10
2874.312516480008
 20
2842.601192687153
 30
0.0
  0
VERTEX
  5
856
  8
0
  6
CONTINUOUS
 62
     7
 10
2874.309153215567
 20
2842.604585760752
 30
0.0
  0
VERTEX
  5
857
  8
0
  6
CONTINUOUS
 62
     7
 10
2874.312516480008
 20
2842.60797883435
 30
0.0
  0
VERTEX
  5
858
  8
0
  6
CONTINUOUS
 62
     7
 10
2874.322597222213
 20
2842.611362776609
 30
0.0
  0
VERTEX
  5
859
  8
0
  6
CONTINUOUS
 62
     7
 10
2874.339368313188
 20
2842.614728480763
 30
0.0
  0
VERTEX
  5
85A
  8
0
  6
CONTINUOUS
 62
     7
 10
2874.362784619066
 20
2842.618066889129
 30
0.0
  0
SEQEND
  5
874
  8
0
  6
CONTINUOUS
 62
     7
  0
LINE
  5
1F0
  8
0
  6
CONTINUOUS
 62
     7
 10
2874.376508388518
 20
2842.591104632374
 30
0.0
 11
2874.362784619066
 21
2842.618066889129
 31
0.0
  0
LINE
  5
1F1
  8
0
  6
CONTINUOUS
 62
     7
 10
2877.323634023
 20
2842.618066889142
 30
0.0
 11
2877.323634023
 21
2842.591104632388
 31
0.0
  0
LINE
  5
1F2
  8
0
  6
CONTINUOUS
 62
     7
 10
2876.293634022999
 20
2842.618066889142
 30
0.0
 11
2876.293634022999
 21
2842.591104632388
 31
0.0
  0
ENDSEC
  0
EOF
