  0
SECTION
  2
HEADER
  9
$ACADVER
  1
AC1006
  9
$DWGCODEPAGE
  3
dos932
  9
$INSBASE
 10
0.0
 20
0.0
 30
0.0
  9
$EXTMIN
 10
0.0
 20
0.0
  9
$EXTMAX
 10
5000.0
 20
3500.0
  9
$LIMMIN
 10
0.0
 20
0.0
  9
$LIMMAX
 10
5000.0
 20
3500.0
  9
$ORTHOMODE
 70
     0
  9
$REGENMODE
 70
     1
  9
$FILLMODE
 70
     1
  9
$QTEXTMODE
 70
     0
  9
$MIRRTEXT
 70
     1
  9
$DRAGMODE
 70
     2
  9
$LTSCALE
 40
1.0
  9
$OSMODE
 70
    37
  9
$ATTMODE
 70
     1
  9
$TEXTSIZE
 40
3.5
  9
$TRACEWID
 40
1.0
  9
$TEXTSTYLE
  7
STANDARD
  9
$CLAYER
  8
0
  9
$CELTYPE
  6
BYLAYER
  9
$CECOLOR
 62
   256
  9
$DIMSCALE
 40
1.0
  9
$DIMASZ
 40
3.302
  9
$DIMEXO
 40
1.0
  9
$DIMDLI
 40
3.75
  9
$DIMRND
 40
0.0
  9
$DIMDLE
 40
0.0
  9
$DIMEXE
 40
1.0
  9
$DIMTP
 40
0.0
  9
$DIMTM
 40
0.0
  9
$DIMTXT
 40
3.5
  9
$DIMCEN
 40
2.5
  9
$DIMTSZ
 40
0.0
  9
$DIMTOL
 70
     0
  9
$DIMLIM
 70
     0
  9
$DIMTIH
 70
     1
  9
$DIMTOH
 70
     1
  9
$DIMSE1
 70
     0
  9
$DIMSE2
 70
     0
  9
$DIMTAD
 70
     1
  9
$DIMZIN
 70
     0
  9
$DIMBLK
  1

  9
$DIMASO
 70
     1
  9
$DIMSHO
 70
     1
  9
$DIMPOST
  1

  9
$DIMAPOST
  1

  9
$DIMALT
 70
     0
  9
$DIMALTD
 70
     3
  9
$DIMALTF
 40
0.0393700787401575
  9
$DIMLFAC
 40
1.0
  9
$DIMTOFL
 70
     1
  9
$DIMTVP
 40
0.0
  9
$DIMTIX
 70
     0
  9
$DIMSOXD
 70
     0
  9
$DIMSAH
 70
     0
  9
$DIMBLK1
  1

  9
$DIMBLK2
  1

  9
$LUNITS
 70
     2
  9
$LUPREC
 70
     3
  9
$SKETCHINC
 40
1.0
  9
$FILLETRAD
 40
10.0
  9
$AUNITS
 70
     0
  9
$AUPREC
 70
     2
  9
$MENU
  1
.
  9
$ELEVATION
 40
0.0
  9
$THICKNESS
 40
0.0
  9
$LIMCHECK
 70
     0
  9
$CHAMFERA
 40
0.0
  9
$CHAMFERB
 40
0.0
  9
$SKPOLY
 70
     0
  9
$TDCREATE
 40
2459796.293893415
  9
$TDUPDATE
 40
2460138.587727535
  9
$TDINDWG
 40
0.0000000116
  9
$TDUSRTIMER
 40
0.0000000116
  9
$USRTIMER
 70
     1
  9
$ANGBASE
 50
0.0
  9
$ANGDIR
 70
     0
  9
$PDMODE
 70
     0
  9
$PDSIZE
 40
-1.0
  9
$PLINEWID
 40
0.0
  9
$COORDS
 70
     1
  9
$SPLFRAME
 70
     0
  9
$SPLINETYPE
 70
     6
  9
$SPLINESEGS
 70
     8
  9
$ATTDIA
 70
     0
  9
$ATTREQ
 70
     1
  9
$HANDLING
 70
     1
  9
$HANDSEED
  5
188
  9
$SURFTAB1
 70
     6
  9
$SURFTAB2
 70
     6
  9
$SURFTYPE
 70
     6
  9
$SURFU
 70
     6
  9
$SURFV
 70
     6
  9
$UCSNAME
  2

  9
$UCSORG
 10
0.0
 20
0.0
 30
0.0
  9
$UCSXDIR
 10
1.0
 20
0.0
 30
0.0
  9
$UCSYDIR
 10
0.0
 20
1.0
 30
0.0
  9
$USERI1
 70
     0
  9
$USERI2
 70
     0
  9
$USERI3
 70
     0
  9
$USERI4
 70
     0
  9
$USERI5
 70
     0
  9
$USERR1
 40
0.0
  9
$USERR2
 40
0.0
  9
$USERR3
 40
0.0
  9
$USERR4
 40
0.0
  9
$USERR5
 40
0.0
  9
$WORLDVIEW
 70
     1
  0
ENDSEC
  0
SECTION
  2
TABLES
  0
TABLE
  2
VPORT
 70
     1
  0
VPORT
  2
*ACTIVE
 70
     0
 10
0.0
 20
0.0
 11
1.0
 21
1.0
 12
2500.0
 22
1750.0
 13
0.0
 23
0.0
 14
10.0
 24
10.0
 15
10.0
 25
10.0
 16
0.0
 26
0.0
 36
1.0
 17
0.0
 27
0.0
 37
0.0
 40
3500.0
 41
1.428571428571429
 42
50.0
 43
0.0
 44
0.0
 50
0.0
 51
0.0
 71
     0
 72
  2000
 73
     1
 74
     3
 75
     0
 76
     0
 77
     0
 78
     0
  0
ENDTAB
  0
TABLE
  2
LTYPE
 70
     6
  0
LTYPE
  2
CONTINUOUS
 70
     0
  3
Solid line
 72
    65
 73
     0
 40
0.0
  0
LTYPE
  2
HIDDEN
 70
     0
  3
Hidden __ __ __ __ __ __ __ __ __ __ __ __ __ __
 72
    65
 73
     2
 40
1.905
 49
1.27
 49
-0.635
  0
LTYPE
  2
PHANTOM
 70
     0
  3
Phantom ______  __  __  ______  __  __  ______
 72
    65
 73
     6
 40
12.7
 49
6.35
 49
-1.27
 49
1.27
 49
-1.27
 49
1.27
 49
-1.27
  0
LTYPE
  2
CENTER
 70
     0
  3
Center ____ _ ____ _ ____ _ ____ _ ____ _ ____
 72
    65
 73
     4
 40
10.16
 49
6.35
 49
-1.27
 49
1.27
 49
-1.27
  0
LTYPE
  2
CENTERX2
 70
     0
  3
Center (2x) ________  __  ________  __  _____
 72
    65
 73
     4
 40
20.32
 49
12.7
 49
-2.54
 49
2.54
 49
-2.54
  0
LTYPE
  2
DOT2
 70
     0
  3
Dot (.5x) ........................................
 72
    65
 73
     2
 40
0.635
 49
0.0
 49
-0.635
  0
ENDTAB
  0
TABLE
  2
LAYER
 70
     3
  0
LAYER
  2
0
 70
     0
 62
     7
  6
CONTINUOUS
  0
LAYER
  2
SLD-0
 70
     0
 62
   179
  6
CONTINUOUS
  0
LAYER
  2
寸法
 70
     0
 62
   179
  6
CONTINUOUS
  0
ENDTAB
  0
TABLE
  2
STYLE
 70
     2
  0
STYLE
  2
STANDARD
 70
     0
 40
0.0
 41
1.0
 50
0.0
 71
     0
 42
3.5
  3
txt
  4
bigfont
  0
STYLE
  2
SLDTEXTSTYLE0
 70
     0
 40
0.0
 41
0.75
 50
0.0
 71
     0
 42
3.5
  3
TXT
  4
bigfont
  0
ENDTAB
  0
TABLE
  2
VIEW
 70
     0
  0
ENDTAB
  0
TABLE
  2
UCS
 70
     0
  0
ENDTAB
  0
ENDSEC
  0
SECTION
  2
BLOCKS
  0
ENDSEC
  0
SECTION
  2
ENTITIES
  0
LINE
  5
75
  8
0
  6
CONTINUOUS
 62
     7
 10
4839.484712179223
 20
258.5233124172521
 30
0.0
 11
3312.374599790194
 21
258.5233124172519
 31
0.0
  0
TEXT
  5
77
  8
0
  6
CONTINUOUS
 62
     7
 10
1349.066667345787
 20
3310.093533840326
 30
0.0
 40
52.91666666666666
  1
＜上面＞
 41
0.75
  7
SLDTEXTSTYLE0
  0
TEXT
  5
78
  8
0
  6
CONTINUOUS
 62
     7
 10
355.8266146156568
 20
2339.567159245636
 30
0.0
 40
52.91666666666666
  1
＜左側面＞
 41
0.75
  7
SLDTEXTSTYLE0
  0
TEXT
  5
79
  8
0
  6
CONTINUOUS
 62
     7
 10
1354.565967118321
 20
2339.567159245637
 30
0.0
 40
52.91666666666666
  1
＜正面＞
 41
0.75
  7
SLDTEXTSTYLE0
  0
TEXT
  5
7A
  8
0
  6
CONTINUOUS
 62
     7
 10
3377.814243189123
 20
326.489054196763
 30
0.0
 40
52.91666666666666
  1
品名：
 41
0.75
  7
SLDTEXTSTYLE0
  0
TEXT
  5
7B
  8
0
  6
CONTINUOUS
 62
     7
 10
4446.663437481703
 20
332.3177187478654
 30
0.0
 40
52.91666666666666
  1
Pamouna
 41
0.75
  7
SLDTEXTSTYLE0
  0
TEXT
  5
7C
  8
寸法
  6
CONTINUOUS
 62
     7
 10
4688.007304885427
 20
165.7088516276312
 30
0.0
 40
52.91666666666666
  1
1/1
 41
0.75
  7
SLDTEXTSTYLE0
  0
TEXT
  5
7D
  8
寸法
  6
CONTINUOUS
 62
     7
 10
4198.79693921183
 20
165.7088544215994
 30
0.0
 40
52.91666666666666
  1
2022/08/04
 41
0.75
  7
SLDTEXTSTYLE0
  0
TEXT
  5
7E
  8
寸法
  6
CONTINUOUS
 62
     7
 10
1350.030342332502
 20
1137.89215271946
 30
0.0
 40
52.91666666666666
  1
＜背面＞
 41
0.75
  7
SLDTEXTSTYLE0
  0
TEXT
  5
7F
  8
寸法
  6
CONTINUOUS
 62
     7
 10
3611.283129349215
 20
326.4179237671586
 30
0.0
 40
66.14583333333331
  1
MA-120DR（-T）
 41
0.75
  7
SLDTEXTSTYLE0
  0
TEXT
  5
80
  8
寸法
  6
CONTINUOUS
 62
     7
 10
3746.752415614053
 20
2339.567159245637
 30
0.0
 40
52.91666666666666
  1
＜右側面＞
 41
0.75
  7
SLDTEXTSTYLE0
  0
LINE
  5
81
  8
0
  6
CONTINUOUS
 62
     7
 10
2791.453357000848
 20
1458.422075106966
 30
0.0
 11
2791.453357000848
 21
1468.422075106965
 31
0.0
  0
LINE
  5
82
  8
0
  6
CONTINUOUS
 62
     7
 10
2766.453357000848
 20
1468.422075106965
 30
0.0
 11
2766.453357000848
 21
1458.422075106966
 31
0.0
  0
LINE
  5
83
  8
0
  6
CONTINUOUS
 62
     7
 10
2791.95335700086
 20
2158.422075106946
 30
0.0
 11
1593.95335700086
 21
2158.422075106946
 31
0.0
  0
LINE
  5
84
  8
0
  6
CONTINUOUS
 62
     7
 10
2791.95335700086
 20
2186.422075106946
 30
0.0
 11
1593.95335700086
 21
2186.422075106946
 31
0.0
  0
LINE
  5
85
  8
0
  6
CONTINUOUS
 62
     7
 10
1593.95335700086
 20
2186.422075106946
 30
0.0
 11
1593.95335700086
 21
2158.422075106946
 31
0.0
  0
LINE
  5
86
  8
0
  6
CONTINUOUS
 62
     7
 10
2791.95335700086
 20
2186.422075106946
 30
0.0
 11
2791.95335700086
 21
2158.422075106946
 31
0.0
  0
LINE
  5
87
  8
0
  6
CONTINUOUS
 62
     7
 10
1593.95335700086
 20
2186.422075106946
 30
0.0
 11
1592.95335700086
 21
2186.422075106946
 31
0.0
  0
LINE
  5
88
  8
0
  6
CONTINUOUS
 62
     7
 10
1592.95335700086
 20
2186.422075106946
 30
0.0
 11
1592.95335700086
 21
2158.422075106946
 31
0.0
  0
LINE
  5
89
  8
0
  6
CONTINUOUS
 62
     7
 10
1592.95335700086
 20
2158.422075106946
 30
0.0
 11
1593.95335700086
 21
2158.422075106946
 31
0.0
  0
LINE
  5
8A
  8
0
  6
CONTINUOUS
 62
     7
 10
2792.95335700086
 20
2186.422075106946
 30
0.0
 11
2791.95335700086
 21
2186.422075106946
 31
0.0
  0
LINE
  5
8B
  8
0
  6
CONTINUOUS
 62
     7
 10
2791.95335700086
 20
2158.422075106946
 30
0.0
 11
2792.95335700086
 21
2158.422075106946
 31
0.0
  0
LINE
  5
8C
  8
0
  6
CONTINUOUS
 62
     7
 10
2792.95335700086
 20
2158.422075106946
 30
0.0
 11
2792.95335700086
 21
2186.422075106946
 31
0.0
  0
LINE
  5
8D
  8
0
  6
CONTINUOUS
 62
     7
 10
2692.95335700086
 20
2153.922075106957
 30
0.0
 11
2692.95335700086
 21
2158.422075106957
 31
0.0
  0
LINE
  5
8E
  8
0
  6
CONTINUOUS
 62
     7
 10
2684.95335700086
 20
2158.422075106957
 30
0.0
 11
2684.95335700086
 21
2153.922075106957
 31
0.0
  0
LINE
  5
8F
  8
0
  6
CONTINUOUS
 62
     7
 10
1700.95335700086
 20
2153.922075106957
 30
0.0
 11
1700.95335700086
 21
2158.422075106957
 31
0.0
  0
LINE
  5
90
  8
0
  6
CONTINUOUS
 62
     7
 10
1692.95335700086
 20
2158.422075106957
 30
0.0
 11
1692.95335700086
 21
2153.922075106957
 31
0.0
  0
LINE
  5
91
  8
0
  6
CONTINUOUS
 62
     7
 10
2764.453357000862
 20
2153.922075106957
 30
0.0
 11
2764.453357000862
 21
2153.422075106957
 31
0.0
  0
LINE
  5
92
  8
0
  6
CONTINUOUS
 62
     7
 10
2764.453357000862
 20
2153.422075106957
 30
0.0
 11
1594.95335700086
 21
2153.422075106957
 31
0.0
  0
LINE
  5
93
  8
0
  6
CONTINUOUS
 62
     7
 10
1594.95335700086
 20
2153.922075106957
 30
0.0
 11
1594.95335700086
 21
2153.422075106957
 31
0.0
  0
LINE
  5
94
  8
0
  6
CONTINUOUS
 62
     7
 10
2764.453357000862
 20
2153.922075106957
 30
0.0
 11
1657.95335700086
 21
2153.922075106957
 31
0.0
  0
LINE
  5
95
  8
0
  6
CONTINUOUS
 62
     7
 10
1627.953357000859
 20
2153.922075106957
 30
0.0
 11
1594.95335700086
 21
2153.922075106957
 31
0.0
  0
LINE
  5
96
  8
0
  6
CONTINUOUS
 62
     7
 10
2764.953357000862
 20
1909.422075106957
 30
0.0
 11
2764.453357000862
 21
1909.422075106957
 31
0.0
  0
LINE
  5
97
  8
0
  6
CONTINUOUS
 62
     7
 10
2764.453357000862
 20
1909.422075106957
 30
0.0
 11
2764.453357000862
 21
2153.922075106957
 31
0.0
  0
LINE
  5
98
  8
0
  6
CONTINUOUS
 62
     7
 10
2764.953357000862
 20
2153.922075106957
 30
0.0
 11
2764.453357000862
 21
2153.922075106957
 31
0.0
  0
LINE
  5
99
  8
0
  6
CONTINUOUS
 62
     7
 10
2764.453357000862
 20
1909.422075106957
 30
0.0
 11
1594.953357000862
 21
1909.422075106957
 31
0.0
  0
LINE
  5
9A
  8
0
  6
CONTINUOUS
 62
     7
 10
1594.953357000862
 20
1909.422075106957
 30
0.0
 11
1594.95335700086
 21
2153.422075106957
 31
0.0
  0
LINE
  5
9B
  8
0
  6
CONTINUOUS
 62
     7
 10
2764.453357000862
 20
1909.422075106957
 30
0.0
 11
2764.453357000862
 21
2153.422075106957
 31
0.0
  0
LINE
  5
9C
  8
0
  6
CONTINUOUS
 62
     7
 10
2791.453357000848
 20
1458.422075106966
 30
0.0
 11
2766.453357000848
 21
1458.422075106966
 31
0.0
  0
LINE
  5
9D
  8
0
  6
CONTINUOUS
 62
     7
 10
2792.953357000863
 20
1468.422075106948
 30
0.0
 11
2764.953357000863
 21
1468.422075106951
 31
0.0
  0
LINE
  5
9E
  8
0
  6
CONTINUOUS
 62
     7
 10
2764.953357000863
 20
1468.422075106951
 30
0.0
 11
2764.953357000864
 21
2158.422075106951
 31
0.0
  0
LINE
  5
9F
  8
0
  6
CONTINUOUS
 62
     7
 10
2792.953357000863
 20
1468.422075106948
 30
0.0
 11
2792.953357000864
 21
2158.422075106948
 31
0.0
  0
LINE
  5
A0
  8
0
  6
CONTINUOUS
 62
     7
 10
1632.953357000859
 20
2153.922075106948
 30
0.0
 11
1632.953357000859
 21
2158.422075106948
 31
0.0
  0
LINE
  5
A1
  8
0
  6
CONTINUOUS
 62
     7
 10
1652.953357000859
 20
2158.422075106948
 30
0.0
 11
1652.953357000859
 21
2153.922075106948
 31
0.0
  0
LINE
  5
A2
  8
0
  6
CONTINUOUS
 62
     7
 10
1632.953357000859
 20
2153.922075106948
 30
0.0
 11
1652.953357000859
 21
2153.922075106948
 31
0.0
  0
LINE
  5
A3
  8
0
  6
CONTINUOUS
 62
     7
 10
1627.953357000859
 20
2153.922075106948
 30
0.0
 11
1632.953357000859
 21
2153.922075106948
 31
0.0
  0
LINE
  5
A4
  8
0
  6
CONTINUOUS
 62
     7
 10
1627.953357000859
 20
2158.422075106948
 30
0.0
 11
1627.953357000859
 21
2153.922075106948
 31
0.0
  0
LINE
  5
A5
  8
0
  6
CONTINUOUS
 62
     7
 10
1657.953357000859
 20
2153.922075106948
 30
0.0
 11
1657.953357000859
 21
2158.422075106948
 31
0.0
  0
LINE
  5
A6
  8
0
  6
CONTINUOUS
 62
     7
 10
1652.953357000859
 20
2153.922075106948
 30
0.0
 11
1657.953357000859
 21
2153.922075106948
 31
0.0
  0
LINE
  5
A7
  8
0
  6
CONTINUOUS
 62
     7
 10
4225.346914510523
 20
1458.422075106966
 30
0.0
 11
4225.346914510523
 21
1468.422075106966
 31
0.0
  0
LINE
  5
A8
  8
0
  6
CONTINUOUS
 62
     7
 10
4200.346914510522
 20
1468.422075106966
 30
0.0
 11
4200.346914510522
 21
1458.422075106966
 31
0.0
  0
LINE
  5
A9
  8
0
  6
CONTINUOUS
 62
     7
 10
3913.346914510523
 20
1458.422075106966
 30
0.0
 11
3913.346914510523
 21
1468.422075106965
 31
0.0
  0
LINE
  5
AA
  8
0
  6
CONTINUOUS
 62
     7
 10
3888.346914510523
 20
1468.422075106965
 30
0.0
 11
3888.346914510523
 21
1458.422075106966
 31
0.0
  0
LINE
  5
AB
  8
0
  6
CONTINUOUS
 62
     7
 10
3868.34691450942
 20
2158.422075106946
 30
0.0
 11
3868.34691450942
 21
2186.422075106946
 31
0.0
  0
LINE
  5
AC
  8
0
  6
CONTINUOUS
 62
     7
 10
3868.34691450942
 20
2186.422075106946
 30
0.0
 11
4268.34691450942
 21
2186.422075106946
 31
0.0
  0
LINE
  5
AD
  8
0
  6
CONTINUOUS
 62
     7
 10
4268.34691450942
 20
2158.422075106946
 30
0.0
 11
4268.34691450942
 21
2186.422075106946
 31
0.0
  0
LINE
  5
AE
  8
0
  6
CONTINUOUS
 62
     7
 10
3868.34691450942
 20
2158.422075106946
 30
0.0
 11
4268.34691450942
 21
2158.422075106946
 31
0.0
  0
LINE
  5
AF
  8
0
  6
CONTINUOUS
 62
     7
 10
4225.346914510523
 20
1458.422075106966
 30
0.0
 11
4200.346914510522
 21
1458.422075106966
 31
0.0
  0
LINE
  5
B0
  8
0
  6
CONTINUOUS
 62
     7
 10
3905.327289964169
 20
1458.422075106966
 30
0.0
 11
3888.346914510523
 21
1458.422075106966
 31
0.0
  0
LINE
  5
B1
  8
0
  6
CONTINUOUS
 62
     7
 10
3913.346914510523
 20
1458.422075106966
 30
0.0
 11
3905.327289964169
 21
1458.422075106966
 31
0.0
  0
LINE
  5
B2
  8
0
  6
CONTINUOUS
 62
     7
 10
3869.846914509429
 20
1468.422075106948
 30
0.0
 11
3868.846914509429
 21
1468.422075106948
 31
0.0
  0
LINE
  5
B3
  8
0
  6
CONTINUOUS
 62
     7
 10
3868.846914509429
 20
1468.422075106948
 30
0.0
 11
3868.846914509429
 21
2158.422075106948
 31
0.0
  0
LINE
  5
B4
  8
0
  6
CONTINUOUS
 62
     7
 10
3869.846914509429
 20
2158.422075106948
 30
0.0
 11
3868.846914509429
 21
2158.422075106948
 31
0.0
  0
LINE
  5
B5
  8
0
  6
CONTINUOUS
 62
     7
 10
3869.846914509429
 20
1468.422075106948
 30
0.0
 11
3869.846914509429
 21
2158.422075106948
 31
0.0
  0
LINE
  5
B6
  8
0
  6
CONTINUOUS
 62
     7
 10
4221.346914509423
 20
1971.191771148629
 30
0.0
 11
4221.346914509423
 21
1961.652379065272
 31
0.0
  0
LINE
  5
B7
  8
0
  6
CONTINUOUS
 62
     7
 10
4221.346914509423
 20
2099.191771148629
 30
0.0
 11
4221.346914509423
 21
2089.652379065273
 31
0.0
  0
LINE
  5
B8
  8
0
  6
CONTINUOUS
 62
     7
 10
4258.346914509423
 20
1468.422075106948
 30
0.0
 11
4258.346914509423
 21
1540.422075106948
 31
0.0
  0
LINE
  5
B9
  8
0
  6
CONTINUOUS
 62
     7
 10
4258.346914509423
 20
1468.422075106948
 30
0.0
 11
3869.846914509429
 21
1468.422075106948
 31
0.0
  0
LINE
  5
BA
  8
0
  6
CONTINUOUS
 62
     7
 10
4268.346914509423
 20
2158.422075106948
 30
0.0
 11
3869.846914509429
 21
2158.422075106948
 31
0.0
  0
ARC
  5
BB
  8
0
  6
CONTINUOUS
 62
     7
 10
4378.346914509418
 20
1540.422075106948
 30
0.0
 40
119.9999999999945
 50
156.4435356908974
 51
180.0
  0
CIRCLE
  5
BC
  8
0
  6
CONTINUOUS
 62
     7
 10
4219.846914509423
 20
2094.422075106948
 30
0.0
 40
5.000000032999196
  0
CIRCLE
  5
BD
  8
0
  6
CONTINUOUS
 62
     7
 10
4219.846914509423
 20
1966.422075106948
 30
0.0
 40
5.000000032999196
  0
LINE
  5
BE
  8
0
  6
CONTINUOUS
 62
     7
 10
4268.346914509424
 20
1588.380390340076
 30
0.0
 11
4268.346914509423
 21
2158.422075106948
 31
0.0
  0
CIRCLE
  5
BF
  8
0
  6
CONTINUOUS
 62
     7
 10
4219.846914509423
 20
2094.422075106951
 30
0.0
 40
1.500000047999492
  0
CIRCLE
  5
C0
  8
0
  6
CONTINUOUS
 62
     7
 10
4219.846914509423
 20
1966.422075106951
 30
0.0
 40
1.500000047999492
  0
LINE
  5
C1
  8
0
  6
CONTINUOUS
 62
     7
 10
438.7922591765422
 20
1458.422075106966
 30
0.0
 11
438.7922591765422
 21
1468.422075106966
 31
0.0
  0
LINE
  5
C2
  8
0
  6
CONTINUOUS
 62
     7
 10
413.7922591765422
 20
1468.422075106966
 30
0.0
 11
413.7922591765422
 21
1458.422075106966
 31
0.0
  0
LINE
  5
C3
  8
0
  6
CONTINUOUS
 62
     7
 10
750.7922591765421
 20
1458.422075106966
 30
0.0
 11
750.7922591765421
 21
1468.422075106965
 31
0.0
  0
LINE
  5
C4
  8
0
  6
CONTINUOUS
 62
     7
 10
725.7922591765421
 20
1468.422075106965
 30
0.0
 11
725.7922591765421
 21
1458.422075106966
 31
0.0
  0
LINE
  5
C5
  8
0
  6
CONTINUOUS
 62
     7
 10
770.7922591776446
 20
2186.422075106946
 30
0.0
 11
770.7922591776446
 21
2158.422075106946
 31
0.0
  0
LINE
  5
C6
  8
0
  6
CONTINUOUS
 62
     7
 10
370.7922591776446
 20
2186.422075106946
 30
0.0
 11
370.7922591776446
 21
2158.422075106946
 31
0.0
  0
LINE
  5
C7
  8
0
  6
CONTINUOUS
 62
     7
 10
770.7922591776446
 20
2158.422075106946
 30
0.0
 11
370.7922591776446
 21
2158.422075106946
 31
0.0
  0
LINE
  5
C8
  8
0
  6
CONTINUOUS
 62
     7
 10
770.7922591776446
 20
2186.422075106946
 30
0.0
 11
370.7922591776446
 21
2186.422075106946
 31
0.0
  0
LINE
  5
C9
  8
0
  6
CONTINUOUS
 62
     7
 10
415.2922591776441
 20
1932.422075106957
 30
0.0
 11
375.2922591776444
 21
1932.422075106956
 31
0.0
  0
LINE
  5
CA
  8
0
  6
CONTINUOUS
 62
     7
 10
375.2922591776444
 20
1918.422075106948
 30
0.0
 11
375.2922591776444
 21
1914.422075106956
 31
0.0
  0
LINE
  5
CB
  8
0
  6
CONTINUOUS
 62
     7
 10
375.2922591776444
 20
1914.422075106956
 30
0.0
 11
415.2922591776441
 21
1914.422075106957
 31
0.0
  0
LINE
  5
CC
  8
0
  6
CONTINUOUS
 62
     7
 10
433.2922591776456
 20
2153.922075106957
 30
0.0
 11
433.2922591776456
 21
2153.422075106957
 31
0.0
  0
LINE
  5
CD
  8
0
  6
CONTINUOUS
 62
     7
 10
415.2922591776459
 20
2153.922075106957
 30
0.0
 11
415.2922591776459
 21
2153.422075106957
 31
0.0
  0
LINE
  5
CE
  8
0
  6
CONTINUOUS
 62
     7
 10
433.2922591776456
 20
2153.922075106957
 30
0.0
 11
415.2922591776459
 21
2153.922075106957
 31
0.0
  0
LINE
  5
CF
  8
0
  6
CONTINUOUS
 62
     7
 10
433.2922591776456
 20
2153.422075106957
 30
0.0
 11
415.2922591776459
 21
2153.422075106957
 31
0.0
  0
LINE
  5
D0
  8
0
  6
CONTINUOUS
 62
     7
 10
433.2922591776456
 20
1909.422075106957
 30
0.0
 11
433.2922591776459
 21
2153.422075106957
 31
0.0
  0
LINE
  5
D1
  8
0
  6
CONTINUOUS
 62
     7
 10
415.2922591776456
 20
1909.422075106957
 30
0.0
 11
433.2922591776456
 21
1909.422075106957
 31
0.0
  0
LINE
  5
D2
  8
0
  6
CONTINUOUS
 62
     7
 10
415.2922591776459
 20
2153.422075106957
 30
0.0
 11
415.2922591776456
 21
1909.422075106957
 31
0.0
  0
LINE
  5
D3
  8
0
  6
CONTINUOUS
 62
     7
 10
429.9133965500552
 20
1458.422075106966
 30
0.0
 11
413.7922591765422
 21
1458.422075106966
 31
0.0
  0
LINE
  5
D4
  8
0
  6
CONTINUOUS
 62
     7
 10
438.7922591765422
 20
1458.422075106966
 30
0.0
 11
429.9133965500552
 21
1458.422075106966
 31
0.0
  0
LINE
  5
D5
  8
0
  6
CONTINUOUS
 62
     7
 10
750.7922591765421
 20
1458.422075106966
 30
0.0
 11
725.7922591765421
 21
1458.422075106966
 31
0.0
  0
LINE
  5
D6
  8
0
  6
CONTINUOUS
 62
     7
 10
770.292259177636
 20
1468.422075106951
 30
0.0
 11
769.292259177636
 21
1468.422075106951
 31
0.0
  0
LINE
  5
D7
  8
0
  6
CONTINUOUS
 62
     7
 10
769.292259177636
 20
1468.422075106951
 30
0.0
 11
769.292259177636
 21
2158.422075106951
 31
0.0
  0
LINE
  5
D8
  8
0
  6
CONTINUOUS
 62
     7
 10
770.292259177636
 20
1468.422075106951
 30
0.0
 11
770.292259177636
 21
2158.422075106951
 31
0.0
  0
LINE
  5
D9
  8
0
  6
CONTINUOUS
 62
     7
 10
370.7922591776413
 20
1588.380390340078
 30
0.0
 11
370.7922591776413
 21
1918.422075106948
 31
0.0
  0
LINE
  5
DA
  8
0
  6
CONTINUOUS
 62
     7
 10
769.292259177636
 20
1468.422075106951
 30
0.0
 11
380.7922591776414
 21
1468.422075106951
 31
0.0
  0
LINE
  5
DB
  8
0
  6
CONTINUOUS
 62
     7
 10
380.7922591776414
 20
1468.422075106951
 30
0.0
 11
380.7922591776413
 21
1540.42207510695
 31
0.0
  0
ARC
  5
DC
  8
0
  6
CONTINUOUS
 62
     7
 10
260.7922591776468
 20
1540.42207510695
 30
0.0
 40
119.9999999999949
 50
0.0
 51
23.5564643091023
  0
ARC
  5
DD
  8
0
  6
CONTINUOUS
 62
     7
 10
426.7922591776414
 20
2134.422075106951
 30
0.0
 40
7.500000000000091
 50
330.0735651335185
 51
29.92643486647927
  0
CIRCLE
  5
DE
  8
0
  6
CONTINUOUS
 62
     7
 10
714.2922591776361
 20
2134.422075106951
 30
0.0
 40
7.5
  0
ARC
  5
DF
  8
0
  6
CONTINUOUS
 62
     7
 10
404.2922591776448
 20
2108.922075106948
 30
0.0
 40
5.0
 50
270.0000000000008
 51
0.0
  0
LINE
  5
E0
  8
0
  6
CONTINUOUS
 62
     7
 10
404.2922591776448
 20
2103.922075106948
 30
0.0
 11
375.2922591776447
 21
2103.922075106948
 31
0.0
  0
LINE
  5
E1
  8
0
  6
CONTINUOUS
 62
     7
 10
409.2922591776448
 20
2108.922075106948
 30
0.0
 11
409.2922591776448
 21
2153.922075106948
 31
0.0
  0
LINE
  5
E2
  8
0
  6
CONTINUOUS
 62
     7
 10
665.7922591776447
 20
2158.422075106948
 30
0.0
 11
665.7922591776447
 21
2153.922075106948
 31
0.0
  0
LINE
  5
E3
  8
0
  6
CONTINUOUS
 62
     7
 10
375.2922591776447
 20
2153.922075106948
 30
0.0
 11
375.2922591776447
 21
1923.422075106948
 31
0.0
  0
LINE
  5
E4
  8
0
  6
CONTINUOUS
 62
     7
 10
375.2922591776447
 20
1923.422075106948
 30
0.0
 11
370.7922591776447
 21
1923.422075106948
 31
0.0
  0
LINE
  5
E5
  8
0
  6
CONTINUOUS
 62
     7
 10
370.7922591776447
 20
1923.422075106948
 30
0.0
 11
370.7922591776448
 21
2158.422075106948
 31
0.0
  0
LINE
  5
E6
  8
0
  6
CONTINUOUS
 62
     7
 10
665.7922591776447
 20
2153.922075106948
 30
0.0
 11
433.2922591776458
 21
2153.922075106948
 31
0.0
  0
LINE
  5
E7
  8
0
  6
CONTINUOUS
 62
     7
 10
415.292259177646
 20
2153.922075106948
 30
0.0
 11
375.2922591776447
 21
2153.922075106948
 31
0.0
  0
LINE
  5
E8
  8
0
  6
CONTINUOUS
 62
     7
 10
370.7922591776447
 20
1918.422075106948
 30
0.0
 11
375.2922591776447
 21
1918.422075106948
 31
0.0
  0
LINE
  5
E9
  8
0
  6
CONTINUOUS
 62
     7
 10
375.2922591776447
 20
1918.422075106948
 30
0.0
 11
375.2922591776447
 21
1923.422075106948
 31
0.0
  0
LINE
  5
EA
  8
0
  6
CONTINUOUS
 62
     7
 10
370.7922591776447
 20
1923.422075106948
 30
0.0
 11
370.7922591776447
 21
1918.422075106948
 31
0.0
  0
LINE
  5
EB
  8
0
  6
CONTINUOUS
 62
     7
 10
670.7922591776447
 20
2153.922075106948
 30
0.0
 11
670.7922591776447
 21
2158.422075106948
 31
0.0
  0
LINE
  5
EC
  8
0
  6
CONTINUOUS
 62
     7
 10
665.7922591776447
 20
2153.922075106948
 30
0.0
 11
670.7922591776447
 21
2153.922075106948
 31
0.0
  0
LINE
  5
ED
  8
0
  6
CONTINUOUS
 62
     7
 10
2791.95335700086
 20
2640.792533025791
 30
0.0
 11
1593.953357000861
 21
2640.792533025791
 31
0.0
  0
LINE
  5
EE
  8
0
  6
CONTINUOUS
 62
     7
 10
2791.95335700086
 20
3039.792533025791
 30
0.0
 11
1593.953357000861
 21
3039.792533025791
 31
0.0
  0
LINE
  5
EF
  8
0
  6
CONTINUOUS
 62
     7
 10
1593.953357000861
 20
3039.792533025791
 30
0.0
 11
1593.953357000861
 21
2640.792533025791
 31
0.0
  0
LINE
  5
F0
  8
0
  6
CONTINUOUS
 62
     7
 10
2791.95335700086
 20
3039.792533025791
 30
0.0
 11
2791.95335700086
 21
2640.792533025791
 31
0.0
  0
LINE
  5
F1
  8
0
  6
CONTINUOUS
 62
     7
 10
2791.95335700086
 20
2640.792533025791
 30
0.0
 11
2791.95335700086
 21
2639.79253302579
 31
0.0
  0
LINE
  5
F2
  8
0
  6
CONTINUOUS
 62
     7
 10
2791.95335700086
 20
2639.79253302579
 30
0.0
 11
1593.953357000861
 21
2639.79253302579
 31
0.0
  0
LINE
  5
F3
  8
0
  6
CONTINUOUS
 62
     7
 10
1593.953357000861
 20
2640.792533025791
 30
0.0
 11
1593.953357000861
 21
2639.79253302579
 31
0.0
  0
LINE
  5
F4
  8
0
  6
CONTINUOUS
 62
     7
 10
1593.953357000861
 20
2639.79253302579
 30
0.0
 11
1592.953357000861
 21
2639.79253302579
 31
0.0
  0
LINE
  5
F5
  8
0
  6
CONTINUOUS
 62
     7
 10
1592.953357000861
 20
2639.79253302579
 30
0.0
 11
1592.953357000861
 21
3039.792533025791
 31
0.0
  0
LINE
  5
F6
  8
0
  6
CONTINUOUS
 62
     7
 10
1593.953357000861
 20
2639.79253302579
 30
0.0
 11
1593.953357000861
 21
3039.792533025791
 31
0.0
  0
LINE
  5
F7
  8
0
  6
CONTINUOUS
 62
     7
 10
1593.953357000861
 20
3039.792533025791
 30
0.0
 11
1592.953357000861
 21
3039.792533025791
 31
0.0
  0
LINE
  5
F8
  8
0
  6
CONTINUOUS
 62
     7
 10
2792.953357000861
 20
2639.79253302579
 30
0.0
 11
2791.95335700086
 21
2639.79253302579
 31
0.0
  0
LINE
  5
F9
  8
0
  6
CONTINUOUS
 62
     7
 10
2791.95335700086
 20
2639.79253302579
 30
0.0
 11
2791.95335700086
 21
3039.792533025791
 31
0.0
  0
LINE
  5
FA
  8
0
  6
CONTINUOUS
 62
     7
 10
2792.953357000861
 20
3039.792533025791
 30
0.0
 11
2791.95335700086
 21
3039.792533025791
 31
0.0
  0
LINE
  5
FB
  8
0
  6
CONTINUOUS
 62
     7
 10
2792.953357000861
 20
2639.79253302579
 30
0.0
 11
2792.953357000861
 21
3039.792533025791
 31
0.0
  0
LINE
  5
FC
  8
0
  6
CONTINUOUS
 62
     7
 10
1621.603189845249
 20
259.5747246944983
 30
0.0
 11
1621.603189845249
 21
269.5747246944983
 31
0.0
  0
LINE
  5
FD
  8
0
  6
CONTINUOUS
 62
     7
 10
1596.603189845248
 20
269.5747246944983
 30
0.0
 11
1596.603189845248
 21
259.5747246944983
 31
0.0
  0
LINE
  5
FE
  8
0
  6
CONTINUOUS
 62
     7
 10
1596.103189845236
 20
983.5747246944784
 30
0.0
 11
1596.103189845236
 21
987.5747246944784
 31
0.0
  0
LINE
  5
FF
  8
0
  6
CONTINUOUS
 62
     7
 10
1596.103189845236
 20
987.5747246944784
 30
0.0
 11
2794.103189845236
 21
987.5747246944784
 31
0.0
  0
LINE
  5
100
  8
0
  6
CONTINUOUS
 62
     7
 10
1596.103189845236
 20
983.5747246944784
 30
0.0
 11
2794.103189845236
 21
983.5747246944784
 31
0.0
  0
LINE
  5
101
  8
0
  6
CONTINUOUS
 62
     7
 10
2794.103189845236
 20
983.5747246944784
 30
0.0
 11
2794.103189845236
 21
987.5747246944784
 31
0.0
  0
LINE
  5
102
  8
0
  6
CONTINUOUS
 62
     7
 10
2795.103189845236
 20
987.5747246944784
 30
0.0
 11
2795.103189845236
 21
959.5747246944784
 31
0.0
  0
LINE
  5
103
  8
0
  6
CONTINUOUS
 62
     7
 10
2794.103189845236
 20
959.5747246944784
 30
0.0
 11
2794.103189845236
 21
987.5747246944784
 31
0.0
  0
LINE
  5
104
  8
0
  6
CONTINUOUS
 62
     7
 10
2795.103189845236
 20
959.5747246944784
 30
0.0
 11
2794.103189845236
 21
959.5747246944784
 31
0.0
  0
LINE
  5
105
  8
0
  6
CONTINUOUS
 62
     7
 10
2794.103189845236
 20
987.5747246944784
 30
0.0
 11
2795.103189845236
 21
987.5747246944784
 31
0.0
  0
LINE
  5
106
  8
0
  6
CONTINUOUS
 62
     7
 10
1596.103189845236
 20
959.5747246944784
 30
0.0
 11
1595.103189845236
 21
959.5747246944784
 31
0.0
  0
LINE
  5
107
  8
0
  6
CONTINUOUS
 62
     7
 10
1595.103189845236
 20
959.5747246944784
 30
0.0
 11
1595.103189845236
 21
987.5747246944784
 31
0.0
  0
LINE
  5
108
  8
0
  6
CONTINUOUS
 62
     7
 10
1595.103189845236
 20
987.5747246944784
 30
0.0
 11
1596.103189845236
 21
987.5747246944784
 31
0.0
  0
LINE
  5
109
  8
0
  6
CONTINUOUS
 62
     7
 10
1596.103189845236
 20
987.5747246944784
 30
0.0
 11
1596.103189845236
 21
959.5747246944784
 31
0.0
  0
LINE
  5
10A
  8
0
  6
CONTINUOUS
 62
     7
 10
1596.103189845236
 20
959.5747246944784
 30
0.0
 11
1596.103189845236
 21
963.5747246944784
 31
0.0
  0
LINE
  5
10B
  8
0
  6
CONTINUOUS
 62
     7
 10
1596.103189845236
 20
959.5747246944784
 30
0.0
 11
2794.103189845236
 21
959.5747246944784
 31
0.0
  0
LINE
  5
10C
  8
0
  6
CONTINUOUS
 62
     7
 10
1596.103189845236
 20
963.5747246944784
 30
0.0
 11
2794.103189845236
 21
963.5747246944784
 31
0.0
  0
LINE
  5
10D
  8
0
  6
CONTINUOUS
 62
     7
 10
2794.103189845236
 20
959.5747246944784
 30
0.0
 11
2794.103189845236
 21
963.5747246944784
 31
0.0
  0
LINE
  5
10E
  8
0
  6
CONTINUOUS
 62
     7
 10
2794.103189845236
 20
983.5747246944793
 30
0.0
 11
2794.103189845236
 21
963.5747246944784
 31
0.0
  0
LINE
  5
10F
  8
0
  6
CONTINUOUS
 62
     7
 10
1596.103189845236
 20
983.5747246944793
 30
0.0
 11
1596.103189845236
 21
963.5747246944784
 31
0.0
  0
ARC
  5
110
  8
0
  6
CONTINUOUS
 62
     7
 10
1703.103189845237
 20
917.5747246944892
 30
0.0
 40
8.0
 50
180.0
 51
270.0000000000008
  0
LINE
  5
111
  8
0
  6
CONTINUOUS
 62
     7
 10
1695.103189845237
 20
917.5747246944892
 30
0.0
 11
1695.103189845237
 21
959.5747246944892
 31
0.0
  0
LINE
  5
112
  8
0
  6
CONTINUOUS
 62
     7
 10
2695.103189845237
 20
959.5747246944892
 30
0.0
 11
1695.103189845237
 21
959.5747246944892
 31
0.0
  0
LINE
  5
113
  8
0
  6
CONTINUOUS
 62
     7
 10
2695.103189845237
 20
939.5747246944892
 30
0.0
 11
2695.103189845237
 21
959.5747246944892
 31
0.0
  0
LINE
  5
114
  8
0
  6
CONTINUOUS
 62
     7
 10
2692.603189845237
 20
937.0747246944893
 30
0.0
 11
2692.603189845237
 21
932.0747246944894
 31
0.0
  0
LINE
  5
115
  8
0
  6
CONTINUOUS
 62
     7
 10
2687.103189845237
 20
909.5747246944892
 30
0.0
 11
1703.103189845237
 21
909.5747246944892
 31
0.0
  0
ARC
  5
116
  8
0
  6
CONTINUOUS
 62
     7
 10
1895.103189845237
 20
932.0747246944894
 30
0.0
 40
2.500000000000227
 50
180.0
 51
0.0
  0
LINE
  5
117
  8
0
  6
CONTINUOUS
 62
     7
 10
1897.603189845237
 20
932.0747246944894
 30
0.0
 11
1897.603189845237
 21
937.0747246944893
 31
0.0
  0
ARC
  5
118
  8
0
  6
CONTINUOUS
 62
     7
 10
1895.103189845237
 20
937.0747246944893
 30
0.0
 40
2.500000000000227
 50
0.0
 51
180.0
  0
LINE
  5
119
  8
0
  6
CONTINUOUS
 62
     7
 10
1892.603189845236
 20
937.0747246944893
 30
0.0
 11
1892.603189845236
 21
932.0747246944894
 31
0.0
  0
ARC
  5
11A
  8
0
  6
CONTINUOUS
 62
     7
 10
2495.103189845237
 20
932.0747246944894
 30
0.0
 40
2.500000000000455
 50
180.0
 51
0.0
  0
LINE
  5
11B
  8
0
  6
CONTINUOUS
 62
     7
 10
2497.603189845237
 20
932.0747246944894
 30
0.0
 11
2497.603189845237
 21
937.0747246944893
 31
0.0
  0
ARC
  5
11C
  8
0
  6
CONTINUOUS
 62
     7
 10
2495.103189845237
 20
937.0747246944893
 30
0.0
 40
2.500000000000455
 50
0.0
 51
180.0
  0
LINE
  5
11D
  8
0
  6
CONTINUOUS
 62
     7
 10
2492.603189845236
 20
937.0747246944893
 30
0.0
 11
2492.603189845236
 21
932.0747246944894
 31
0.0
  0
ARC
  5
11E
  8
0
  6
CONTINUOUS
 62
     7
 10
2295.103189845237
 20
932.0747246944894
 30
0.0
 40
2.5
 50
180.0
 51
0.0
  0
LINE
  5
11F
  8
0
  6
CONTINUOUS
 62
     7
 10
2297.603189845237
 20
932.0747246944894
 30
0.0
 11
2297.603189845237
 21
937.0747246944893
 31
0.0
  0
ARC
  5
120
  8
0
  6
CONTINUOUS
 62
     7
 10
2295.103189845237
 20
937.0747246944893
 30
0.0
 40
2.5
 50
0.0
 51
180.0
  0
LINE
  5
121
  8
0
  6
CONTINUOUS
 62
     7
 10
2292.603189845237
 20
937.0747246944893
 30
0.0
 11
2292.603189845237
 21
932.0747246944894
 31
0.0
  0
ARC
  5
122
  8
0
  6
CONTINUOUS
 62
     7
 10
2095.103189845237
 20
932.0747246944894
 30
0.0
 40
2.5
 50
180.0
 51
0.0
  0
LINE
  5
123
  8
0
  6
CONTINUOUS
 62
     7
 10
2097.603189845237
 20
932.0747246944894
 30
0.0
 11
2097.603189845237
 21
937.0747246944893
 31
0.0
  0
ARC
  5
124
  8
0
  6
CONTINUOUS
 62
     7
 10
2095.103189845237
 20
937.0747246944893
 30
0.0
 40
2.5
 50
0.0
 51
180.0
  0
LINE
  5
125
  8
0
  6
CONTINUOUS
 62
     7
 10
2092.603189845237
 20
937.0747246944893
 30
0.0
 11
2092.603189845237
 21
932.0747246944894
 31
0.0
  0
LINE
  5
126
  8
0
  6
CONTINUOUS
 62
     7
 10
2695.103189845237
 20
917.5747246944892
 30
0.0
 11
2695.103189845237
 21
929.5747246944892
 31
0.0
  0
ARC
  5
127
  8
0
  6
CONTINUOUS
 62
     7
 10
2687.103189845237
 20
917.5747246944892
 30
0.0
 40
8.0
 50
270.0000000000008
 51
0.0
  0
ARC
  5
128
  8
0
  6
CONTINUOUS
 62
     7
 10
2695.103189845237
 20
932.0747246944894
 30
0.0
 40
2.500000000000227
 50
180.0
 51
270.0000000000008
  0
ARC
  5
129
  8
0
  6
CONTINUOUS
 62
     7
 10
2695.103189845237
 20
937.0747246944893
 30
0.0
 40
2.5
 50
90.0
 51
180.0
  0
LINE
  5
12A
  8
0
  6
CONTINUOUS
 62
     7
 10
1673.103189845235
 20
733.5747246944895
 30
0.0
 11
2723.103189845234
 21
733.5747246944891
 31
0.0
  0
LINE
  5
12B
  8
0
  6
CONTINUOUS
 62
     7
 10
1673.103189845235
 20
715.5747246944896
 30
0.0
 11
2723.103189845234
 21
715.574724694489
 31
0.0
  0
LINE
  5
12C
  8
0
  6
CONTINUOUS
 62
     7
 10
1673.103189845235
 20
733.5747246944895
 30
0.0
 11
1673.103189845235
 21
715.5747246944896
 31
0.0
  0
LINE
  5
12D
  8
0
  6
CONTINUOUS
 62
     7
 10
2723.103189845234
 20
733.5747246944891
 30
0.0
 11
2723.103189845234
 21
715.574724694489
 31
0.0
  0
LINE
  5
12E
  8
0
  6
CONTINUOUS
 62
     7
 10
1623.603189845234
 20
955.0747246944891
 30
0.0
 11
1623.603189845234
 21
954.5747246944893
 31
0.0
  0
LINE
  5
12F
  8
0
  6
CONTINUOUS
 62
     7
 10
2793.103189845237
 20
954.5747246944895
 30
0.0
 11
2760.103189845237
 21
954.5747246944895
 31
0.0
  0
LINE
  5
130
  8
0
  6
CONTINUOUS
 62
     7
 10
2730.103189845237
 20
954.5747246944895
 30
0.0
 11
2695.103189845236
 21
954.5747246944895
 31
0.0
  0
LINE
  5
131
  8
0
  6
CONTINUOUS
 62
     7
 10
1695.103189845237
 20
954.5747246944893
 30
0.0
 11
1623.603189845234
 21
954.5747246944893
 31
0.0
  0
LINE
  5
132
  8
0
  6
CONTINUOUS
 62
     7
 10
2793.103189845237
 20
955.0747246944893
 30
0.0
 11
2793.103189845237
 21
954.5747246944895
 31
0.0
  0
LINE
  5
133
  8
0
  6
CONTINUOUS
 62
     7
 10
2793.103189845237
 20
955.0747246944893
 30
0.0
 11
2760.103189845237
 21
955.0747246944893
 31
0.0
  0
LINE
  5
134
  8
0
  6
CONTINUOUS
 62
     7
 10
2730.103189845237
 20
955.0747246944893
 30
0.0
 11
2695.103189845237
 21
955.0747246944893
 31
0.0
  0
LINE
  5
135
  8
0
  6
CONTINUOUS
 62
     7
 10
1695.103189845237
 20
955.0747246944891
 30
0.0
 11
1623.603189845234
 21
955.0747246944891
 31
0.0
  0
LINE
  5
136
  8
0
  6
CONTINUOUS
 62
     7
 10
1623.103189845235
 20
955.0747246944893
 30
0.0
 11
1623.603189845234
 21
955.0747246944893
 31
0.0
  0
LINE
  5
137
  8
0
  6
CONTINUOUS
 62
     7
 10
1623.603189845234
 20
955.0747246944893
 30
0.0
 11
1623.603189845234
 21
710.5747246944892
 31
0.0
  0
LINE
  5
138
  8
0
  6
CONTINUOUS
 62
     7
 10
1623.103189845235
 20
710.5747246944892
 30
0.0
 11
1623.603189845234
 21
710.5747246944892
 31
0.0
  0
LINE
  5
139
  8
0
  6
CONTINUOUS
 62
     7
 10
2793.103189845237
 20
954.5747246944893
 30
0.0
 11
2793.103189845234
 21
710.5747246944895
 31
0.0
  0
LINE
  5
13A
  8
0
  6
CONTINUOUS
 62
     7
 10
1623.603189845234
 20
710.5747246944892
 30
0.0
 11
2793.103189845234
 21
710.5747246944895
 31
0.0
  0
LINE
  5
13B
  8
0
  6
CONTINUOUS
 62
     7
 10
1623.603189845234
 20
954.5747246944891
 30
0.0
 11
1623.603189845234
 21
710.5747246944892
 31
0.0
  0
LINE
  5
13C
  8
0
  6
CONTINUOUS
 62
     7
 10
1621.603189845249
 20
259.5747246944983
 30
0.0
 11
1596.603189845248
 21
259.5747246944983
 31
0.0
  0
LINE
  5
13D
  8
0
  6
CONTINUOUS
 62
     7
 10
1620.603189845237
 20
389.5330399276104
 30
0.0
 11
1620.603189845234
 21
341.5747246944832
 31
0.0
  0
LINE
  5
13E
  8
0
  6
CONTINUOUS
 62
     7
 10
1620.603189845234
 20
341.5747246944832
 30
0.0
 11
1597.603189845234
 21
341.5747246944806
 31
0.0
  0
LINE
  5
13F
  8
0
  6
CONTINUOUS
 62
     7
 10
1597.603189845215
 20
389.5330399276078
 30
0.0
 11
1597.603189845234
 21
341.5747246944806
 31
0.0
  0
LINE
  5
140
  8
0
  6
CONTINUOUS
 62
     7
 10
1620.603189845237
 20
389.5330399276104
 30
0.0
 11
1597.603189845215
 21
389.5330399276078
 31
0.0
  0
LINE
  5
141
  8
0
  6
CONTINUOUS
 62
     7
 10
1597.603189845215
 20
389.5330399276078
 30
0.0
 11
1597.60318984521
 21
959.5747246944792
 31
0.0
  0
LINE
  5
142
  8
0
  6
CONTINUOUS
 62
     7
 10
1597.60318984521
 20
959.5747246944792
 30
0.0
 11
1620.603189845232
 21
959.5747246944833
 31
0.0
  0
LINE
  5
143
  8
0
  6
CONTINUOUS
 62
     7
 10
1620.603189845232
 20
959.5747246944833
 30
0.0
 11
1620.603189845237
 21
389.5330399276104
 31
0.0
  0
LINE
  5
144
  8
0
  6
CONTINUOUS
 62
     7
 10
1597.603189845212
 20
269.5747246944794
 30
0.0
 11
1620.603189845234
 21
269.5747246944832
 31
0.0
  0
LINE
  5
145
  8
0
  6
CONTINUOUS
 62
     7
 10
1597.603189845234
 20
341.5747246944806
 30
0.0
 11
1597.603189845212
 21
269.5747246944794
 31
0.0
  0
LINE
  5
146
  8
0
  6
CONTINUOUS
 62
     7
 10
1620.603189845234
 20
341.5747246944832
 30
0.0
 11
1620.603189845234
 21
269.5747246944832
 31
0.0
  0
LINE
  5
147
  8
0
  6
CONTINUOUS
 62
     7
 10
1595.103189845233
 20
389.5330399276078
 30
0.0
 11
1595.103189845232
 21
959.5747246944806
 31
0.0
  0
LINE
  5
148
  8
0
  6
CONTINUOUS
 62
     7
 10
1597.603189845232
 20
959.5747246944792
 30
0.0
 11
1595.103189845232
 21
959.5747246944806
 31
0.0
  0
LINE
  5
149
  8
0
  6
CONTINUOUS
 62
     7
 10
1597.603189845237
 20
389.5330399276078
 30
0.0
 11
1595.103189845233
 21
389.5330399276078
 31
0.0
  0
LINE
  5
14A
  8
0
  6
CONTINUOUS
 62
     7
 10
1597.603189845234
 20
341.5747246944806
 30
0.0
 11
1595.103189845234
 21
341.5747246944806
 31
0.0
  0
LINE
  5
14B
  8
0
  6
CONTINUOUS
 62
     7
 10
1595.103189845234
 20
341.5747246944806
 30
0.0
 11
1595.103189845233
 21
389.5330399276078
 31
0.0
  0
LINE
  5
14C
  8
0
  6
CONTINUOUS
 62
     7
 10
1597.603189845234
 20
269.5747246944794
 30
0.0
 11
1595.103189845234
 21
269.5747246944806
 31
0.0
  0
LINE
  5
14D
  8
0
  6
CONTINUOUS
 62
     7
 10
1595.103189845234
 20
269.5747246944806
 30
0.0
 11
1595.103189845234
 21
341.5747246944806
 31
0.0
  0
LINE
  5
14E
  8
0
  6
CONTINUOUS
 62
     7
 10
1623.103189845232
 20
959.5747246944833
 30
0.0
 11
1620.603189845232
 21
959.5747246944833
 31
0.0
  0
LINE
  5
14F
  8
0
  6
CONTINUOUS
 62
     7
 10
1623.103189845237
 20
389.5330399276104
 30
0.0
 11
1620.603189845237
 21
389.5330399276104
 31
0.0
  0
LINE
  5
150
  8
0
  6
CONTINUOUS
 62
     7
 10
1623.103189845237
 20
389.5330399276104
 30
0.0
 11
1623.103189845232
 21
959.5747246944833
 31
0.0
  0
LINE
  5
151
  8
0
  6
CONTINUOUS
 62
     7
 10
1623.103189845234
 20
341.5747246944831
 30
0.0
 11
1620.603189845234
 21
341.5747246944832
 31
0.0
  0
LINE
  5
152
  8
0
  6
CONTINUOUS
 62
     7
 10
1623.103189845234
 20
341.5747246944831
 30
0.0
 11
1623.103189845237
 21
389.5330399276104
 31
0.0
  0
LINE
  5
153
  8
0
  6
CONTINUOUS
 62
     7
 10
1623.103189845234
 20
269.5747246944832
 30
0.0
 11
1620.603189845234
 21
269.5747246944832
 31
0.0
  0
LINE
  5
154
  8
0
  6
CONTINUOUS
 62
     7
 10
1623.103189845234
 20
269.5747246944832
 30
0.0
 11
1623.103189845234
 21
341.5747246944831
 31
0.0
  0
ARC
  5
155
  8
0
  6
CONTINUOUS
 62
     7
 10
2735.103189845237
 20
724.5747246944807
 30
0.0
 40
5.0
 50
180.0
 51
270.0000000000008
  0
LINE
  5
156
  8
0
  6
CONTINUOUS
 62
     7
 10
2730.103189845237
 20
724.5747246944807
 30
0.0
 11
2730.103189845237
 21
959.5747246944808
 31
0.0
  0
LINE
  5
157
  8
0
  6
CONTINUOUS
 62
     7
 10
2760.103189845237
 20
959.5747246944808
 30
0.0
 11
2730.103189845237
 21
959.5747246944808
 31
0.0
  0
LINE
  5
158
  8
0
  6
CONTINUOUS
 62
     7
 10
2760.103189845237
 20
724.5747246944807
 30
0.0
 11
2760.103189845237
 21
959.5747246944808
 31
0.0
  0
ARC
  5
159
  8
0
  6
CONTINUOUS
 62
     7
 10
2755.103189845237
 20
724.5747246944807
 30
0.0
 40
5.0
 50
270.0000000000008
 51
0.0
  0
LINE
  5
15A
  8
0
  6
CONTINUOUS
 62
     7
 10
2755.103189845237
 20
719.5747246944808
 30
0.0
 11
2735.103189845237
 21
719.5747246944808
 31
0.0
  0
CIRCLE
  5
15B
  8
0
  6
CONTINUOUS
 62
     7
 10
2745.103189845237
 20
734.5747246944807
 30
0.0
 40
2.75
  0
CIRCLE
  5
15C
  8
0
  6
CONTINUOUS
 62
     7
 10
2753.603189845237
 20
799.5747246944809
 30
0.0
 40
2.75
  0
CIRCLE
  5
15D
  8
0
  6
CONTINUOUS
 62
     7
 10
2736.603189845237
 20
864.5747246944808
 30
0.0
 40
2.75
  0
CIRCLE
  5
15E
  8
0
  6
CONTINUOUS
 62
     7
 10
2753.603189845237
 20
929.5747246944808
 30
0.0
 40
2.75
  0
ENDSEC
  0
EOF
