  0
SECTION
  2
HEADER
  9
$ACADVER
  1
AC1006
  9
$DWGCODEPAGE
  3
dos932
  9
$INSBASE
 10
0.0
 20
0.0
 30
0.0
  9
$EXTMIN
 10
0.0
 20
0.0
  9
$EXTMAX
 10
5000.0
 20
3500.0
  9
$LIMMIN
 10
0.0
 20
0.0
  9
$LIMMAX
 10
5000.0
 20
3500.0
  9
$ORTHOMODE
 70
     0
  9
$REGENMODE
 70
     1
  9
$FILLMODE
 70
     1
  9
$QTEXTMODE
 70
     0
  9
$MIRRTEXT
 70
     1
  9
$DRAGMODE
 70
     2
  9
$LTSCALE
 40
1.0
  9
$OSMODE
 70
    37
  9
$ATTMODE
 70
     1
  9
$TEXTSIZE
 40
3.5
  9
$TRACEWID
 40
1.0
  9
$TEXTSTYLE
  7
STANDARD
  9
$CLAYER
  8
0
  9
$CELTYPE
  6
BYLAYER
  9
$CECOLOR
 62
   256
  9
$DIMSCALE
 40
1.0
  9
$DIMASZ
 40
3.302
  9
$DIMEXO
 40
1.0
  9
$DIMDLI
 40
3.75
  9
$DIMRND
 40
0.0
  9
$DIMDLE
 40
0.0
  9
$DIMEXE
 40
1.0
  9
$DIMTP
 40
0.0
  9
$DIMTM
 40
0.0
  9
$DIMTXT
 40
3.5
  9
$DIMCEN
 40
2.5
  9
$DIMTSZ
 40
0.0
  9
$DIMTOL
 70
     0
  9
$DIMLIM
 70
     0
  9
$DIMTIH
 70
     1
  9
$DIMTOH
 70
     1
  9
$DIMSE1
 70
     0
  9
$DIMSE2
 70
     0
  9
$DIMTAD
 70
     1
  9
$DIMZIN
 70
     0
  9
$DIMBLK
  1

  9
$DIMASO
 70
     1
  9
$DIMSHO
 70
     1
  9
$DIMPOST
  1

  9
$DIMAPOST
  1

  9
$DIMALT
 70
     0
  9
$DIMALTD
 70
     3
  9
$DIMALTF
 40
0.0393700787401575
  9
$DIMLFAC
 40
1.0
  9
$DIMTOFL
 70
     1
  9
$DIMTVP
 40
0.0
  9
$DIMTIX
 70
     0
  9
$DIMSOXD
 70
     0
  9
$DIMSAH
 70
     0
  9
$DIMBLK1
  1

  9
$DIMBLK2
  1

  9
$LUNITS
 70
     2
  9
$LUPREC
 70
     3
  9
$SKETCHINC
 40
1.0
  9
$FILLETRAD
 40
10.0
  9
$AUNITS
 70
     0
  9
$AUPREC
 70
     2
  9
$MENU
  1
.
  9
$ELEVATION
 40
0.0
  9
$THICKNESS
 40
0.0
  9
$LIMCHECK
 70
     0
  9
$CHAMFERA
 40
0.0
  9
$CHAMFERB
 40
0.0
  9
$SKPOLY
 70
     0
  9
$TDCREATE
 40
2459796.287771817
  9
$TDUPDATE
 40
2460138.586871979
  9
$TDINDWG
 40
0.0000000116
  9
$TDUSRTIMER
 40
0.0000000116
  9
$USRTIMER
 70
     1
  9
$ANGBASE
 50
0.0
  9
$ANGDIR
 70
     0
  9
$PDMODE
 70
     0
  9
$PDSIZE
 40
-1.0
  9
$PLINEWID
 40
0.0
  9
$COORDS
 70
     1
  9
$SPLFRAME
 70
     0
  9
$SPLINETYPE
 70
     6
  9
$SPLINESEGS
 70
     8
  9
$ATTDIA
 70
     0
  9
$ATTREQ
 70
     1
  9
$HANDLING
 70
     1
  9
$HANDSEED
  5
185
  9
$SURFTAB1
 70
     6
  9
$SURFTAB2
 70
     6
  9
$SURFTYPE
 70
     6
  9
$SURFU
 70
     6
  9
$SURFV
 70
     6
  9
$UCSNAME
  2

  9
$UCSORG
 10
0.0
 20
0.0
 30
0.0
  9
$UCSXDIR
 10
1.0
 20
0.0
 30
0.0
  9
$UCSYDIR
 10
0.0
 20
1.0
 30
0.0
  9
$USERI1
 70
     0
  9
$USERI2
 70
     0
  9
$USERI3
 70
     0
  9
$USERI4
 70
     0
  9
$USERI5
 70
     0
  9
$USERR1
 40
0.0
  9
$USERR2
 40
0.0
  9
$USERR3
 40
0.0
  9
$USERR4
 40
0.0
  9
$USERR5
 40
0.0
  9
$WORLDVIEW
 70
     1
  0
ENDSEC
  0
SECTION
  2
TABLES
  0
TABLE
  2
VPORT
 70
     1
  0
VPORT
  2
*ACTIVE
 70
     0
 10
0.0
 20
0.0
 11
1.0
 21
1.0
 12
2500.0
 22
1750.0
 13
0.0
 23
0.0
 14
10.0
 24
10.0
 15
10.0
 25
10.0
 16
0.0
 26
0.0
 36
1.0
 17
0.0
 27
0.0
 37
0.0
 40
3500.0
 41
1.428571428571429
 42
50.0
 43
0.0
 44
0.0
 50
0.0
 51
0.0
 71
     0
 72
  2000
 73
     1
 74
     3
 75
     0
 76
     0
 77
     0
 78
     0
  0
ENDTAB
  0
TABLE
  2
LTYPE
 70
     6
  0
LTYPE
  2
CONTINUOUS
 70
     0
  3
Solid line
 72
    65
 73
     0
 40
0.0
  0
LTYPE
  2
HIDDEN
 70
     0
  3
Hidden __ __ __ __ __ __ __ __ __ __ __ __ __ __
 72
    65
 73
     2
 40
1.905
 49
1.27
 49
-0.635
  0
LTYPE
  2
PHANTOM
 70
     0
  3
Phantom ______  __  __  ______  __  __  ______
 72
    65
 73
     6
 40
12.7
 49
6.35
 49
-1.27
 49
1.27
 49
-1.27
 49
1.27
 49
-1.27
  0
LTYPE
  2
CENTER
 70
     0
  3
Center ____ _ ____ _ ____ _ ____ _ ____ _ ____
 72
    65
 73
     4
 40
10.16
 49
6.35
 49
-1.27
 49
1.27
 49
-1.27
  0
LTYPE
  2
CENTERX2
 70
     0
  3
Center (2x) ________  __  ________  __  _____
 72
    65
 73
     4
 40
20.32
 49
12.7
 49
-2.54
 49
2.54
 49
-2.54
  0
LTYPE
  2
DOT2
 70
     0
  3
Dot (.5x) ........................................
 72
    65
 73
     2
 40
0.635
 49
0.0
 49
-0.635
  0
ENDTAB
  0
TABLE
  2
LAYER
 70
     3
  0
LAYER
  2
0
 70
     0
 62
     7
  6
CONTINUOUS
  0
LAYER
  2
SLD-0
 70
     0
 62
   179
  6
CONTINUOUS
  0
LAYER
  2
寸法
 70
     0
 62
   179
  6
CONTINUOUS
  0
ENDTAB
  0
TABLE
  2
STYLE
 70
     2
  0
STYLE
  2
STANDARD
 70
     0
 40
0.0
 41
1.0
 50
0.0
 71
     0
 42
3.5
  3
txt
  4
bigfont
  0
STYLE
  2
SLDTEXTSTYLE0
 70
     0
 40
0.0
 41
0.75
 50
0.0
 71
     0
 42
3.5
  3
TXT
  4
bigfont
  0
ENDTAB
  0
TABLE
  2
VIEW
 70
     0
  0
ENDTAB
  0
TABLE
  2
UCS
 70
     0
  0
ENDTAB
  0
ENDSEC
  0
SECTION
  2
BLOCKS
  0
ENDSEC
  0
SECTION
  2
ENTITIES
  0
LINE
  5
75
  8
0
  6
CONTINUOUS
 62
     7
 10
4839.484712179223
 20
258.5233124172521
 30
0.0
 11
3312.374599790194
 21
258.5233124172519
 31
0.0
  0
TEXT
  5
77
  8
0
  6
CONTINUOUS
 62
     7
 10
1349.066667345787
 20
3310.093533840326
 30
0.0
 40
52.91666666666666
  1
＜上面＞
 41
0.75
  7
SLDTEXTSTYLE0
  0
TEXT
  5
78
  8
0
  6
CONTINUOUS
 62
     7
 10
355.8266146156568
 20
2339.567159245636
 30
0.0
 40
52.91666666666666
  1
＜左側面＞
 41
0.75
  7
SLDTEXTSTYLE0
  0
TEXT
  5
79
  8
0
  6
CONTINUOUS
 62
     7
 10
1354.565967118321
 20
2339.567159245637
 30
0.0
 40
52.91666666666666
  1
＜正面＞
 41
0.75
  7
SLDTEXTSTYLE0
  0
TEXT
  5
7A
  8
0
  6
CONTINUOUS
 62
     7
 10
3377.814243189123
 20
326.489054196763
 30
0.0
 40
52.91666666666666
  1
品名：
 41
0.75
  7
SLDTEXTSTYLE0
  0
TEXT
  5
7B
  8
0
  6
CONTINUOUS
 62
     7
 10
4446.663437481703
 20
332.3177187478654
 30
0.0
 40
52.91666666666666
  1
Pamouna
 41
0.75
  7
SLDTEXTSTYLE0
  0
TEXT
  5
7C
  8
寸法
  6
CONTINUOUS
 62
     7
 10
4688.007304885427
 20
165.7088516276312
 30
0.0
 40
52.91666666666666
  1
1/1
 41
0.75
  7
SLDTEXTSTYLE0
  0
TEXT
  5
7D
  8
寸法
  6
CONTINUOUS
 62
     7
 10
4198.79693921183
 20
165.7088544215994
 30
0.0
 40
52.91666666666666
  1
2022/08/04
 41
0.75
  7
SLDTEXTSTYLE0
  0
TEXT
  5
7E
  8
寸法
  6
CONTINUOUS
 62
     7
 10
1350.030342332502
 20
1137.89215271946
 30
0.0
 40
52.91666666666666
  1
＜背面＞
 41
0.75
  7
SLDTEXTSTYLE0
  0
TEXT
  5
7F
  8
寸法
  6
CONTINUOUS
 62
     7
 10
3611.283129349215
 20
326.4179237671586
 30
0.0
 40
66.14583333333331
  1
MA-120DL（-T）
 41
0.75
  7
SLDTEXTSTYLE0
  0
TEXT
  5
80
  8
寸法
  6
CONTINUOUS
 62
     7
 10
3746.752415614053
 20
2339.567159245637
 30
0.0
 40
52.91666666666666
  1
＜右側面＞
 41
0.75
  7
SLDTEXTSTYLE0
  0
LINE
  5
81
  8
0
  6
CONTINUOUS
 62
     7
 10
1689.113693257209
 20
1485.918573969622
 30
0.0
 11
1689.113693257209
 21
1495.918573969623
 31
0.0
  0
LINE
  5
82
  8
0
  6
CONTINUOUS
 62
     7
 10
1664.113693257209
 20
1495.918573969623
 30
0.0
 11
1664.113693257209
 21
1485.918573969622
 31
0.0
  0
LINE
  5
83
  8
0
  6
CONTINUOUS
 62
     7
 10
1663.613693257194
 20
2185.918573969639
 30
0.0
 11
2861.613693257194
 21
2185.918573969639
 31
0.0
  0
LINE
  5
84
  8
0
  6
CONTINUOUS
 62
     7
 10
2861.613693257194
 20
2213.918573969639
 30
0.0
 11
2861.613693257194
 21
2185.918573969639
 31
0.0
  0
LINE
  5
85
  8
0
  6
CONTINUOUS
 62
     7
 10
1663.613693257194
 20
2213.918573969639
 30
0.0
 11
1663.613693257194
 21
2185.918573969639
 31
0.0
  0
LINE
  5
86
  8
0
  6
CONTINUOUS
 62
     7
 10
1663.613693257194
 20
2213.918573969639
 30
0.0
 11
2861.613693257194
 21
2213.918573969639
 31
0.0
  0
LINE
  5
87
  8
0
  6
CONTINUOUS
 62
     7
 10
2861.613693257194
 20
2213.918573969639
 30
0.0
 11
2862.613693257194
 21
2213.918573969639
 31
0.0
  0
LINE
  5
88
  8
0
  6
CONTINUOUS
 62
     7
 10
2862.613693257194
 20
2213.918573969639
 30
0.0
 11
2862.613693257194
 21
2185.918573969639
 31
0.0
  0
LINE
  5
89
  8
0
  6
CONTINUOUS
 62
     7
 10
2862.613693257194
 20
2185.918573969639
 30
0.0
 11
2861.613693257194
 21
2185.918573969639
 31
0.0
  0
LINE
  5
8A
  8
0
  6
CONTINUOUS
 62
     7
 10
1663.613693257194
 20
2185.918573969639
 30
0.0
 11
1662.613693257194
 21
2185.918573969639
 31
0.0
  0
LINE
  5
8B
  8
0
  6
CONTINUOUS
 62
     7
 10
1662.613693257194
 20
2185.918573969639
 30
0.0
 11
1662.613693257194
 21
2213.918573969639
 31
0.0
  0
LINE
  5
8C
  8
0
  6
CONTINUOUS
 62
     7
 10
1662.613693257194
 20
2213.918573969639
 30
0.0
 11
1663.613693257194
 21
2213.918573969639
 31
0.0
  0
LINE
  5
8D
  8
0
  6
CONTINUOUS
 62
     7
 10
2662.613693257197
 20
2185.918573969618
 30
0.0
 11
2662.613693257197
 21
2181.418573969618
 31
0.0
  0
LINE
  5
8E
  8
0
  6
CONTINUOUS
 62
     7
 10
2654.613693257197
 20
2181.418573969618
 30
0.0
 11
2654.613693257197
 21
2185.918573969618
 31
0.0
  0
LINE
  5
8F
  8
0
  6
CONTINUOUS
 62
     7
 10
1870.613693257197
 20
2185.918573969618
 30
0.0
 11
1870.613693257197
 21
2181.418573969618
 31
0.0
  0
LINE
  5
90
  8
0
  6
CONTINUOUS
 62
     7
 10
1862.613693257197
 20
2181.418573969618
 30
0.0
 11
1862.613693257197
 21
2185.918573969618
 31
0.0
  0
LINE
  5
91
  8
0
  6
CONTINUOUS
 62
     7
 10
1691.113693257197
 20
2180.918573969637
 30
0.0
 11
2860.613693257197
 21
2180.918573969637
 31
0.0
  0
LINE
  5
92
  8
0
  6
CONTINUOUS
 62
     7
 10
2860.613693257195
 20
1936.918573969637
 30
0.0
 11
2860.613693257197
 21
2180.918573969637
 31
0.0
  0
LINE
  5
93
  8
0
  6
CONTINUOUS
 62
     7
 10
1691.113693257195
 20
1936.918573969637
 30
0.0
 11
2860.613693257195
 21
1936.918573969637
 31
0.0
  0
LINE
  5
94
  8
0
  6
CONTINUOUS
 62
     7
 10
1691.113693257195
 20
1936.918573969637
 30
0.0
 11
1691.113693257197
 21
2180.918573969637
 31
0.0
  0
LINE
  5
95
  8
0
  6
CONTINUOUS
 62
     7
 10
2860.613693257197
 20
2181.418573969637
 30
0.0
 11
2860.613693257197
 21
2180.918573969637
 31
0.0
  0
LINE
  5
96
  8
0
  6
CONTINUOUS
 62
     7
 10
1691.113693257197
 20
2181.418573969637
 30
0.0
 11
1691.113693257197
 21
2180.918573969637
 31
0.0
  0
LINE
  5
97
  8
0
  6
CONTINUOUS
 62
     7
 10
1691.113693257197
 20
2181.418573969637
 30
0.0
 11
2747.613693257197
 21
2181.418573969637
 31
0.0
  0
LINE
  5
98
  8
0
  6
CONTINUOUS
 62
     7
 10
2777.613693257197
 20
2181.418573969637
 30
0.0
 11
2860.613693257197
 21
2181.418573969637
 31
0.0
  0
LINE
  5
99
  8
0
  6
CONTINUOUS
 62
     7
 10
1690.613693257197
 20
2181.418573969637
 30
0.0
 11
1691.113693257197
 21
2181.418573969637
 31
0.0
  0
LINE
  5
9A
  8
0
  6
CONTINUOUS
 62
     7
 10
1690.613693257195
 20
1936.918573969637
 30
0.0
 11
1691.113693257195
 21
1936.918573969637
 31
0.0
  0
LINE
  5
9B
  8
0
  6
CONTINUOUS
 62
     7
 10
1691.113693257195
 20
1936.918573969637
 30
0.0
 11
1691.113693257197
 21
2181.418573969637
 31
0.0
  0
LINE
  5
9C
  8
0
  6
CONTINUOUS
 62
     7
 10
2777.613693257197
 20
2185.918573969646
 30
0.0
 11
2777.613693257197
 21
2181.418573969646
 31
0.0
  0
LINE
  5
9D
  8
0
  6
CONTINUOUS
 62
     7
 10
2777.613693257197
 20
2181.418573969646
 30
0.0
 11
2772.613693257197
 21
2181.418573969646
 31
0.0
  0
LINE
  5
9E
  8
0
  6
CONTINUOUS
 62
     7
 10
2772.613693257197
 20
2181.418573969646
 30
0.0
 11
2772.613693257197
 21
2185.918573969646
 31
0.0
  0
LINE
  5
9F
  8
0
  6
CONTINUOUS
 62
     7
 10
2752.613693257197
 20
2185.918573969646
 30
0.0
 11
2752.613693257197
 21
2181.418573969646
 31
0.0
  0
LINE
  5
A0
  8
0
  6
CONTINUOUS
 62
     7
 10
2772.613693257197
 20
2181.418573969646
 30
0.0
 11
2752.613693257197
 21
2181.418573969646
 31
0.0
  0
LINE
  5
A1
  8
0
  6
CONTINUOUS
 62
     7
 10
2752.613693257197
 20
2181.418573969646
 30
0.0
 11
2747.613693257197
 21
2181.418573969646
 31
0.0
  0
LINE
  5
A2
  8
0
  6
CONTINUOUS
 62
     7
 10
2747.613693257197
 20
2181.418573969646
 30
0.0
 11
2747.613693257197
 21
2185.918573969646
 31
0.0
  0
LINE
  5
A3
  8
0
  6
CONTINUOUS
 62
     7
 10
1664.113693257209
 20
1485.918573969622
 30
0.0
 11
1689.113693257209
 21
1485.918573969622
 31
0.0
  0
LINE
  5
A4
  8
0
  6
CONTINUOUS
 62
     7
 10
1662.613693257195
 20
1495.91857396962
 30
0.0
 11
1690.613693257195
 21
1495.91857396962
 31
0.0
  0
LINE
  5
A5
  8
0
  6
CONTINUOUS
 62
     7
 10
1662.613693257195
 20
1495.91857396962
 30
0.0
 11
1662.613693257193
 21
2185.91857396962
 31
0.0
  0
LINE
  5
A6
  8
0
  6
CONTINUOUS
 62
     7
 10
1690.613693257195
 20
1495.91857396962
 30
0.0
 11
1690.613693257193
 21
2185.91857396962
 31
0.0
  0
LINE
  5
A7
  8
0
  6
CONTINUOUS
 62
     7
 10
701.2985612237284
 20
1485.918573969622
 30
0.0
 11
701.2985612237284
 21
1495.918573969623
 31
0.0
  0
LINE
  5
A8
  8
0
  6
CONTINUOUS
 62
     7
 10
676.2985612237284
 20
1495.918573969623
 30
0.0
 11
676.2985612237284
 21
1485.918573969622
 31
0.0
  0
LINE
  5
A9
  8
0
  6
CONTINUOUS
 62
     7
 10
389.2985612237284
 20
1485.918573969623
 30
0.0
 11
389.2985612237284
 21
1495.918573969623
 31
0.0
  0
LINE
  5
AA
  8
0
  6
CONTINUOUS
 62
     7
 10
364.2985612237284
 20
1495.918573969623
 30
0.0
 11
364.2985612237284
 21
1485.918573969623
 31
0.0
  0
LINE
  5
AB
  8
0
  6
CONTINUOUS
 62
     7
 10
721.2985612248312
 20
2213.918573969639
 30
0.0
 11
321.2985612248312
 21
2213.918573969639
 31
0.0
  0
LINE
  5
AC
  8
0
  6
CONTINUOUS
 62
     7
 10
721.2985612248312
 20
2185.918573969639
 30
0.0
 11
721.2985612248312
 21
2213.918573969639
 31
0.0
  0
LINE
  5
AD
  8
0
  6
CONTINUOUS
 62
     7
 10
721.2985612248312
 20
2185.918573969639
 30
0.0
 11
321.2985612248312
 21
2185.918573969639
 31
0.0
  0
LINE
  5
AE
  8
0
  6
CONTINUOUS
 62
     7
 10
321.2985612248312
 20
2185.918573969639
 30
0.0
 11
321.2985612248312
 21
2213.918573969639
 31
0.0
  0
LINE
  5
AF
  8
0
  6
CONTINUOUS
 62
     7
 10
684.3181857700813
 20
1485.918573969622
 30
0.0
 11
701.2985612237284
 21
1485.918573969622
 31
0.0
  0
LINE
  5
B0
  8
0
  6
CONTINUOUS
 62
     7
 10
676.2985612237284
 20
1485.918573969622
 30
0.0
 11
684.3181857700813
 21
1485.918573969622
 31
0.0
  0
LINE
  5
B1
  8
0
  6
CONTINUOUS
 62
     7
 10
364.2985612237284
 20
1485.918573969623
 30
0.0
 11
389.2985612237284
 21
1485.918573969623
 31
0.0
  0
CIRCLE
  5
B2
  8
0
  6
CONTINUOUS
 62
     7
 10
369.7985612248328
 20
2121.91857396962
 30
0.0
 40
1.500000048000004
  0
CIRCLE
  5
B3
  8
0
  6
CONTINUOUS
 62
     7
 10
369.7985612248328
 20
1993.91857396962
 30
0.0
 40
1.500000048000004
  0
LINE
  5
B4
  8
0
  6
CONTINUOUS
 62
     7
 10
719.7985612248278
 20
1495.91857396962
 30
0.0
 11
719.7985612248278
 21
2185.91857396962
 31
0.0
  0
LINE
  5
B5
  8
0
  6
CONTINUOUS
 62
     7
 10
331.2985612248328
 20
1495.91857396962
 30
0.0
 11
719.7985612248278
 21
1495.91857396962
 31
0.0
  0
LINE
  5
B6
  8
0
  6
CONTINUOUS
 62
     7
 10
331.2985612248328
 20
1495.91857396962
 30
0.0
 11
331.2985612248328
 21
1567.91857396962
 31
0.0
  0
ARC
  5
B7
  8
0
  6
CONTINUOUS
 62
     7
 10
211.298561224838
 20
1567.91857396962
 30
0.0
 40
119.9999999999954
 50
0.0
 51
23.55646430910243
  0
CIRCLE
  5
B8
  8
0
  6
CONTINUOUS
 62
     7
 10
369.7985612248328
 20
2121.91857396962
 30
0.0
 40
5.000000032999935
  0
CIRCLE
  5
B9
  8
0
  6
CONTINUOUS
 62
     7
 10
369.7985612248328
 20
1993.91857396962
 30
0.0
 40
5.000000032999935
  0
LINE
  5
BA
  8
0
  6
CONTINUOUS
 62
     7
 10
321.2985612248328
 20
1615.876889202747
 30
0.0
 11
321.2985612248328
 21
2185.91857396962
 31
0.0
  0
LINE
  5
BB
  8
0
  6
CONTINUOUS
 62
     7
 10
321.2985612248328
 20
2185.91857396962
 30
0.0
 11
719.7985612248278
 21
2185.91857396962
 31
0.0
  0
LINE
  5
BC
  8
0
  6
CONTINUOUS
 62
     7
 10
368.298561224833
 20
2126.688270011303
 30
0.0
 11
368.298561224833
 21
2117.148877927947
 31
0.0
  0
LINE
  5
BD
  8
0
  6
CONTINUOUS
 62
     7
 10
368.298561224833
 20
1998.688270011303
 30
0.0
 11
368.298561224833
 21
1989.148877927946
 31
0.0
  0
LINE
  5
BE
  8
0
  6
CONTINUOUS
 62
     7
 10
719.7985612248278
 20
2185.91857396962
 30
0.0
 11
720.7985612248277
 21
2185.91857396962
 31
0.0
  0
LINE
  5
BF
  8
0
  6
CONTINUOUS
 62
     7
 10
720.7985612248277
 20
1495.91857396962
 30
0.0
 11
720.7985612248277
 21
2185.91857396962
 31
0.0
  0
LINE
  5
C0
  8
0
  6
CONTINUOUS
 62
     7
 10
719.7985612248278
 20
1495.91857396962
 30
0.0
 11
720.7985612248277
 21
1495.91857396962
 31
0.0
  0
LINE
  5
C1
  8
0
  6
CONTINUOUS
 62
     7
 10
3946.342713145731
 20
1485.918573969622
 30
0.0
 11
3946.342713145731
 21
1495.918573969623
 31
0.0
  0
LINE
  5
C2
  8
0
  6
CONTINUOUS
 62
     7
 10
3921.342713145731
 20
1495.918573969623
 30
0.0
 11
3921.342713145731
 21
1485.918573969622
 31
0.0
  0
LINE
  5
C3
  8
0
  6
CONTINUOUS
 62
     7
 10
4258.342713145731
 20
1485.918573969623
 30
0.0
 11
4258.342713145731
 21
1495.918573969623
 31
0.0
  0
LINE
  5
C4
  8
0
  6
CONTINUOUS
 62
     7
 10
4233.34271314573
 20
1495.918573969623
 30
0.0
 11
4233.34271314573
 21
1485.918573969623
 31
0.0
  0
LINE
  5
C5
  8
0
  6
CONTINUOUS
 62
     7
 10
3901.342713144628
 20
2213.918573969639
 30
0.0
 11
3901.342713144628
 21
2185.918573969639
 31
0.0
  0
LINE
  5
C6
  8
0
  6
CONTINUOUS
 62
     7
 10
3901.342713144628
 20
2185.918573969639
 30
0.0
 11
4301.342713144628
 21
2185.918573969639
 31
0.0
  0
LINE
  5
C7
  8
0
  6
CONTINUOUS
 62
     7
 10
4301.342713144628
 20
2213.918573969639
 30
0.0
 11
4301.342713144628
 21
2185.918573969639
 31
0.0
  0
LINE
  5
C8
  8
0
  6
CONTINUOUS
 62
     7
 10
3901.342713144628
 20
2213.918573969639
 30
0.0
 11
4301.342713144628
 21
2213.918573969639
 31
0.0
  0
LINE
  5
C9
  8
0
  6
CONTINUOUS
 62
     7
 10
4296.842713144629
 20
1941.918573969636
 30
0.0
 11
4256.842713144629
 21
1941.918573969636
 31
0.0
  0
LINE
  5
CA
  8
0
  6
CONTINUOUS
 62
     7
 10
4256.842713144629
 20
1959.918573969636
 30
0.0
 11
4296.842713144629
 21
1959.918573969636
 31
0.0
  0
LINE
  5
CB
  8
0
  6
CONTINUOUS
 62
     7
 10
4296.842713144629
 20
1959.918573969636
 30
0.0
 11
4296.842713144629
 21
1941.918573969636
 31
0.0
  0
LINE
  5
CC
  8
0
  6
CONTINUOUS
 62
     7
 10
4238.842713144628
 20
1936.918573969637
 30
0.0
 11
4238.842713144628
 21
2180.918573969637
 31
0.0
  0
LINE
  5
CD
  8
0
  6
CONTINUOUS
 62
     7
 10
4238.842713144628
 20
2180.918573969637
 30
0.0
 11
4256.842713144628
 21
2180.918573969638
 31
0.0
  0
LINE
  5
CE
  8
0
  6
CONTINUOUS
 62
     7
 10
4256.842713144628
 20
2180.918573969638
 30
0.0
 11
4256.842713144628
 21
1936.918573969637
 31
0.0
  0
LINE
  5
CF
  8
0
  6
CONTINUOUS
 62
     7
 10
4256.842713144628
 20
1936.918573969637
 30
0.0
 11
4238.842713144628
 21
1936.918573969637
 31
0.0
  0
LINE
  5
D0
  8
0
  6
CONTINUOUS
 62
     7
 10
4256.842713144628
 20
2181.418573969637
 30
0.0
 11
4256.842713144628
 21
2180.918573969638
 31
0.0
  0
LINE
  5
D1
  8
0
  6
CONTINUOUS
 62
     7
 10
4238.842713144628
 20
2181.418573969637
 30
0.0
 11
4238.842713144628
 21
2180.918573969637
 31
0.0
  0
LINE
  5
D2
  8
0
  6
CONTINUOUS
 62
     7
 10
4238.842713144628
 20
2181.418573969637
 30
0.0
 11
4256.842713144628
 21
2181.418573969637
 31
0.0
  0
LINE
  5
D3
  8
0
  6
CONTINUOUS
 62
     7
 10
4296.842713144629
 20
1950.918573969646
 30
0.0
 11
4301.342713144628
 21
1950.918573969646
 31
0.0
  0
LINE
  5
D4
  8
0
  6
CONTINUOUS
 62
     7
 10
4006.342713144628
 20
2181.418573969646
 30
0.0
 11
4238.842713144628
 21
2181.418573969646
 31
0.0
  0
LINE
  5
D5
  8
0
  6
CONTINUOUS
 62
     7
 10
4256.842713144631
 20
2181.418573969646
 30
0.0
 11
4296.842713144629
 21
2181.418573969646
 31
0.0
  0
LINE
  5
D6
  8
0
  6
CONTINUOUS
 62
     7
 10
4006.342713144628
 20
2185.918573969646
 30
0.0
 11
4006.342713144628
 21
2181.418573969646
 31
0.0
  0
LINE
  5
D7
  8
0
  6
CONTINUOUS
 62
     7
 10
4301.342713144628
 20
1950.918573969646
 30
0.0
 11
4301.342713144628
 21
2185.918573969646
 31
0.0
  0
LINE
  5
D8
  8
0
  6
CONTINUOUS
 62
     7
 10
4296.842713144629
 20
2181.418573969646
 30
0.0
 11
4296.842713144629
 21
1959.918573969636
 31
0.0
  0
LINE
  5
D9
  8
0
  6
CONTINUOUS
 62
     7
 10
4301.342713144628
 20
1945.918573969646
 30
0.0
 11
4296.842713144629
 21
1945.918573969646
 31
0.0
  0
LINE
  5
DA
  8
0
  6
CONTINUOUS
 62
     7
 10
4301.342713144628
 20
1950.918573969646
 30
0.0
 11
4301.342713144628
 21
1945.918573969646
 31
0.0
  0
LINE
  5
DB
  8
0
  6
CONTINUOUS
 62
     7
 10
4001.342713144628
 20
2181.418573969646
 30
0.0
 11
4001.342713144628
 21
2185.918573969646
 31
0.0
  0
LINE
  5
DC
  8
0
  6
CONTINUOUS
 62
     7
 10
4006.342713144628
 20
2181.418573969646
 30
0.0
 11
4001.342713144628
 21
2181.418573969646
 31
0.0
  0
LINE
  5
DD
  8
0
  6
CONTINUOUS
 62
     7
 10
4267.842713144628
 20
2131.418573969646
 30
0.0
 11
4296.842713144629
 21
2131.418573969646
 31
0.0
  0
ARC
  5
DE
  8
0
  6
CONTINUOUS
 62
     7
 10
4267.842713144628
 20
2136.418573969646
 30
0.0
 40
5.0
 50
180.0
 51
270.0000000000008
  0
LINE
  5
DF
  8
0
  6
CONTINUOUS
 62
     7
 10
4262.842713144628
 20
2136.418573969646
 30
0.0
 11
4262.842713144628
 21
2181.418573969646
 31
0.0
  0
LINE
  5
E0
  8
0
  6
CONTINUOUS
 62
     7
 10
3921.342713145731
 20
1485.918573969622
 30
0.0
 11
3946.342713145731
 21
1485.918573969622
 31
0.0
  0
LINE
  5
E1
  8
0
  6
CONTINUOUS
 62
     7
 10
4242.221575772217
 20
1485.918573969623
 30
0.0
 11
4258.342713145731
 21
1485.918573969623
 31
0.0
  0
LINE
  5
E2
  8
0
  6
CONTINUOUS
 62
     7
 10
4233.34271314573
 20
1485.918573969623
 30
0.0
 11
4242.221575772217
 21
1485.918573969623
 31
0.0
  0
LINE
  5
E3
  8
0
  6
CONTINUOUS
 62
     7
 10
4291.342713144626
 20
1495.91857396962
 30
0.0
 11
4291.342713144626
 21
1567.91857396962
 31
0.0
  0
LINE
  5
E4
  8
0
  6
CONTINUOUS
 62
     7
 10
3902.842713144631
 20
1495.91857396962
 30
0.0
 11
4291.342713144626
 21
1495.91857396962
 31
0.0
  0
LINE
  5
E5
  8
0
  6
CONTINUOUS
 62
     7
 10
3902.842713144631
 20
1495.91857396962
 30
0.0
 11
3902.842713144631
 21
2185.91857396962
 31
0.0
  0
LINE
  5
E6
  8
0
  6
CONTINUOUS
 62
     7
 10
4301.342713144627
 20
1615.876889202747
 30
0.0
 11
4301.342713144627
 21
1945.918573969646
 31
0.0
  0
ARC
  5
E7
  8
0
  6
CONTINUOUS
 62
     7
 10
4411.342713144621
 20
1567.91857396962
 30
0.0
 40
119.9999999999955
 50
156.4435356908976
 51
180.0
  0
ARC
  5
E8
  8
0
  6
CONTINUOUS
 62
     7
 10
4245.342713144627
 20
2161.91857396962
 30
0.0
 40
7.500000000000721
 50
150.0735651333762
 51
209.9264348666246
  0
CIRCLE
  5
E9
  8
0
  6
CONTINUOUS
 62
     7
 10
3957.842713144631
 20
2161.91857396962
 30
0.0
 40
7.5
  0
LINE
  5
EA
  8
0
  6
CONTINUOUS
 62
     7
 10
3901.842713144631
 20
1495.91857396962
 30
0.0
 11
3902.842713144631
 21
1495.91857396962
 31
0.0
  0
LINE
  5
EB
  8
0
  6
CONTINUOUS
 62
     7
 10
3901.842713144631
 20
1495.91857396962
 30
0.0
 11
3901.842713144631
 21
2185.91857396962
 31
0.0
  0
LINE
  5
EC
  8
0
  6
CONTINUOUS
 62
     7
 10
2861.613693257194
 20
3210.270825974356
 30
0.0
 11
2861.613693257194
 21
2811.270825974356
 31
0.0
  0
LINE
  5
ED
  8
0
  6
CONTINUOUS
 62
     7
 10
1663.613693257194
 20
2811.270825974356
 30
0.0
 11
2861.613693257194
 21
2811.270825974356
 31
0.0
  0
LINE
  5
EE
  8
0
  6
CONTINUOUS
 62
     7
 10
1663.613693257194
 20
3210.270825974356
 30
0.0
 11
1663.613693257194
 21
2811.270825974356
 31
0.0
  0
LINE
  5
EF
  8
0
  6
CONTINUOUS
 62
     7
 10
1663.613693257194
 20
3210.270825974356
 30
0.0
 11
2861.613693257194
 21
3210.270825974356
 31
0.0
  0
LINE
  5
F0
  8
0
  6
CONTINUOUS
 62
     7
 10
1663.613693257194
 20
2810.270825974356
 30
0.0
 11
2861.613693257194
 21
2810.270825974356
 31
0.0
  0
LINE
  5
F1
  8
0
  6
CONTINUOUS
 62
     7
 10
1663.613693257194
 20
2811.270825974356
 30
0.0
 11
1663.613693257194
 21
2810.270825974356
 31
0.0
  0
LINE
  5
F2
  8
0
  6
CONTINUOUS
 62
     7
 10
2861.613693257194
 20
2811.270825974356
 30
0.0
 11
2861.613693257194
 21
2810.270825974356
 31
0.0
  0
LINE
  5
F3
  8
0
  6
CONTINUOUS
 62
     7
 10
2862.613693257194
 20
2810.270825974356
 30
0.0
 11
2862.613693257194
 21
3210.270825974356
 31
0.0
  0
LINE
  5
F4
  8
0
  6
CONTINUOUS
 62
     7
 10
2861.613693257194
 20
2810.270825974356
 30
0.0
 11
2862.613693257194
 21
2810.270825974356
 31
0.0
  0
LINE
  5
F5
  8
0
  6
CONTINUOUS
 62
     7
 10
2861.613693257194
 20
2810.270825974356
 30
0.0
 11
2861.613693257194
 21
3210.270825974356
 31
0.0
  0
LINE
  5
F6
  8
0
  6
CONTINUOUS
 62
     7
 10
2861.613693257194
 20
3210.270825974356
 30
0.0
 11
2862.613693257194
 21
3210.270825974356
 31
0.0
  0
LINE
  5
F7
  8
0
  6
CONTINUOUS
 62
     7
 10
1662.613693257194
 20
2810.270825974356
 30
0.0
 11
1663.613693257194
 21
2810.270825974356
 31
0.0
  0
LINE
  5
F8
  8
0
  6
CONTINUOUS
 62
     7
 10
1662.613693257194
 20
3210.270825974356
 30
0.0
 11
1663.613693257194
 21
3210.270825974356
 31
0.0
  0
LINE
  5
F9
  8
0
  6
CONTINUOUS
 62
     7
 10
1663.613693257194
 20
2810.270825974356
 30
0.0
 11
1663.613693257194
 21
3210.270825974356
 31
0.0
  0
LINE
  5
FA
  8
0
  6
CONTINUOUS
 62
     7
 10
1662.613693257194
 20
2810.270825974356
 30
0.0
 11
1662.613693257194
 21
3210.270825974356
 31
0.0
  0
LINE
  5
FB
  8
0
  6
CONTINUOUS
 62
     7
 10
2858.963860412803
 20
287.0712235571543
 30
0.0
 11
2858.963860412803
 21
297.0712235571543
 31
0.0
  0
LINE
  5
FC
  8
0
  6
CONTINUOUS
 62
     7
 10
2833.963860412803
 20
297.0712235571543
 30
0.0
 11
2833.963860412803
 21
287.0712235571543
 31
0.0
  0
LINE
  5
FD
  8
0
  6
CONTINUOUS
 62
     7
 10
2859.463860412818
 20
991.0712235571707
 30
0.0
 11
1661.463860412818
 21
991.0712235571707
 31
0.0
  0
LINE
  5
FE
  8
0
  6
CONTINUOUS
 62
     7
 10
2859.463860412818
 20
987.0712235571707
 30
0.0
 11
2859.463860412818
 21
991.0712235571707
 31
0.0
  0
LINE
  5
FF
  8
0
  6
CONTINUOUS
 62
     7
 10
2859.463860412818
 20
987.0712235571707
 30
0.0
 11
1661.463860412818
 21
987.0712235571707
 31
0.0
  0
LINE
  5
100
  8
0
  6
CONTINUOUS
 62
     7
 10
1661.463860412818
 20
987.0712235571707
 30
0.0
 11
1661.463860412818
 21
991.0712235571707
 31
0.0
  0
LINE
  5
101
  8
0
  6
CONTINUOUS
 62
     7
 10
1661.463860412818
 20
1011.071223557171
 30
0.0
 11
1661.463860412818
 21
1015.071223557171
 31
0.0
  0
LINE
  5
102
  8
0
  6
CONTINUOUS
 62
     7
 10
2859.463860412818
 20
1011.071223557171
 30
0.0
 11
2859.463860412818
 21
1015.071223557171
 31
0.0
  0
LINE
  5
103
  8
0
  6
CONTINUOUS
 62
     7
 10
2859.463860412818
 20
1011.071223557171
 30
0.0
 11
1661.463860412818
 21
1011.071223557171
 31
0.0
  0
LINE
  5
104
  8
0
  6
CONTINUOUS
 62
     7
 10
2859.463860412818
 20
1015.071223557171
 30
0.0
 11
1661.463860412818
 21
1015.071223557171
 31
0.0
  0
LINE
  5
105
  8
0
  6
CONTINUOUS
 62
     7
 10
1661.463860412818
 20
1011.071223557172
 30
0.0
 11
1661.463860412818
 21
991.0712235571707
 31
0.0
  0
LINE
  5
106
  8
0
  6
CONTINUOUS
 62
     7
 10
2859.463860412818
 20
1011.071223557172
 30
0.0
 11
2859.463860412818
 21
991.0712235571707
 31
0.0
  0
LINE
  5
107
  8
0
  6
CONTINUOUS
 62
     7
 10
1660.463860412818
 20
987.0712235571707
 30
0.0
 11
1661.463860412818
 21
987.0712235571707
 31
0.0
  0
LINE
  5
108
  8
0
  6
CONTINUOUS
 62
     7
 10
1660.463860412818
 20
1015.071223557171
 30
0.0
 11
1660.463860412818
 21
987.0712235571707
 31
0.0
  0
LINE
  5
109
  8
0
  6
CONTINUOUS
 62
     7
 10
1661.463860412818
 20
987.0712235571707
 30
0.0
 11
1661.463860412818
 21
1015.071223557171
 31
0.0
  0
LINE
  5
10A
  8
0
  6
CONTINUOUS
 62
     7
 10
1661.463860412818
 20
1015.071223557171
 30
0.0
 11
1660.463860412818
 21
1015.071223557171
 31
0.0
  0
LINE
  5
10B
  8
0
  6
CONTINUOUS
 62
     7
 10
2859.463860412818
 20
1015.071223557171
 30
0.0
 11
2859.463860412818
 21
987.0712235571707
 31
0.0
  0
LINE
  5
10C
  8
0
  6
CONTINUOUS
 62
     7
 10
2860.463860412818
 20
1015.071223557171
 30
0.0
 11
2859.463860412818
 21
1015.071223557171
 31
0.0
  0
LINE
  5
10D
  8
0
  6
CONTINUOUS
 62
     7
 10
2859.463860412818
 20
987.0712235571707
 30
0.0
 11
2860.463860412818
 21
987.0712235571707
 31
0.0
  0
LINE
  5
10E
  8
0
  6
CONTINUOUS
 62
     7
 10
2860.463860412818
 20
987.0712235571707
 30
0.0
 11
2860.463860412818
 21
1015.071223557171
 31
0.0
  0
LINE
  5
10F
  8
0
  6
CONTINUOUS
 62
     7
 10
1962.963860412815
 20
964.5712235571496
 30
0.0
 11
1962.963860412815
 21
959.5712235571496
 31
0.0
  0
ARC
  5
110
  8
0
  6
CONTINUOUS
 62
     7
 10
1960.463860412815
 20
964.5712235571496
 30
0.0
 40
2.5
 50
0.0
 51
180.0
  0
LINE
  5
111
  8
0
  6
CONTINUOUS
 62
     7
 10
1957.963860412815
 20
959.5712235571496
 30
0.0
 11
1957.963860412815
 21
964.5712235571496
 31
0.0
  0
ARC
  5
112
  8
0
  6
CONTINUOUS
 62
     7
 10
1960.463860412815
 20
959.5712235571496
 30
0.0
 40
2.5
 50
180.0
 51
0.0
  0
LINE
  5
113
  8
0
  6
CONTINUOUS
 62
     7
 10
2162.963860412815
 20
964.5712235571496
 30
0.0
 11
2162.963860412815
 21
959.5712235571496
 31
0.0
  0
ARC
  5
114
  8
0
  6
CONTINUOUS
 62
     7
 10
2160.463860412815
 20
964.5712235571496
 30
0.0
 40
2.5
 50
0.0
 51
180.0
  0
LINE
  5
115
  8
0
  6
CONTINUOUS
 62
     7
 10
2157.963860412815
 20
959.5712235571496
 30
0.0
 11
2157.963860412815
 21
964.5712235571496
 31
0.0
  0
ARC
  5
116
  8
0
  6
CONTINUOUS
 62
     7
 10
2160.463860412815
 20
959.5712235571496
 30
0.0
 40
2.5
 50
180.0
 51
0.0
  0
ARC
  5
117
  8
0
  6
CONTINUOUS
 62
     7
 10
1868.463860412815
 20
945.0712235571494
 30
0.0
 40
8.0
 50
180.0
 51
270.0000000000008
  0
LINE
  5
118
  8
0
  6
CONTINUOUS
 62
     7
 10
1860.463860412815
 20
945.0712235571494
 30
0.0
 11
1860.463860412815
 21
987.0712235571494
 31
0.0
  0
LINE
  5
119
  8
0
  6
CONTINUOUS
 62
     7
 10
1860.463860412815
 20
987.0712235571494
 30
0.0
 11
2660.463860412815
 21
987.0712235571494
 31
0.0
  0
LINE
  5
11A
  8
0
  6
CONTINUOUS
 62
     7
 10
2660.463860412815
 20
945.0712235571494
 30
0.0
 11
2660.463860412815
 21
987.0712235571494
 31
0.0
  0
ARC
  5
11B
  8
0
  6
CONTINUOUS
 62
     7
 10
2652.463860412815
 20
945.0712235571494
 30
0.0
 40
8.0
 50
270.0000000000008
 51
0.0
  0
LINE
  5
11C
  8
0
  6
CONTINUOUS
 62
     7
 10
1868.463860412815
 20
937.0712235571494
 30
0.0
 11
2652.463860412815
 21
937.0712235571494
 31
0.0
  0
ARC
  5
11D
  8
0
  6
CONTINUOUS
 62
     7
 10
2560.463860412815
 20
964.5712235571496
 30
0.0
 40
2.5
 50
0.0
 51
180.0
  0
LINE
  5
11E
  8
0
  6
CONTINUOUS
 62
     7
 10
2557.963860412815
 20
959.5712235571496
 30
0.0
 11
2557.963860412815
 21
964.5712235571496
 31
0.0
  0
ARC
  5
11F
  8
0
  6
CONTINUOUS
 62
     7
 10
2560.463860412815
 20
959.5712235571496
 30
0.0
 40
2.5
 50
180.0
 51
0.0
  0
LINE
  5
120
  8
0
  6
CONTINUOUS
 62
     7
 10
2562.963860412815
 20
964.5712235571496
 30
0.0
 11
2562.963860412815
 21
959.5712235571496
 31
0.0
  0
ARC
  5
121
  8
0
  6
CONTINUOUS
 62
     7
 10
2360.463860412815
 20
964.5712235571496
 30
0.0
 40
2.500000000000455
 50
0.0
 51
180.0
  0
LINE
  5
122
  8
0
  6
CONTINUOUS
 62
     7
 10
2357.963860412815
 20
959.5712235571496
 30
0.0
 11
2357.963860412815
 21
964.5712235571496
 31
0.0
  0
ARC
  5
123
  8
0
  6
CONTINUOUS
 62
     7
 10
2360.463860412815
 20
959.5712235571496
 30
0.0
 40
2.500000000000455
 50
180.0
 51
0.0
  0
LINE
  5
124
  8
0
  6
CONTINUOUS
 62
     7
 10
2362.963860412815
 20
964.5712235571496
 30
0.0
 11
2362.963860412815
 21
959.5712235571496
 31
0.0
  0
LINE
  5
125
  8
0
  6
CONTINUOUS
 62
     7
 10
2782.463860412817
 20
743.0712235571684
 30
0.0
 11
1732.463860412817
 21
743.0712235571677
 31
0.0
  0
LINE
  5
126
  8
0
  6
CONTINUOUS
 62
     7
 10
1732.463860412817
 20
761.0712235571677
 30
0.0
 11
1732.463860412817
 21
743.0712235571677
 31
0.0
  0
LINE
  5
127
  8
0
  6
CONTINUOUS
 62
     7
 10
2782.463860412817
 20
761.0712235571683
 30
0.0
 11
1775.463860412815
 21
761.0712235571677
 31
0.0
  0
LINE
  5
128
  8
0
  6
CONTINUOUS
 62
     7
 10
1763.025598104301
 20
761.0712235571677
 30
0.0
 11
1757.902122721329
 21
761.0712235571677
 31
0.0
  0
LINE
  5
129
  8
0
  6
CONTINUOUS
 62
     7
 10
1745.463860412815
 20
761.0712235571677
 30
0.0
 11
1732.463860412817
 21
761.0712235571677
 31
0.0
  0
LINE
  5
12A
  8
0
  6
CONTINUOUS
 62
     7
 10
2782.463860412817
 20
761.0712235571683
 30
0.0
 11
2782.463860412817
 21
743.0712235571684
 31
0.0
  0
LINE
  5
12B
  8
0
  6
CONTINUOUS
 62
     7
 10
2831.963860412817
 20
738.0712235571684
 30
0.0
 11
1662.463860412817
 21
738.0712235571688
 31
0.0
  0
LINE
  5
12C
  8
0
  6
CONTINUOUS
 62
     7
 10
1662.463860412816
 20
982.0712235571691
 30
0.0
 11
1662.463860412817
 21
738.0712235571688
 31
0.0
  0
LINE
  5
12D
  8
0
  6
CONTINUOUS
 62
     7
 10
2831.963860412816
 20
982.0712235571684
 30
0.0
 11
2660.463860412815
 21
982.0712235571685
 31
0.0
  0
LINE
  5
12E
  8
0
  6
CONTINUOUS
 62
     7
 10
1860.463860412815
 20
982.071223557169
 30
0.0
 11
1775.463860412815
 21
982.071223557169
 31
0.0
  0
LINE
  5
12F
  8
0
  6
CONTINUOUS
 62
     7
 10
1745.463860412815
 20
982.0712235571691
 30
0.0
 11
1662.463860412816
 21
982.0712235571691
 31
0.0
  0
LINE
  5
130
  8
0
  6
CONTINUOUS
 62
     7
 10
2831.963860412816
 20
982.0712235571684
 30
0.0
 11
2831.963860412817
 21
738.0712235571684
 31
0.0
  0
LINE
  5
131
  8
0
  6
CONTINUOUS
 62
     7
 10
2831.963860412816
 20
982.5712235571684
 30
0.0
 11
2831.963860412816
 21
982.0712235571687
 31
0.0
  0
LINE
  5
132
  8
0
  6
CONTINUOUS
 62
     7
 10
1662.463860412816
 20
982.5712235571691
 30
0.0
 11
1662.463860412816
 21
982.0712235571693
 31
0.0
  0
LINE
  5
133
  8
0
  6
CONTINUOUS
 62
     7
 10
1662.463860412816
 20
982.5712235571691
 30
0.0
 11
1745.463860412815
 21
982.571223557169
 31
0.0
  0
LINE
  5
134
  8
0
  6
CONTINUOUS
 62
     7
 10
1775.463860412815
 20
982.5712235571691
 30
0.0
 11
1860.463860412815
 21
982.5712235571691
 31
0.0
  0
LINE
  5
135
  8
0
  6
CONTINUOUS
 62
     7
 10
2660.463860412815
 20
982.5712235571685
 30
0.0
 11
2831.963860412816
 21
982.5712235571684
 31
0.0
  0
LINE
  5
136
  8
0
  6
CONTINUOUS
 62
     7
 10
2832.463860412817
 20
738.0712235571684
 30
0.0
 11
2831.963860412817
 21
738.0712235571684
 31
0.0
  0
LINE
  5
137
  8
0
  6
CONTINUOUS
 62
     7
 10
2831.963860412816
 20
982.5712235571687
 30
0.0
 11
2831.963860412817
 21
738.0712235571684
 31
0.0
  0
LINE
  5
138
  8
0
  6
CONTINUOUS
 62
     7
 10
2832.463860412816
 20
982.5712235571687
 30
0.0
 11
2831.963860412816
 21
982.5712235571687
 31
0.0
  0
ARC
  5
139
  8
0
  6
CONTINUOUS
 62
     7
 10
1750.463860412815
 20
752.0712235571775
 30
0.0
 40
5.0
 50
180.0
 51
270.0000000000008
  0
LINE
  5
13A
  8
0
  6
CONTINUOUS
 62
     7
 10
1745.463860412815
 20
752.0712235571775
 30
0.0
 11
1745.463860412815
 21
987.0712235571775
 31
0.0
  0
LINE
  5
13B
  8
0
  6
CONTINUOUS
 62
     7
 10
1745.463860412815
 20
987.0712235571775
 30
0.0
 11
1775.463860412815
 21
987.0712235571775
 31
0.0
  0
LINE
  5
13C
  8
0
  6
CONTINUOUS
 62
     7
 10
1775.463860412815
 20
752.0712235571775
 30
0.0
 11
1775.463860412815
 21
987.0712235571775
 31
0.0
  0
ARC
  5
13D
  8
0
  6
CONTINUOUS
 62
     7
 10
1770.463860412815
 20
752.0712235571775
 30
0.0
 40
5.0
 50
270.0000000000008
 51
0.0
  0
LINE
  5
13E
  8
0
  6
CONTINUOUS
 62
     7
 10
1750.463860412815
 20
747.0712235571775
 30
0.0
 11
1770.463860412815
 21
747.0712235571775
 31
0.0
  0
CIRCLE
  5
13F
  8
0
  6
CONTINUOUS
 62
     7
 10
1760.463860412815
 20
762.0712235571775
 30
0.0
 40
2.75
  0
CIRCLE
  5
140
  8
0
  6
CONTINUOUS
 62
     7
 10
1751.963860412815
 20
827.0712235571774
 30
0.0
 40
2.75
  0
CIRCLE
  5
141
  8
0
  6
CONTINUOUS
 62
     7
 10
1768.963860412815
 20
892.0712235571775
 30
0.0
 40
2.750000000000227
  0
CIRCLE
  5
142
  8
0
  6
CONTINUOUS
 62
     7
 10
1751.963860412815
 20
957.0712235571775
 30
0.0
 40
2.75
  0
LINE
  5
143
  8
0
  6
CONTINUOUS
 62
     7
 10
2833.963860412803
 20
287.0712235571543
 30
0.0
 11
2858.963860412803
 21
287.0712235571543
 31
0.0
  0
LINE
  5
144
  8
0
  6
CONTINUOUS
 62
     7
 10
2832.463860412817
 20
417.0295387902787
 30
0.0
 11
2832.463860412819
 21
987.0712235571514
 31
0.0
  0
LINE
  5
145
  8
0
  6
CONTINUOUS
 62
     7
 10
2832.463860412819
 20
987.0712235571514
 30
0.0
 11
2834.963860412819
 21
987.0712235571514
 31
0.0
  0
LINE
  5
146
  8
0
  6
CONTINUOUS
 62
     7
 10
2834.963860412817
 20
417.0295387902788
 30
0.0
 11
2834.963860412819
 21
987.0712235571514
 31
0.0
  0
LINE
  5
147
  8
0
  6
CONTINUOUS
 62
     7
 10
2832.463860412817
 20
417.0295387902787
 30
0.0
 11
2834.963860412817
 21
417.0295387902788
 31
0.0
  0
LINE
  5
148
  8
0
  6
CONTINUOUS
 62
     7
 10
2832.463860412817
 20
369.0712235571514
 30
0.0
 11
2834.963860412817
 21
369.0712235571514
 31
0.0
  0
LINE
  5
149
  8
0
  6
CONTINUOUS
 62
     7
 10
2832.463860412817
 20
369.0712235571514
 30
0.0
 11
2832.463860412817
 21
417.0295387902787
 31
0.0
  0
LINE
  5
14A
  8
0
  6
CONTINUOUS
 62
     7
 10
2834.963860412817
 20
369.0712235571514
 30
0.0
 11
2834.963860412817
 21
417.0295387902788
 31
0.0
  0
LINE
  5
14B
  8
0
  6
CONTINUOUS
 62
     7
 10
2832.463860412817
 20
297.0712235571514
 30
0.0
 11
2834.963860412817
 21
297.0712235571514
 31
0.0
  0
LINE
  5
14C
  8
0
  6
CONTINUOUS
 62
     7
 10
2832.463860412817
 20
297.0712235571514
 30
0.0
 11
2832.463860412817
 21
369.0712235571514
 31
0.0
  0
LINE
  5
14D
  8
0
  6
CONTINUOUS
 62
     7
 10
2834.963860412817
 20
297.0712235571514
 30
0.0
 11
2834.963860412817
 21
369.0712235571514
 31
0.0
  0
LINE
  5
14E
  8
0
  6
CONTINUOUS
 62
     7
 10
2857.963860412817
 20
417.0295387902786
 30
0.0
 11
2857.963860412819
 21
987.0712235571513
 31
0.0
  0
LINE
  5
14F
  8
0
  6
CONTINUOUS
 62
     7
 10
2857.963860412819
 20
987.0712235571513
 30
0.0
 11
2860.463860412819
 21
987.0712235571513
 31
0.0
  0
LINE
  5
150
  8
0
  6
CONTINUOUS
 62
     7
 10
2860.463860412817
 20
417.0295387902786
 30
0.0
 11
2860.463860412819
 21
987.0712235571513
 31
0.0
  0
LINE
  5
151
  8
0
  6
CONTINUOUS
 62
     7
 10
2857.963860412817
 20
417.0295387902786
 30
0.0
 11
2860.463860412817
 21
417.0295387902786
 31
0.0
  0
LINE
  5
152
  8
0
  6
CONTINUOUS
 62
     7
 10
2860.463860412817
 20
369.0712235571513
 30
0.0
 11
2860.463860412817
 21
417.0295387902786
 31
0.0
  0
LINE
  5
153
  8
0
  6
CONTINUOUS
 62
     7
 10
2857.963860412817
 20
369.0712235571513
 30
0.0
 11
2860.463860412817
 21
369.0712235571513
 31
0.0
  0
LINE
  5
154
  8
0
  6
CONTINUOUS
 62
     7
 10
2857.963860412817
 20
417.0295387902786
 30
0.0
 11
2857.963860412817
 21
369.0712235571513
 31
0.0
  0
LINE
  5
155
  8
0
  6
CONTINUOUS
 62
     7
 10
2857.963860412817
 20
297.0712235571513
 30
0.0
 11
2860.463860412817
 21
297.0712235571513
 31
0.0
  0
LINE
  5
156
  8
0
  6
CONTINUOUS
 62
     7
 10
2857.963860412817
 20
369.0712235571513
 30
0.0
 11
2857.963860412817
 21
297.0712235571513
 31
0.0
  0
LINE
  5
157
  8
0
  6
CONTINUOUS
 62
     7
 10
2860.463860412817
 20
297.0712235571513
 30
0.0
 11
2860.463860412817
 21
369.0712235571513
 31
0.0
  0
LINE
  5
158
  8
0
  6
CONTINUOUS
 62
     7
 10
2857.963860412841
 20
987.0712235571513
 30
0.0
 11
2834.963860412819
 21
987.0712235571514
 31
0.0
  0
LINE
  5
159
  8
0
  6
CONTINUOUS
 62
     7
 10
2834.963860412817
 20
417.0295387902788
 30
0.0
 11
2857.963860412839
 21
417.0295387902786
 31
0.0
  0
LINE
  5
15A
  8
0
  6
CONTINUOUS
 62
     7
 10
2834.963860412817
 20
369.0712235571514
 30
0.0
 11
2857.963860412817
 21
369.0712235571513
 31
0.0
  0
LINE
  5
15B
  8
0
  6
CONTINUOUS
 62
     7
 10
2857.963860412839
 20
297.0712235571513
 30
0.0
 11
2834.963860412817
 21
297.0712235571514
 31
0.0
  0
ENDSEC
  0
EOF
