  0
SECTION
  2
HEADER
  9
$ACADVER
  1
AC1006
  9
$DWGCODEPAGE
  3
ansi_932
  9
$INSBASE
 10
0.0
 20
0.0
 30
0.0
  9
$EXTMIN
 10
444.77967901143
 20
165.7088516276313
  9
$EXTMAX
 10
4839.484712179223
 20
3314.521866334918
  9
$LIMMIN
 10
0.0
 20
0.0
  9
$LIMMAX
 10
5000.0
 20
3500.0
  9
$ORTHOMODE
 70
     1
  9
$REGENMODE
 70
     1
  9
$FILLMODE
 70
     1
  9
$QTEXTMODE
 70
     0
  9
$MIRRTEXT
 70
     1
  9
$DRAGMODE
 70
     2
  9
$LTSCALE
 40
1.0
  9
$OSMODE
 70
    37
  9
$ATTMODE
 70
     1
  9
$TEXTSIZE
 40
3.5
  9
$TRACEWID
 40
1.0
  9
$TEXTSTYLE
  7
STANDARD
  9
$CLAYER
  8
0
  9
$CELTYPE
  6
BYLAYER
  9
$CECOLOR
 62
   256
  9
$DIMSCALE
 40
1.0
  9
$DIMASZ
 40
3.302
  9
$DIMEXO
 40
1.0
  9
$DIMDLI
 40
3.75
  9
$DIMRND
 40
0.0
  9
$DIMDLE
 40
0.0
  9
$DIMEXE
 40
1.0
  9
$DIMTP
 40
0.0
  9
$DIMTM
 40
0.0
  9
$DIMTXT
 40
3.5
  9
$DIMCEN
 40
2.5
  9
$DIMTSZ
 40
0.0
  9
$DIMTOL
 70
     0
  9
$DIMLIM
 70
     0
  9
$DIMTIH
 70
     1
  9
$DIMTOH
 70
     1
  9
$DIMSE1
 70
     0
  9
$DIMSE2
 70
     0
  9
$DIMTAD
 70
     1
  9
$DIMZIN
 70
     0
  9
$DIMBLK
  1

  9
$DIMASO
 70
     1
  9
$DIMSHO
 70
     1
  9
$DIMPOST
  1

  9
$DIMAPOST
  1

  9
$DIMALT
 70
     0
  9
$DIMALTD
 70
     3
  9
$DIMALTF
 40
0.0393700787401575
  9
$DIMLFAC
 40
1.0
  9
$DIMTOFL
 70
     1
  9
$DIMTVP
 40
0.0
  9
$DIMTIX
 70
     0
  9
$DIMSOXD
 70
     0
  9
$DIMSAH
 70
     0
  9
$DIMBLK1
  1

  9
$DIMBLK2
  1

  9
$LUNITS
 70
     2
  9
$LUPREC
 70
     3
  9
$SKETCHINC
 40
1.0
  9
$FILLETRAD
 40
10.0
  9
$AUNITS
 70
     0
  9
$AUPREC
 70
     2
  9
$MENU
  1
.
  9
$ELEVATION
 40
0.0
  9
$THICKNESS
 40
0.0
  9
$LIMCHECK
 70
     0
  9
$CHAMFERA
 40
0.0
  9
$CHAMFERB
 40
0.0
  9
$SKPOLY
 70
     0
  9
$TDCREATE
 40
2459800.107388646
  9
$TDUPDATE
 40
2460140.113643079
  9
$TDINDWG
 40
0.0115627315
  9
$TDUSRTIMER
 40
0.0115627315
  9
$USRTIMER
 70
     1
  9
$ANGBASE
 50
0.0
  9
$ANGDIR
 70
     0
  9
$PDMODE
 70
     0
  9
$PDSIZE
 40
-1.0
  9
$PLINEWID
 40
0.0
  9
$COORDS
 70
     1
  9
$SPLFRAME
 70
     0
  9
$SPLINETYPE
 70
     6
  9
$SPLINESEGS
 70
     8
  9
$ATTDIA
 70
     0
  9
$ATTREQ
 70
     1
  9
$HANDLING
 70
     1
  9
$HANDSEED
  5
768
  9
$SURFTAB1
 70
     6
  9
$SURFTAB2
 70
     6
  9
$SURFTYPE
 70
     6
  9
$SURFU
 70
     6
  9
$SURFV
 70
     6
  9
$UCSNAME
  2

  9
$UCSORG
 10
0.0
 20
0.0
 30
0.0
  9
$UCSXDIR
 10
1.0
 20
0.0
 30
0.0
  9
$UCSYDIR
 10
0.0
 20
1.0
 30
0.0
  9
$USERI1
 70
     0
  9
$USERI2
 70
     0
  9
$USERI3
 70
     0
  9
$USERI4
 70
     0
  9
$USERI5
 70
     0
  9
$USERR1
 40
0.0
  9
$USERR2
 40
0.0
  9
$USERR3
 40
0.0
  9
$USERR4
 40
0.0
  9
$USERR5
 40
0.0
  9
$WORLDVIEW
 70
     1
  0
ENDSEC
  0
SECTION
  2
TABLES
  0
TABLE
  2
VPORT
 70
     1
  0
VPORT
  2
*ACTIVE
 70
     0
 10
0.0
 20
0.0
 11
1.0
 21
1.0
 12
2902.199162007926
 22
1738.814219824176
 13
0.0
 23
0.0
 14
10.0
 24
10.0
 15
10.0
 25
10.0
 16
0.0
 26
0.0
 36
1.0
 17
0.0
 27
0.0
 37
0.0
 40
3467.10274263939
 41
2.235364396654719
 42
50.0
 43
0.0
 44
0.0
 50
0.0
 51
0.0
 71
     0
 72
  2000
 73
     1
 74
     3
 75
     0
 76
     0
 77
     0
 78
     0
  0
ENDTAB
  0
TABLE
  2
LTYPE
 70
     6
  0
LTYPE
  2
CONTINUOUS
 70
     0
  3
Solid line
 72
    65
 73
     0
 40
0.0
  0
LTYPE
  2
HIDDEN
 70
     0
  3
Hidden __ __ __ __ __ __ __ __ __ __ __ __ __ __
 72
    65
 73
     2
 40
1.905
 49
1.27
 49
-0.635
  0
LTYPE
  2
PHANTOM
 70
     0
  3
Phantom ______  __  __  ______  __  __  ______
 72
    65
 73
     6
 40
12.7
 49
6.35
 49
-1.27
 49
1.27
 49
-1.27
 49
1.27
 49
-1.27
  0
LTYPE
  2
CENTER
 70
     0
  3
Center ____ _ ____ _ ____ _ ____ _ ____ _ ____
 72
    65
 73
     4
 40
10.16
 49
6.35
 49
-1.27
 49
1.27
 49
-1.27
  0
LTYPE
  2
CENTERX2
 70
     0
  3
Center (2x) ________  __  ________  __  _____
 72
    65
 73
     4
 40
20.32
 49
12.7
 49
-2.54
 49
2.54
 49
-2.54
  0
LTYPE
  2
DOT2
 70
     0
  3
Dot (.5x) ........................................
 72
    65
 73
     2
 40
0.635
 49
0.0
 49
-0.635
  0
ENDTAB
  0
TABLE
  2
LAYER
 70
     4
  0
LAYER
  2
0
 70
     0
 62
     7
  6
CONTINUOUS
  0
LAYER
  2
SLD-0
 70
     0
 62
   179
  6
CONTINUOUS
  0
LAYER
  2
寸法
 70
     0
 62
   179
  6
CONTINUOUS
  0
LAYER
  2
DEFPOINTS
 70
     0
 62
     7
  6
CONTINUOUS
  0
ENDTAB
  0
TABLE
  2
STYLE
 70
     2
  0
STYLE
  2
STANDARD
 70
     0
 40
0.0
 41
1.0
 50
0.0
 71
     0
 42
3.5
  3
txt
  4
bigfont
  0
STYLE
  2
SLDTEXTSTYLE0
 70
     0
 40
0.0
 41
0.75
 50
0.0
 71
     0
 42
3.5
  3
TXT
  4
bigfont
  0
ENDTAB
  0
TABLE
  2
VIEW
 70
     0
  0
ENDTAB
  0
TABLE
  2
UCS
 70
     0
  0
ENDTAB
  0
ENDSEC
  0
SECTION
  2
BLOCKS
  0
ENDSEC
  0
SECTION
  2
ENTITIES
  0
LINE
  5
75
  8
0
  6
CONTINUOUS
 62
     7
 10
4839.484712179223
 20
284.470902007842
 30
0.0
 11
3312.374599790194
 21
284.4709020078419
 31
0.0
  0
TEXT
  5
77
  8
0
  6
CONTINUOUS
 62
     7
 10
1653.493678216644
 20
3261.605199668251
 30
0.0
 40
52.91666666666666
  1
＜上面＞
 41
0.75
  7
SLDTEXTSTYLE0
  0
TEXT
  5
78
  8
0
  6
CONTINUOUS
 62
     7
 10
465.0550770716506
 20
2123.137155358547
 30
0.0
 40
52.91666666666666
  1
＜左側面＞
 41
0.75
  7
SLDTEXTSTYLE0
  0
TEXT
  5
79
  8
0
  6
CONTINUOUS
 62
     7
 10
1648.960416169302
 20
2119.924351969637
 30
0.0
 40
52.91666666666666
  1
＜正面＞
 41
0.75
  7
SLDTEXTSTYLE0
  0
TEXT
  5
7A
  8
0
  6
CONTINUOUS
 62
     7
 10
3377.814243189123
 20
326.489054196763
 30
0.0
 40
52.91666666666666
  1
品名：
 41
0.75
  7
SLDTEXTSTYLE0
  0
TEXT
  5
7B
  8
0
  6
CONTINUOUS
 62
     7
 10
4446.663437481703
 20
332.3177187478654
 30
0.0
 40
52.91666666666666
  1
Pamouna
 41
0.75
  7
SLDTEXTSTYLE0
  0
TEXT
  5
7C
  8
寸法
  6
CONTINUOUS
 62
     7
 10
4688.007304885427
 20
165.7088516276312
 30
0.0
 40
52.91666666666666
  1
1/1
 41
0.75
  7
SLDTEXTSTYLE0
  0
TEXT
  5
7D
  8
寸法
  6
CONTINUOUS
 62
     7
 10
4198.79693921183
 20
165.7088544215994
 30
0.0
 40
52.91666666666666
  1
2022/09/24
 41
0.75
  7
SLDTEXTSTYLE0
  0
TEXT
  5
7E
  8
寸法
  6
CONTINUOUS
 62
     7
 10
1633.463148059129
 20
1039.627624333833
 30
0.0
 40
52.91666666666666
  1
＜背面＞
 41
0.75
  7
SLDTEXTSTYLE0
  0
TEXT
  5
7F
  8
寸法
  6
CONTINUOUS
 62
     7
 10
3611.283129349215
 20
326.4179237671586
 30
0.0
 40
66.14583333333331
  1
MA-WS1501
 41
0.75
  7
SLDTEXTSTYLE0
  0
TEXT
  5
80
  8
寸法
  6
CONTINUOUS
 62
     7
 10
3480.731849808455
 20
2123.137155358548
 30
0.0
 40
52.91666666666666
  1
＜右側面＞
 41
0.75
  7
SLDTEXTSTYLE0
  0
LINE
  5
8B
  8
0
  6
CONTINUOUS
 62
     7
 10
3102.02736164755
 20
1617.182065315615
 30
0.0
 11
3101.22736164755
 21
1617.182065315615
 31
0.0
  0
ARC
  5
8C
  8
0
  6
CONTINUOUS
 62
     7
 10
3102.02736164755
 20
1616.982065315614
 30
0.0
 40
0.2000000000007276
 50
0.0
 51
90.0
  0
LINE
  5
8D
  8
0
  6
CONTINUOUS
 62
     7
 10
2353.52736164755
 20
1617.182065315615
 30
0.0
 11
2352.72736164755
 21
1617.182065315615
 31
0.0
  0
ARC
  5
8E
  8
0
  6
CONTINUOUS
 62
     7
 10
2353.52736164755
 20
1616.982065315615
 30
0.0
 40
0.2000000000002728
 50
0.0
 51
90.0
  0
LINE
  5
8F
  8
0
  6
CONTINUOUS
 62
     7
 10
3101.22736164755
 20
1617.182065315615
 30
0.0
 11
2357.22736164755
 21
1617.182065315615
 31
0.0
  0
LINE
  5
90
  8
0
  6
CONTINUOUS
 62
     7
 10
2352.72736164755
 20
1617.182065315615
 30
0.0
 11
1608.72736164755
 21
1617.182065315615
 31
0.0
  0
LINE
  5
91
  8
0
  6
CONTINUOUS
 62
     7
 10
1608.72736164755
 20
1617.182065315615
 30
0.0
 11
1607.92736164755
 21
1617.182065315615
 31
0.0
  0
ARC
  5
92
  8
0
  6
CONTINUOUS
 62
     7
 10
1607.92736164755
 20
1616.982065315615
 30
0.0
 40
0.2000000000000455
 50
90.0
 51
180.0
  0
LINE
  5
93
  8
0
  6
CONTINUOUS
 62
     7
 10
2357.22736164755
 20
1617.182065315615
 30
0.0
 11
2356.42736164755
 21
1617.182065315615
 31
0.0
  0
ARC
  5
94
  8
0
  6
CONTINUOUS
 62
     7
 10
2356.42736164755
 20
1616.982065315614
 30
0.0
 40
0.2000000000002728
 50
90.0
 51
180.0
  0
LINE
  5
DF
  8
0
  6
CONTINUOUS
 62
     7
 10
3102.22736164755
 20
1616.970916593868
 30
0.0
 11
3102.22736164755
 21
1616.882065315614
 31
0.0
  0
POLYLINE
  5
E0
  8
0
  6
CONTINUOUS
 62
     7
 66
     1
 10
0.0
 20
0.0
 30
0.0
  0
VERTEX
  5
5DC
  8
0
  6
CONTINUOUS
 62
     7
 10
3102.22736164755
 20
1616.882065315614
 30
0.0
  0
VERTEX
  5
5DD
  8
0
  6
CONTINUOUS
 62
     7
 10
3102.227344210789
 20
1616.879307383437
 30
0.0
  0
VERTEX
  5
5DE
  8
0
  6
CONTINUOUS
 62
     7
 10
3102.227288413026
 20
1616.876480943689
 30
0.0
  0
VERTEX
  5
5DF
  8
0
  6
CONTINUOUS
 62
     7
 10
3102.227189811435
 20
1616.873585156526
 30
0.0
  0
VERTEX
  5
5E0
  8
0
  6
CONTINUOUS
 62
     7
 10
3102.227045375226
 20
1616.870621999142
 30
0.0
  0
VERTEX
  5
5E1
  8
0
  6
CONTINUOUS
 62
     7
 10
3102.226852073603
 20
1616.867593448734
 30
0.0
  0
VERTEX
  5
5E2
  8
0
  6
CONTINUOUS
 62
     7
 10
3102.226606875773
 20
1616.864501482494
 30
0.0
  0
VERTEX
  5
5E3
  8
0
  6
CONTINUOUS
 62
     7
 10
3102.226306750941
 20
1616.86134807762
 30
0.0
  0
VERTEX
  5
5E4
  8
0
  6
CONTINUOUS
 62
     7
 10
3102.225948668315
 20
1616.858135211304
 30
0.0
  0
VERTEX
  5
5E5
  8
0
  6
CONTINUOUS
 62
     7
 10
3102.2255295971
 20
1616.854864860744
 30
0.0
  0
VERTEX
  5
5E6
  8
0
  6
CONTINUOUS
 62
     7
 10
3102.225046506503
 20
1616.851539003133
 30
0.0
  0
VERTEX
  5
5E7
  8
0
  6
CONTINUOUS
 62
     7
 10
3102.224496365729
 20
1616.848159615666
 30
0.0
  0
VERTEX
  5
5E8
  8
0
  6
CONTINUOUS
 62
     7
 10
3102.223876143986
 20
1616.844728675538
 30
0.0
  0
VERTEX
  5
5E9
  8
0
  6
CONTINUOUS
 62
     7
 10
3102.223182810477
 20
1616.841248159944
 30
0.0
  0
VERTEX
  5
5EA
  8
0
  6
CONTINUOUS
 62
     7
 10
3102.222413334413
 20
1616.83772004608
 30
0.0
  0
VERTEX
  5
5EB
  8
0
  6
CONTINUOUS
 62
     7
 10
3102.221564684995
 20
1616.834146311139
 30
0.0
  0
VERTEX
  5
5EC
  8
0
  6
CONTINUOUS
 62
     7
 10
3102.220633831432
 20
1616.830528932318
 30
0.0
  0
VERTEX
  5
5ED
  8
0
  6
CONTINUOUS
 62
     7
 10
3102.21961774293
 20
1616.82686988681
 30
0.0
  0
VERTEX
  5
5EE
  8
0
  6
CONTINUOUS
 62
     7
 10
3102.218513388695
 20
1616.823171151812
 30
0.0
  0
VERTEX
  5
5EF
  8
0
  6
CONTINUOUS
 62
     7
 10
3102.217317737934
 20
1616.819434704517
 30
0.0
  0
VERTEX
  5
5F0
  8
0
  6
CONTINUOUS
 62
     7
 10
3102.21602775985
 20
1616.81566252212
 30
0.0
  0
VERTEX
  5
5F1
  8
0
  6
CONTINUOUS
 62
     7
 10
3102.214640423654
 20
1616.811856581818
 30
0.0
  0
VERTEX
  5
5F2
  8
0
  6
CONTINUOUS
 62
     7
 10
3102.213152698549
 20
1616.808018860804
 30
0.0
  0
VERTEX
  5
5F3
  8
0
  6
CONTINUOUS
 62
     7
 10
3102.211561553741
 20
1616.804151336274
 30
0.0
  0
VERTEX
  5
5F4
  8
0
  6
CONTINUOUS
 62
     7
 10
3102.209863958438
 20
1616.800255985422
 30
0.0
  0
VERTEX
  5
5F5
  8
0
  6
CONTINUOUS
 62
     7
 10
3102.20805686929
 20
1616.796334863267
 30
0.0
  0
VERTEX
  5
5F6
  8
0
  6
CONTINUOUS
 62
     7
 10
3102.206137020381
 20
1616.792391404229
 30
0.0
  0
VERTEX
  5
5F7
  8
0
  6
CONTINUOUS
 62
     7
 10
3102.2041009548
 20
1616.788430226521
 30
0.0
  0
VERTEX
  5
5F8
  8
0
  6
CONTINUOUS
 62
     7
 10
3102.201945209435
 20
1616.784455986776
 30
0.0
  0
VERTEX
  5
5F9
  8
0
  6
CONTINUOUS
 62
     7
 10
3102.199666321171
 20
1616.780473341623
 30
0.0
  0
VERTEX
  5
5FA
  8
0
  6
CONTINUOUS
 62
     7
 10
3102.197260826897
 20
1616.776486947692
 30
0.0
  0
VERTEX
  5
5FB
  8
0
  6
CONTINUOUS
 62
     7
 10
3102.194725263502
 20
1616.772501461614
 30
0.0
  0
VERTEX
  5
5FC
  8
0
  6
CONTINUOUS
 62
     7
 10
3102.192056167873
 20
1616.768521540018
 30
0.0
  0
VERTEX
  5
5FD
  8
0
  6
CONTINUOUS
 62
     7
 10
3102.189250076896
 20
1616.764551839536
 30
0.0
  0
VERTEX
  5
5FE
  8
0
  6
CONTINUOUS
 62
     7
 10
3102.18630352746
 20
1616.760597016796
 30
0.0
  0
VERTEX
  5
5FF
  8
0
  6
CONTINUOUS
 62
     7
 10
3102.183213056454
 20
1616.75666172843
 30
0.0
  0
VERTEX
  5
600
  8
0
  6
CONTINUOUS
 62
     7
 10
3102.179975200765
 20
1616.752750631068
 30
0.0
  0
VERTEX
  5
601
  8
0
  6
CONTINUOUS
 62
     7
 10
3102.176586497278
 20
1616.748868381339
 30
0.0
  0
VERTEX
  5
602
  8
0
  6
CONTINUOUS
 62
     7
 10
3102.173043482883
 20
1616.745019635875
 30
0.0
  0
VERTEX
  5
603
  8
0
  6
CONTINUOUS
 62
     7
 10
3102.169342696076
 20
1616.741209052618
 30
0.0
  0
VERTEX
  5
604
  8
0
  6
CONTINUOUS
 62
     7
 10
3102.165481370206
 20
1616.737441856798
 30
0.0
  0
VERTEX
  5
605
  8
0
  6
CONTINUOUS
 62
     7
 10
3102.161458515346
 20
1616.733724724188
 30
0.0
  0
VERTEX
  5
606
  8
0
  6
CONTINUOUS
 62
     7
 10
3102.157273421497
 20
1616.730064559097
 30
0.0
  0
VERTEX
  5
607
  8
0
  6
CONTINUOUS
 62
     7
 10
3102.152925378663
 20
1616.726468265835
 30
0.0
  0
VERTEX
  5
608
  8
0
  6
CONTINUOUS
 62
     7
 10
3102.148413676848
 20
1616.722942748713
 30
0.0
  0
VERTEX
  5
609
  8
0
  6
CONTINUOUS
 62
     7
 10
3102.14373760605
 20
1616.719494912038
 30
0.0
  0
VERTEX
  5
60A
  8
0
  6
CONTINUOUS
 62
     7
 10
3102.138896456275
 20
1616.716131660123
 30
0.0
  0
VERTEX
  5
60B
  8
0
  6
CONTINUOUS
 62
     7
 10
3102.133889517523
 20
1616.712859897274
 30
0.0
  0
VERTEX
  5
60C
  8
0
  6
CONTINUOUS
 62
     7
 10
3102.128716079797
 20
1616.709686527803
 30
0.0
  0
VERTEX
  5
60D
  8
0
  6
CONTINUOUS
 62
     7
 10
3102.123375433103
 20
1616.706618456029
 30
0.0
  0
VERTEX
  5
60E
  8
0
  6
CONTINUOUS
 62
     7
 10
3102.117868090955
 20
1616.703665137871
 30
0.0
  0
VERTEX
  5
60F
  8
0
  6
CONTINUOUS
 62
     7
 10
3102.112199233298
 20
1616.700845761012
 30
0.0
  0
VERTEX
  5
610
  8
0
  6
CONTINUOUS
 62
     7
 10
3102.106375152413
 20
1616.698181832894
 30
0.0
  0
VERTEX
  5
611
  8
0
  6
CONTINUOUS
 62
     7
 10
3102.100402140581
 20
1616.695694860953
 30
0.0
  0
VERTEX
  5
612
  8
0
  6
CONTINUOUS
 62
     7
 10
3102.094286490081
 20
1616.69340635263
 30
0.0
  0
VERTEX
  5
613
  8
0
  6
CONTINUOUS
 62
     7
 10
3102.088034493195
 20
1616.691337815362
 30
0.0
  0
VERTEX
  5
614
  8
0
  6
CONTINUOUS
 62
     7
 10
3102.081652442203
 20
1616.689510756589
 30
0.0
  0
VERTEX
  5
615
  8
0
  6
CONTINUOUS
 62
     7
 10
3102.07514686147
 20
1616.687945308607
 30
0.0
  0
VERTEX
  5
616
  8
0
  6
CONTINUOUS
 62
     7
 10
3102.0685290884
 20
1616.68663308578
 30
0.0
  0
VERTEX
  5
617
  8
0
  6
CONTINUOUS
 62
     7
 10
3102.061814998685
 20
1616.685538812411
 30
0.0
  0
VERTEX
  5
618
  8
0
  6
CONTINUOUS
 62
     7
 10
3102.055020645102
 20
1616.684626163594
 30
0.0
  0
VERTEX
  5
619
  8
0
  6
CONTINUOUS
 62
     7
 10
3102.048162080423
 20
1616.683858814414
 30
0.0
  0
VERTEX
  5
61A
  8
0
  6
CONTINUOUS
 62
     7
 10
3102.041255357422
 20
1616.683200439964
 30
0.0
  0
VERTEX
  5
61B
  8
0
  6
CONTINUOUS
 62
     7
 10
3102.034316528873
 20
1616.682614715335
 30
0.0
  0
VERTEX
  5
61C
  8
0
  6
CONTINUOUS
 62
     7
 10
3102.027361647551
 20
1616.682065315615
 30
0.0
  0
SEQEND
  5
762
  8
0
  6
CONTINUOUS
 62
     7
  0
LINE
  5
E1
  8
0
  6
CONTINUOUS
 62
     7
 10
3102.02736164755
 20
1616.682065315614
 30
0.0
 11
3102.02736164755
 21
1617.168129413431
 31
0.0
  0
ARC
  5
E2
  8
0
  6
CONTINUOUS
 62
     7
 10
3102.028745527299
 20
1616.969513155943
 30
0.0
 40
0.1986210785935487
 50
0.4048499765283321
 51
90.39920793453996
  0
LINE
  5
E3
  8
0
  6
CONTINUOUS
 62
     7
 10
3102.02736164755
 20
1617.168129413431
 30
0.0
 11
3101.22736164755
 21
1617.168129413431
 31
0.0
  0
LINE
  5
E4
  8
0
  6
CONTINUOUS
 62
     7
 10
3101.22736164755
 20
1617.168129413431
 30
0.0
 11
3101.22736164755
 21
1616.682065315614
 31
0.0
  0
LINE
  5
E5
  8
0
  6
CONTINUOUS
 62
     7
 10
3101.22736164755
 20
1617.182065315615
 30
0.0
 11
3101.22736164755
 21
1617.168129413431
 31
0.0
  0
LINE
  5
E6
  8
0
  6
CONTINUOUS
 62
     7
 10
3102.22736164755
 20
1616.982065315614
 30
0.0
 11
3102.22736164755
 21
1616.970916593868
 31
0.0
  0
LINE
  5
E7
  8
0
  6
CONTINUOUS
 62
     7
 10
3102.22736164755
 20
1616.882065315614
 30
0.0
 11
3102.22736164755
 21
1616.682065315612
 31
0.0
  0
LINE
  5
E8
  8
0
  6
CONTINUOUS
 62
     7
 10
2353.72736164755
 20
1616.970916593868
 30
0.0
 11
2353.72736164755
 21
1616.882065315615
 31
0.0
  0
LINE
  5
E9
  8
0
  6
CONTINUOUS
 62
     7
 10
2353.52736164755
 20
1616.682065315614
 30
0.0
 11
2353.52736164755
 21
1617.168129413431
 31
0.0
  0
ARC
  5
EA
  8
0
  6
CONTINUOUS
 62
     7
 10
2353.5287455273
 20
1616.969513155944
 30
0.0
 40
0.1986210785926344
 50
0.4048499763334209
 51
90.39920793467208
  0
POLYLINE
  5
EB
  8
0
  6
CONTINUOUS
 62
     7
 66
     1
 10
0.0
 20
0.0
 30
0.0
  0
VERTEX
  5
61D
  8
0
  6
CONTINUOUS
 62
     7
 10
2353.72736164755
 20
1616.882065315615
 30
0.0
  0
VERTEX
  5
61E
  8
0
  6
CONTINUOUS
 62
     7
 10
2353.727344210788
 20
1616.879307383437
 30
0.0
  0
VERTEX
  5
61F
  8
0
  6
CONTINUOUS
 62
     7
 10
2353.727288413025
 20
1616.876480943689
 30
0.0
  0
VERTEX
  5
620
  8
0
  6
CONTINUOUS
 62
     7
 10
2353.727189811435
 20
1616.873585156526
 30
0.0
  0
VERTEX
  5
621
  8
0
  6
CONTINUOUS
 62
     7
 10
2353.727045375225
 20
1616.870621999142
 30
0.0
  0
VERTEX
  5
622
  8
0
  6
CONTINUOUS
 62
     7
 10
2353.726852073602
 20
1616.867593448734
 30
0.0
  0
VERTEX
  5
623
  8
0
  6
CONTINUOUS
 62
     7
 10
2353.726606875772
 20
1616.864501482494
 30
0.0
  0
VERTEX
  5
624
  8
0
  6
CONTINUOUS
 62
     7
 10
2353.726306750941
 20
1616.86134807762
 30
0.0
  0
VERTEX
  5
625
  8
0
  6
CONTINUOUS
 62
     7
 10
2353.725948668315
 20
1616.858135211304
 30
0.0
  0
VERTEX
  5
626
  8
0
  6
CONTINUOUS
 62
     7
 10
2353.7255295971
 20
1616.854864860744
 30
0.0
  0
VERTEX
  5
627
  8
0
  6
CONTINUOUS
 62
     7
 10
2353.725046506503
 20
1616.851539003133
 30
0.0
  0
VERTEX
  5
628
  8
0
  6
CONTINUOUS
 62
     7
 10
2353.724496365729
 20
1616.848159615666
 30
0.0
  0
VERTEX
  5
629
  8
0
  6
CONTINUOUS
 62
     7
 10
2353.723876143985
 20
1616.844728675538
 30
0.0
  0
VERTEX
  5
62A
  8
0
  6
CONTINUOUS
 62
     7
 10
2353.723182810477
 20
1616.841248159944
 30
0.0
  0
VERTEX
  5
62B
  8
0
  6
CONTINUOUS
 62
     7
 10
2353.722413334412
 20
1616.83772004608
 30
0.0
  0
VERTEX
  5
62C
  8
0
  6
CONTINUOUS
 62
     7
 10
2353.721564684994
 20
1616.834146311139
 30
0.0
  0
VERTEX
  5
62D
  8
0
  6
CONTINUOUS
 62
     7
 10
2353.720633831432
 20
1616.830528932318
 30
0.0
  0
VERTEX
  5
62E
  8
0
  6
CONTINUOUS
 62
     7
 10
2353.71961774293
 20
1616.82686988681
 30
0.0
  0
VERTEX
  5
62F
  8
0
  6
CONTINUOUS
 62
     7
 10
2353.718513388695
 20
1616.823171151812
 30
0.0
  0
VERTEX
  5
630
  8
0
  6
CONTINUOUS
 62
     7
 10
2353.717317737933
 20
1616.819434704517
 30
0.0
  0
VERTEX
  5
631
  8
0
  6
CONTINUOUS
 62
     7
 10
2353.71602775985
 20
1616.81566252212
 30
0.0
  0
VERTEX
  5
632
  8
0
  6
CONTINUOUS
 62
     7
 10
2353.714640423654
 20
1616.811856581818
 30
0.0
  0
VERTEX
  5
633
  8
0
  6
CONTINUOUS
 62
     7
 10
2353.713152698549
 20
1616.808018860804
 30
0.0
  0
VERTEX
  5
634
  8
0
  6
CONTINUOUS
 62
     7
 10
2353.711561553741
 20
1616.804151336274
 30
0.0
  0
VERTEX
  5
635
  8
0
  6
CONTINUOUS
 62
     7
 10
2353.709863958438
 20
1616.800255985422
 30
0.0
  0
VERTEX
  5
636
  8
0
  6
CONTINUOUS
 62
     7
 10
2353.70805686929
 20
1616.796334863267
 30
0.0
  0
VERTEX
  5
637
  8
0
  6
CONTINUOUS
 62
     7
 10
2353.706137020381
 20
1616.792391404229
 30
0.0
  0
VERTEX
  5
638
  8
0
  6
CONTINUOUS
 62
     7
 10
2353.7041009548
 20
1616.788430226521
 30
0.0
  0
VERTEX
  5
639
  8
0
  6
CONTINUOUS
 62
     7
 10
2353.701945209434
 20
1616.784455986776
 30
0.0
  0
VERTEX
  5
63A
  8
0
  6
CONTINUOUS
 62
     7
 10
2353.699666321171
 20
1616.780473341623
 30
0.0
  0
VERTEX
  5
63B
  8
0
  6
CONTINUOUS
 62
     7
 10
2353.697260826897
 20
1616.776486947692
 30
0.0
  0
VERTEX
  5
63C
  8
0
  6
CONTINUOUS
 62
     7
 10
2353.694725263502
 20
1616.772501461614
 30
0.0
  0
VERTEX
  5
63D
  8
0
  6
CONTINUOUS
 62
     7
 10
2353.692056167872
 20
1616.768521540018
 30
0.0
  0
VERTEX
  5
63E
  8
0
  6
CONTINUOUS
 62
     7
 10
2353.689250076895
 20
1616.764551839536
 30
0.0
  0
VERTEX
  5
63F
  8
0
  6
CONTINUOUS
 62
     7
 10
2353.68630352746
 20
1616.760597016796
 30
0.0
  0
VERTEX
  5
640
  8
0
  6
CONTINUOUS
 62
     7
 10
2353.683213056453
 20
1616.75666172843
 30
0.0
  0
VERTEX
  5
641
  8
0
  6
CONTINUOUS
 62
     7
 10
2353.679975200763
 20
1616.752750631068
 30
0.0
  0
VERTEX
  5
642
  8
0
  6
CONTINUOUS
 62
     7
 10
2353.676586497277
 20
1616.748868381339
 30
0.0
  0
VERTEX
  5
643
  8
0
  6
CONTINUOUS
 62
     7
 10
2353.673043482883
 20
1616.745019635875
 30
0.0
  0
VERTEX
  5
644
  8
0
  6
CONTINUOUS
 62
     7
 10
2353.669342696076
 20
1616.741209052618
 30
0.0
  0
VERTEX
  5
645
  8
0
  6
CONTINUOUS
 62
     7
 10
2353.665481370205
 20
1616.737441856798
 30
0.0
  0
VERTEX
  5
646
  8
0
  6
CONTINUOUS
 62
     7
 10
2353.661458515345
 20
1616.733724724188
 30
0.0
  0
VERTEX
  5
647
  8
0
  6
CONTINUOUS
 62
     7
 10
2353.657273421497
 20
1616.730064559097
 30
0.0
  0
VERTEX
  5
648
  8
0
  6
CONTINUOUS
 62
     7
 10
2353.652925378663
 20
1616.726468265835
 30
0.0
  0
VERTEX
  5
649
  8
0
  6
CONTINUOUS
 62
     7
 10
2353.648413676847
 20
1616.722942748713
 30
0.0
  0
VERTEX
  5
64A
  8
0
  6
CONTINUOUS
 62
     7
 10
2353.64373760605
 20
1616.719494912039
 30
0.0
  0
VERTEX
  5
64B
  8
0
  6
CONTINUOUS
 62
     7
 10
2353.638896456275
 20
1616.716131660123
 30
0.0
  0
VERTEX
  5
64C
  8
0
  6
CONTINUOUS
 62
     7
 10
2353.633889517523
 20
1616.712859897274
 30
0.0
  0
VERTEX
  5
64D
  8
0
  6
CONTINUOUS
 62
     7
 10
2353.628716079797
 20
1616.709686527803
 30
0.0
  0
VERTEX
  5
64E
  8
0
  6
CONTINUOUS
 62
     7
 10
2353.623375433103
 20
1616.706618456029
 30
0.0
  0
VERTEX
  5
64F
  8
0
  6
CONTINUOUS
 62
     7
 10
2353.617868090955
 20
1616.703665137871
 30
0.0
  0
VERTEX
  5
650
  8
0
  6
CONTINUOUS
 62
     7
 10
2353.612199233298
 20
1616.700845761012
 30
0.0
  0
VERTEX
  5
651
  8
0
  6
CONTINUOUS
 62
     7
 10
2353.606375152413
 20
1616.698181832894
 30
0.0
  0
VERTEX
  5
652
  8
0
  6
CONTINUOUS
 62
     7
 10
2353.600402140581
 20
1616.695694860953
 30
0.0
  0
VERTEX
  5
653
  8
0
  6
CONTINUOUS
 62
     7
 10
2353.594286490081
 20
1616.69340635263
 30
0.0
  0
VERTEX
  5
654
  8
0
  6
CONTINUOUS
 62
     7
 10
2353.588034493195
 20
1616.691337815362
 30
0.0
  0
VERTEX
  5
655
  8
0
  6
CONTINUOUS
 62
     7
 10
2353.581652442203
 20
1616.689510756589
 30
0.0
  0
VERTEX
  5
656
  8
0
  6
CONTINUOUS
 62
     7
 10
2353.57514686147
 20
1616.687945308607
 30
0.0
  0
VERTEX
  5
657
  8
0
  6
CONTINUOUS
 62
     7
 10
2353.568529088399
 20
1616.68663308578
 30
0.0
  0
VERTEX
  5
658
  8
0
  6
CONTINUOUS
 62
     7
 10
2353.561814998684
 20
1616.685538812411
 30
0.0
  0
VERTEX
  5
659
  8
0
  6
CONTINUOUS
 62
     7
 10
2353.555020645102
 20
1616.684626163594
 30
0.0
  0
VERTEX
  5
65A
  8
0
  6
CONTINUOUS
 62
     7
 10
2353.548162080422
 20
1616.683858814414
 30
0.0
  0
VERTEX
  5
65B
  8
0
  6
CONTINUOUS
 62
     7
 10
2353.541255357421
 20
1616.683200439964
 30
0.0
  0
VERTEX
  5
65C
  8
0
  6
CONTINUOUS
 62
     7
 10
2353.534316528872
 20
1616.682614715335
 30
0.0
  0
VERTEX
  5
65D
  8
0
  6
CONTINUOUS
 62
     7
 10
2353.52736164755
 20
1616.682065315615
 30
0.0
  0
SEQEND
  5
763
  8
0
  6
CONTINUOUS
 62
     7
  0
LINE
  5
EC
  8
0
  6
CONTINUOUS
 62
     7
 10
2353.52736164755
 20
1617.168129413431
 30
0.0
 11
2352.72736164755
 21
1617.168129413431
 31
0.0
  0
LINE
  5
ED
  8
0
  6
CONTINUOUS
 62
     7
 10
2352.72736164755
 20
1617.168129413431
 30
0.0
 11
2352.72736164755
 21
1616.682065315614
 31
0.0
  0
LINE
  5
EE
  8
0
  6
CONTINUOUS
 62
     7
 10
2352.72736164755
 20
1617.182065315615
 30
0.0
 11
2352.72736164755
 21
1617.168129413431
 31
0.0
  0
LINE
  5
EF
  8
0
  6
CONTINUOUS
 62
     7
 10
2353.72736164755
 20
1616.982065315615
 30
0.0
 11
2353.72736164755
 21
1616.970916593868
 31
0.0
  0
LINE
  5
F0
  8
0
  6
CONTINUOUS
 62
     7
 10
2353.72736164755
 20
1616.882065315615
 30
0.0
 11
2353.72736164755
 21
1616.682065315613
 31
0.0
  0
LINE
  5
F1
  8
0
  6
CONTINUOUS
 62
     7
 10
3101.22736164755
 20
1617.168129413431
 30
0.0
 11
2357.22736164755
 21
1617.168129413431
 31
0.0
  0
LINE
  5
F2
  8
0
  6
CONTINUOUS
 62
     7
 10
2357.22736164755
 20
1616.682065315614
 30
0.0
 11
2357.22736164755
 21
1617.168129413431
 31
0.0
  0
LINE
  5
F3
  8
0
  6
CONTINUOUS
 62
     7
 10
2357.22736164755
 20
1617.168129413431
 30
0.0
 11
2357.22736164755
 21
1617.182065315615
 31
0.0
  0
LINE
  5
F4
  8
0
  6
CONTINUOUS
 62
     7
 10
2352.72736164755
 20
1617.168129413431
 30
0.0
 11
1608.72736164755
 21
1617.168129413431
 31
0.0
  0
LINE
  5
F5
  8
0
  6
CONTINUOUS
 62
     7
 10
1608.72736164755
 20
1616.682065315614
 30
0.0
 11
1608.72736164755
 21
1617.168129413431
 31
0.0
  0
LINE
  5
F6
  8
0
  6
CONTINUOUS
 62
     7
 10
1608.72736164755
 20
1617.168129413431
 30
0.0
 11
1608.72736164755
 21
1617.182065315615
 31
0.0
  0
LINE
  5
F7
  8
0
  6
CONTINUOUS
 62
     7
 10
1607.72736164755
 20
1616.882065315615
 30
0.0
 11
1607.72736164755
 21
1616.970916593868
 31
0.0
  0
ARC
  5
F8
  8
0
  6
CONTINUOUS
 62
     7
 10
1607.9259777678
 20
1616.969513155944
 30
0.0
 40
0.198621078592589
 50
89.60079206532794
 51
179.5951500236661
  0
LINE
  5
F9
  8
0
  6
CONTINUOUS
 62
     7
 10
1607.92736164755
 20
1617.168129413431
 30
0.0
 11
1607.92736164755
 21
1616.682065315614
 31
0.0
  0
POLYLINE
  5
FA
  8
0
  6
CONTINUOUS
 62
     7
 66
     1
 10
0.0
 20
0.0
 30
0.0
  0
VERTEX
  5
65E
  8
0
  6
CONTINUOUS
 62
     7
 10
1607.72736164755
 20
1616.882065315615
 30
0.0
  0
VERTEX
  5
65F
  8
0
  6
CONTINUOUS
 62
     7
 10
1607.727379084311
 20
1616.879307383437
 30
0.0
  0
VERTEX
  5
660
  8
0
  6
CONTINUOUS
 62
     7
 10
1607.727434882075
 20
1616.876480943689
 30
0.0
  0
VERTEX
  5
661
  8
0
  6
CONTINUOUS
 62
     7
 10
1607.727533483665
 20
1616.873585156526
 30
0.0
  0
VERTEX
  5
662
  8
0
  6
CONTINUOUS
 62
     7
 10
1607.727677919873
 20
1616.870621999143
 30
0.0
  0
VERTEX
  5
663
  8
0
  6
CONTINUOUS
 62
     7
 10
1607.727871221496
 20
1616.867593448734
 30
0.0
  0
VERTEX
  5
664
  8
0
  6
CONTINUOUS
 62
     7
 10
1607.728116419326
 20
1616.864501482495
 30
0.0
  0
VERTEX
  5
665
  8
0
  6
CONTINUOUS
 62
     7
 10
1607.728416544157
 20
1616.86134807762
 30
0.0
  0
VERTEX
  5
666
  8
0
  6
CONTINUOUS
 62
     7
 10
1607.728774626783
 20
1616.858135211305
 30
0.0
  0
VERTEX
  5
667
  8
0
  6
CONTINUOUS
 62
     7
 10
1607.729193697998
 20
1616.854864860744
 30
0.0
  0
VERTEX
  5
668
  8
0
  6
CONTINUOUS
 62
     7
 10
1607.729676788595
 20
1616.851539003133
 30
0.0
  0
VERTEX
  5
669
  8
0
  6
CONTINUOUS
 62
     7
 10
1607.730226929369
 20
1616.848159615666
 30
0.0
  0
VERTEX
  5
66A
  8
0
  6
CONTINUOUS
 62
     7
 10
1607.730847151113
 20
1616.844728675538
 30
0.0
  0
VERTEX
  5
66B
  8
0
  6
CONTINUOUS
 62
     7
 10
1607.731540484621
 20
1616.841248159944
 30
0.0
  0
VERTEX
  5
66C
  8
0
  6
CONTINUOUS
 62
     7
 10
1607.732309960687
 20
1616.83772004608
 30
0.0
  0
VERTEX
  5
66D
  8
0
  6
CONTINUOUS
 62
     7
 10
1607.733158610104
 20
1616.834146311139
 30
0.0
  0
VERTEX
  5
66E
  8
0
  6
CONTINUOUS
 62
     7
 10
1607.734089463667
 20
1616.830528932318
 30
0.0
  0
VERTEX
  5
66F
  8
0
  6
CONTINUOUS
 62
     7
 10
1607.735105552169
 20
1616.826869886811
 30
0.0
  0
VERTEX
  5
670
  8
0
  6
CONTINUOUS
 62
     7
 10
1607.736209906404
 20
1616.823171151812
 30
0.0
  0
VERTEX
  5
671
  8
0
  6
CONTINUOUS
 62
     7
 10
1607.737405557166
 20
1616.819434704517
 30
0.0
  0
VERTEX
  5
672
  8
0
  6
CONTINUOUS
 62
     7
 10
1607.738695535248
 20
1616.815662522121
 30
0.0
  0
VERTEX
  5
673
  8
0
  6
CONTINUOUS
 62
     7
 10
1607.740082871445
 20
1616.811856581819
 30
0.0
  0
VERTEX
  5
674
  8
0
  6
CONTINUOUS
 62
     7
 10
1607.74157059655
 20
1616.808018860804
 30
0.0
  0
VERTEX
  5
675
  8
0
  6
CONTINUOUS
 62
     7
 10
1607.743161741358
 20
1616.804151336274
 30
0.0
  0
VERTEX
  5
676
  8
0
  6
CONTINUOUS
 62
     7
 10
1607.744859336661
 20
1616.800255985423
 30
0.0
  0
VERTEX
  5
677
  8
0
  6
CONTINUOUS
 62
     7
 10
1607.746666425811
 20
1616.796334863267
 30
0.0
  0
VERTEX
  5
678
  8
0
  6
CONTINUOUS
 62
     7
 10
1607.748586274719
 20
1616.792391404228
 30
0.0
  0
VERTEX
  5
679
  8
0
  6
CONTINUOUS
 62
     7
 10
1607.7506223403
 20
1616.788430226521
 30
0.0
  0
VERTEX
  5
67A
  8
0
  6
CONTINUOUS
 62
     7
 10
1607.752778085666
 20
1616.784455986776
 30
0.0
  0
VERTEX
  5
67B
  8
0
  6
CONTINUOUS
 62
     7
 10
1607.755056973929
 20
1616.780473341622
 30
0.0
  0
VERTEX
  5
67C
  8
0
  6
CONTINUOUS
 62
     7
 10
1607.757462468203
 20
1616.776486947691
 30
0.0
  0
VERTEX
  5
67D
  8
0
  6
CONTINUOUS
 62
     7
 10
1607.759998031598
 20
1616.772501461613
 30
0.0
  0
VERTEX
  5
67E
  8
0
  6
CONTINUOUS
 62
     7
 10
1607.762667127228
 20
1616.768521540018
 30
0.0
  0
VERTEX
  5
67F
  8
0
  6
CONTINUOUS
 62
     7
 10
1607.765473218204
 20
1616.764551839535
 30
0.0
  0
VERTEX
  5
680
  8
0
  6
CONTINUOUS
 62
     7
 10
1607.76841976764
 20
1616.760597016796
 30
0.0
  0
VERTEX
  5
681
  8
0
  6
CONTINUOUS
 62
     7
 10
1607.771510238646
 20
1616.75666172843
 30
0.0
  0
VERTEX
  5
682
  8
0
  6
CONTINUOUS
 62
     7
 10
1607.774748094337
 20
1616.752750631068
 30
0.0
  0
VERTEX
  5
683
  8
0
  6
CONTINUOUS
 62
     7
 10
1607.778136797822
 20
1616.74886838134
 30
0.0
  0
VERTEX
  5
684
  8
0
  6
CONTINUOUS
 62
     7
 10
1607.781679812217
 20
1616.745019635875
 30
0.0
  0
VERTEX
  5
685
  8
0
  6
CONTINUOUS
 62
     7
 10
1607.785380599024
 20
1616.741209052618
 30
0.0
  0
VERTEX
  5
686
  8
0
  6
CONTINUOUS
 62
     7
 10
1607.789241924895
 20
1616.737441856798
 30
0.0
  0
VERTEX
  5
687
  8
0
  6
CONTINUOUS
 62
     7
 10
1607.793264779755
 20
1616.733724724187
 30
0.0
  0
VERTEX
  5
688
  8
0
  6
CONTINUOUS
 62
     7
 10
1607.797449873603
 20
1616.730064559096
 30
0.0
  0
VERTEX
  5
689
  8
0
  6
CONTINUOUS
 62
     7
 10
1607.801797916436
 20
1616.726468265835
 30
0.0
  0
VERTEX
  5
68A
  8
0
  6
CONTINUOUS
 62
     7
 10
1607.806309618252
 20
1616.722942748713
 30
0.0
  0
VERTEX
  5
68B
  8
0
  6
CONTINUOUS
 62
     7
 10
1607.81098568905
 20
1616.719494912039
 30
0.0
  0
VERTEX
  5
68C
  8
0
  6
CONTINUOUS
 62
     7
 10
1607.815826838825
 20
1616.716131660122
 30
0.0
  0
VERTEX
  5
68D
  8
0
  6
CONTINUOUS
 62
     7
 10
1607.820833777577
 20
1616.712859897274
 30
0.0
  0
VERTEX
  5
68E
  8
0
  6
CONTINUOUS
 62
     7
 10
1607.826007215303
 20
1616.709686527803
 30
0.0
  0
VERTEX
  5
68F
  8
0
  6
CONTINUOUS
 62
     7
 10
1607.831347861997
 20
1616.706618456029
 30
0.0
  0
VERTEX
  5
690
  8
0
  6
CONTINUOUS
 62
     7
 10
1607.836855204145
 20
1616.70366513787
 30
0.0
  0
VERTEX
  5
691
  8
0
  6
CONTINUOUS
 62
     7
 10
1607.842524061801
 20
1616.700845761012
 30
0.0
  0
VERTEX
  5
692
  8
0
  6
CONTINUOUS
 62
     7
 10
1607.848348142687
 20
1616.698181832894
 30
0.0
  0
VERTEX
  5
693
  8
0
  6
CONTINUOUS
 62
     7
 10
1607.854321154519
 20
1616.695694860953
 30
0.0
  0
VERTEX
  5
694
  8
0
  6
CONTINUOUS
 62
     7
 10
1607.860436805019
 20
1616.69340635263
 30
0.0
  0
VERTEX
  5
695
  8
0
  6
CONTINUOUS
 62
     7
 10
1607.866688801905
 20
1616.691337815362
 30
0.0
  0
VERTEX
  5
696
  8
0
  6
CONTINUOUS
 62
     7
 10
1607.873070852897
 20
1616.689510756588
 30
0.0
  0
VERTEX
  5
697
  8
0
  6
CONTINUOUS
 62
     7
 10
1607.879576433629
 20
1616.687945308607
 30
0.0
  0
VERTEX
  5
698
  8
0
  6
CONTINUOUS
 62
     7
 10
1607.8861942067
 20
1616.68663308578
 30
0.0
  0
VERTEX
  5
699
  8
0
  6
CONTINUOUS
 62
     7
 10
1607.892908296415
 20
1616.685538812412
 30
0.0
  0
VERTEX
  5
69A
  8
0
  6
CONTINUOUS
 62
     7
 10
1607.899702649998
 20
1616.684626163593
 30
0.0
  0
VERTEX
  5
69B
  8
0
  6
CONTINUOUS
 62
     7
 10
1607.906561214678
 20
1616.683858814414
 30
0.0
  0
VERTEX
  5
69C
  8
0
  6
CONTINUOUS
 62
     7
 10
1607.913467937679
 20
1616.683200439964
 30
0.0
  0
VERTEX
  5
69D
  8
0
  6
CONTINUOUS
 62
     7
 10
1607.920406766227
 20
1616.682614715334
 30
0.0
  0
VERTEX
  5
69E
  8
0
  6
CONTINUOUS
 62
     7
 10
1607.92736164755
 20
1616.682065315614
 30
0.0
  0
SEQEND
  5
764
  8
0
  6
CONTINUOUS
 62
     7
  0
LINE
  5
FB
  8
0
  6
CONTINUOUS
 62
     7
 10
1608.72736164755
 20
1617.168129413431
 30
0.0
 11
1607.92736164755
 21
1617.168129413431
 31
0.0
  0
LINE
  5
FC
  8
0
  6
CONTINUOUS
 62
     7
 10
1607.72736164755
 20
1616.970916593868
 30
0.0
 11
1607.72736164755
 21
1616.982065315615
 31
0.0
  0
LINE
  5
FD
  8
0
  6
CONTINUOUS
 62
     7
 10
1607.72736164755
 20
1616.682065315613
 30
0.0
 11
1607.72736164755
 21
1616.882065315615
 31
0.0
  0
LINE
  5
FE
  8
0
  6
CONTINUOUS
 62
     7
 10
2356.22736164755
 20
1616.882065315614
 30
0.0
 11
2356.22736164755
 21
1616.970916593868
 31
0.0
  0
ARC
  5
FF
  8
0
  6
CONTINUOUS
 62
     7
 10
2356.4259777678
 20
1616.969513155944
 30
0.0
 40
0.1986210785917201
 50
89.60079206519494
 51
179.5951500238615
  0
LINE
  5
100
  8
0
  6
CONTINUOUS
 62
     7
 10
2356.42736164755
 20
1617.168129413431
 30
0.0
 11
2356.42736164755
 21
1616.682065315614
 31
0.0
  0
POLYLINE
  5
101
  8
0
  6
CONTINUOUS
 62
     7
 66
     1
 10
0.0
 20
0.0
 30
0.0
  0
VERTEX
  5
69F
  8
0
  6
CONTINUOUS
 62
     7
 10
2356.22736164755
 20
1616.882065315614
 30
0.0
  0
VERTEX
  5
6A0
  8
0
  6
CONTINUOUS
 62
     7
 10
2356.227379084311
 20
1616.879307383437
 30
0.0
  0
VERTEX
  5
6A1
  8
0
  6
CONTINUOUS
 62
     7
 10
2356.227434882075
 20
1616.87648094369
 30
0.0
  0
VERTEX
  5
6A2
  8
0
  6
CONTINUOUS
 62
     7
 10
2356.227533483665
 20
1616.873585156526
 30
0.0
  0
VERTEX
  5
6A3
  8
0
  6
CONTINUOUS
 62
     7
 10
2356.227677919875
 20
1616.870621999143
 30
0.0
  0
VERTEX
  5
6A4
  8
0
  6
CONTINUOUS
 62
     7
 10
2356.227871221497
 20
1616.867593448734
 30
0.0
  0
VERTEX
  5
6A5
  8
0
  6
CONTINUOUS
 62
     7
 10
2356.228116419327
 20
1616.864501482494
 30
0.0
  0
VERTEX
  5
6A6
  8
0
  6
CONTINUOUS
 62
     7
 10
2356.228416544159
 20
1616.86134807762
 30
0.0
  0
VERTEX
  5
6A7
  8
0
  6
CONTINUOUS
 62
     7
 10
2356.228774626785
 20
1616.858135211305
 30
0.0
  0
VERTEX
  5
6A8
  8
0
  6
CONTINUOUS
 62
     7
 10
2356.229193698
 20
1616.854864860744
 30
0.0
  0
VERTEX
  5
6A9
  8
0
  6
CONTINUOUS
 62
     7
 10
2356.229676788597
 20
1616.851539003133
 30
0.0
  0
VERTEX
  5
6AA
  8
0
  6
CONTINUOUS
 62
     7
 10
2356.230226929371
 20
1616.848159615666
 30
0.0
  0
VERTEX
  5
6AB
  8
0
  6
CONTINUOUS
 62
     7
 10
2356.230847151115
 20
1616.844728675538
 30
0.0
  0
VERTEX
  5
6AC
  8
0
  6
CONTINUOUS
 62
     7
 10
2356.231540484622
 20
1616.841248159944
 30
0.0
  0
VERTEX
  5
6AD
  8
0
  6
CONTINUOUS
 62
     7
 10
2356.232309960688
 20
1616.83772004608
 30
0.0
  0
VERTEX
  5
6AE
  8
0
  6
CONTINUOUS
 62
     7
 10
2356.233158610105
 20
1616.834146311139
 30
0.0
  0
VERTEX
  5
6AF
  8
0
  6
CONTINUOUS
 62
     7
 10
2356.234089463668
 20
1616.830528932318
 30
0.0
  0
VERTEX
  5
6B0
  8
0
  6
CONTINUOUS
 62
     7
 10
2356.23510555217
 20
1616.826869886811
 30
0.0
  0
VERTEX
  5
6B1
  8
0
  6
CONTINUOUS
 62
     7
 10
2356.236209906405
 20
1616.823171151812
 30
0.0
  0
VERTEX
  5
6B2
  8
0
  6
CONTINUOUS
 62
     7
 10
2356.237405557167
 20
1616.819434704517
 30
0.0
  0
VERTEX
  5
6B3
  8
0
  6
CONTINUOUS
 62
     7
 10
2356.238695535249
 20
1616.815662522121
 30
0.0
  0
VERTEX
  5
6B4
  8
0
  6
CONTINUOUS
 62
     7
 10
2356.240082871446
 20
1616.811856581819
 30
0.0
  0
VERTEX
  5
6B5
  8
0
  6
CONTINUOUS
 62
     7
 10
2356.241570596551
 20
1616.808018860805
 30
0.0
  0
VERTEX
  5
6B6
  8
0
  6
CONTINUOUS
 62
     7
 10
2356.243161741358
 20
1616.804151336274
 30
0.0
  0
VERTEX
  5
6B7
  8
0
  6
CONTINUOUS
 62
     7
 10
2356.244859336661
 20
1616.800255985423
 30
0.0
  0
VERTEX
  5
6B8
  8
0
  6
CONTINUOUS
 62
     7
 10
2356.24666642581
 20
1616.796334863267
 30
0.0
  0
VERTEX
  5
6B9
  8
0
  6
CONTINUOUS
 62
     7
 10
2356.248586274719
 20
1616.792391404229
 30
0.0
  0
VERTEX
  5
6BA
  8
0
  6
CONTINUOUS
 62
     7
 10
2356.2506223403
 20
1616.788430226521
 30
0.0
  0
VERTEX
  5
6BB
  8
0
  6
CONTINUOUS
 62
     7
 10
2356.252778085666
 20
1616.784455986776
 30
0.0
  0
VERTEX
  5
6BC
  8
0
  6
CONTINUOUS
 62
     7
 10
2356.255056973929
 20
1616.780473341622
 30
0.0
  0
VERTEX
  5
6BD
  8
0
  6
CONTINUOUS
 62
     7
 10
2356.257462468203
 20
1616.776486947692
 30
0.0
  0
VERTEX
  5
6BE
  8
0
  6
CONTINUOUS
 62
     7
 10
2356.259998031598
 20
1616.772501461613
 30
0.0
  0
VERTEX
  5
6BF
  8
0
  6
CONTINUOUS
 62
     7
 10
2356.262667127228
 20
1616.768521540017
 30
0.0
  0
VERTEX
  5
6C0
  8
0
  6
CONTINUOUS
 62
     7
 10
2356.265473218205
 20
1616.764551839536
 30
0.0
  0
VERTEX
  5
6C1
  8
0
  6
CONTINUOUS
 62
     7
 10
2356.268419767639
 20
1616.760597016796
 30
0.0
  0
VERTEX
  5
6C2
  8
0
  6
CONTINUOUS
 62
     7
 10
2356.271510238646
 20
1616.75666172843
 30
0.0
  0
VERTEX
  5
6C3
  8
0
  6
CONTINUOUS
 62
     7
 10
2356.274748094336
 20
1616.752750631068
 30
0.0
  0
VERTEX
  5
6C4
  8
0
  6
CONTINUOUS
 62
     7
 10
2356.278136797822
 20
1616.74886838134
 30
0.0
  0
VERTEX
  5
6C5
  8
0
  6
CONTINUOUS
 62
     7
 10
2356.281679812217
 20
1616.745019635876
 30
0.0
  0
VERTEX
  5
6C6
  8
0
  6
CONTINUOUS
 62
     7
 10
2356.285380599023
 20
1616.741209052618
 30
0.0
  0
VERTEX
  5
6C7
  8
0
  6
CONTINUOUS
 62
     7
 10
2356.289241924895
 20
1616.737441856798
 30
0.0
  0
VERTEX
  5
6C8
  8
0
  6
CONTINUOUS
 62
     7
 10
2356.293264779755
 20
1616.733724724187
 30
0.0
  0
VERTEX
  5
6C9
  8
0
  6
CONTINUOUS
 62
     7
 10
2356.297449873603
 20
1616.730064559097
 30
0.0
  0
VERTEX
  5
6CA
  8
0
  6
CONTINUOUS
 62
     7
 10
2356.301797916436
 20
1616.726468265835
 30
0.0
  0
VERTEX
  5
6CB
  8
0
  6
CONTINUOUS
 62
     7
 10
2356.306309618252
 20
1616.722942748712
 30
0.0
  0
VERTEX
  5
6CC
  8
0
  6
CONTINUOUS
 62
     7
 10
2356.31098568905
 20
1616.719494912039
 30
0.0
  0
VERTEX
  5
6CD
  8
0
  6
CONTINUOUS
 62
     7
 10
2356.315826838826
 20
1616.716131660123
 30
0.0
  0
VERTEX
  5
6CE
  8
0
  6
CONTINUOUS
 62
     7
 10
2356.320833777577
 20
1616.712859897274
 30
0.0
  0
VERTEX
  5
6CF
  8
0
  6
CONTINUOUS
 62
     7
 10
2356.326007215303
 20
1616.709686527804
 30
0.0
  0
VERTEX
  5
6D0
  8
0
  6
CONTINUOUS
 62
     7
 10
2356.331347861996
 20
1616.706618456029
 30
0.0
  0
VERTEX
  5
6D1
  8
0
  6
CONTINUOUS
 62
     7
 10
2356.336855204145
 20
1616.703665137871
 30
0.0
  0
VERTEX
  5
6D2
  8
0
  6
CONTINUOUS
 62
     7
 10
2356.342524061802
 20
1616.700845761012
 30
0.0
  0
VERTEX
  5
6D3
  8
0
  6
CONTINUOUS
 62
     7
 10
2356.348348142687
 20
1616.698181832894
 30
0.0
  0
VERTEX
  5
6D4
  8
0
  6
CONTINUOUS
 62
     7
 10
2356.354321154519
 20
1616.695694860953
 30
0.0
  0
VERTEX
  5
6D5
  8
0
  6
CONTINUOUS
 62
     7
 10
2356.360436805019
 20
1616.693406352629
 30
0.0
  0
VERTEX
  5
6D6
  8
0
  6
CONTINUOUS
 62
     7
 10
2356.366688801906
 20
1616.691337815362
 30
0.0
  0
VERTEX
  5
6D7
  8
0
  6
CONTINUOUS
 62
     7
 10
2356.373070852897
 20
1616.689510756588
 30
0.0
  0
VERTEX
  5
6D8
  8
0
  6
CONTINUOUS
 62
     7
 10
2356.37957643363
 20
1616.687945308607
 30
0.0
  0
VERTEX
  5
6D9
  8
0
  6
CONTINUOUS
 62
     7
 10
2356.386194206701
 20
1616.68663308578
 30
0.0
  0
VERTEX
  5
6DA
  8
0
  6
CONTINUOUS
 62
     7
 10
2356.392908296415
 20
1616.685538812412
 30
0.0
  0
VERTEX
  5
6DB
  8
0
  6
CONTINUOUS
 62
     7
 10
2356.399702649999
 20
1616.684626163593
 30
0.0
  0
VERTEX
  5
6DC
  8
0
  6
CONTINUOUS
 62
     7
 10
2356.406561214679
 20
1616.683858814414
 30
0.0
  0
VERTEX
  5
6DD
  8
0
  6
CONTINUOUS
 62
     7
 10
2356.413467937679
 20
1616.683200439964
 30
0.0
  0
VERTEX
  5
6DE
  8
0
  6
CONTINUOUS
 62
     7
 10
2356.420406766228
 20
1616.682614715334
 30
0.0
  0
VERTEX
  5
6DF
  8
0
  6
CONTINUOUS
 62
     7
 10
2356.42736164755
 20
1616.682065315614
 30
0.0
  0
SEQEND
  5
765
  8
0
  6
CONTINUOUS
 62
     7
  0
LINE
  5
102
  8
0
  6
CONTINUOUS
 62
     7
 10
2357.22736164755
 20
1617.168129413431
 30
0.0
 11
2356.42736164755
 21
1617.168129413431
 31
0.0
  0
LINE
  5
103
  8
0
  6
CONTINUOUS
 62
     7
 10
2356.22736164755
 20
1616.970916593868
 30
0.0
 11
2356.22736164755
 21
1616.982065315614
 31
0.0
  0
LINE
  5
104
  8
0
  6
CONTINUOUS
 62
     7
 10
2356.22736164755
 20
1616.682065315612
 30
0.0
 11
2356.22736164755
 21
1616.882065315614
 31
0.0
  0
LINE
  5
105
  8
0
  6
CONTINUOUS
 62
     7
 10
2356.22736164755
 20
1616.682065315612
 30
0.0
 11
2356.22736164755
 21
1486.682065315612
 31
0.0
  0
LINE
  5
106
  8
0
  6
CONTINUOUS
 62
     7
 10
3102.22736164755
 20
1616.682065315612
 30
0.0
 11
2356.22736164755
 21
1616.682065315612
 31
0.0
  0
LINE
  5
107
  8
0
  6
CONTINUOUS
 62
     7
 10
3102.22736164755
 20
1486.682065315612
 30
0.0
 11
3102.22736164755
 21
1616.682065315612
 31
0.0
  0
LINE
  5
108
  8
0
  6
CONTINUOUS
 62
     7
 10
2356.22736164755
 20
1486.682065315612
 30
0.0
 11
3102.22736164755
 21
1486.682065315612
 31
0.0
  0
LINE
  5
109
  8
0
  6
CONTINUOUS
 62
     7
 10
1607.72736164755
 20
1616.682065315613
 30
0.0
 11
1607.72736164755
 21
1486.682065315613
 31
0.0
  0
LINE
  5
10A
  8
0
  6
CONTINUOUS
 62
     7
 10
2353.72736164755
 20
1616.682065315613
 30
0.0
 11
1607.72736164755
 21
1616.682065315613
 31
0.0
  0
LINE
  5
10B
  8
0
  6
CONTINUOUS
 62
     7
 10
2353.72736164755
 20
1486.682065315613
 30
0.0
 11
2353.72736164755
 21
1616.682065315613
 31
0.0
  0
LINE
  5
10C
  8
0
  6
CONTINUOUS
 62
     7
 10
1607.72736164755
 20
1486.682065315613
 30
0.0
 11
2353.72736164755
 21
1486.682065315613
 31
0.0
  0
LINE
  5
10D
  8
0
  6
CONTINUOUS
 62
     7
 10
2353.72736164755
 20
1500.682065315614
 30
0.0
 11
2356.22736164755
 21
1500.682065315614
 31
0.0
  0
LINE
  5
10E
  8
0
  6
CONTINUOUS
 62
     7
 10
2341.227361647547
 20
1638.682065315614
 30
0.0
 11
2341.227361647547
 21
1617.182065315615
 31
0.0
  0
LINE
  5
10F
  8
0
  6
CONTINUOUS
 62
     7
 10
2368.727361647548
 20
1617.182065315615
 30
0.0
 11
2368.727361647548
 21
1638.682065315614
 31
0.0
  0
LINE
  5
110
  8
0
  6
CONTINUOUS
 62
     7
 10
3088.727361647548
 20
1638.682065315614
 30
0.0
 11
3088.727361647548
 21
1617.182065315615
 31
0.0
  0
LINE
  5
111
  8
0
  6
CONTINUOUS
 62
     7
 10
3088.727361647548
 20
1486.682065315612
 30
0.0
 11
3088.727361647548
 21
1482.682065315614
 31
0.0
  0
LINE
  5
112
  8
0
  6
CONTINUOUS
 62
     7
 10
3088.727361647548
 20
1482.682065315614
 30
0.0
 11
3106.227361647548
 21
1482.682065315614
 31
0.0
  0
LINE
  5
113
  8
0
  6
CONTINUOUS
 62
     7
 10
3106.227361647548
 20
1482.682065315614
 30
0.0
 11
3106.227361647548
 21
1638.682065315614
 31
0.0
  0
LINE
  5
114
  8
0
  6
CONTINUOUS
 62
     7
 10
3088.727361647548
 20
1483.682065315615
 30
0.0
 11
1621.227361647548
 21
1483.682065315615
 31
0.0
  0
LINE
  5
115
  8
0
  6
CONTINUOUS
 62
     7
 10
3107.477361647548
 20
1638.682065315614
 30
0.0
 11
1602.477361647548
 21
1638.682065315614
 31
0.0
  0
LINE
  5
116
  8
0
  6
CONTINUOUS
 62
     7
 10
1602.477361647548
 20
1638.682065315614
 30
0.0
 11
1602.477361647548
 21
1641.682065315615
 31
0.0
  0
LINE
  5
117
  8
0
  6
CONTINUOUS
 62
     7
 10
1602.477361647548
 20
1641.682065315615
 30
0.0
 11
3107.477361647548
 21
1641.682065315615
 31
0.0
  0
LINE
  5
118
  8
0
  6
CONTINUOUS
 62
     7
 10
3107.477361647548
 20
1641.682065315615
 30
0.0
 11
3107.477361647548
 21
1638.682065315614
 31
0.0
  0
LINE
  5
119
  8
0
  6
CONTINUOUS
 62
     7
 10
3107.477361647548
 20
1659.682065315615
 30
0.0
 11
1602.477361647548
 21
1659.682065315615
 31
0.0
  0
LINE
  5
11A
  8
0
  6
CONTINUOUS
 62
     7
 10
1602.477361647548
 20
1662.682065315614
 30
0.0
 11
3107.477361647548
 21
1662.682065315614
 31
0.0
  0
LINE
  5
11B
  8
0
  6
CONTINUOUS
 62
     7
 10
1602.477361647548
 20
1659.682065315615
 30
0.0
 11
1602.477361647548
 21
1662.682065315614
 31
0.0
  0
LINE
  5
11C
  8
0
  6
CONTINUOUS
 62
     7
 10
3107.477361647548
 20
1662.682065315614
 30
0.0
 11
3107.477361647548
 21
1659.682065315615
 31
0.0
  0
LINE
  5
11D
  8
0
  6
CONTINUOUS
 62
     7
 10
1602.477361647548
 20
1659.682065315615
 30
0.0
 11
1602.477361647548
 21
1641.682065315615
 31
0.0
  0
LINE
  5
11E
  8
0
  6
CONTINUOUS
 62
     7
 10
3107.477361647548
 20
1659.682065315615
 30
0.0
 11
3107.477361647548
 21
1641.682065315615
 31
0.0
  0
LINE
  5
11F
  8
0
  6
CONTINUOUS
 62
     7
 10
1621.227361647548
 20
1482.682065315614
 30
0.0
 11
1621.227361647548
 21
1486.682065315613
 31
0.0
  0
LINE
  5
120
  8
0
  6
CONTINUOUS
 62
     7
 10
1621.227361647548
 20
1617.182065315615
 30
0.0
 11
1621.227361647548
 21
1638.682065315615
 31
0.0
  0
LINE
  5
121
  8
0
  6
CONTINUOUS
 62
     7
 10
1603.727361647548
 20
1482.682065315614
 30
0.0
 11
1621.227361647548
 21
1482.682065315614
 31
0.0
  0
LINE
  5
122
  8
0
  6
CONTINUOUS
 62
     7
 10
1603.727361647548
 20
1638.682065315615
 30
0.0
 11
1603.727361647548
 21
1482.682065315614
 31
0.0
  0
LINE
  5
12A
  8
0
  6
CONTINUOUS
 62
     8
 10
3102.02736164755
 20
1617.168129413431
 30
0.0
 11
3102.02736164755
 21
1617.182065315615
 31
0.0
  0
LINE
  5
12B
  8
0
  6
CONTINUOUS
 62
     8
 10
2353.52736164755
 20
1617.168129413431
 30
0.0
 11
2353.52736164755
 21
1617.182065315615
 31
0.0
  0
LINE
  5
12C
  8
0
  6
CONTINUOUS
 62
     8
 10
1607.92736164755
 20
1617.182065315615
 30
0.0
 11
1607.92736164755
 21
1617.168129413431
 31
0.0
  0
LINE
  5
12D
  8
0
  6
CONTINUOUS
 62
     8
 10
2356.42736164755
 20
1617.182065315615
 30
0.0
 11
2356.42736164755
 21
1617.168129413431
 31
0.0
  0
ARC
  5
16C
  8
0
  6
CONTINUOUS
 62
     7
 10
1026.600999354987
 20
1604.682065315615
 30
0.0
 40
0.7999999999999545
 50
90.0
 51
180.0
  0
LINE
  5
16D
  8
0
  6
CONTINUOUS
 62
     7
 10
1025.600999354988
 20
1604.682065315615
 30
0.0
 11
1025.800999354987
 21
1604.682065315615
 31
0.0
  0
ARC
  5
16E
  8
0
  6
CONTINUOUS
 62
     7
 10
1026.600999354987
 20
1604.682065315615
 30
0.0
 40
1.0
 50
90.0
 51
180.0
  0
LINE
  5
16F
  8
0
  6
CONTINUOUS
 62
     7
 10
1026.600999354987
 20
1605.482065315615
 30
0.0
 11
1026.600999354987
 21
1605.682065315615
 31
0.0
  0
LINE
  5
170
  8
0
  6
CONTINUOUS
 62
     7
 10
1027.400999354987
 20
1583.682065315614
 30
0.0
 11
1027.200999354987
 21
1583.882065315614
 31
0.0
  0
LINE
  5
171
  8
0
  6
CONTINUOUS
 62
     7
 10
1027.200999354987
 20
1583.882065315614
 30
0.0
 11
1027.200999354987
 21
1603.882065315614
 31
0.0
  0
LINE
  5
172
  8
0
  6
CONTINUOUS
 62
     7
 10
1027.400999354987
 20
1603.682065315615
 30
0.0
 11
1027.200999354987
 21
1603.882065315614
 31
0.0
  0
LINE
  5
173
  8
0
  6
CONTINUOUS
 62
     7
 10
1027.200999354987
 20
1603.882065315614
 30
0.0
 11
1039.700999354988
 21
1603.882065315614
 31
0.0
  0
LINE
  5
174
  8
0
  6
CONTINUOUS
 62
     7
 10
1039.900999354988
 20
1603.682065315615
 30
0.0
 11
1039.700999354988
 21
1603.882065315614
 31
0.0
  0
LINE
  5
175
  8
0
  6
CONTINUOUS
 62
     7
 10
1025.600999354988
 20
1583.882065315614
 30
0.0
 11
1025.800999354987
 21
1583.882065315614
 31
0.0
  0
LINE
  5
176
  8
0
  6
CONTINUOUS
 62
     7
 10
1025.800999354987
 20
1583.682065315614
 30
0.0
 11
1025.800999354987
 21
1583.882065315614
 31
0.0
  0
ARC
  5
177
  8
0
  6
CONTINUOUS
 62
     7
 10
1025.800999354987
 20
1583.882065315614
 30
0.0
 40
0.2000000000000455
 50
180.0
 51
270.0000000000008
  0
LINE
  5
178
  8
0
  6
CONTINUOUS
 62
     7
 10
1027.400999354987
 20
1583.682065315614
 30
0.0
 11
1025.800999354987
 21
1583.682065315614
 31
0.0
  0
LINE
  5
179
  8
0
  6
CONTINUOUS
 62
     7
 10
1025.800999354987
 20
1583.882065315614
 30
0.0
 11
1027.200999354987
 21
1583.882065315614
 31
0.0
  0
LINE
  5
17A
  8
0
  6
CONTINUOUS
 62
     7
 10
1025.600999354988
 20
1583.882065315614
 30
0.0
 11
1025.600999354988
 21
1604.682065315615
 31
0.0
  0
LINE
  5
17B
  8
0
  6
CONTINUOUS
 62
     7
 10
1025.800999354987
 20
1604.682065315615
 30
0.0
 11
1025.800999354987
 21
1583.882065315614
 31
0.0
  0
LINE
  5
17C
  8
0
  6
CONTINUOUS
 62
     7
 10
1036.984185585007
 20
1605.482065315615
 30
0.0
 11
1026.600999354987
 21
1605.482065315615
 31
0.0
  0
LINE
  5
17D
  8
0
  6
CONTINUOUS
 62
     7
 10
1026.600999354987
 20
1605.682065315615
 30
0.0
 11
1036.984185585007
 21
1605.682065315615
 31
0.0
  0
LINE
  5
17E
  8
0
  6
CONTINUOUS
 62
     7
 10
1036.984185585007
 20
1605.482065315615
 30
0.0
 11
1036.984185585007
 21
1605.682065315615
 31
0.0
  0
ARC
  5
17F
  8
0
  6
CONTINUOUS
 62
     7
 10
1039.901037680916
 20
1616.675097364523
 30
0.0
 40
0.3000000000001072
 50
43.62165296730249
 51
80.42341151898742
  0
LINE
  5
180
  8
0
  6
CONTINUOUS
 62
     7
 10
1039.95094743497
 20
1616.970916593868
 30
0.0
 11
1039.98422060434
 21
1617.168129413431
 31
0.0
  0
ARC
  5
181
  8
0
  6
CONTINUOUS
 62
     7
 10
1039.901037680916
 20
1616.675097364523
 30
0.0
 40
0.5000000000000436
 50
0.7984942260975312
 51
80.42341151896028
  0
POLYLINE
  5
182
  8
0
  6
CONTINUOUS
 62
     7
 66
     1
 10
0.0
 20
0.0
 30
0.0
  0
VERTEX
  5
6E0
  8
0
  6
CONTINUOUS
 62
     7
 10
1040.118211038445
 20
1616.882065315615
 30
0.0
  0
VERTEX
  5
6E1
  8
0
  6
CONTINUOUS
 62
     7
 10
1040.12456249836
 20
1616.879307383437
 30
0.0
  0
VERTEX
  5
6E2
  8
0
  6
CONTINUOUS
 62
     7
 10
1040.130890559686
 20
1616.876480943689
 30
0.0
  0
VERTEX
  5
6E3
  8
0
  6
CONTINUOUS
 62
     7
 10
1040.137193238256
 20
1616.873585156526
 30
0.0
  0
VERTEX
  5
6E4
  8
0
  6
CONTINUOUS
 62
     7
 10
1040.143469441391
 20
1616.870621999143
 30
0.0
  0
VERTEX
  5
6E5
  8
0
  6
CONTINUOUS
 62
     7
 10
1040.149718076416
 20
1616.867593448734
 30
0.0
  0
VERTEX
  5
6E6
  8
0
  6
CONTINUOUS
 62
     7
 10
1040.155938050655
 20
1616.864501482495
 30
0.0
  0
VERTEX
  5
6E7
  8
0
  6
CONTINUOUS
 62
     7
 10
1040.16212827143
 20
1616.86134807762
 30
0.0
  0
VERTEX
  5
6E8
  8
0
  6
CONTINUOUS
 62
     7
 10
1040.168287646066
 20
1616.858135211305
 30
0.0
  0
VERTEX
  5
6E9
  8
0
  6
CONTINUOUS
 62
     7
 10
1040.174415081886
 20
1616.854864860744
 30
0.0
  0
VERTEX
  5
6EA
  8
0
  6
CONTINUOUS
 62
     7
 10
1040.180509486213
 20
1616.851539003133
 30
0.0
  0
VERTEX
  5
6EB
  8
0
  6
CONTINUOUS
 62
     7
 10
1040.186569766372
 20
1616.848159615666
 30
0.0
  0
VERTEX
  5
6EC
  8
0
  6
CONTINUOUS
 62
     7
 10
1040.192594829685
 20
1616.844728675538
 30
0.0
  0
VERTEX
  5
6ED
  8
0
  6
CONTINUOUS
 62
     7
 10
1040.198583583476
 20
1616.841248159944
 30
0.0
  0
VERTEX
  5
6EE
  8
0
  6
CONTINUOUS
 62
     7
 10
1040.204534935069
 20
1616.83772004608
 30
0.0
  0
VERTEX
  5
6EF
  8
0
  6
CONTINUOUS
 62
     7
 10
1040.210447791787
 20
1616.834146311139
 30
0.0
  0
VERTEX
  5
6F0
  8
0
  6
CONTINUOUS
 62
     7
 10
1040.216321060954
 20
1616.830528932318
 30
0.0
  0
VERTEX
  5
6F1
  8
0
  6
CONTINUOUS
 62
     7
 10
1040.222153649894
 20
1616.826869886811
 30
0.0
  0
VERTEX
  5
6F2
  8
0
  6
CONTINUOUS
 62
     7
 10
1040.227944465929
 20
1616.823171151812
 30
0.0
  0
VERTEX
  5
6F3
  8
0
  6
CONTINUOUS
 62
     7
 10
1040.233692416384
 20
1616.819434704517
 30
0.0
  0
VERTEX
  5
6F4
  8
0
  6
CONTINUOUS
 62
     7
 10
1040.239396408582
 20
1616.815662522121
 30
0.0
  0
VERTEX
  5
6F5
  8
0
  6
CONTINUOUS
 62
     7
 10
1040.245055349846
 20
1616.811856581819
 30
0.0
  0
VERTEX
  5
6F6
  8
0
  6
CONTINUOUS
 62
     7
 10
1040.250668147501
 20
1616.808018860804
 30
0.0
  0
VERTEX
  5
6F7
  8
0
  6
CONTINUOUS
 62
     7
 10
1040.256233708869
 20
1616.804151336274
 30
0.0
  0
VERTEX
  5
6F8
  8
0
  6
CONTINUOUS
 62
     7
 10
1040.261750941275
 20
1616.800255985423
 30
0.0
  0
VERTEX
  5
6F9
  8
0
  6
CONTINUOUS
 62
     7
 10
1040.267218692294
 20
1616.796334863267
 30
0.0
  0
VERTEX
  5
6FA
  8
0
  6
CONTINUOUS
 62
     7
 10
1040.272634750493
 20
1616.792391404228
 30
0.0
  0
VERTEX
  5
6FB
  8
0
  6
CONTINUOUS
 62
     7
 10
1040.277995995603
 20
1616.788430226521
 30
0.0
  0
VERTEX
  5
6FC
  8
0
  6
CONTINUOUS
 62
     7
 10
1040.283299277861
 20
1616.784455986776
 30
0.0
  0
VERTEX
  5
6FD
  8
0
  6
CONTINUOUS
 62
     7
 10
1040.288541447507
 20
1616.780473341622
 30
0.0
  0
VERTEX
  5
6FE
  8
0
  6
CONTINUOUS
 62
     7
 10
1040.293719354776
 20
1616.776486947691
 30
0.0
  0
VERTEX
  5
6FF
  8
0
  6
CONTINUOUS
 62
     7
 10
1040.298829849908
 20
1616.772501461613
 30
0.0
  0
VERTEX
  5
700
  8
0
  6
CONTINUOUS
 62
     7
 10
1040.30386978314
 20
1616.768521540018
 30
0.0
  0
VERTEX
  5
701
  8
0
  6
CONTINUOUS
 62
     7
 10
1040.308836004711
 20
1616.764551839535
 30
0.0
  0
VERTEX
  5
702
  8
0
  6
CONTINUOUS
 62
     7
 10
1040.313725364858
 20
1616.760597016796
 30
0.0
  0
VERTEX
  5
703
  8
0
  6
CONTINUOUS
 62
     7
 10
1040.31853471382
 20
1616.75666172843
 30
0.0
  0
VERTEX
  5
704
  8
0
  6
CONTINUOUS
 62
     7
 10
1040.323260901833
 20
1616.752750631068
 30
0.0
  0
VERTEX
  5
705
  8
0
  6
CONTINUOUS
 62
     7
 10
1040.327900779137
 20
1616.74886838134
 30
0.0
  0
VERTEX
  5
706
  8
0
  6
CONTINUOUS
 62
     7
 10
1040.332451195969
 20
1616.745019635875
 30
0.0
  0
VERTEX
  5
707
  8
0
  6
CONTINUOUS
 62
     7
 10
1040.336909001689
 20
1616.741209052618
 30
0.0
  0
VERTEX
  5
708
  8
0
  6
CONTINUOUS
 62
     7
 10
1040.341270666315
 20
1616.737441856798
 30
0.0
  0
VERTEX
  5
709
  8
0
  6
CONTINUOUS
 62
     7
 10
1040.345531689891
 20
1616.733724724187
 30
0.0
  0
VERTEX
  5
70A
  8
0
  6
CONTINUOUS
 62
     7
 10
1040.349687419639
 20
1616.730064559096
 30
0.0
  0
VERTEX
  5
70B
  8
0
  6
CONTINUOUS
 62
     7
 10
1040.353733202781
 20
1616.726468265835
 30
0.0
  0
VERTEX
  5
70C
  8
0
  6
CONTINUOUS
 62
     7
 10
1040.357664386541
 20
1616.722942748713
 30
0.0
  0
VERTEX
  5
70D
  8
0
  6
CONTINUOUS
 62
     7
 10
1040.36147631814
 20
1616.719494912039
 30
0.0
  0
VERTEX
  5
70E
  8
0
  6
CONTINUOUS
 62
     7
 10
1040.3651643448
 20
1616.716131660122
 30
0.0
  0
VERTEX
  5
70F
  8
0
  6
CONTINUOUS
 62
     7
 10
1040.368723813746
 20
1616.712859897274
 30
0.0
  0
VERTEX
  5
710
  8
0
  6
CONTINUOUS
 62
     7
 10
1040.372150072198
 20
1616.709686527803
 30
0.0
  0
VERTEX
  5
711
  8
0
  6
CONTINUOUS
 62
     7
 10
1040.37543846737
 20
1616.706618456029
 30
0.0
  0
VERTEX
  5
712
  8
0
  6
CONTINUOUS
 62
     7
 10
1040.378581837091
 20
1616.70366513787
 30
0.0
  0
VERTEX
  5
713
  8
0
  6
CONTINUOUS
 62
     7
 10
1040.381563448432
 20
1616.700845761012
 30
0.0
  0
VERTEX
  5
714
  8
0
  6
CONTINUOUS
 62
     7
 10
1040.384364287091
 20
1616.698181832894
 30
0.0
  0
VERTEX
  5
715
  8
0
  6
CONTINUOUS
 62
     7
 10
1040.386965338765
 20
1616.695694860953
 30
0.0
  0
VERTEX
  5
716
  8
0
  6
CONTINUOUS
 62
     7
 10
1040.389347589153
 20
1616.69340635263
 30
0.0
  0
VERTEX
  5
717
  8
0
  6
CONTINUOUS
 62
     7
 10
1040.391492023951
 20
1616.691337815362
 30
0.0
  0
VERTEX
  5
718
  8
0
  6
CONTINUOUS
 62
     7
 10
1040.393379628858
 20
1616.689510756588
 30
0.0
  0
VERTEX
  5
719
  8
0
  6
CONTINUOUS
 62
     7
 10
1040.394992742312
 20
1616.687945308607
 30
0.0
  0
VERTEX
  5
71A
  8
0
  6
CONTINUOUS
 62
     7
 10
1040.396341756132
 20
1616.68663308578
 30
0.0
  0
VERTEX
  5
71B
  8
0
  6
CONTINUOUS
 62
     7
 10
1040.397463514161
 20
1616.685538812412
 30
0.0
  0
VERTEX
  5
71C
  8
0
  6
CONTINUOUS
 62
     7
 10
1040.398395892363
 20
1616.684626163593
 30
0.0
  0
VERTEX
  5
71D
  8
0
  6
CONTINUOUS
 62
     7
 10
1040.399176766704
 20
1616.683858814414
 30
0.0
  0
VERTEX
  5
71E
  8
0
  6
CONTINUOUS
 62
     7
 10
1040.39984401315
 20
1616.683200439964
 30
0.0
  0
VERTEX
  5
71F
  8
0
  6
CONTINUOUS
 62
     7
 10
1040.400435507665
 20
1616.682614715334
 30
0.0
  0
VERTEX
  5
720
  8
0
  6
CONTINUOUS
 62
     7
 10
1040.400989126216
 20
1616.682065315614
 30
0.0
  0
SEQEND
  5
766
  8
0
  6
CONTINUOUS
 62
     7
  0
LINE
  5
183
  8
0
  6
CONTINUOUS
 62
     7
 10
1039.020862535951
 20
1616.251371872339
 30
0.0
 11
1038.179673917317
 21
1606.578105480527
 31
0.0
  0
LINE
  5
184
  8
0
  6
CONTINUOUS
 62
     7
 10
1038.179673917317
 20
1606.578105480527
 30
0.0
 11
1037.980425861932
 21
1606.595432119708
 31
0.0
  0
LINE
  5
185
  8
0
  6
CONTINUOUS
 62
     7
 10
1037.980425861932
 20
1606.595432119708
 30
0.0
 11
1038.821614480566
 21
1616.268698511521
 31
0.0
  0
LINE
  5
186
  8
0
  6
CONTINUOUS
 62
     7
 10
1039.020862535951
 20
1616.251371872339
 30
0.0
 11
1038.821614480566
 21
1616.268698511521
 31
0.0
  0
LINE
  5
187
  8
0
  6
CONTINUOUS
 62
     7
 10
1039.700999354988
 20
1603.882065315614
 30
0.0
 11
1039.700999354988
 21
1616.882065315615
 31
0.0
  0
LINE
  5
188
  8
0
  6
CONTINUOUS
 62
     7
 10
1039.900999354988
 20
1616.682065315614
 30
0.0
 11
1039.700999354988
 21
1616.882065315615
 31
0.0
  0
ARC
  5
189
  8
0
  6
CONTINUOUS
 62
     7
 10
1036.984185585007
 20
1606.682065315614
 30
0.0
 40
1.200000000000187
 50
270.0000000000008
 51
355.0300534053125
  0
ARC
  5
18A
  8
0
  6
CONTINUOUS
 62
     7
 10
1039.817854757491
 20
1616.182065315614
 30
0.0
 40
0.8000000000001298
 50
80.4234115189544
 51
175.0300534053053
  0
LINE
  5
18B
  8
0
  6
CONTINUOUS
 62
     7
 10
1039.700999354988
 20
1616.882065315615
 30
0.0
 11
1040.118211038445
 21
1616.882065315615
 31
0.0
  0
ARC
  5
18C
  8
0
  6
CONTINUOUS
 62
     7
 10
1036.984185585007
 20
1606.682065315614
 30
0.0
 40
0.9999999999999509
 50
270.0000000000008
 51
355.0300534053223
  0
ARC
  5
18D
  8
0
  6
CONTINUOUS
 62
     7
 10
1039.817854757491
 20
1616.182065315614
 30
0.0
 40
1.000000000000125
 50
80.42341151894743
 51
175.0300534053085
  0
LINE
  5
18E
  8
0
  6
CONTINUOUS
 62
     7
 10
1025.40099935499
 20
1552.182033131548
 30
0.0
 11
1025.90099935499
 21
1552.182033131548
 31
0.0
  0
LINE
  5
18F
  8
0
  6
CONTINUOUS
 62
     7
 10
1025.40099935499
 20
1522.182033131547
 30
0.0
 11
1025.90099935499
 21
1522.182033131547
 31
0.0
  0
LINE
  5
190
  8
0
  6
CONTINUOUS
 62
     7
 10
1043.900999354991
 20
1616.682065315613
 30
0.0
 11
1043.90099935499
 21
1486.682065315613
 31
0.0
  0
LINE
  5
191
  8
0
  6
CONTINUOUS
 62
     7
 10
1043.90099935499
 20
1486.682065315613
 30
0.0
 11
1025.90099935499
 21
1486.682065315613
 31
0.0
  0
LINE
  5
192
  8
0
  6
CONTINUOUS
 62
     7
 10
1025.900999354988
 20
1583.182065315613
 30
0.0
 11
1025.90099935499
 21
1486.682065315613
 31
0.0
  0
LINE
  5
193
  8
0
  6
CONTINUOUS
 62
     7
 10
1027.400999354991
 20
1603.682065315613
 30
0.0
 11
1027.400999354988
 21
1583.182065315613
 31
0.0
  0
LINE
  5
194
  8
0
  6
CONTINUOUS
 62
     7
 10
1027.400999354988
 20
1583.182065315613
 30
0.0
 11
1025.900999354988
 21
1583.182065315613
 31
0.0
  0
LINE
  5
195
  8
0
  6
CONTINUOUS
 62
     7
 10
1039.900999354991
 20
1603.682065315613
 30
0.0
 11
1027.400999354991
 21
1603.682065315613
 31
0.0
  0
LINE
  5
196
  8
0
  6
CONTINUOUS
 62
     7
 10
1039.900999354991
 20
1616.682065315613
 30
0.0
 11
1039.900999354991
 21
1603.682065315613
 31
0.0
  0
LINE
  5
197
  8
0
  6
CONTINUOUS
 62
     7
 10
1043.900999354991
 20
1616.682065315613
 30
0.0
 11
1039.900999354991
 21
1616.682065315613
 31
0.0
  0
LINE
  5
198
  8
0
  6
CONTINUOUS
 62
     7
 10
445.40099935499
 20
1662.682065315615
 30
0.0
 11
1042.40099935499
 21
1662.682065315614
 31
0.0
  0
ARC
  5
199
  8
0
  6
CONTINUOUS
 62
     7
 10
1042.40099935499
 20
1659.682065315615
 30
0.0
 40
2.999999999999773
 50
0.0
 51
90.0
  0
LINE
  5
19A
  8
0
  6
CONTINUOUS
 62
     7
 10
1045.40099935499
 20
1659.682065315615
 30
0.0
 11
1045.40099935499
 21
1641.682065315615
 31
0.0
  0
ARC
  5
19B
  8
0
  6
CONTINUOUS
 62
     7
 10
1042.40099935499
 20
1641.682065315615
 30
0.0
 40
3.000000000000227
 50
270.0000000000008
 51
0.0
  0
LINE
  5
19C
  8
0
  6
CONTINUOUS
 62
     7
 10
445.40099935499
 20
1638.682065315614
 30
0.0
 11
445.40099935499
 21
1662.682065315615
 31
0.0
  0
LINE
  5
19D
  8
0
  6
CONTINUOUS
 62
     7
 10
1042.40099935499
 20
1638.682065315614
 30
0.0
 11
445.40099935499
 21
1638.682065315614
 31
0.0
  0
LINE
  5
19E
  8
0
  6
CONTINUOUS
 62
     7
 10
1025.40099935499
 20
1638.682065315615
 30
0.0
 11
1025.40099935499
 21
1482.682065315614
 31
0.0
  0
LINE
  5
19F
  8
0
  6
CONTINUOUS
 62
     7
 10
1025.40099935499
 20
1482.682065315614
 30
0.0
 11
445.40099935499
 21
1482.682065315614
 31
0.0
  0
LINE
  5
1A0
  8
0
  6
CONTINUOUS
 62
     7
 10
445.40099935499
 20
1638.682065315615
 30
0.0
 11
445.40099935499
 21
1482.682065315614
 31
0.0
  0
LINE
  5
1E2
  8
0
  6
CONTINUOUS
 62
     7
 10
3756.553210963688
 20
1616.882065315614
 30
0.0
 11
3756.553210963688
 21
1603.882065315614
 31
0.0
  0
LINE
  5
1E3
  8
0
  6
CONTINUOUS
 62
     7
 10
3756.553210963688
 20
1603.882065315614
 30
0.0
 11
3756.353210963689
 21
1603.682065315615
 31
0.0
  0
LINE
  5
1E4
  8
0
  6
CONTINUOUS
 62
     7
 10
3756.553210963688
 20
1616.882065315614
 30
0.0
 11
3756.353210963689
 21
1616.682065315614
 31
0.0
  0
LINE
  5
1E5
  8
0
  6
CONTINUOUS
 62
     7
 10
3757.43259583811
 20
1616.268698511521
 30
0.0
 11
3758.273784456745
 21
1606.595432119708
 31
0.0
  0
LINE
  5
1E6
  8
0
  6
CONTINUOUS
 62
     7
 10
3758.273784456745
 20
1606.595432119708
 30
0.0
 11
3758.07453640136
 21
1606.578105480527
 31
0.0
  0
LINE
  5
1E7
  8
0
  6
CONTINUOUS
 62
     7
 10
3758.07453640136
 20
1606.578105480527
 30
0.0
 11
3757.233347782725
 21
1616.251371872339
 31
0.0
  0
LINE
  5
1E8
  8
0
  6
CONTINUOUS
 62
     7
 10
3757.233347782725
 20
1616.251371872339
 30
0.0
 11
3757.43259583811
 21
1616.268698511521
 31
0.0
  0
LINE
  5
1E9
  8
0
  6
CONTINUOUS
 62
     7
 10
3770.653210963689
 20
1604.682065315614
 30
0.0
 11
3770.653210963689
 21
1583.882065315614
 31
0.0
  0
LINE
  5
1EA
  8
0
  6
CONTINUOUS
 62
     7
 10
3770.653210963689
 20
1583.882065315614
 30
0.0
 11
3770.453210963689
 21
1583.882065315614
 31
0.0
  0
LINE
  5
1EB
  8
0
  6
CONTINUOUS
 62
     7
 10
3770.453210963689
 20
1583.882065315614
 30
0.0
 11
3770.453210963689
 21
1604.682065315614
 31
0.0
  0
LINE
  5
1EC
  8
0
  6
CONTINUOUS
 62
     7
 10
3770.653210963689
 20
1604.682065315614
 30
0.0
 11
3770.453210963689
 21
1604.682065315614
 31
0.0
  0
LINE
  5
1ED
  8
0
  6
CONTINUOUS
 62
     7
 10
3756.13599928023
 20
1616.882065315614
 30
0.0
 11
3756.553210963688
 21
1616.882065315614
 31
0.0
  0
POLYLINE
  5
1EE
  8
0
  6
CONTINUOUS
 62
     7
 66
     1
 10
0.0
 20
0.0
 30
0.0
  0
VERTEX
  5
721
  8
0
  6
CONTINUOUS
 62
     7
 10
3756.13599928023
 20
1616.882065315614
 30
0.0
  0
VERTEX
  5
722
  8
0
  6
CONTINUOUS
 62
     7
 10
3756.129647820317
 20
1616.879307383437
 30
0.0
  0
VERTEX
  5
723
  8
0
  6
CONTINUOUS
 62
     7
 10
3756.123319758991
 20
1616.876480943689
 30
0.0
  0
VERTEX
  5
724
  8
0
  6
CONTINUOUS
 62
     7
 10
3756.117017080422
 20
1616.873585156526
 30
0.0
  0
VERTEX
  5
725
  8
0
  6
CONTINUOUS
 62
     7
 10
3756.110740877288
 20
1616.870621999142
 30
0.0
  0
VERTEX
  5
726
  8
0
  6
CONTINUOUS
 62
     7
 10
3756.104492242262
 20
1616.867593448733
 30
0.0
  0
VERTEX
  5
727
  8
0
  6
CONTINUOUS
 62
     7
 10
3756.098272268024
 20
1616.864501482494
 30
0.0
  0
VERTEX
  5
728
  8
0
  6
CONTINUOUS
 62
     7
 10
3756.092082047249
 20
1616.86134807762
 30
0.0
  0
VERTEX
  5
729
  8
0
  6
CONTINUOUS
 62
     7
 10
3756.085922672613
 20
1616.858135211304
 30
0.0
  0
VERTEX
  5
72A
  8
0
  6
CONTINUOUS
 62
     7
 10
3756.079795236793
 20
1616.854864860743
 30
0.0
  0
VERTEX
  5
72B
  8
0
  6
CONTINUOUS
 62
     7
 10
3756.073700832466
 20
1616.851539003132
 30
0.0
  0
VERTEX
  5
72C
  8
0
  6
CONTINUOUS
 62
     7
 10
3756.067640552308
 20
1616.848159615665
 30
0.0
  0
VERTEX
  5
72D
  8
0
  6
CONTINUOUS
 62
     7
 10
3756.061615488994
 20
1616.844728675537
 30
0.0
  0
VERTEX
  5
72E
  8
0
  6
CONTINUOUS
 62
     7
 10
3756.055626735203
 20
1616.841248159943
 30
0.0
  0
VERTEX
  5
72F
  8
0
  6
CONTINUOUS
 62
     7
 10
3756.04967538361
 20
1616.837720046079
 30
0.0
  0
VERTEX
  5
730
  8
0
  6
CONTINUOUS
 62
     7
 10
3756.043762526891
 20
1616.834146311139
 30
0.0
  0
VERTEX
  5
731
  8
0
  6
CONTINUOUS
 62
     7
 10
3756.037889257724
 20
1616.830528932317
 30
0.0
  0
VERTEX
  5
732
  8
0
  6
CONTINUOUS
 62
     7
 10
3756.032056668785
 20
1616.82686988681
 30
0.0
  0
VERTEX
  5
733
  8
0
  6
CONTINUOUS
 62
     7
 10
3756.026265852749
 20
1616.823171151811
 30
0.0
  0
VERTEX
  5
734
  8
0
  6
CONTINUOUS
 62
     7
 10
3756.020517902294
 20
1616.819434704517
 30
0.0
  0
VERTEX
  5
735
  8
0
  6
CONTINUOUS
 62
     7
 10
3756.014813910096
 20
1616.815662522121
 30
0.0
  0
VERTEX
  5
736
  8
0
  6
CONTINUOUS
 62
     7
 10
3756.009154968831
 20
1616.811856581818
 30
0.0
  0
VERTEX
  5
737
  8
0
  6
CONTINUOUS
 62
     7
 10
3756.003542171176
 20
1616.808018860804
 30
0.0
  0
VERTEX
  5
738
  8
0
  6
CONTINUOUS
 62
     7
 10
3755.997976609808
 20
1616.804151336274
 30
0.0
  0
VERTEX
  5
739
  8
0
  6
CONTINUOUS
 62
     7
 10
3755.992459377403
 20
1616.800255985423
 30
0.0
  0
VERTEX
  5
73A
  8
0
  6
CONTINUOUS
 62
     7
 10
3755.986991626383
 20
1616.796334863267
 30
0.0
  0
VERTEX
  5
73B
  8
0
  6
CONTINUOUS
 62
     7
 10
3755.981575568183
 20
1616.792391404228
 30
0.0
  0
VERTEX
  5
73C
  8
0
  6
CONTINUOUS
 62
     7
 10
3755.976214323074
 20
1616.788430226521
 30
0.0
  0
VERTEX
  5
73D
  8
0
  6
CONTINUOUS
 62
     7
 10
3755.970911040816
 20
1616.784455986776
 30
0.0
  0
VERTEX
  5
73E
  8
0
  6
CONTINUOUS
 62
     7
 10
3755.96566887117
 20
1616.780473341623
 30
0.0
  0
VERTEX
  5
73F
  8
0
  6
CONTINUOUS
 62
     7
 10
3755.960490963901
 20
1616.776486947692
 30
0.0
  0
VERTEX
  5
740
  8
0
  6
CONTINUOUS
 62
     7
 10
3755.955380468768
 20
1616.772501461614
 30
0.0
  0
VERTEX
  5
741
  8
0
  6
CONTINUOUS
 62
     7
 10
3755.950340535537
 20
1616.768521540018
 30
0.0
  0
VERTEX
  5
742
  8
0
  6
CONTINUOUS
 62
     7
 10
3755.945374313965
 20
1616.764551839535
 30
0.0
  0
VERTEX
  5
743
  8
0
  6
CONTINUOUS
 62
     7
 10
3755.940484953818
 20
1616.760597016796
 30
0.0
  0
VERTEX
  5
744
  8
0
  6
CONTINUOUS
 62
     7
 10
3755.935675604856
 20
1616.75666172843
 30
0.0
  0
VERTEX
  5
745
  8
0
  6
CONTINUOUS
 62
     7
 10
3755.930949416843
 20
1616.752750631068
 30
0.0
  0
VERTEX
  5
746
  8
0
  6
CONTINUOUS
 62
     7
 10
3755.926309539539
 20
1616.74886838134
 30
0.0
  0
VERTEX
  5
747
  8
0
  6
CONTINUOUS
 62
     7
 10
3755.921759122707
 20
1616.745019635875
 30
0.0
  0
VERTEX
  5
748
  8
0
  6
CONTINUOUS
 62
     7
 10
3755.917301316987
 20
1616.741209052618
 30
0.0
  0
VERTEX
  5
749
  8
0
  6
CONTINUOUS
 62
     7
 10
3755.91293965236
 20
1616.737441856798
 30
0.0
  0
VERTEX
  5
74A
  8
0
  6
CONTINUOUS
 62
     7
 10
3755.908678628785
 20
1616.733724724187
 30
0.0
  0
VERTEX
  5
74B
  8
0
  6
CONTINUOUS
 62
     7
 10
3755.904522899038
 20
1616.730064559097
 30
0.0
  0
VERTEX
  5
74C
  8
0
  6
CONTINUOUS
 62
     7
 10
3755.900477115897
 20
1616.726468265836
 30
0.0
  0
VERTEX
  5
74D
  8
0
  6
CONTINUOUS
 62
     7
 10
3755.896545932136
 20
1616.722942748713
 30
0.0
  0
VERTEX
  5
74E
  8
0
  6
CONTINUOUS
 62
     7
 10
3755.892734000537
 20
1616.719494912039
 30
0.0
  0
VERTEX
  5
74F
  8
0
  6
CONTINUOUS
 62
     7
 10
3755.889045973875
 20
1616.716131660123
 30
0.0
  0
VERTEX
  5
750
  8
0
  6
CONTINUOUS
 62
     7
 10
3755.88548650493
 20
1616.712859897274
 30
0.0
  0
VERTEX
  5
751
  8
0
  6
CONTINUOUS
 62
     7
 10
3755.882060246478
 20
1616.709686527803
 30
0.0
  0
VERTEX
  5
752
  8
0
  6
CONTINUOUS
 62
     7
 10
3755.878771851306
 20
1616.706618456029
 30
0.0
  0
VERTEX
  5
753
  8
0
  6
CONTINUOUS
 62
     7
 10
3755.875628481586
 20
1616.70366513787
 30
0.0
  0
VERTEX
  5
754
  8
0
  6
CONTINUOUS
 62
     7
 10
3755.872646870244
 20
1616.700845761012
 30
0.0
  0
VERTEX
  5
755
  8
0
  6
CONTINUOUS
 62
     7
 10
3755.869846031586
 20
1616.698181832893
 30
0.0
  0
VERTEX
  5
756
  8
0
  6
CONTINUOUS
 62
     7
 10
3755.867244979911
 20
1616.695694860953
 30
0.0
  0
VERTEX
  5
757
  8
0
  6
CONTINUOUS
 62
     7
 10
3755.864862729523
 20
1616.69340635263
 30
0.0
  0
VERTEX
  5
758
  8
0
  6
CONTINUOUS
 62
     7
 10
3755.862718294724
 20
1616.691337815362
 30
0.0
  0
VERTEX
  5
759
  8
0
  6
CONTINUOUS
 62
     7
 10
3755.860830689819
 20
1616.689510756589
 30
0.0
  0
VERTEX
  5
75A
  8
0
  6
CONTINUOUS
 62
     7
 10
3755.859217576363
 20
1616.687945308607
 30
0.0
  0
VERTEX
  5
75B
  8
0
  6
CONTINUOUS
 62
     7
 10
3755.857868562543
 20
1616.686633085779
 30
0.0
  0
VERTEX
  5
75C
  8
0
  6
CONTINUOUS
 62
     7
 10
3755.856746804515
 20
1616.685538812412
 30
0.0
  0
VERTEX
  5
75D
  8
0
  6
CONTINUOUS
 62
     7
 10
3755.855814426314
 20
1616.684626163594
 30
0.0
  0
VERTEX
  5
75E
  8
0
  6
CONTINUOUS
 62
     7
 10
3755.855033551972
 20
1616.683858814414
 30
0.0
  0
VERTEX
  5
75F
  8
0
  6
CONTINUOUS
 62
     7
 10
3755.854366305526
 20
1616.683200439965
 30
0.0
  0
VERTEX
  5
760
  8
0
  6
CONTINUOUS
 62
     7
 10
3755.85377481101
 20
1616.682614715334
 30
0.0
  0
VERTEX
  5
761
  8
0
  6
CONTINUOUS
 62
     7
 10
3755.85322119246
 20
1616.682065315614
 30
0.0
  0
SEQEND
  5
767
  8
0
  6
CONTINUOUS
 62
     7
  0
LINE
  5
1EF
  8
0
  6
CONTINUOUS
 62
     7
 10
3770.453210963689
 20
1583.682065315614
 30
0.0
 11
3770.453210963689
 21
1583.882065315614
 31
0.0
  0
ARC
  5
1F0
  8
0
  6
CONTINUOUS
 62
     7
 10
3770.453210963689
 20
1583.882065315614
 30
0.0
 40
0.2000000000000455
 50
270.0000000000008
 51
0.0
  0
LINE
  5
1F1
  8
0
  6
CONTINUOUS
 62
     7
 10
3770.453210963689
 20
1583.682065315614
 30
0.0
 11
3768.853210963689
 21
1583.682065315614
 31
0.0
  0
LINE
  5
1F2
  8
0
  6
CONTINUOUS
 62
     7
 10
3768.853210963689
 20
1583.682065315614
 30
0.0
 11
3769.053210963689
 21
1583.882065315614
 31
0.0
  0
LINE
  5
1F3
  8
0
  6
CONTINUOUS
 62
     7
 10
3769.053210963689
 20
1583.882065315614
 30
0.0
 11
3770.453210963689
 21
1583.882065315614
 31
0.0
  0
LINE
  5
1F4
  8
0
  6
CONTINUOUS
 62
     7
 10
3769.053210963689
 20
1603.882065315614
 30
0.0
 11
3769.053210963689
 21
1583.882065315614
 31
0.0
  0
LINE
  5
1F5
  8
0
  6
CONTINUOUS
 62
     7
 10
3769.053210963689
 20
1603.882065315614
 30
0.0
 11
3768.853210963689
 21
1603.682065315615
 31
0.0
  0
ARC
  5
1F6
  8
0
  6
CONTINUOUS
 62
     7
 10
3756.353172637761
 20
1616.675097364523
 30
0.0
 40
0.3000000000004442
 50
99.57658848109824
 51
136.3783470328188
  0
ARC
  5
1F7
  8
0
  6
CONTINUOUS
 62
     7
 10
3756.436355561185
 20
1616.182065315614
 30
0.0
 40
0.8000000000001298
 50
4.969946594694715
 51
99.57658848104562
  0
ARC
  5
1F8
  8
0
  6
CONTINUOUS
 62
     7
 10
3759.270024733669
 20
1606.682065315614
 30
0.0
 40
1.199999999999961
 50
184.9699465946901
 51
270.0000000000008
  0
LINE
  5
1F9
  8
0
  6
CONTINUOUS
 62
     7
 10
3769.653210963689
 20
1605.482065315615
 30
0.0
 11
3759.270024733669
 21
1605.482065315615
 31
0.0
  0
ARC
  5
1FA
  8
0
  6
CONTINUOUS
 62
     7
 10
3769.653210963689
 20
1604.682065315614
 30
0.0
 40
0.8000000000001819
 50
0.0
 51
90.0
  0
LINE
  5
1FB
  8
0
  6
CONTINUOUS
 62
     7
 10
3756.553210963688
 20
1603.882065315614
 30
0.0
 11
3769.053210963689
 21
1603.882065315614
 31
0.0
  0
LINE
  5
1FC
  8
0
  6
CONTINUOUS
 62
     7
 10
3759.270024733669
 20
1605.682065315615
 30
0.0
 11
3769.653210963689
 21
1605.682065315615
 31
0.0
  0
LINE
  5
1FD
  8
0
  6
CONTINUOUS
 62
     7
 10
3769.653210963689
 20
1605.682065315615
 30
0.0
 11
3769.653210963689
 21
1605.482065315615
 31
0.0
  0
LINE
  5
1FE
  8
0
  6
CONTINUOUS
 62
     7
 10
3759.270024733669
 20
1605.682065315615
 30
0.0
 11
3759.270024733669
 21
1605.482065315615
 31
0.0
  0
ARC
  5
1FF
  8
0
  6
CONTINUOUS
 62
     7
 10
3769.653210963689
 20
1604.682065315614
 30
0.0
 40
1.000000000000227
 50
0.0
 51
90.0
  0
LINE
  5
200
  8
0
  6
CONTINUOUS
 62
     7
 10
3756.303262883706
 20
1616.970916593868
 30
0.0
 11
3756.269989714336
 21
1617.168129413431
 31
0.0
  0
ARC
  5
201
  8
0
  6
CONTINUOUS
 62
     7
 10
3756.436355561185
 20
1616.182065315614
 30
0.0
 40
0.9999999999999706
 50
4.96994659469147
 51
99.57658848106757
  0
ARC
  5
202
  8
0
  6
CONTINUOUS
 62
     7
 10
3756.353172637761
 20
1616.675097364523
 30
0.0
 40
0.5000000000006438
 50
99.57658848112114
 51
179.2015057739036
  0
ARC
  5
203
  8
0
  6
CONTINUOUS
 62
     7
 10
3759.270024733669
 20
1606.682065315614
 30
0.0
 40
0.9999999999997726
 50
184.9699465946815
 51
270.0000000000008
  0
LINE
  5
204
  8
0
  6
CONTINUOUS
 62
     7
 10
3770.353210963681
 20
1552.182033131548
 30
0.0
 11
3770.853210963681
 21
1552.182033131548
 31
0.0
  0
LINE
  5
205
  8
0
  6
CONTINUOUS
 62
     7
 10
3770.353210963681
 20
1522.182033131547
 30
0.0
 11
3770.853210963681
 21
1522.182033131547
 31
0.0
  0
LINE
  5
206
  8
0
  6
CONTINUOUS
 62
     7
 10
3768.853210963685
 20
1603.682065315613
 30
0.0
 11
3768.853210963686
 21
1583.182065315613
 31
0.0
  0
LINE
  5
207
  8
0
  6
CONTINUOUS
 62
     7
 10
3768.853210963686
 20
1583.182065315613
 30
0.0
 11
3770.353210963685
 21
1583.182065315613
 31
0.0
  0
LINE
  5
208
  8
0
  6
CONTINUOUS
 62
     7
 10
3752.353210963686
 20
1486.682065315612
 30
0.0
 11
3752.353210963688
 21
1616.682065315612
 31
0.0
  0
LINE
  5
209
  8
0
  6
CONTINUOUS
 62
     7
 10
3756.353210963688
 20
1616.682065315612
 30
0.0
 11
3756.353210963685
 21
1603.682065315613
 31
0.0
  0
LINE
  5
20A
  8
0
  6
CONTINUOUS
 62
     7
 10
3756.353210963685
 20
1603.682065315613
 30
0.0
 11
3768.853210963685
 21
1603.682065315613
 31
0.0
  0
LINE
  5
20B
  8
0
  6
CONTINUOUS
 62
     7
 10
3752.353210963686
 20
1486.682065315612
 30
0.0
 11
3770.353210963686
 21
1486.682065315612
 31
0.0
  0
LINE
  5
20C
  8
0
  6
CONTINUOUS
 62
     7
 10
3752.353210963688
 20
1616.682065315612
 30
0.0
 11
3756.353210963688
 21
1616.682065315612
 31
0.0
  0
LINE
  5
20D
  8
0
  6
CONTINUOUS
 62
     7
 10
3770.353210963686
 20
1486.682065315612
 30
0.0
 11
3770.353210963685
 21
1583.182065315613
 31
0.0
  0
LINE
  5
20E
  8
0
  6
CONTINUOUS
 62
     7
 10
3770.853210963681
 20
1482.682065315614
 30
0.0
 11
4350.853210963681
 21
1482.682065315614
 31
0.0
  0
LINE
  5
20F
  8
0
  6
CONTINUOUS
 62
     7
 10
3770.853210963681
 20
1482.682065315614
 30
0.0
 11
3770.853210963681
 21
1638.682065315614
 31
0.0
  0
LINE
  5
210
  8
0
  6
CONTINUOUS
 62
     7
 10
4350.853210963681
 20
1482.682065315614
 30
0.0
 11
4350.853210963681
 21
1638.682065315614
 31
0.0
  0
ARC
  5
211
  8
0
  6
CONTINUOUS
 62
     7
 10
3753.853210963681
 20
1659.682065315615
 30
0.0
 40
3.000000000000455
 50
90.0
 51
180.0
  0
LINE
  5
212
  8
0
  6
CONTINUOUS
 62
     7
 10
4350.853210963681
 20
1662.682065315615
 30
0.0
 11
3753.853210963681
 21
1662.682065315614
 31
0.0
  0
LINE
  5
213
  8
0
  6
CONTINUOUS
 62
     7
 10
4350.853210963681
 20
1638.682065315614
 30
0.0
 11
4350.853210963681
 21
1662.682065315615
 31
0.0
  0
ARC
  5
214
  8
0
  6
CONTINUOUS
 62
     7
 10
3753.853210963681
 20
1641.682065315615
 30
0.0
 40
3.000000000000455
 50
180.0
 51
270.0000000000008
  0
LINE
  5
215
  8
0
  6
CONTINUOUS
 62
     7
 10
3750.85321096368
 20
1659.682065315615
 30
0.0
 11
3750.85321096368
 21
1641.682065315615
 31
0.0
  0
LINE
  5
216
  8
0
  6
CONTINUOUS
 62
     7
 10
3753.853210963681
 20
1638.682065315614
 30
0.0
 11
4350.853210963681
 21
1638.682065315614
 31
0.0
  0
LINE
  5
276
  8
0
  6
CONTINUOUS
 62
     7
 10
3107.477361647548
 20
3131.619882401437
 30
0.0
 11
3107.477361647548
 21
2534.619882401437
 31
0.0
  0
LINE
  5
277
  8
0
  6
CONTINUOUS
 62
     7
 10
1602.477361647548
 20
2534.619882401437
 30
0.0
 11
3107.477361647548
 21
2534.619882401437
 31
0.0
  0
LINE
  5
278
  8
0
  6
CONTINUOUS
 62
     7
 10
1602.477361647548
 20
3131.619882401437
 30
0.0
 11
1602.477361647548
 21
2534.619882401437
 31
0.0
  0
LINE
  5
279
  8
0
  6
CONTINUOUS
 62
     7
 10
3107.477361647548
 20
3131.619882401437
 30
0.0
 11
1602.477361647548
 21
3131.619882401437
 31
0.0
  0
LINE
  5
27B
  8
0
  6
CONTINUOUS
 62
     7
 10
3107.477361647548
 20
2531.619882401437
 30
0.0
 11
1602.477361647548
 21
2531.619882401437
 31
0.0
  0
LINE
  5
27C
  8
0
  6
CONTINUOUS
 62
     7
 10
3107.477361647548
 20
2534.619882401437
 30
0.0
 11
3107.477361647548
 21
2531.619882401437
 31
0.0
  0
LINE
  5
27D
  8
0
  6
CONTINUOUS
 62
     7
 10
1602.477361647548
 20
2531.619882401437
 30
0.0
 11
1602.477361647548
 21
2534.619882401437
 31
0.0
  0
LINE
  5
2A7
  8
0
  6
CONTINUOUS
 62
     7
 10
2460.476213682822
 20
647.3939826855042
 30
0.0
 11
3002.475958584034
 21
647.393982685504
 31
0.0
  0
LINE
  5
2B7
  8
0
  6
CONTINUOUS
 62
     7
 10
2271.227361647537
 20
621.0939826855041
 30
0.0
 11
2311.227361647537
 21
621.0939826855041
 31
0.0
  0
CIRCLE
  5
2B8
  8
0
  6
CONTINUOUS
 62
     7
 10
2291.227361647535
 20
543.3939826855045
 30
0.0
 40
2.5
  0
CIRCLE
  5
2B9
  8
0
  6
CONTINUOUS
 62
     7
 10
2291.227361647537
 20
593.3939826855045
 30
0.0
 40
2.5
  0
CIRCLE
  5
2BA
  8
0
  6
CONTINUOUS
 62
     7
 10
2288.227361647537
 20
573.393982685504
 30
0.0
 40
2.5
  0
CIRCLE
  5
2BB
  8
0
  6
CONTINUOUS
 62
     7
 10
2288.227361647537
 20
503.3939826855041
 30
0.0
 40
2.5
  0
LINE
  5
2BC
  8
0
  6
CONTINUOUS
 62
     7
 10
2341.227361647537
 20
478.3939826855042
 30
0.0
 11
2341.227361647537
 21
623.393982685504
 31
0.0
  0
ARC
  5
2BD
  8
0
  6
CONTINUOUS
 62
     7
 10
2276.227361647537
 20
478.3939826855041
 30
0.0
 40
5.0
 50
180.0
 51
270.0000000000008
  0
LINE
  5
2BE
  8
0
  6
CONTINUOUS
 62
     7
 10
2276.227361647537
 20
473.3939826855041
 30
0.0
 11
2336.227361647537
 21
473.3939826855041
 31
0.0
  0
LINE
  5
2BF
  8
0
  6
CONTINUOUS
 62
     7
 10
2271.227361647537
 20
478.3939826855041
 30
0.0
 11
2271.227361647537
 21
621.0939826855041
 31
0.0
  0
CIRCLE
  5
2C0
  8
0
  6
CONTINUOUS
 62
     7
 10
2321.227361647537
 20
593.393982685504
 30
0.0
 40
2.5
  0
CIRCLE
  5
2C1
  8
0
  6
CONTINUOUS
 62
     7
 10
2321.227361647535
 20
543.393982685504
 30
0.0
 40
2.5
  0
CIRCLE
  5
2C2
  8
0
  6
CONTINUOUS
 62
     7
 10
2318.227361647538
 20
503.3939826855041
 30
0.0
 40
2.500000000000455
  0
LINE
  5
2C3
  8
0
  6
CONTINUOUS
 62
     7
 10
2341.227361647537
 20
623.393982685504
 30
0.0
 11
2311.227361647537
 21
623.393982685504
 31
0.0
  0
LINE
  5
2C4
  8
0
  6
CONTINUOUS
 62
     7
 10
2311.227361647537
 20
621.0939826855041
 30
0.0
 11
2311.227361647537
 21
623.393982685504
 31
0.0
  0
ARC
  5
2C5
  8
0
  6
CONTINUOUS
 62
     7
 10
2336.227361647537
 20
478.3939826855041
 30
0.0
 40
5.0
 50
270.0000000000008
 51
0.0000000000013028
  0
CIRCLE
  5
2C6
  8
0
  6
CONTINUOUS
 62
     7
 10
2318.227361647538
 20
573.393982685504
 30
0.0
 40
2.500000000000455
  0
CIRCLE
  5
2C7
  8
0
  6
CONTINUOUS
 62
     7
 10
3038.727361647535
 20
543.3939826855045
 30
0.0
 40
2.5
  0
CIRCLE
  5
2C8
  8
0
  6
CONTINUOUS
 62
     7
 10
3038.727361647537
 20
593.3939826855046
 30
0.0
 40
2.499999999999545
  0
CIRCLE
  5
2C9
  8
0
  6
CONTINUOUS
 62
     7
 10
3035.727361647537
 20
573.3939826855042
 30
0.0
 40
2.5
  0
CIRCLE
  5
2CA
  8
0
  6
CONTINUOUS
 62
     7
 10
3035.727361647537
 20
503.3939826855041
 30
0.0
 40
2.5
  0
LINE
  5
2CB
  8
0
  6
CONTINUOUS
 62
     7
 10
3088.727361647537
 20
623.3939826855042
 30
0.0
 11
3058.727361647537
 21
623.3939826855042
 31
0.0
  0
ARC
  5
2CC
  8
0
  6
CONTINUOUS
 62
     7
 10
3023.727361647537
 20
478.3939826855042
 30
0.0
 40
5.0
 50
180.0
 51
270.0000000000008
  0
LINE
  5
2CD
  8
0
  6
CONTINUOUS
 62
     7
 10
3018.727361647537
 20
621.0939826855042
 30
0.0
 11
3058.727361647537
 21
621.0939826855042
 31
0.0
  0
LINE
  5
2CE
  8
0
  6
CONTINUOUS
 62
     7
 10
3088.727361647537
 20
478.3939826855042
 30
0.0
 11
3088.727361647537
 21
623.3939826855042
 31
0.0
  0
ARC
  5
2CF
  8
0
  6
CONTINUOUS
 62
     7
 10
3083.727361647537
 20
478.3939826855042
 30
0.0
 40
5.0
 50
270.0000000000008
 51
0.0000000000006514
  0
LINE
  5
2D0
  8
0
  6
CONTINUOUS
 62
     7
 10
3023.727361647537
 20
473.3939826855042
 30
0.0
 11
3083.727361647537
 21
473.3939826855042
 31
0.0
  0
LINE
  5
2D1
  8
0
  6
CONTINUOUS
 62
     7
 10
3018.727361647537
 20
478.3939826855042
 30
0.0
 11
3018.727361647537
 21
621.0939826855042
 31
0.0
  0
LINE
  5
2D2
  8
0
  6
CONTINUOUS
 62
     7
 10
3058.727361647537
 20
621.0939826855042
 30
0.0
 11
3058.727361647537
 21
623.3939826855042
 31
0.0
  0
CIRCLE
  5
2D3
  8
0
  6
CONTINUOUS
 62
     7
 10
3065.727361647537
 20
573.3939826855042
 30
0.0
 40
2.5
  0
CIRCLE
  5
2D4
  8
0
  6
CONTINUOUS
 62
     7
 10
3065.727361647537
 20
503.3939826855041
 30
0.0
 40
2.5
  0
CIRCLE
  5
2D5
  8
0
  6
CONTINUOUS
 62
     7
 10
3068.727361647537
 20
593.3939826855042
 30
0.0
 40
2.5
  0
CIRCLE
  5
2D6
  8
0
  6
CONTINUOUS
 62
     7
 10
3068.727361647535
 20
543.393982685504
 30
0.0
 40
2.5
  0
ARC
  5
2D7
  8
0
  6
CONTINUOUS
 62
     7
 10
1626.227361647536
 20
478.3939826854834
 30
0.0
 40
5.0
 50
179.9999999999994
 51
270.0000000000034
  0
LINE
  5
2D8
  8
0
  6
CONTINUOUS
 62
     7
 10
1621.227361647536
 20
478.3939826854835
 30
0.0
 11
1621.227361647534
 21
623.3939826854834
 31
0.0
  0
LINE
  5
2D9
  8
0
  6
CONTINUOUS
 62
     7
 10
1621.227361647534
 20
623.3939826854834
 30
0.0
 11
1651.227361647535
 21
623.3939826854837
 31
0.0
  0
LINE
  5
2DA
  8
0
  6
CONTINUOUS
 62
     7
 10
1651.227361647534
 20
621.0939826854838
 30
0.0
 11
1651.227361647535
 21
623.3939826854837
 31
0.0
  0
LINE
  5
2DB
  8
0
  6
CONTINUOUS
 62
     7
 10
1691.227361647534
 20
621.0939826854843
 30
0.0
 11
1651.227361647534
 21
621.0939826854838
 31
0.0
  0
LINE
  5
2DC
  8
0
  6
CONTINUOUS
 62
     7
 10
1691.227361647536
 20
478.3939826854843
 30
0.0
 11
1691.227361647534
 21
621.0939826854843
 31
0.0
  0
ARC
  5
2DD
  8
0
  6
CONTINUOUS
 62
     7
 10
1686.227361647536
 20
478.3939826854843
 30
0.0
 40
5.0
 50
270.0000000000008
 51
0.0000000000006514
  0
LINE
  5
2DE
  8
0
  6
CONTINUOUS
 62
     7
 10
1686.227361647536
 20
473.3939826854843
 30
0.0
 11
1626.227361647536
 21
473.3939826854834
 31
0.0
  0
CIRCLE
  5
2DF
  8
0
  6
CONTINUOUS
 62
     7
 10
1641.227361647534
 20
593.3939826854836
 30
0.0
 40
2.500000000000227
  0
CIRCLE
  5
2E0
  8
0
  6
CONTINUOUS
 62
     7
 10
1671.227361647538
 20
543.3939826854844
 30
0.0
 40
2.5
  0
CIRCLE
  5
2E1
  8
0
  6
CONTINUOUS
 62
     7
 10
1671.227361647535
 20
593.3939826854845
 30
0.0
 40
2.5
  0
CIRCLE
  5
2E2
  8
0
  6
CONTINUOUS
 62
     7
 10
1641.227361647537
 20
543.3939826854837
 30
0.0
 40
2.5
  0
CIRCLE
  5
2E3
  8
0
  6
CONTINUOUS
 62
     7
 10
1674.227361647535
 20
573.3939826854842
 30
0.0
 40
2.5
  0
CIRCLE
  5
2E4
  8
0
  6
CONTINUOUS
 62
     7
 10
1644.227361647535
 20
573.3939826854837
 30
0.0
 40
2.5
  0
CIRCLE
  5
2E5
  8
0
  6
CONTINUOUS
 62
     7
 10
1674.227361647536
 20
503.393982685484
 30
0.0
 40
2.5
  0
CIRCLE
  5
2E6
  8
0
  6
CONTINUOUS
 62
     7
 10
1644.227361647536
 20
503.3939826854836
 30
0.0
 40
2.499999999999773
  0
LINE
  5
2EA
  8
0
  6
CONTINUOUS
 62
     7
 10
2402.477361647537
 20
510.9439505014371
 30
0.0
 11
2402.477361647537
 21
506.8939505014371
 31
0.0
  0
ARC
  5
2EB
  8
0
  6
CONTINUOUS
 62
     7
 10
2402.277361647537
 20
510.9439505014371
 30
0.0
 40
0.1999999999999886
 50
0.0
 51
90.0
  0
ARC
  5
2EC
  8
0
  6
CONTINUOUS
 62
     7
 10
2402.277361647537
 20
511.9439505014373
 30
0.0
 40
0.8000000000001819
 50
180.0
 51
269.9999999999682
  0
LINE
  5
2ED
  8
0
  6
CONTINUOUS
 62
     7
 10
2401.477361647537
 20
512.943950501437
 30
0.0
 11
2401.477361647537
 21
511.9439505014371
 31
0.0
  0
ARC
  5
2EE
  8
0
  6
CONTINUOUS
 62
     7
 10
2399.277361647537
 20
512.943950501437
 30
0.0
 40
2.199999999999989
 50
0.0
 51
90.0
  0
ARC
  5
2EF
  8
0
  6
CONTINUOUS
 62
     7
 10
2392.677361647537
 20
512.943950501437
 30
0.0
 40
2.199999999999989
 50
90.0
 51
180.0
  0
LINE
  5
2F0
  8
0
  6
CONTINUOUS
 62
     7
 10
2390.477361647537
 20
506.3439505014372
 30
0.0
 11
2390.477361647537
 21
512.943950501437
 31
0.0
  0
ARC
  5
2F1
  8
0
  6
CONTINUOUS
 62
     7
 10
2392.677361647537
 20
506.3439505014372
 30
0.0
 40
2.199999999999989
 50
180.0
 51
270.0000000000008
  0
LINE
  5
2F2
  8
0
  6
CONTINUOUS
 62
     7
 10
2393.477361647537
 20
504.1439505014371
 30
0.0
 11
2392.677361647537
 21
504.1439505014371
 31
0.0
  0
LINE
  5
2F3
  8
0
  6
CONTINUOUS
 62
     7
 10
2393.477361647537
 20
502.3939505014371
 30
0.0
 11
2393.477361647537
 21
504.1439505014371
 31
0.0
  0
LINE
  5
2F4
  8
0
  6
CONTINUOUS
 62
     7
 10
2392.677361647537
 20
502.3939505014371
 30
0.0
 11
2393.477361647537
 21
502.3939505014371
 31
0.0
  0
ARC
  5
2F5
  8
0
  6
CONTINUOUS
 62
     7
 10
2392.677361647537
 20
506.343950501437
 30
0.0
 40
3.950000000000045
 50
180.0
 51
270.0000000000008
  0
LINE
  5
2F6
  8
0
  6
CONTINUOUS
 62
     7
 10
2388.727361647537
 20
512.943950501437
 30
0.0
 11
2388.727361647537
 21
506.3439505014372
 31
0.0
  0
ARC
  5
2F7
  8
0
  6
CONTINUOUS
 62
     7
 10
2392.677361647537
 20
512.9439505014373
 30
0.0
 40
3.949999999999932
 50
90.0
 51
180.0
  0
LINE
  5
2F8
  8
0
  6
CONTINUOUS
 62
     7
 10
2399.277361647537
 20
516.8939505014371
 30
0.0
 11
2392.677361647537
 21
516.8939505014371
 31
0.0
  0
ARC
  5
2F9
  8
0
  6
CONTINUOUS
 62
     7
 10
2399.277361647537
 20
512.9439505014373
 30
0.0
 40
3.950000000000273
 50
359.9999995166827
 51
90.0
  0
ARC
  5
2FA
  8
0
  6
CONTINUOUS
 62
     7
 10
2404.027361647537
 20
511.9439505014371
 30
0.0
 40
0.199999999999989
 50
0.0
 51
90.0000036969587
  0
LINE
  5
2FB
  8
0
  6
CONTINUOUS
 62
     7
 10
2404.227361647537
 20
506.8939505014371
 30
0.0
 11
2404.227361647537
 21
511.9439505014371
 31
0.0
  0
LINE
  5
2FC
  8
0
  6
CONTINUOUS
 62
     7
 10
2402.477361647537
 20
506.8939505014371
 30
0.0
 11
2404.227361647537
 21
506.8939505014371
 31
0.0
  0
ARC
  5
2FD
  8
0
  6
CONTINUOUS
 62
     7
 10
2404.027361647537
 20
512.9439505014373
 30
0.0
 40
0.8000000000000115
 50
180.0000023863837
 51
269.9999990757611
  0
LINE
  5
2FE
  8
0
  6
CONTINUOUS
 62
     7
 10
2392.677361647537
 20
515.1439505014371
 30
0.0
 11
2399.277361647537
 21
515.1439505014371
 31
0.0
  0
LINE
  5
2FF
  8
0
  6
CONTINUOUS
 62
     7
 10
2392.677361647537
 20
516.8939505014371
 30
0.0
 11
2392.677361647537
 21
525.193950501437
 31
0.0
  0
LINE
  5
300
  8
0
  6
CONTINUOUS
 62
     7
 10
2392.677361647537
 20
525.193950501437
 30
0.0
 11
2399.677361647538
 21
525.193950501437
 31
0.0
  0
LINE
  5
301
  8
0
  6
CONTINUOUS
 62
     7
 10
2399.677361647538
 20
516.8939505014371
 30
0.0
 11
2399.677361647538
 21
525.193950501437
 31
0.0
  0
LINE
  5
302
  8
0
  6
CONTINUOUS
 62
     7
 10
2392.677361647537
 20
525.193950501437
 30
0.0
 11
2392.677361647537
 21
528.6939505014323
 31
0.0
  0
LINE
  5
303
  8
0
  6
CONTINUOUS
 62
     7
 10
2392.677361647537
 20
528.6939505014371
 30
0.0
 11
2397.618728106498
 21
528.6939505014371
 31
0.0
  0
LINE
  5
304
  8
0
  6
CONTINUOUS
 62
     7
 10
2399.677361647538
 20
525.193950501437
 30
0.0
 11
2399.677361647538
 21
528.3562281615982
 31
0.0
  0
LINE
  5
305
  8
0
  6
CONTINUOUS
 62
     7
 10
2392.677361647537
 20
528.7542578806798
 30
0.0
 11
2392.677361647537
 21
528.6939505014676
 31
0.0
  0
LINE
  5
306
  8
0
  6
CONTINUOUS
 62
     7
 10
2392.677361647537
 20
529.7858612042352
 30
0.0
 11
2397.055595719241
 21
529.7858612042352
 31
0.0
  0
LINE
  5
307
  8
0
  6
CONTINUOUS
 62
     7
 10
2392.677361647537
 20
528.754257880651
 30
0.0
 11
2392.677361647537
 21
529.7858612042352
 31
0.0
  0
LINE
  5
326
  8
0
  6
CONTINUOUS
 62
     7
 10
2395.337251443692
 20
509.0749402935226
 30
0.0
 11
2396.300442098745
 21
508.1117496384707
 31
0.0
  0
ARC
  5
327
  8
0
  6
CONTINUOUS
 62
     7
 10
2395.306678564124
 20
494.8095165914369
 30
0.0
 40
0.780000000000057
 50
188.1532085725881
 51
270.0000000000008
  0
ARC
  5
328
  8
0
  6
CONTINUOUS
 62
     7
 10
2392.406293835674
 20
494.3939826855042
 30
0.0
 40
2.150000000000271
 50
8.153198677875318
 51
97.96953880498509
  0
ARC
  5
329
  8
0
  6
CONTINUOUS
 62
     7
 10
2391.941827741608
 20
497.7116281227778
 30
0.0
 40
1.200000000000273
 50
180.0
 51
277.9695368848548
  0
LINE
  5
32A
  8
0
  6
CONTINUOUS
 62
     7
 10
2390.741827741607
 20
498.6891901344113
 30
0.0
 11
2390.741827741607
 21
497.7116281227779
 31
0.0
  0
ARC
  5
32B
  8
0
  6
CONTINUOUS
 62
     7
 10
2391.941827741608
 20
498.6891901344113
 30
0.0
 40
1.200000000000273
 50
112.6498989714242
 51
180.0
  0
LINE
  5
32C
  8
0
  6
CONTINUOUS
 62
     7
 10
2392.147426464429
 20
500.075266958895
 30
0.0
 11
2391.4797086994
 21
499.7966403548859
 31
0.0
  0
ARC
  5
32D
  8
0
  6
CONTINUOUS
 62
     7
 10
2392.917624868108
 20
498.2295165914375
 30
0.0
 40
2.000000000000159
 50
90.0
 51
112.6498989714118
  0
LINE
  5
32E
  8
0
  6
CONTINUOUS
 62
     7
 10
2393.815446431504
 20
500.2295165914371
 30
0.0
 11
2392.917624868108
 21
500.2295165914371
 31
0.0
  0
LINE
  5
32F
  8
0
  6
CONTINUOUS
 62
     7
 10
2394.238703689586
 20
498.4234880476292
 30
0.0
 11
2395.337251443692
 21
497.3249402935226
 31
0.0
  0
ARC
  5
330
  8
0
  6
CONTINUOUS
 62
     7
 10
2393.531596908399
 20
497.716381266443
 30
0.0
 40
0.9999999999999679
 50
44.99999999998848
 51
112.6498989714029
  0
LINE
  5
331
  8
0
  6
CONTINUOUS
 62
     7
 10
2392.211406489334
 20
498.2490597174502
 30
0.0
 11
2393.14649770656
 21
498.6392564501717
 31
0.0
  0
ARC
  5
332
  8
0
  6
CONTINUOUS
 62
     7
 10
2392.406293835675
 20
494.3939826855045
 30
0.0
 40
3.860000000000106
 50
23.66022218901884
 51
92.89403417331653
  0
ARC
  5
333
  8
0
  6
CONTINUOUS
 62
     7
 10
2399.47736164754
 20
501.4650504973702
 30
0.0
 40
3.859999999999943
 50
203.6602221890255
 51
246.3397778109791
  0
ARC
  5
334
  8
0
  6
CONTINUOUS
 62
     7
 10
2392.406293835675
 20
506.1439826855043
 30
0.0
 40
2.150000000000196
 50
8.153201311964441
 51
83.81778457481084
  0
ARC
  5
335
  8
0
  6
CONTINUOUS
 62
     7
 10
2392.721827741607
 20
509.0569430961873
 30
0.0
 40
0.7799999999999834
 50
180.0
 51
263.8177875581711
  0
LINE
  5
336
  8
0
  6
CONTINUOUS
 62
     7
 10
2391.941827741608
 20
510.3020900866867
 30
0.0
 11
2391.941827741608
 21
509.0569430961874
 31
0.0
  0
ARC
  5
337
  8
0
  6
CONTINUOUS
 62
     7
 10
2392.721827741607
 20
510.3020900866867
 30
0.0
 40
0.779999999999995
 50
96.18221463096353
 51
180.0
  0
ARC
  5
338
  8
0
  6
CONTINUOUS
 62
     7
 10
2392.406293835675
 20
513.2150504973697
 30
0.0
 40
2.150000000000196
 50
276.1822146309924
 51
351.8467986880364
  0
ARC
  5
339
  8
0
  6
CONTINUOUS
 62
     7
 10
2395.306678564124
 20
512.7995165914372
 30
0.0
 40
0.780000000000131
 50
90.0
 51
171.8467986880389
  0
LINE
  5
33A
  8
0
  6
CONTINUOUS
 62
     7
 10
2397.644951793628
 20
509.1855451352449
 30
0.0
 11
2396.546404039522
 21
510.2840928893515
 31
0.0
  0
ARC
  5
33B
  8
0
  6
CONTINUOUS
 62
     7
 10
2392.406293835674
 20
506.1439826855042
 30
0.0
 40
3.860000000000209
 50
9.169004714997147
 51
66.3397778109786
  0
ARC
  5
33C
  8
0
  6
CONTINUOUS
 62
     7
 10
2399.47736164754
 20
501.4650504973692
 30
0.0
 40
2.149999999999952
 50
207.5911861619077
 51
263.8177853690211
  0
LINE
  5
33D
  8
0
  6
CONTINUOUS
 62
     7
 10
2395.337251443692
 20
497.3249402935225
 30
0.0
 11
2396.546404039522
 21
498.5340928893516
 31
0.0
  0
ARC
  5
33E
  8
0
  6
CONTINUOUS
 62
     7
 10
2399.47736164754
 20
494.3939826855039
 30
0.0
 40
3.859999999999943
 50
113.6602221890218
 51
156.3397778109746
  0
ARC
  5
33F
  8
0
  6
CONTINUOUS
 62
     7
 10
2392.406293835674
 20
513.2150504973703
 30
0.0
 40
3.860000000000243
 50
293.6602221890225
 51
336.3397778109774
  0
LINE
  5
340
  8
0
  6
CONTINUOUS
 62
     7
 10
2394.534562493069
 20
506.4488966437826
 30
0.0
 11
2395.941827741608
 21
499.9159862637113
 31
0.0
  0
LINE
  5
341
  8
0
  6
CONTINUOUS
 62
     7
 10
2397.571870746262
 20
500.4692571326862
 30
0.0
 11
2396.216973116131
 21
506.75906269778
 31
0.0
  0
LINE
  5
342
  8
0
  6
CONTINUOUS
 62
     7
 10
2396.546404039522
 20
498.5340928893516
 30
0.0
 11
2395.58321338447
 21
499.4972835444035
 31
0.0
  0
ARC
  5
343
  8
0
  6
CONTINUOUS
 62
     7
 10
2399.47736164754
 20
494.3939826855045
 30
0.0
 40
2.150000000000188
 50
96.18221463099195
 51
171.8467986880371
  0
LINE
  5
344
  8
0
  6
CONTINUOUS
 62
     7
 10
2396.546404039522
 20
510.2840928893515
 30
0.0
 11
2395.337251443692
 21
509.0749402935226
 31
0.0
  0
ARC
  5
345
  8
0
  6
CONTINUOUS
 62
     7
 10
2398.352058574815
 20
509.8926519164311
 30
0.0
 40
1.000000000000141
 50
225.0000000000123
 51
292.6498989714252
  0
ARC
  5
346
  8
0
  6
CONTINUOUS
 62
     7
 10
2399.941827741608
 20
509.8974050600963
 30
0.0
 40
1.200000000000027
 50
359.9999999999981
 51
97.96953811719789
  0
LINE
  5
347
  8
0
  6
CONTINUOUS
 62
     7
 10
2401.141827741607
 20
508.9198430484629
 30
0.0
 11
2401.141827741607
 21
509.8974050600963
 31
0.0
  0
ARC
  5
348
  8
0
  6
CONTINUOUS
 62
     7
 10
2393.815446431503
 20
497.7295165914369
 30
0.0
 40
2.500000000000057
 50
45.00000000000369
 51
89.99999999998958
  0
ARC
  5
349
  8
0
  6
CONTINUOUS
 62
     7
 10
2399.161827741607
 20
497.3069430961874
 30
0.0
 40
0.7800000000002001
 50
276.1822146309648
 51
0.0
  0
ARC
  5
34A
  8
0
  6
CONTINUOUS
 62
     7
 10
2399.47736164754
 20
513.2150504973699
 30
0.0
 40
2.150000000000023
 50
188.1531978500981
 51
277.9695381171896
  0
LINE
  5
34B
  8
0
  6
CONTINUOUS
 62
     7
 10
2396.576976919091
 20
513.5795165914371
 30
0.0
 11
2395.306678564124
 21
513.5795165914371
 31
0.0
  0
ARC
  5
34C
  8
0
  6
CONTINUOUS
 62
     7
 10
2399.161827741607
 20
498.5520900866868
 30
0.0
 40
0.7800000000002001
 50
359.9999999999966
 51
83.81778536903602
  0
ARC
  5
34D
  8
0
  6
CONTINUOUS
 62
     7
 10
2398.068209051711
 20
509.8795165914375
 30
0.0
 40
2.5
 50
225.0000000000054
 51
269.9999999999904
  0
LINE
  5
34E
  8
0
  6
CONTINUOUS
 62
     7
 10
2398.068209051711
 20
507.379516591437
 30
0.0
 11
2398.966030615107
 21
507.379516591437
 31
0.0
  0
ARC
  5
34F
  8
0
  6
CONTINUOUS
 62
     7
 10
2396.576976919091
 20
512.799516591437
 30
0.0
 40
0.7800000000001884
 50
8.153210854300395
 51
90.0
  0
LINE
  5
350
  8
0
  6
CONTINUOUS
 62
     7
 10
2399.672248993881
 20
509.359973465424
 30
0.0
 11
2398.737157776654
 21
508.9697767327024
 31
0.0
  0
LINE
  5
351
  8
0
  6
CONTINUOUS
 62
     7
 10
2395.306678564124
 20
494.0295165914371
 30
0.0
 11
2396.576976919091
 21
494.0295165914371
 31
0.0
  0
LINE
  5
352
  8
0
  6
CONTINUOUS
 62
     7
 10
2399.736229018786
 20
507.5337662239792
 30
0.0
 11
2400.403946783814
 21
507.8123928279882
 31
0.0
  0
ARC
  5
353
  8
0
  6
CONTINUOUS
 62
     7
 10
2399.47736164754
 20
513.2150504973697
 30
0.0
 40
3.859999999999994
 50
203.6602221890223
 51
272.8940341733173
  0
ARC
  5
354
  8
0
  6
CONTINUOUS
 62
     7
 10
2396.576976919091
 20
494.809516591437
 30
0.0
 40
0.7800000000001148
 50
270.0000000000008
 51
351.846798688048
  0
LINE
  5
355
  8
0
  6
CONTINUOUS
 62
     7
 10
2399.941827741608
 20
497.3069430961874
 30
0.0
 11
2399.941827741608
 21
498.5520900866867
 31
0.0
  0
ARC
  5
356
  8
0
  6
CONTINUOUS
 62
     7
 10
2399.941827741608
 20
508.9198430484628
 30
0.0
 40
1.200000000000057
 50
292.649898971404
 51
0.0000000000054281
  0
ARC
  5
357
  8
0
  6
CONTINUOUS
 62
     7
 10
2398.966030615107
 20
509.3795165914366
 30
0.0
 40
2.0
 50
270.0000000000008
 51
292.6498989714018
  0
LINE
  5
38A
  8
0
  6
CONTINUOUS
 62
     7
 10
2401.427361647537
 20
490.6439826855041
 30
0.0
 11
2409.627361647537
 21
490.643982685504
 31
0.0
  0
LINE
  5
38B
  8
0
  6
CONTINUOUS
 62
     7
 10
2409.627361647537
 20
490.643982685504
 30
0.0
 11
2409.627361647537
 21
496.4455455671601
 31
0.0
  0
LINE
  5
38C
  8
0
  6
CONTINUOUS
 62
     7
 10
2401.427361647537
 20
496.4455455671601
 30
0.0
 11
2401.427361647537
 21
490.6439826855041
 31
0.0
  0
ARC
  5
38D
  8
0
  6
CONTINUOUS
 62
     7
 10
2405.527361647537
 20
499.6439826855041
 30
0.0
 40
5.200000000000336
 50
322.0419714193181
 51
217.9580285806804
  0
LINE
  5
38E
  8
0
  6
CONTINUOUS
 62
     7
 10
2398.627361647537
 20
503.1439826855041
 30
0.0
 11
2399.477361647537
 21
503.1439826855041
 31
0.0
  0
LINE
  5
38F
  8
0
  6
CONTINUOUS
 62
     7
 10
2398.627361647537
 20
504.6439826855041
 30
0.0
 11
2398.627361647537
 21
503.1439826855041
 31
0.0
  0
LINE
  5
390
  8
0
  6
CONTINUOUS
 62
     7
 10
2399.477361647537
 20
504.6439826855041
 30
0.0
 11
2398.627361647537
 21
504.6439826855041
 31
0.0
  0
ARC
  5
391
  8
0
  6
CONTINUOUS
 62
     7
 10
2399.477361647539
 20
500.8939826855056
 30
0.0
 40
3.750000000000189
 50
45.39624402694157
 51
90.00000000002085
  0
ARC
  5
392
  8
0
  6
CONTINUOUS
 62
     7
 10
2399.477361647537
 20
501.1439826855038
 30
0.0
 40
2.0
 50
36.71402945430059
 51
89.99999999998697
  0
LINE
  5
393
  8
0
  6
CONTINUOUS
 62
     7
 10
2402.277361647537
 20
504.843982685504
 30
0.0
 11
2402.277361647537
 21
503.7032313844631
 31
0.0
  0
LINE
  5
394
  8
0
  6
CONTINUOUS
 62
     7
 10
2405.527361647537
 20
504.843982685504
 30
0.0
 11
2402.277361647537
 21
504.843982685504
 31
0.0
  0
LINE
  5
395
  8
0
  6
CONTINUOUS
 62
     7
 10
2410.477361647537
 20
490.643982685504
 30
0.0
 11
2410.477361647537
 21
498.0510294532965
 31
0.0
  0
LINE
  5
396
  8
0
  6
CONTINUOUS
 62
     7
 10
2409.627361647537
 20
490.643982685504
 30
0.0
 11
2410.477361647537
 21
490.643982685504
 31
0.0
  0
LINE
  5
397
  8
0
  6
CONTINUOUS
 62
     7
 10
2392.477361647537
 20
490.6439826855041
 30
0.0
 11
2399.477361647537
 21
490.6439826855041
 31
0.0
  0
ARC
  5
398
  8
0
  6
CONTINUOUS
 62
     7
 10
2392.477361647536
 20
494.3939826855026
 30
0.0
 40
3.75
 50
180.0
 51
270.0000000000217
  0
LINE
  5
399
  8
0
  6
CONTINUOUS
 62
     7
 10
2388.727361647537
 20
495.085410469264
 30
0.0
 11
2388.727361647537
 21
494.3939826855041
 31
0.0
  0
LINE
  5
39A
  8
0
  6
CONTINUOUS
 62
     7
 10
2388.229713795977
 20
496.452686704265
 30
0.0
 11
2388.727361647537
 21
495.085410469264
 31
0.0
  0
ARC
  5
39B
  8
0
  6
CONTINUOUS
 62
     7
 10
2386.820174864799
 20
495.9396564892768
 30
0.0
 40
1.500000000000095
 50
20.00000000000037
 51
136.8297092601803
  0
LINE
  5
39C
  8
0
  6
CONTINUOUS
 62
     7
 10
2384.992277203942
 20
496.1835601207711
 30
0.0
 11
2385.726189639113
 21
496.9659100281161
 31
0.0
  0
ARC
  5
39D
  8
0
  6
CONTINUOUS
 62
     7
 10
2383.168968494464
 20
497.8939826855072
 30
0.0
 40
2.50000000000002
 50
270.0000000000425
 51
316.8297092601388
  0
LINE
  5
39E
  8
0
  6
CONTINUOUS
 62
     7
 10
2371.477361647537
 20
495.3939826855041
 30
0.0
 11
2383.168968494466
 21
495.3939826855041
 31
0.0
  0
ARC
  5
39F
  8
0
  6
CONTINUOUS
 62
     7
 10
2371.477361647537
 20
498.1439826855041
 30
0.0
 40
2.75
 50
180.0
 51
270.0000000000008
  0
LINE
  5
3A0
  8
0
  6
CONTINUOUS
 62
     7
 10
2370.477361647537
 20
501.1439826855041
 30
0.0
 11
2368.727361647537
 21
501.1439826855041
 31
0.0
  0
LINE
  5
3A1
  8
0
  6
CONTINUOUS
 62
     7
 10
2370.477361647537
 20
498.1439826855041
 30
0.0
 11
2370.477361647537
 21
501.1439826855041
 31
0.0
  0
ARC
  5
3A2
  8
0
  6
CONTINUOUS
 62
     7
 10
2371.477361647536
 20
498.1439826855034
 30
0.0
 40
1.0
 50
180.0
 51
270.0000000000008
  0
LINE
  5
3A3
  8
0
  6
CONTINUOUS
 62
     7
 10
2383.42337185351
 20
497.1439826855041
 30
0.0
 11
2371.477361647537
 21
497.1439826855041
 31
0.0
  0
ARC
  5
3A4
  8
0
  6
CONTINUOUS
 62
     7
 10
2383.423371853509
 20
498.1439826855073
 30
0.0
 40
1.000000000000129
 50
270.0000000000008
 51
314.9999999998926
  0
LINE
  5
3A5
  8
0
  6
CONTINUOUS
 62
     7
 10
2384.958905759443
 20
498.2653030290641
 30
0.0
 11
2384.130478634696
 21
497.4368759043171
 31
0.0
  0
ARC
  5
3A6
  8
0
  6
CONTINUOUS
 62
     7
 10
2387.080226103004
 20
496.1439826854997
 30
0.0
 40
3.000000000000145
 50
90.65295157111336
 51
134.9999999999578
  0
ARC
  5
3A7
  8
0
  6
CONTINUOUS
 62
     7
 10
2387.01185065441
 20
496.1439826855045
 30
0.0
 40
3.00000000000005
 50
19.99999999999731
 51
89.3470484289214
  0
LINE
  5
3A8
  8
0
  6
CONTINUOUS
 62
     7
 10
2390.477361647537
 20
495.3939826855041
 30
0.0
 11
2389.830928516767
 21
497.1700431154811
 31
0.0
  0
LINE
  5
3A9
  8
0
  6
CONTINUOUS
 62
     7
 10
2390.477361647537
 20
494.3939826855041
 30
0.0
 11
2390.477361647537
 21
495.3939826855041
 31
0.0
  0
ARC
  5
3AA
  8
0
  6
CONTINUOUS
 62
     7
 10
2392.477361647538
 20
494.3939826855045
 30
0.0
 40
2.000000000000455
 50
180.0
 51
269.9999999999878
  0
LINE
  5
3AB
  8
0
  6
CONTINUOUS
 62
     7
 10
2399.477361647537
 20
492.3939826855041
 30
0.0
 11
2392.477361647537
 21
492.3939826855041
 31
0.0
  0
ARC
  5
3AC
  8
0
  6
CONTINUOUS
 62
     7
 10
2399.477361647537
 20
494.3939826855045
 30
0.0
 40
2.0
 50
270.0000000000138
 51
347.1614318590153
  0
ARC
  5
3AD
  8
0
  6
CONTINUOUS
 62
     7
 10
2399.477361647539
 20
494.3939826855026
 30
0.0
 40
3.750000000000065
 50
269.9999999999799
 51
301.3322514975831
  0
LINE
  5
3AE
  8
0
  6
CONTINUOUS
 62
     7
 10
2410.477361647537
 20
501.2369359177115
 30
0.0
 11
2410.477361647537
 21
504.843982685504
 31
0.0
  0
LINE
  5
3AF
  8
0
  6
CONTINUOUS
 62
     7
 10
2410.477361647537
 20
504.843982685504
 30
0.0
 11
2405.527361647537
 21
504.843982685504
 31
0.0
  0
LINE
  5
3B0
  8
0
  6
CONTINUOUS
 62
     7
 10
2368.727361647537
 20
532.143982685504
 30
0.0
 11
2370.477361647537
 21
532.143982685504
 31
0.0
  0
LINE
  5
3B1
  8
0
  6
CONTINUOUS
 62
     7
 10
2370.477361647537
 20
501.1439826855041
 30
0.0
 11
2370.477361647537
 21
532.143982685504
 31
0.0
  0
LINE
  5
3B2
  8
0
  6
CONTINUOUS
 62
     7
 10
2368.727361647537
 20
535.143982685504
 30
0.0
 11
2370.477361647537
 21
535.143982685504
 31
0.0
  0
LINE
  5
3B3
  8
0
  6
CONTINUOUS
 62
     7
 10
2370.477361647537
 20
532.143982685504
 30
0.0
 11
2370.477361647537
 21
535.1439826855046
 31
0.0
  0
LINE
  5
4D2
  8
0
  6
CONTINUOUS
 62
     7
 10
2383.127361647537
 20
516.8939505014371
 30
0.0
 11
2383.127361647537
 21
522.8939505014371
 31
0.0
  0
LINE
  5
4DB
  8
0
  6
CONTINUOUS
 62
     7
 10
1691.227361647533
 20
606.8939505014371
 30
0.0
 11
2271.227361647535
 21
606.8939505014371
 31
0.0
  0
LINE
  5
4E0
  8
0
  6
CONTINUOUS
 62
     7
 10
1691.227361647536
 20
506.8939505014371
 30
0.0
 11
2271.227361647537
 21
506.8939505014371
 31
0.0
  0
ARC
  5
4E6
  8
0
  6
CONTINUOUS
 62
     7
 10
2394.727361647538
 20
527.8939505014371
 30
0.0
 40
2.999999999999958
 50
8.864171128070973
 51
180.0
  0
ARC
  5
4E7
  8
0
  6
CONTINUOUS
 62
     7
 10
2394.727361647538
 20
527.8939505014371
 30
0.0
 40
3.000000000000076
 50
180.0
 51
226.8953261800896
  0
LINE
  5
4E8
  8
0
  6
CONTINUOUS
 62
     7
 10
2388.727361647538
 20
522.8939505014371
 30
0.0
 11
2388.727361647538
 21
516.8939505014371
 31
0.0
  0
LINE
  5
4E9
  8
0
  6
CONTINUOUS
 62
     7
 10
2388.727361647537
 20
606.8939505014371
 30
0.0
 11
3018.727361647537
 21
606.8939505014371
 31
0.0
  0
LINE
  5
4EF
  8
0
  6
CONTINUOUS
 62
     7
 10
2408.727361647538
 20
506.8939505014371
 30
0.0
 11
3018.727361647537
 21
506.8939505014371
 31
0.0
  0
LINE
  5
4F1
  8
0
  6
CONTINUOUS
 62
     7
 10
2408.727361647538
 20
516.8939505014371
 30
0.0
 11
2408.727361647538
 21
506.8939505014371
 31
0.0
  0
LINE
  5
4F2
  8
0
  6
CONTINUOUS
 62
     7
 10
2388.727361647538
 20
516.8939505014371
 30
0.0
 11
2392.677361647537
 21
516.8939505014371
 31
0.0
  0
LINE
  5
4F3
  8
0
  6
CONTINUOUS
 62
     7
 10
2399.677361647538
 20
516.8939505014371
 30
0.0
 11
2408.727361647538
 21
516.8939505014371
 31
0.0
  0
LINE
  5
4FB
  8
0
  6
CONTINUOUS
 62
     7
 10
2382.727361647537
 20
516.8939505014371
 30
0.0
 11
2388.727361647538
 21
516.8939505014371
 31
0.0
  0
LINE
  5
4FC
  8
0
  6
CONTINUOUS
 62
     7
 10
2388.727361647538
 20
516.8939505014371
 30
0.0
 11
2388.727361647537
 21
512.9439505014373
 31
0.0
  0
LINE
  5
4FD
  8
0
  6
CONTINUOUS
 62
     7
 10
2376.227361647537
 20
506.8939505014371
 30
0.0
 11
2388.727361647537
 21
506.8939505014371
 31
0.0
  0
LINE
  5
4FE
  8
0
  6
CONTINUOUS
 62
     7
 10
2376.227361647537
 20
606.8939505014371
 30
0.0
 11
2388.727361647537
 21
606.8939505014371
 31
0.0
  0
LINE
  5
4FF
  8
0
  6
CONTINUOUS
 62
     7
 10
2382.727361647537
 20
522.8939505014371
 30
0.0
 11
2388.727361647538
 21
522.8939505014371
 31
0.0
  0
LINE
  5
500
  8
0
  6
CONTINUOUS
 62
     7
 10
2382.727361647537
 20
522.8939505014371
 30
0.0
 11
2382.727361647537
 21
516.8939505014371
 31
0.0
  0
LINE
  5
501
  8
0
  6
CONTINUOUS
 62
     7
 10
2388.727361647537
 20
606.8939505014371
 30
0.0
 11
2388.727361647538
 21
522.8939505014371
 31
0.0
  0
LINE
  5
502
  8
0
  6
CONTINUOUS
 62
     7
 10
2376.227361647537
 20
606.8939505014371
 30
0.0
 11
2376.227361647537
 21
506.8939505014371
 31
0.0
  0
LINE
  5
519
  8
0
  6
CONTINUOUS
 62
     7
 10
2341.227361647537
 20
485.3939826855042
 30
0.0
 11
2341.227361647537
 21
623.3939826855042
 31
0.0
  0
LINE
  5
51A
  8
0
  6
CONTINUOUS
 62
     7
 10
2368.727361647538
 20
623.3939826855042
 30
0.0
 11
2368.727361647538
 21
485.3939826855042
 31
0.0
  0
LINE
  5
51B
  8
0
  6
CONTINUOUS
 62
     7
 10
2368.727361647538
 20
485.3939826855042
 30
0.0
 11
2341.227361647537
 21
485.3939826855042
 31
0.0
  0
LINE
  5
51C
  8
0
  6
CONTINUOUS
 62
     7
 10
2341.227361647537
 20
623.3939826855042
 30
0.0
 11
2368.727361647538
 21
623.3939826855042
 31
0.0
  0
LINE
  5
51D
  8
0
  6
CONTINUOUS
 62
     7
 10
1603.727361647537
 20
623.3939826855042
 30
0.0
 11
1621.227361647537
 21
623.3939826855042
 31
0.0
  0
LINE
  5
51E
  8
0
  6
CONTINUOUS
 62
     7
 10
1621.227361647537
 20
623.3939826855042
 30
0.0
 11
1621.227361647537
 21
467.3939826855041
 31
0.0
  0
LINE
  5
51F
  8
0
  6
CONTINUOUS
 62
     7
 10
1621.227361647537
 20
467.3939826855041
 30
0.0
 11
1603.727361647537
 21
467.3939826855041
 31
0.0
  0
LINE
  5
520
  8
0
  6
CONTINUOUS
 62
     7
 10
1603.727361647537
 20
467.3939826855041
 30
0.0
 11
1603.727361647537
 21
623.3939826855042
 31
0.0
  0
LINE
  5
521
  8
0
  6
CONTINUOUS
 62
     7
 10
1621.227361647537
 20
468.3939826855042
 30
0.0
 11
3088.727361647537
 21
468.3939826855042
 31
0.0
  0
LINE
  5
523
  8
0
  6
CONTINUOUS
 62
     7
 10
1691.227361647536
 20
485.3939826855041
 30
0.0
 11
2271.227361647537
 21
485.3939826855041
 31
0.0
  0
LINE
  5
524
  8
0
  6
CONTINUOUS
 62
     7
 10
2368.727361647535
 20
485.3939826855041
 30
0.0
 11
3018.727361647536
 21
485.3939826855041
 31
0.0
  0
LINE
  5
52A
  8
0
  6
CONTINUOUS
 62
     7
 10
1602.477361647537
 20
623.3939826855042
 30
0.0
 11
1602.477361647537
 21
647.3939826855043
 31
0.0
  0
LINE
  5
52B
  8
0
  6
CONTINUOUS
 62
     7
 10
1602.477361647537
 20
647.3939826855043
 30
0.0
 11
3107.477361647537
 21
647.3939826855043
 31
0.0
  0
LINE
  5
52C
  8
0
  6
CONTINUOUS
 62
     7
 10
3107.477361647537
 20
623.3939826855042
 30
0.0
 11
3107.477361647537
 21
647.3939826855043
 31
0.0
  0
LINE
  5
52D
  8
0
  6
CONTINUOUS
 62
     7
 10
1602.477361647537
 20
623.3939826855042
 30
0.0
 11
3107.477361647537
 21
623.3939826855042
 31
0.0
  0
LINE
  5
52E
  8
0
  6
CONTINUOUS
 62
     7
 10
3088.727361647537
 20
467.3939826855042
 30
0.0
 11
3088.727361647537
 21
623.3939826855042
 31
0.0
  0
LINE
  5
52F
  8
0
  6
CONTINUOUS
 62
     7
 10
3106.227361647537
 20
623.3939826855042
 30
0.0
 11
3106.227361647537
 21
467.3939826855042
 31
0.0
  0
LINE
  5
530
  8
0
  6
CONTINUOUS
 62
     7
 10
3106.227361647537
 20
467.3939826855042
 30
0.0
 11
3088.727361647537
 21
467.3939826855042
 31
0.0
  0
LINE
  5
531
  8
0
  6
CONTINUOUS
 62
     7
 10
3088.727361647537
 20
623.3939826855042
 30
0.0
 11
3106.227361647537
 21
623.3939826855042
 31
0.0
  0
LINE
  5
53D
  8
0
  6
CONTINUOUS
 62
     8
 10
2392.677361647537
 20
528.754257880651
 30
0.0
 11
2397.601360814774
 21
528.754257880651
 31
0.0
  0
ENDSEC
  0
EOF
