  0
SECTION
  2
HEADER
  9
$ACADVER
  1
AC1006
  9
$DWGCODEPAGE
  3
ansi_932
  9
$INSBASE
 10
0.0
 20
0.0
 30
0.0
  9
$EXTMIN
 10
444.77967901143
 20
165.7088516276313
  9
$EXTMAX
 10
4839.484712179223
 20
3314.521866334918
  9
$LIMMIN
 10
0.0
 20
0.0
  9
$LIMMAX
 10
5000.0
 20
3500.0
  9
$ORTHOMODE
 70
     1
  9
$REGENMODE
 70
     1
  9
$FILLMODE
 70
     1
  9
$QTEXTMODE
 70
     0
  9
$MIRRTEXT
 70
     1
  9
$DRAGMODE
 70
     2
  9
$LTSCALE
 40
1.0
  9
$OSMODE
 70
    37
  9
$ATTMODE
 70
     1
  9
$TEXTSIZE
 40
3.5
  9
$TRACEWID
 40
1.0
  9
$TEXTSTYLE
  7
STANDARD
  9
$CLAYER
  8
0
  9
$CELTYPE
  6
BYLAYER
  9
$CECOLOR
 62
   256
  9
$DIMSCALE
 40
1.0
  9
$DIMASZ
 40
3.302
  9
$DIMEXO
 40
1.0
  9
$DIMDLI
 40
3.75
  9
$DIMRND
 40
0.0
  9
$DIMDLE
 40
0.0
  9
$DIMEXE
 40
1.0
  9
$DIMTP
 40
0.0
  9
$DIMTM
 40
0.0
  9
$DIMTXT
 40
3.5
  9
$DIMCEN
 40
2.5
  9
$DIMTSZ
 40
0.0
  9
$DIMTOL
 70
     0
  9
$DIMLIM
 70
     0
  9
$DIMTIH
 70
     1
  9
$DIMTOH
 70
     1
  9
$DIMSE1
 70
     0
  9
$DIMSE2
 70
     0
  9
$DIMTAD
 70
     1
  9
$DIMZIN
 70
     0
  9
$DIMBLK
  1

  9
$DIMASO
 70
     1
  9
$DIMSHO
 70
     1
  9
$DIMPOST
  1

  9
$DIMAPOST
  1

  9
$DIMALT
 70
     0
  9
$DIMALTD
 70
     3
  9
$DIMALTF
 40
0.0393700787401575
  9
$DIMLFAC
 40
1.0
  9
$DIMTOFL
 70
     1
  9
$DIMTVP
 40
0.0
  9
$DIMTIX
 70
     0
  9
$DIMSOXD
 70
     0
  9
$DIMSAH
 70
     0
  9
$DIMBLK1
  1

  9
$DIMBLK2
  1

  9
$LUNITS
 70
     2
  9
$LUPREC
 70
     3
  9
$SKETCHINC
 40
1.0
  9
$FILLETRAD
 40
10.0
  9
$AUNITS
 70
     0
  9
$AUPREC
 70
     2
  9
$MENU
  1
.
  9
$ELEVATION
 40
0.0
  9
$THICKNESS
 40
0.0
  9
$LIMCHECK
 70
     0
  9
$CHAMFERA
 40
0.0
  9
$CHAMFERB
 40
0.0
  9
$SKPOLY
 70
     0
  9
$TDCREATE
 40
2459800.107388646
  9
$TDUPDATE
 40
2460140.108564514
  9
$TDINDWG
 40
0.0171865394
  9
$TDUSRTIMER
 40
0.0171865394
  9
$USRTIMER
 70
     1
  9
$ANGBASE
 50
0.0
  9
$ANGDIR
 70
     0
  9
$PDMODE
 70
     0
  9
$PDSIZE
 40
-1.0
  9
$PLINEWID
 40
0.0
  9
$COORDS
 70
     1
  9
$SPLFRAME
 70
     0
  9
$SPLINETYPE
 70
     6
  9
$SPLINESEGS
 70
     8
  9
$ATTDIA
 70
     0
  9
$ATTREQ
 70
     1
  9
$HANDLING
 70
     1
  9
$HANDSEED
  5
75E
  9
$SURFTAB1
 70
     6
  9
$SURFTAB2
 70
     6
  9
$SURFTYPE
 70
     6
  9
$SURFU
 70
     6
  9
$SURFV
 70
     6
  9
$UCSNAME
  2

  9
$UCSORG
 10
0.0
 20
0.0
 30
0.0
  9
$UCSXDIR
 10
1.0
 20
0.0
 30
0.0
  9
$UCSYDIR
 10
0.0
 20
1.0
 30
0.0
  9
$USERI1
 70
     0
  9
$USERI2
 70
     0
  9
$USERI3
 70
     0
  9
$USERI4
 70
     0
  9
$USERI5
 70
     0
  9
$USERR1
 40
0.0
  9
$USERR2
 40
0.0
  9
$USERR3
 40
0.0
  9
$USERR4
 40
0.0
  9
$USERR5
 40
0.0
  9
$WORLDVIEW
 70
     1
  0
ENDSEC
  0
SECTION
  2
TABLES
  0
TABLE
  2
VPORT
 70
     1
  0
VPORT
  2
*ACTIVE
 70
     0
 10
0.0
 20
0.0
 11
1.0
 21
1.0
 12
2812.892959103378
 22
1753.665025403126
 13
0.0
 23
0.0
 14
10.0
 24
10.0
 15
10.0
 25
10.0
 16
0.0
 26
0.0
 36
1.0
 17
0.0
 27
0.0
 37
0.0
 40
3483.620778220497
 41
2.235364396654719
 42
50.0
 43
0.0
 44
0.0
 50
0.0
 51
0.0
 71
     0
 72
  2000
 73
     1
 74
     3
 75
     0
 76
     0
 77
     0
 78
     0
  0
ENDTAB
  0
TABLE
  2
LTYPE
 70
     6
  0
LTYPE
  2
CONTINUOUS
 70
     0
  3
Solid line
 72
    65
 73
     0
 40
0.0
  0
LTYPE
  2
HIDDEN
 70
     0
  3
Hidden __ __ __ __ __ __ __ __ __ __ __ __ __ __
 72
    65
 73
     2
 40
1.905
 49
1.27
 49
-0.635
  0
LTYPE
  2
PHANTOM
 70
     0
  3
Phantom ______  __  __  ______  __  __  ______
 72
    65
 73
     6
 40
12.7
 49
6.35
 49
-1.27
 49
1.27
 49
-1.27
 49
1.27
 49
-1.27
  0
LTYPE
  2
CENTER
 70
     0
  3
Center ____ _ ____ _ ____ _ ____ _ ____ _ ____
 72
    65
 73
     4
 40
10.16
 49
6.35
 49
-1.27
 49
1.27
 49
-1.27
  0
LTYPE
  2
CENTERX2
 70
     0
  3
Center (2x) ________  __  ________  __  _____
 72
    65
 73
     4
 40
20.32
 49
12.7
 49
-2.54
 49
2.54
 49
-2.54
  0
LTYPE
  2
DOT2
 70
     0
  3
Dot (.5x) ........................................
 72
    65
 73
     2
 40
0.635
 49
0.0
 49
-0.635
  0
ENDTAB
  0
TABLE
  2
LAYER
 70
     4
  0
LAYER
  2
0
 70
     0
 62
     7
  6
CONTINUOUS
  0
LAYER
  2
SLD-0
 70
     0
 62
   179
  6
CONTINUOUS
  0
LAYER
  2
寸法
 70
     0
 62
   179
  6
CONTINUOUS
  0
LAYER
  2
DEFPOINTS
 70
     0
 62
     7
  6
CONTINUOUS
  0
ENDTAB
  0
TABLE
  2
STYLE
 70
     2
  0
STYLE
  2
STANDARD
 70
     0
 40
0.0
 41
1.0
 50
0.0
 71
     0
 42
3.5
  3
txt
  4
bigfont
  0
STYLE
  2
SLDTEXTSTYLE0
 70
     0
 40
0.0
 41
0.75
 50
0.0
 71
     0
 42
3.5
  3
TXT
  4
bigfont
  0
ENDTAB
  0
TABLE
  2
VIEW
 70
     0
  0
ENDTAB
  0
TABLE
  2
UCS
 70
     0
  0
ENDTAB
  0
ENDSEC
  0
SECTION
  2
BLOCKS
  0
ENDSEC
  0
SECTION
  2
ENTITIES
  0
LINE
  5
75
  8
0
  6
CONTINUOUS
 62
     7
 10
4839.484712179223
 20
284.470902007842
 30
0.0
 11
3312.374599790194
 21
284.4709020078419
 31
0.0
  0
TEXT
  5
77
  8
0
  6
CONTINUOUS
 62
     7
 10
1653.493678216644
 20
3261.605199668251
 30
0.0
 40
52.91666666666666
  1
＜上面＞
 41
0.75
  7
SLDTEXTSTYLE0
  0
TEXT
  5
78
  8
0
  6
CONTINUOUS
 62
     7
 10
465.0550770716506
 20
2123.137155358547
 30
0.0
 40
52.91666666666666
  1
＜左側面＞
 41
0.75
  7
SLDTEXTSTYLE0
  0
TEXT
  5
79
  8
0
  6
CONTINUOUS
 62
     7
 10
1648.960416169302
 20
2119.924351969637
 30
0.0
 40
52.91666666666666
  1
＜正面＞
 41
0.75
  7
SLDTEXTSTYLE0
  0
TEXT
  5
7A
  8
0
  6
CONTINUOUS
 62
     7
 10
3377.814243189123
 20
326.489054196763
 30
0.0
 40
52.91666666666666
  1
品名：
 41
0.75
  7
SLDTEXTSTYLE0
  0
TEXT
  5
7B
  8
0
  6
CONTINUOUS
 62
     7
 10
4446.663437481703
 20
332.3177187478654
 30
0.0
 40
52.91666666666666
  1
Pamouna
 41
0.75
  7
SLDTEXTSTYLE0
  0
TEXT
  5
7C
  8
寸法
  6
CONTINUOUS
 62
     7
 10
4688.007304885427
 20
165.7088516276312
 30
0.0
 40
52.91666666666666
  1
1/1
 41
0.75
  7
SLDTEXTSTYLE0
  0
TEXT
  5
7D
  8
寸法
  6
CONTINUOUS
 62
     7
 10
4198.79693921183
 20
165.7088544215994
 30
0.0
 40
52.91666666666666
  1
2022/09/24
 41
0.75
  7
SLDTEXTSTYLE0
  0
TEXT
  5
7E
  8
寸法
  6
CONTINUOUS
 62
     7
 10
1633.463148059129
 20
1039.627624333833
 30
0.0
 40
52.91666666666666
  1
＜背面＞
 41
0.75
  7
SLDTEXTSTYLE0
  0
TEXT
  5
7F
  8
寸法
  6
CONTINUOUS
 62
     7
 10
3611.283129349215
 20
326.4179237671586
 30
0.0
 40
66.14583333333331
  1
MA-WS1200
 41
0.75
  7
SLDTEXTSTYLE0
  0
TEXT
  5
80
  8
寸法
  6
CONTINUOUS
 62
     7
 10
3480.731849808455
 20
2123.137155358548
 30
0.0
 40
52.91666666666666
  1
＜右側面＞
 41
0.75
  7
SLDTEXTSTYLE0
  0
LINE
  5
8B
  8
0
  6
CONTINUOUS
 62
     7
 10
2875.04736164755
 20
1617.182065315615
 30
0.0
 11
2874.24736164755
 21
1617.182065315615
 31
0.0
  0
ARC
  5
8C
  8
0
  6
CONTINUOUS
 62
     7
 10
2875.04736164755
 20
1616.982065315614
 30
0.0
 40
0.2000000000007276
 50
0.0
 51
90.0
  0
LINE
  5
8D
  8
0
  6
CONTINUOUS
 62
     7
 10
2276.54736164755
 20
1617.182065315615
 30
0.0
 11
2275.74736164755
 21
1617.182065315615
 31
0.0
  0
ARC
  5
8E
  8
0
  6
CONTINUOUS
 62
     7
 10
2276.54736164755
 20
1616.982065315615
 30
0.0
 40
0.2000000000002728
 50
0.0
 51
90.0
  0
LINE
  5
8F
  8
0
  6
CONTINUOUS
 62
     7
 10
2874.24736164755
 20
1617.182065315615
 30
0.0
 11
2280.24736164755
 21
1617.182065315615
 31
0.0
  0
LINE
  5
90
  8
0
  6
CONTINUOUS
 62
     7
 10
2352.72736164755
 20
1617.182065315615
 30
0.0
 11
1681.74736164755
 21
1617.182065315615
 31
0.0
  0
LINE
  5
91
  8
0
  6
CONTINUOUS
 62
     7
 10
1681.74736164755
 20
1617.182065315615
 30
0.0
 11
1680.94736164755
 21
1617.182065315615
 31
0.0
  0
ARC
  5
92
  8
0
  6
CONTINUOUS
 62
     7
 10
1680.94736164755
 20
1616.982065315615
 30
0.0
 40
0.2000000000000455
 50
90.0
 51
180.0
  0
LINE
  5
93
  8
0
  6
CONTINUOUS
 62
     7
 10
2280.24736164755
 20
1617.182065315615
 30
0.0
 11
2279.44736164755
 21
1617.182065315615
 31
0.0
  0
ARC
  5
94
  8
0
  6
CONTINUOUS
 62
     7
 10
2279.44736164755
 20
1616.982065315614
 30
0.0
 40
0.2000000000002728
 50
90.0
 51
180.0
  0
LINE
  5
DF
  8
0
  6
CONTINUOUS
 62
     7
 10
2875.24736164755
 20
1616.970916593868
 30
0.0
 11
2875.24736164755
 21
1616.882065315614
 31
0.0
  0
POLYLINE
  5
E0
  8
0
  6
CONTINUOUS
 62
     7
 66
     1
 10
0.0
 20
0.0
 30
0.0
  0
VERTEX
  5
5CA
  8
0
  6
CONTINUOUS
 62
     7
 10
2875.24736164755
 20
1616.882065315614
 30
0.0
  0
VERTEX
  5
5CB
  8
0
  6
CONTINUOUS
 62
     7
 10
2875.247344210789
 20
1616.879307383437
 30
0.0
  0
VERTEX
  5
5CC
  8
0
  6
CONTINUOUS
 62
     7
 10
2875.247288413025
 20
1616.876480943689
 30
0.0
  0
VERTEX
  5
5CD
  8
0
  6
CONTINUOUS
 62
     7
 10
2875.247189811435
 20
1616.873585156526
 30
0.0
  0
VERTEX
  5
5CE
  8
0
  6
CONTINUOUS
 62
     7
 10
2875.247045375226
 20
1616.870621999142
 30
0.0
  0
VERTEX
  5
5CF
  8
0
  6
CONTINUOUS
 62
     7
 10
2875.246852073602
 20
1616.867593448734
 30
0.0
  0
VERTEX
  5
5D0
  8
0
  6
CONTINUOUS
 62
     7
 10
2875.246606875772
 20
1616.864501482494
 30
0.0
  0
VERTEX
  5
5D1
  8
0
  6
CONTINUOUS
 62
     7
 10
2875.246306750941
 20
1616.86134807762
 30
0.0
  0
VERTEX
  5
5D2
  8
0
  6
CONTINUOUS
 62
     7
 10
2875.245948668315
 20
1616.858135211304
 30
0.0
  0
VERTEX
  5
5D3
  8
0
  6
CONTINUOUS
 62
     7
 10
2875.2455295971
 20
1616.854864860744
 30
0.0
  0
VERTEX
  5
5D4
  8
0
  6
CONTINUOUS
 62
     7
 10
2875.245046506503
 20
1616.851539003133
 30
0.0
  0
VERTEX
  5
5D5
  8
0
  6
CONTINUOUS
 62
     7
 10
2875.244496365729
 20
1616.848159615666
 30
0.0
  0
VERTEX
  5
5D6
  8
0
  6
CONTINUOUS
 62
     7
 10
2875.243876143985
 20
1616.844728675538
 30
0.0
  0
VERTEX
  5
5D7
  8
0
  6
CONTINUOUS
 62
     7
 10
2875.243182810477
 20
1616.841248159944
 30
0.0
  0
VERTEX
  5
5D8
  8
0
  6
CONTINUOUS
 62
     7
 10
2875.242413334412
 20
1616.83772004608
 30
0.0
  0
VERTEX
  5
5D9
  8
0
  6
CONTINUOUS
 62
     7
 10
2875.241564684994
 20
1616.834146311139
 30
0.0
  0
VERTEX
  5
5DA
  8
0
  6
CONTINUOUS
 62
     7
 10
2875.240633831431
 20
1616.830528932318
 30
0.0
  0
VERTEX
  5
5DB
  8
0
  6
CONTINUOUS
 62
     7
 10
2875.23961774293
 20
1616.82686988681
 30
0.0
  0
VERTEX
  5
5DC
  8
0
  6
CONTINUOUS
 62
     7
 10
2875.238513388695
 20
1616.823171151812
 30
0.0
  0
VERTEX
  5
5DD
  8
0
  6
CONTINUOUS
 62
     7
 10
2875.237317737933
 20
1616.819434704517
 30
0.0
  0
VERTEX
  5
5DE
  8
0
  6
CONTINUOUS
 62
     7
 10
2875.23602775985
 20
1616.81566252212
 30
0.0
  0
VERTEX
  5
5DF
  8
0
  6
CONTINUOUS
 62
     7
 10
2875.234640423654
 20
1616.811856581818
 30
0.0
  0
VERTEX
  5
5E0
  8
0
  6
CONTINUOUS
 62
     7
 10
2875.233152698548
 20
1616.808018860804
 30
0.0
  0
VERTEX
  5
5E1
  8
0
  6
CONTINUOUS
 62
     7
 10
2875.231561553741
 20
1616.804151336274
 30
0.0
  0
VERTEX
  5
5E2
  8
0
  6
CONTINUOUS
 62
     7
 10
2875.229863958438
 20
1616.800255985422
 30
0.0
  0
VERTEX
  5
5E3
  8
0
  6
CONTINUOUS
 62
     7
 10
2875.228056869289
 20
1616.796334863267
 30
0.0
  0
VERTEX
  5
5E4
  8
0
  6
CONTINUOUS
 62
     7
 10
2875.226137020381
 20
1616.792391404229
 30
0.0
  0
VERTEX
  5
5E5
  8
0
  6
CONTINUOUS
 62
     7
 10
2875.2241009548
 20
1616.788430226521
 30
0.0
  0
VERTEX
  5
5E6
  8
0
  6
CONTINUOUS
 62
     7
 10
2875.221945209434
 20
1616.784455986776
 30
0.0
  0
VERTEX
  5
5E7
  8
0
  6
CONTINUOUS
 62
     7
 10
2875.219666321171
 20
1616.780473341623
 30
0.0
  0
VERTEX
  5
5E8
  8
0
  6
CONTINUOUS
 62
     7
 10
2875.217260826897
 20
1616.776486947692
 30
0.0
  0
VERTEX
  5
5E9
  8
0
  6
CONTINUOUS
 62
     7
 10
2875.214725263501
 20
1616.772501461614
 30
0.0
  0
VERTEX
  5
5EA
  8
0
  6
CONTINUOUS
 62
     7
 10
2875.212056167872
 20
1616.768521540018
 30
0.0
  0
VERTEX
  5
5EB
  8
0
  6
CONTINUOUS
 62
     7
 10
2875.209250076896
 20
1616.764551839536
 30
0.0
  0
VERTEX
  5
5EC
  8
0
  6
CONTINUOUS
 62
     7
 10
2875.20630352746
 20
1616.760597016796
 30
0.0
  0
VERTEX
  5
5ED
  8
0
  6
CONTINUOUS
 62
     7
 10
2875.203213056453
 20
1616.75666172843
 30
0.0
  0
VERTEX
  5
5EE
  8
0
  6
CONTINUOUS
 62
     7
 10
2875.199975200764
 20
1616.752750631068
 30
0.0
  0
VERTEX
  5
5EF
  8
0
  6
CONTINUOUS
 62
     7
 10
2875.196586497277
 20
1616.748868381339
 30
0.0
  0
VERTEX
  5
5F0
  8
0
  6
CONTINUOUS
 62
     7
 10
2875.193043482883
 20
1616.745019635875
 30
0.0
  0
VERTEX
  5
5F1
  8
0
  6
CONTINUOUS
 62
     7
 10
2875.189342696077
 20
1616.741209052618
 30
0.0
  0
VERTEX
  5
5F2
  8
0
  6
CONTINUOUS
 62
     7
 10
2875.185481370205
 20
1616.737441856798
 30
0.0
  0
VERTEX
  5
5F3
  8
0
  6
CONTINUOUS
 62
     7
 10
2875.181458515345
 20
1616.733724724188
 30
0.0
  0
VERTEX
  5
5F4
  8
0
  6
CONTINUOUS
 62
     7
 10
2875.177273421497
 20
1616.730064559097
 30
0.0
  0
VERTEX
  5
5F5
  8
0
  6
CONTINUOUS
 62
     7
 10
2875.172925378663
 20
1616.726468265835
 30
0.0
  0
VERTEX
  5
5F6
  8
0
  6
CONTINUOUS
 62
     7
 10
2875.168413676847
 20
1616.722942748713
 30
0.0
  0
VERTEX
  5
5F7
  8
0
  6
CONTINUOUS
 62
     7
 10
2875.16373760605
 20
1616.719494912038
 30
0.0
  0
VERTEX
  5
5F8
  8
0
  6
CONTINUOUS
 62
     7
 10
2875.158896456275
 20
1616.716131660123
 30
0.0
  0
VERTEX
  5
5F9
  8
0
  6
CONTINUOUS
 62
     7
 10
2875.153889517523
 20
1616.712859897274
 30
0.0
  0
VERTEX
  5
5FA
  8
0
  6
CONTINUOUS
 62
     7
 10
2875.148716079796
 20
1616.709686527803
 30
0.0
  0
VERTEX
  5
5FB
  8
0
  6
CONTINUOUS
 62
     7
 10
2875.143375433103
 20
1616.706618456029
 30
0.0
  0
VERTEX
  5
5FC
  8
0
  6
CONTINUOUS
 62
     7
 10
2875.137868090955
 20
1616.703665137871
 30
0.0
  0
VERTEX
  5
5FD
  8
0
  6
CONTINUOUS
 62
     7
 10
2875.132199233298
 20
1616.700845761012
 30
0.0
  0
VERTEX
  5
5FE
  8
0
  6
CONTINUOUS
 62
     7
 10
2875.126375152413
 20
1616.698181832894
 30
0.0
  0
VERTEX
  5
5FF
  8
0
  6
CONTINUOUS
 62
     7
 10
2875.120402140581
 20
1616.695694860953
 30
0.0
  0
VERTEX
  5
600
  8
0
  6
CONTINUOUS
 62
     7
 10
2875.114286490081
 20
1616.69340635263
 30
0.0
  0
VERTEX
  5
601
  8
0
  6
CONTINUOUS
 62
     7
 10
2875.108034493195
 20
1616.691337815362
 30
0.0
  0
VERTEX
  5
602
  8
0
  6
CONTINUOUS
 62
     7
 10
2875.101652442203
 20
1616.689510756589
 30
0.0
  0
VERTEX
  5
603
  8
0
  6
CONTINUOUS
 62
     7
 10
2875.09514686147
 20
1616.687945308607
 30
0.0
  0
VERTEX
  5
604
  8
0
  6
CONTINUOUS
 62
     7
 10
2875.088529088399
 20
1616.68663308578
 30
0.0
  0
VERTEX
  5
605
  8
0
  6
CONTINUOUS
 62
     7
 10
2875.081814998684
 20
1616.685538812411
 30
0.0
  0
VERTEX
  5
606
  8
0
  6
CONTINUOUS
 62
     7
 10
2875.075020645102
 20
1616.684626163594
 30
0.0
  0
VERTEX
  5
607
  8
0
  6
CONTINUOUS
 62
     7
 10
2875.068162080422
 20
1616.683858814414
 30
0.0
  0
VERTEX
  5
608
  8
0
  6
CONTINUOUS
 62
     7
 10
2875.061255357421
 20
1616.683200439964
 30
0.0
  0
VERTEX
  5
609
  8
0
  6
CONTINUOUS
 62
     7
 10
2875.054316528873
 20
1616.682614715335
 30
0.0
  0
VERTEX
  5
60A
  8
0
  6
CONTINUOUS
 62
     7
 10
2875.04736164755
 20
1616.682065315615
 30
0.0
  0
SEQEND
  5
756
  8
0
  6
CONTINUOUS
 62
     7
  0
LINE
  5
E1
  8
0
  6
CONTINUOUS
 62
     7
 10
2875.04736164755
 20
1616.682065315614
 30
0.0
 11
2875.04736164755
 21
1617.168129413431
 31
0.0
  0
ARC
  5
E2
  8
0
  6
CONTINUOUS
 62
     7
 10
2875.048745527299
 20
1616.969513155943
 30
0.0
 40
0.1986210785935487
 50
0.4048499765283321
 51
90.39920793453996
  0
LINE
  5
E3
  8
0
  6
CONTINUOUS
 62
     7
 10
2875.04736164755
 20
1617.168129413431
 30
0.0
 11
2874.24736164755
 21
1617.168129413431
 31
0.0
  0
LINE
  5
E4
  8
0
  6
CONTINUOUS
 62
     7
 10
2874.24736164755
 20
1617.168129413431
 30
0.0
 11
2874.24736164755
 21
1616.682065315614
 31
0.0
  0
LINE
  5
E5
  8
0
  6
CONTINUOUS
 62
     7
 10
2874.24736164755
 20
1617.182065315615
 30
0.0
 11
2874.24736164755
 21
1617.168129413431
 31
0.0
  0
LINE
  5
E6
  8
0
  6
CONTINUOUS
 62
     7
 10
2875.24736164755
 20
1616.982065315614
 30
0.0
 11
2875.24736164755
 21
1616.970916593868
 31
0.0
  0
LINE
  5
E7
  8
0
  6
CONTINUOUS
 62
     7
 10
2875.24736164755
 20
1616.882065315614
 30
0.0
 11
2875.24736164755
 21
1616.682065315612
 31
0.0
  0
LINE
  5
E8
  8
0
  6
CONTINUOUS
 62
     7
 10
2276.74736164755
 20
1616.970916593868
 30
0.0
 11
2276.74736164755
 21
1616.882065315615
 31
0.0
  0
LINE
  5
E9
  8
0
  6
CONTINUOUS
 62
     7
 10
2276.54736164755
 20
1616.682065315614
 30
0.0
 11
2276.54736164755
 21
1617.168129413431
 31
0.0
  0
ARC
  5
EA
  8
0
  6
CONTINUOUS
 62
     7
 10
2276.5487455273
 20
1616.969513155944
 30
0.0
 40
0.1986210785926344
 50
0.4048499763334209
 51
90.39920793467208
  0
POLYLINE
  5
EB
  8
0
  6
CONTINUOUS
 62
     7
 66
     1
 10
0.0
 20
0.0
 30
0.0
  0
VERTEX
  5
60B
  8
0
  6
CONTINUOUS
 62
     7
 10
2276.74736164755
 20
1616.882065315615
 30
0.0
  0
VERTEX
  5
60C
  8
0
  6
CONTINUOUS
 62
     7
 10
2276.747344210788
 20
1616.879307383437
 30
0.0
  0
VERTEX
  5
60D
  8
0
  6
CONTINUOUS
 62
     7
 10
2276.747288413025
 20
1616.876480943689
 30
0.0
  0
VERTEX
  5
60E
  8
0
  6
CONTINUOUS
 62
     7
 10
2276.747189811435
 20
1616.873585156526
 30
0.0
  0
VERTEX
  5
60F
  8
0
  6
CONTINUOUS
 62
     7
 10
2276.747045375226
 20
1616.870621999142
 30
0.0
  0
VERTEX
  5
610
  8
0
  6
CONTINUOUS
 62
     7
 10
2276.746852073602
 20
1616.867593448734
 30
0.0
  0
VERTEX
  5
611
  8
0
  6
CONTINUOUS
 62
     7
 10
2276.746606875772
 20
1616.864501482494
 30
0.0
  0
VERTEX
  5
612
  8
0
  6
CONTINUOUS
 62
     7
 10
2276.746306750941
 20
1616.86134807762
 30
0.0
  0
VERTEX
  5
613
  8
0
  6
CONTINUOUS
 62
     7
 10
2276.745948668315
 20
1616.858135211304
 30
0.0
  0
VERTEX
  5
614
  8
0
  6
CONTINUOUS
 62
     7
 10
2276.7455295971
 20
1616.854864860744
 30
0.0
  0
VERTEX
  5
615
  8
0
  6
CONTINUOUS
 62
     7
 10
2276.745046506503
 20
1616.851539003133
 30
0.0
  0
VERTEX
  5
616
  8
0
  6
CONTINUOUS
 62
     7
 10
2276.744496365729
 20
1616.848159615666
 30
0.0
  0
VERTEX
  5
617
  8
0
  6
CONTINUOUS
 62
     7
 10
2276.743876143985
 20
1616.844728675538
 30
0.0
  0
VERTEX
  5
618
  8
0
  6
CONTINUOUS
 62
     7
 10
2276.743182810477
 20
1616.841248159944
 30
0.0
  0
VERTEX
  5
619
  8
0
  6
CONTINUOUS
 62
     7
 10
2276.742413334412
 20
1616.83772004608
 30
0.0
  0
VERTEX
  5
61A
  8
0
  6
CONTINUOUS
 62
     7
 10
2276.741564684994
 20
1616.834146311139
 30
0.0
  0
VERTEX
  5
61B
  8
0
  6
CONTINUOUS
 62
     7
 10
2276.740633831432
 20
1616.830528932318
 30
0.0
  0
VERTEX
  5
61C
  8
0
  6
CONTINUOUS
 62
     7
 10
2276.73961774293
 20
1616.82686988681
 30
0.0
  0
VERTEX
  5
61D
  8
0
  6
CONTINUOUS
 62
     7
 10
2276.738513388695
 20
1616.823171151812
 30
0.0
  0
VERTEX
  5
61E
  8
0
  6
CONTINUOUS
 62
     7
 10
2276.737317737933
 20
1616.819434704517
 30
0.0
  0
VERTEX
  5
61F
  8
0
  6
CONTINUOUS
 62
     7
 10
2276.73602775985
 20
1616.81566252212
 30
0.0
  0
VERTEX
  5
620
  8
0
  6
CONTINUOUS
 62
     7
 10
2276.734640423654
 20
1616.811856581818
 30
0.0
  0
VERTEX
  5
621
  8
0
  6
CONTINUOUS
 62
     7
 10
2276.733152698549
 20
1616.808018860804
 30
0.0
  0
VERTEX
  5
622
  8
0
  6
CONTINUOUS
 62
     7
 10
2276.731561553741
 20
1616.804151336274
 30
0.0
  0
VERTEX
  5
623
  8
0
  6
CONTINUOUS
 62
     7
 10
2276.729863958438
 20
1616.800255985422
 30
0.0
  0
VERTEX
  5
624
  8
0
  6
CONTINUOUS
 62
     7
 10
2276.728056869289
 20
1616.796334863267
 30
0.0
  0
VERTEX
  5
625
  8
0
  6
CONTINUOUS
 62
     7
 10
2276.726137020381
 20
1616.792391404229
 30
0.0
  0
VERTEX
  5
626
  8
0
  6
CONTINUOUS
 62
     7
 10
2276.7241009548
 20
1616.788430226521
 30
0.0
  0
VERTEX
  5
627
  8
0
  6
CONTINUOUS
 62
     7
 10
2276.721945209434
 20
1616.784455986776
 30
0.0
  0
VERTEX
  5
628
  8
0
  6
CONTINUOUS
 62
     7
 10
2276.719666321171
 20
1616.780473341623
 30
0.0
  0
VERTEX
  5
629
  8
0
  6
CONTINUOUS
 62
     7
 10
2276.717260826897
 20
1616.776486947692
 30
0.0
  0
VERTEX
  5
62A
  8
0
  6
CONTINUOUS
 62
     7
 10
2276.714725263502
 20
1616.772501461614
 30
0.0
  0
VERTEX
  5
62B
  8
0
  6
CONTINUOUS
 62
     7
 10
2276.712056167872
 20
1616.768521540018
 30
0.0
  0
VERTEX
  5
62C
  8
0
  6
CONTINUOUS
 62
     7
 10
2276.709250076896
 20
1616.764551839536
 30
0.0
  0
VERTEX
  5
62D
  8
0
  6
CONTINUOUS
 62
     7
 10
2276.70630352746
 20
1616.760597016796
 30
0.0
  0
VERTEX
  5
62E
  8
0
  6
CONTINUOUS
 62
     7
 10
2276.703213056453
 20
1616.75666172843
 30
0.0
  0
VERTEX
  5
62F
  8
0
  6
CONTINUOUS
 62
     7
 10
2276.699975200764
 20
1616.752750631068
 30
0.0
  0
VERTEX
  5
630
  8
0
  6
CONTINUOUS
 62
     7
 10
2276.696586497277
 20
1616.748868381339
 30
0.0
  0
VERTEX
  5
631
  8
0
  6
CONTINUOUS
 62
     7
 10
2276.693043482883
 20
1616.745019635875
 30
0.0
  0
VERTEX
  5
632
  8
0
  6
CONTINUOUS
 62
     7
 10
2276.689342696076
 20
1616.741209052618
 30
0.0
  0
VERTEX
  5
633
  8
0
  6
CONTINUOUS
 62
     7
 10
2276.685481370205
 20
1616.737441856798
 30
0.0
  0
VERTEX
  5
634
  8
0
  6
CONTINUOUS
 62
     7
 10
2276.681458515345
 20
1616.733724724188
 30
0.0
  0
VERTEX
  5
635
  8
0
  6
CONTINUOUS
 62
     7
 10
2276.677273421497
 20
1616.730064559097
 30
0.0
  0
VERTEX
  5
636
  8
0
  6
CONTINUOUS
 62
     7
 10
2276.672925378663
 20
1616.726468265835
 30
0.0
  0
VERTEX
  5
637
  8
0
  6
CONTINUOUS
 62
     7
 10
2276.668413676847
 20
1616.722942748713
 30
0.0
  0
VERTEX
  5
638
  8
0
  6
CONTINUOUS
 62
     7
 10
2276.66373760605
 20
1616.719494912039
 30
0.0
  0
VERTEX
  5
639
  8
0
  6
CONTINUOUS
 62
     7
 10
2276.658896456275
 20
1616.716131660123
 30
0.0
  0
VERTEX
  5
63A
  8
0
  6
CONTINUOUS
 62
     7
 10
2276.653889517522
 20
1616.712859897274
 30
0.0
  0
VERTEX
  5
63B
  8
0
  6
CONTINUOUS
 62
     7
 10
2276.648716079796
 20
1616.709686527803
 30
0.0
  0
VERTEX
  5
63C
  8
0
  6
CONTINUOUS
 62
     7
 10
2276.643375433103
 20
1616.706618456029
 30
0.0
  0
VERTEX
  5
63D
  8
0
  6
CONTINUOUS
 62
     7
 10
2276.637868090955
 20
1616.703665137871
 30
0.0
  0
VERTEX
  5
63E
  8
0
  6
CONTINUOUS
 62
     7
 10
2276.632199233298
 20
1616.700845761012
 30
0.0
  0
VERTEX
  5
63F
  8
0
  6
CONTINUOUS
 62
     7
 10
2276.626375152413
 20
1616.698181832894
 30
0.0
  0
VERTEX
  5
640
  8
0
  6
CONTINUOUS
 62
     7
 10
2276.62040214058
 20
1616.695694860953
 30
0.0
  0
VERTEX
  5
641
  8
0
  6
CONTINUOUS
 62
     7
 10
2276.61428649008
 20
1616.69340635263
 30
0.0
  0
VERTEX
  5
642
  8
0
  6
CONTINUOUS
 62
     7
 10
2276.608034493194
 20
1616.691337815362
 30
0.0
  0
VERTEX
  5
643
  8
0
  6
CONTINUOUS
 62
     7
 10
2276.601652442203
 20
1616.689510756589
 30
0.0
  0
VERTEX
  5
644
  8
0
  6
CONTINUOUS
 62
     7
 10
2276.59514686147
 20
1616.687945308607
 30
0.0
  0
VERTEX
  5
645
  8
0
  6
CONTINUOUS
 62
     7
 10
2276.588529088399
 20
1616.68663308578
 30
0.0
  0
VERTEX
  5
646
  8
0
  6
CONTINUOUS
 62
     7
 10
2276.581814998684
 20
1616.685538812411
 30
0.0
  0
VERTEX
  5
647
  8
0
  6
CONTINUOUS
 62
     7
 10
2276.575020645102
 20
1616.684626163594
 30
0.0
  0
VERTEX
  5
648
  8
0
  6
CONTINUOUS
 62
     7
 10
2276.568162080422
 20
1616.683858814414
 30
0.0
  0
VERTEX
  5
649
  8
0
  6
CONTINUOUS
 62
     7
 10
2276.561255357421
 20
1616.683200439964
 30
0.0
  0
VERTEX
  5
64A
  8
0
  6
CONTINUOUS
 62
     7
 10
2276.554316528872
 20
1616.682614715335
 30
0.0
  0
VERTEX
  5
64B
  8
0
  6
CONTINUOUS
 62
     7
 10
2276.54736164755
 20
1616.682065315615
 30
0.0
  0
SEQEND
  5
757
  8
0
  6
CONTINUOUS
 62
     7
  0
LINE
  5
EC
  8
0
  6
CONTINUOUS
 62
     7
 10
2276.54736164755
 20
1617.168129413431
 30
0.0
 11
2275.74736164755
 21
1617.168129413431
 31
0.0
  0
LINE
  5
ED
  8
0
  6
CONTINUOUS
 62
     7
 10
2275.74736164755
 20
1617.168129413431
 30
0.0
 11
2275.74736164755
 21
1616.682065315614
 31
0.0
  0
LINE
  5
EE
  8
0
  6
CONTINUOUS
 62
     7
 10
2275.74736164755
 20
1617.182065315615
 30
0.0
 11
2275.74736164755
 21
1617.168129413431
 31
0.0
  0
LINE
  5
EF
  8
0
  6
CONTINUOUS
 62
     7
 10
2276.74736164755
 20
1616.982065315615
 30
0.0
 11
2276.74736164755
 21
1616.970916593868
 31
0.0
  0
LINE
  5
F0
  8
0
  6
CONTINUOUS
 62
     7
 10
2276.74736164755
 20
1616.882065315615
 30
0.0
 11
2276.74736164755
 21
1616.682065315613
 31
0.0
  0
LINE
  5
F1
  8
0
  6
CONTINUOUS
 62
     7
 10
2874.24736164755
 20
1617.168129413431
 30
0.0
 11
2280.24736164755
 21
1617.168129413431
 31
0.0
  0
LINE
  5
F2
  8
0
  6
CONTINUOUS
 62
     7
 10
2280.24736164755
 20
1616.682065315614
 30
0.0
 11
2280.24736164755
 21
1617.168129413431
 31
0.0
  0
LINE
  5
F3
  8
0
  6
CONTINUOUS
 62
     7
 10
2280.24736164755
 20
1617.168129413431
 30
0.0
 11
2280.24736164755
 21
1617.182065315615
 31
0.0
  0
LINE
  5
F4
  8
0
  6
CONTINUOUS
 62
     7
 10
2352.72736164755
 20
1617.168129413431
 30
0.0
 11
1681.74736164755
 21
1617.168129413431
 31
0.0
  0
LINE
  5
F5
  8
0
  6
CONTINUOUS
 62
     7
 10
1681.74736164755
 20
1616.682065315614
 30
0.0
 11
1681.74736164755
 21
1617.168129413431
 31
0.0
  0
LINE
  5
F6
  8
0
  6
CONTINUOUS
 62
     7
 10
1681.74736164755
 20
1617.168129413431
 30
0.0
 11
1681.74736164755
 21
1617.182065315615
 31
0.0
  0
LINE
  5
F7
  8
0
  6
CONTINUOUS
 62
     7
 10
1680.74736164755
 20
1616.882065315615
 30
0.0
 11
1680.74736164755
 21
1616.970916593868
 31
0.0
  0
ARC
  5
F8
  8
0
  6
CONTINUOUS
 62
     7
 10
1680.9459777678
 20
1616.969513155944
 30
0.0
 40
0.198621078592589
 50
89.60079206532794
 51
179.5951500236661
  0
LINE
  5
F9
  8
0
  6
CONTINUOUS
 62
     7
 10
1680.94736164755
 20
1617.168129413431
 30
0.0
 11
1680.94736164755
 21
1616.682065315614
 31
0.0
  0
POLYLINE
  5
FA
  8
0
  6
CONTINUOUS
 62
     7
 66
     1
 10
0.0
 20
0.0
 30
0.0
  0
VERTEX
  5
64C
  8
0
  6
CONTINUOUS
 62
     7
 10
1680.74736164755
 20
1616.882065315615
 30
0.0
  0
VERTEX
  5
64D
  8
0
  6
CONTINUOUS
 62
     7
 10
1680.747379084311
 20
1616.879307383437
 30
0.0
  0
VERTEX
  5
64E
  8
0
  6
CONTINUOUS
 62
     7
 10
1680.747434882075
 20
1616.876480943689
 30
0.0
  0
VERTEX
  5
64F
  8
0
  6
CONTINUOUS
 62
     7
 10
1680.747533483664
 20
1616.873585156526
 30
0.0
  0
VERTEX
  5
650
  8
0
  6
CONTINUOUS
 62
     7
 10
1680.747677919873
 20
1616.870621999143
 30
0.0
  0
VERTEX
  5
651
  8
0
  6
CONTINUOUS
 62
     7
 10
1680.747871221496
 20
1616.867593448734
 30
0.0
  0
VERTEX
  5
652
  8
0
  6
CONTINUOUS
 62
     7
 10
1680.748116419326
 20
1616.864501482495
 30
0.0
  0
VERTEX
  5
653
  8
0
  6
CONTINUOUS
 62
     7
 10
1680.748416544157
 20
1616.86134807762
 30
0.0
  0
VERTEX
  5
654
  8
0
  6
CONTINUOUS
 62
     7
 10
1680.748774626783
 20
1616.858135211305
 30
0.0
  0
VERTEX
  5
655
  8
0
  6
CONTINUOUS
 62
     7
 10
1680.749193697998
 20
1616.854864860744
 30
0.0
  0
VERTEX
  5
656
  8
0
  6
CONTINUOUS
 62
     7
 10
1680.749676788595
 20
1616.851539003133
 30
0.0
  0
VERTEX
  5
657
  8
0
  6
CONTINUOUS
 62
     7
 10
1680.750226929369
 20
1616.848159615666
 30
0.0
  0
VERTEX
  5
658
  8
0
  6
CONTINUOUS
 62
     7
 10
1680.750847151113
 20
1616.844728675538
 30
0.0
  0
VERTEX
  5
659
  8
0
  6
CONTINUOUS
 62
     7
 10
1680.751540484621
 20
1616.841248159944
 30
0.0
  0
VERTEX
  5
65A
  8
0
  6
CONTINUOUS
 62
     7
 10
1680.752309960687
 20
1616.83772004608
 30
0.0
  0
VERTEX
  5
65B
  8
0
  6
CONTINUOUS
 62
     7
 10
1680.753158610104
 20
1616.834146311139
 30
0.0
  0
VERTEX
  5
65C
  8
0
  6
CONTINUOUS
 62
     7
 10
1680.754089463667
 20
1616.830528932318
 30
0.0
  0
VERTEX
  5
65D
  8
0
  6
CONTINUOUS
 62
     7
 10
1680.755105552169
 20
1616.826869886811
 30
0.0
  0
VERTEX
  5
65E
  8
0
  6
CONTINUOUS
 62
     7
 10
1680.756209906404
 20
1616.823171151812
 30
0.0
  0
VERTEX
  5
65F
  8
0
  6
CONTINUOUS
 62
     7
 10
1680.757405557166
 20
1616.819434704517
 30
0.0
  0
VERTEX
  5
660
  8
0
  6
CONTINUOUS
 62
     7
 10
1680.758695535248
 20
1616.815662522121
 30
0.0
  0
VERTEX
  5
661
  8
0
  6
CONTINUOUS
 62
     7
 10
1680.760082871445
 20
1616.811856581819
 30
0.0
  0
VERTEX
  5
662
  8
0
  6
CONTINUOUS
 62
     7
 10
1680.76157059655
 20
1616.808018860804
 30
0.0
  0
VERTEX
  5
663
  8
0
  6
CONTINUOUS
 62
     7
 10
1680.763161741358
 20
1616.804151336274
 30
0.0
  0
VERTEX
  5
664
  8
0
  6
CONTINUOUS
 62
     7
 10
1680.764859336661
 20
1616.800255985423
 30
0.0
  0
VERTEX
  5
665
  8
0
  6
CONTINUOUS
 62
     7
 10
1680.766666425811
 20
1616.796334863267
 30
0.0
  0
VERTEX
  5
666
  8
0
  6
CONTINUOUS
 62
     7
 10
1680.768586274719
 20
1616.792391404228
 30
0.0
  0
VERTEX
  5
667
  8
0
  6
CONTINUOUS
 62
     7
 10
1680.7706223403
 20
1616.788430226521
 30
0.0
  0
VERTEX
  5
668
  8
0
  6
CONTINUOUS
 62
     7
 10
1680.772778085666
 20
1616.784455986776
 30
0.0
  0
VERTEX
  5
669
  8
0
  6
CONTINUOUS
 62
     7
 10
1680.775056973929
 20
1616.780473341622
 30
0.0
  0
VERTEX
  5
66A
  8
0
  6
CONTINUOUS
 62
     7
 10
1680.777462468203
 20
1616.776486947691
 30
0.0
  0
VERTEX
  5
66B
  8
0
  6
CONTINUOUS
 62
     7
 10
1680.779998031598
 20
1616.772501461613
 30
0.0
  0
VERTEX
  5
66C
  8
0
  6
CONTINUOUS
 62
     7
 10
1680.782667127228
 20
1616.768521540018
 30
0.0
  0
VERTEX
  5
66D
  8
0
  6
CONTINUOUS
 62
     7
 10
1680.785473218204
 20
1616.764551839535
 30
0.0
  0
VERTEX
  5
66E
  8
0
  6
CONTINUOUS
 62
     7
 10
1680.78841976764
 20
1616.760597016796
 30
0.0
  0
VERTEX
  5
66F
  8
0
  6
CONTINUOUS
 62
     7
 10
1680.791510238646
 20
1616.75666172843
 30
0.0
  0
VERTEX
  5
670
  8
0
  6
CONTINUOUS
 62
     7
 10
1680.794748094337
 20
1616.752750631068
 30
0.0
  0
VERTEX
  5
671
  8
0
  6
CONTINUOUS
 62
     7
 10
1680.798136797822
 20
1616.74886838134
 30
0.0
  0
VERTEX
  5
672
  8
0
  6
CONTINUOUS
 62
     7
 10
1680.801679812217
 20
1616.745019635875
 30
0.0
  0
VERTEX
  5
673
  8
0
  6
CONTINUOUS
 62
     7
 10
1680.805380599023
 20
1616.741209052618
 30
0.0
  0
VERTEX
  5
674
  8
0
  6
CONTINUOUS
 62
     7
 10
1680.809241924895
 20
1616.737441856798
 30
0.0
  0
VERTEX
  5
675
  8
0
  6
CONTINUOUS
 62
     7
 10
1680.813264779755
 20
1616.733724724187
 30
0.0
  0
VERTEX
  5
676
  8
0
  6
CONTINUOUS
 62
     7
 10
1680.817449873603
 20
1616.730064559096
 30
0.0
  0
VERTEX
  5
677
  8
0
  6
CONTINUOUS
 62
     7
 10
1680.821797916436
 20
1616.726468265835
 30
0.0
  0
VERTEX
  5
678
  8
0
  6
CONTINUOUS
 62
     7
 10
1680.826309618252
 20
1616.722942748713
 30
0.0
  0
VERTEX
  5
679
  8
0
  6
CONTINUOUS
 62
     7
 10
1680.83098568905
 20
1616.719494912039
 30
0.0
  0
VERTEX
  5
67A
  8
0
  6
CONTINUOUS
 62
     7
 10
1680.835826838825
 20
1616.716131660122
 30
0.0
  0
VERTEX
  5
67B
  8
0
  6
CONTINUOUS
 62
     7
 10
1680.840833777577
 20
1616.712859897274
 30
0.0
  0
VERTEX
  5
67C
  8
0
  6
CONTINUOUS
 62
     7
 10
1680.846007215303
 20
1616.709686527803
 30
0.0
  0
VERTEX
  5
67D
  8
0
  6
CONTINUOUS
 62
     7
 10
1680.851347861997
 20
1616.706618456029
 30
0.0
  0
VERTEX
  5
67E
  8
0
  6
CONTINUOUS
 62
     7
 10
1680.856855204145
 20
1616.70366513787
 30
0.0
  0
VERTEX
  5
67F
  8
0
  6
CONTINUOUS
 62
     7
 10
1680.862524061802
 20
1616.700845761012
 30
0.0
  0
VERTEX
  5
680
  8
0
  6
CONTINUOUS
 62
     7
 10
1680.868348142687
 20
1616.698181832894
 30
0.0
  0
VERTEX
  5
681
  8
0
  6
CONTINUOUS
 62
     7
 10
1680.874321154519
 20
1616.695694860953
 30
0.0
  0
VERTEX
  5
682
  8
0
  6
CONTINUOUS
 62
     7
 10
1680.880436805019
 20
1616.69340635263
 30
0.0
  0
VERTEX
  5
683
  8
0
  6
CONTINUOUS
 62
     7
 10
1680.886688801905
 20
1616.691337815362
 30
0.0
  0
VERTEX
  5
684
  8
0
  6
CONTINUOUS
 62
     7
 10
1680.893070852897
 20
1616.689510756588
 30
0.0
  0
VERTEX
  5
685
  8
0
  6
CONTINUOUS
 62
     7
 10
1680.899576433629
 20
1616.687945308607
 30
0.0
  0
VERTEX
  5
686
  8
0
  6
CONTINUOUS
 62
     7
 10
1680.9061942067
 20
1616.68663308578
 30
0.0
  0
VERTEX
  5
687
  8
0
  6
CONTINUOUS
 62
     7
 10
1680.912908296415
 20
1616.685538812412
 30
0.0
  0
VERTEX
  5
688
  8
0
  6
CONTINUOUS
 62
     7
 10
1680.919702649999
 20
1616.684626163593
 30
0.0
  0
VERTEX
  5
689
  8
0
  6
CONTINUOUS
 62
     7
 10
1680.926561214678
 20
1616.683858814414
 30
0.0
  0
VERTEX
  5
68A
  8
0
  6
CONTINUOUS
 62
     7
 10
1680.933467937678
 20
1616.683200439964
 30
0.0
  0
VERTEX
  5
68B
  8
0
  6
CONTINUOUS
 62
     7
 10
1680.940406766227
 20
1616.682614715334
 30
0.0
  0
VERTEX
  5
68C
  8
0
  6
CONTINUOUS
 62
     7
 10
1680.94736164755
 20
1616.682065315614
 30
0.0
  0
SEQEND
  5
758
  8
0
  6
CONTINUOUS
 62
     7
  0
LINE
  5
FB
  8
0
  6
CONTINUOUS
 62
     7
 10
1681.74736164755
 20
1617.168129413431
 30
0.0
 11
1680.94736164755
 21
1617.168129413431
 31
0.0
  0
LINE
  5
FC
  8
0
  6
CONTINUOUS
 62
     7
 10
1680.74736164755
 20
1616.970916593868
 30
0.0
 11
1680.74736164755
 21
1616.982065315615
 31
0.0
  0
LINE
  5
FD
  8
0
  6
CONTINUOUS
 62
     7
 10
1680.74736164755
 20
1616.682065315613
 30
0.0
 11
1680.74736164755
 21
1616.882065315615
 31
0.0
  0
LINE
  5
FE
  8
0
  6
CONTINUOUS
 62
     7
 10
2279.24736164755
 20
1616.882065315614
 30
0.0
 11
2279.24736164755
 21
1616.970916593868
 31
0.0
  0
ARC
  5
FF
  8
0
  6
CONTINUOUS
 62
     7
 10
2279.4459777678
 20
1616.969513155944
 30
0.0
 40
0.1986210785917201
 50
89.60079206519494
 51
179.5951500238615
  0
LINE
  5
100
  8
0
  6
CONTINUOUS
 62
     7
 10
2279.44736164755
 20
1617.168129413431
 30
0.0
 11
2279.44736164755
 21
1616.682065315614
 31
0.0
  0
POLYLINE
  5
101
  8
0
  6
CONTINUOUS
 62
     7
 66
     1
 10
0.0
 20
0.0
 30
0.0
  0
VERTEX
  5
68D
  8
0
  6
CONTINUOUS
 62
     7
 10
2279.24736164755
 20
1616.882065315614
 30
0.0
  0
VERTEX
  5
68E
  8
0
  6
CONTINUOUS
 62
     7
 10
2279.247379084311
 20
1616.879307383437
 30
0.0
  0
VERTEX
  5
68F
  8
0
  6
CONTINUOUS
 62
     7
 10
2279.247434882075
 20
1616.87648094369
 30
0.0
  0
VERTEX
  5
690
  8
0
  6
CONTINUOUS
 62
     7
 10
2279.247533483665
 20
1616.873585156526
 30
0.0
  0
VERTEX
  5
691
  8
0
  6
CONTINUOUS
 62
     7
 10
2279.247677919875
 20
1616.870621999143
 30
0.0
  0
VERTEX
  5
692
  8
0
  6
CONTINUOUS
 62
     7
 10
2279.247871221497
 20
1616.867593448734
 30
0.0
  0
VERTEX
  5
693
  8
0
  6
CONTINUOUS
 62
     7
 10
2279.248116419327
 20
1616.864501482494
 30
0.0
  0
VERTEX
  5
694
  8
0
  6
CONTINUOUS
 62
     7
 10
2279.248416544158
 20
1616.86134807762
 30
0.0
  0
VERTEX
  5
695
  8
0
  6
CONTINUOUS
 62
     7
 10
2279.248774626785
 20
1616.858135211305
 30
0.0
  0
VERTEX
  5
696
  8
0
  6
CONTINUOUS
 62
     7
 10
2279.249193698
 20
1616.854864860744
 30
0.0
  0
VERTEX
  5
697
  8
0
  6
CONTINUOUS
 62
     7
 10
2279.249676788597
 20
1616.851539003133
 30
0.0
  0
VERTEX
  5
698
  8
0
  6
CONTINUOUS
 62
     7
 10
2279.250226929371
 20
1616.848159615666
 30
0.0
  0
VERTEX
  5
699
  8
0
  6
CONTINUOUS
 62
     7
 10
2279.250847151115
 20
1616.844728675538
 30
0.0
  0
VERTEX
  5
69A
  8
0
  6
CONTINUOUS
 62
     7
 10
2279.251540484622
 20
1616.841248159944
 30
0.0
  0
VERTEX
  5
69B
  8
0
  6
CONTINUOUS
 62
     7
 10
2279.252309960688
 20
1616.83772004608
 30
0.0
  0
VERTEX
  5
69C
  8
0
  6
CONTINUOUS
 62
     7
 10
2279.253158610105
 20
1616.834146311139
 30
0.0
  0
VERTEX
  5
69D
  8
0
  6
CONTINUOUS
 62
     7
 10
2279.254089463668
 20
1616.830528932318
 30
0.0
  0
VERTEX
  5
69E
  8
0
  6
CONTINUOUS
 62
     7
 10
2279.25510555217
 20
1616.826869886811
 30
0.0
  0
VERTEX
  5
69F
  8
0
  6
CONTINUOUS
 62
     7
 10
2279.256209906405
 20
1616.823171151812
 30
0.0
  0
VERTEX
  5
6A0
  8
0
  6
CONTINUOUS
 62
     7
 10
2279.257405557167
 20
1616.819434704517
 30
0.0
  0
VERTEX
  5
6A1
  8
0
  6
CONTINUOUS
 62
     7
 10
2279.258695535249
 20
1616.815662522121
 30
0.0
  0
VERTEX
  5
6A2
  8
0
  6
CONTINUOUS
 62
     7
 10
2279.260082871446
 20
1616.811856581819
 30
0.0
  0
VERTEX
  5
6A3
  8
0
  6
CONTINUOUS
 62
     7
 10
2279.261570596551
 20
1616.808018860805
 30
0.0
  0
VERTEX
  5
6A4
  8
0
  6
CONTINUOUS
 62
     7
 10
2279.263161741358
 20
1616.804151336274
 30
0.0
  0
VERTEX
  5
6A5
  8
0
  6
CONTINUOUS
 62
     7
 10
2279.264859336661
 20
1616.800255985423
 30
0.0
  0
VERTEX
  5
6A6
  8
0
  6
CONTINUOUS
 62
     7
 10
2279.26666642581
 20
1616.796334863267
 30
0.0
  0
VERTEX
  5
6A7
  8
0
  6
CONTINUOUS
 62
     7
 10
2279.268586274719
 20
1616.792391404229
 30
0.0
  0
VERTEX
  5
6A8
  8
0
  6
CONTINUOUS
 62
     7
 10
2279.270622340299
 20
1616.788430226521
 30
0.0
  0
VERTEX
  5
6A9
  8
0
  6
CONTINUOUS
 62
     7
 10
2279.272778085666
 20
1616.784455986776
 30
0.0
  0
VERTEX
  5
6AA
  8
0
  6
CONTINUOUS
 62
     7
 10
2279.275056973929
 20
1616.780473341622
 30
0.0
  0
VERTEX
  5
6AB
  8
0
  6
CONTINUOUS
 62
     7
 10
2279.277462468203
 20
1616.776486947692
 30
0.0
  0
VERTEX
  5
6AC
  8
0
  6
CONTINUOUS
 62
     7
 10
2279.279998031598
 20
1616.772501461613
 30
0.0
  0
VERTEX
  5
6AD
  8
0
  6
CONTINUOUS
 62
     7
 10
2279.282667127228
 20
1616.768521540017
 30
0.0
  0
VERTEX
  5
6AE
  8
0
  6
CONTINUOUS
 62
     7
 10
2279.285473218205
 20
1616.764551839536
 30
0.0
  0
VERTEX
  5
6AF
  8
0
  6
CONTINUOUS
 62
     7
 10
2279.28841976764
 20
1616.760597016796
 30
0.0
  0
VERTEX
  5
6B0
  8
0
  6
CONTINUOUS
 62
     7
 10
2279.291510238646
 20
1616.75666172843
 30
0.0
  0
VERTEX
  5
6B1
  8
0
  6
CONTINUOUS
 62
     7
 10
2279.294748094336
 20
1616.752750631068
 30
0.0
  0
VERTEX
  5
6B2
  8
0
  6
CONTINUOUS
 62
     7
 10
2279.298136797822
 20
1616.74886838134
 30
0.0
  0
VERTEX
  5
6B3
  8
0
  6
CONTINUOUS
 62
     7
 10
2279.301679812217
 20
1616.745019635876
 30
0.0
  0
VERTEX
  5
6B4
  8
0
  6
CONTINUOUS
 62
     7
 10
2279.305380599023
 20
1616.741209052618
 30
0.0
  0
VERTEX
  5
6B5
  8
0
  6
CONTINUOUS
 62
     7
 10
2279.309241924895
 20
1616.737441856798
 30
0.0
  0
VERTEX
  5
6B6
  8
0
  6
CONTINUOUS
 62
     7
 10
2279.313264779754
 20
1616.733724724187
 30
0.0
  0
VERTEX
  5
6B7
  8
0
  6
CONTINUOUS
 62
     7
 10
2279.317449873603
 20
1616.730064559097
 30
0.0
  0
VERTEX
  5
6B8
  8
0
  6
CONTINUOUS
 62
     7
 10
2279.321797916436
 20
1616.726468265835
 30
0.0
  0
VERTEX
  5
6B9
  8
0
  6
CONTINUOUS
 62
     7
 10
2279.326309618252
 20
1616.722942748712
 30
0.0
  0
VERTEX
  5
6BA
  8
0
  6
CONTINUOUS
 62
     7
 10
2279.33098568905
 20
1616.719494912039
 30
0.0
  0
VERTEX
  5
6BB
  8
0
  6
CONTINUOUS
 62
     7
 10
2279.335826838825
 20
1616.716131660123
 30
0.0
  0
VERTEX
  5
6BC
  8
0
  6
CONTINUOUS
 62
     7
 10
2279.340833777577
 20
1616.712859897274
 30
0.0
  0
VERTEX
  5
6BD
  8
0
  6
CONTINUOUS
 62
     7
 10
2279.346007215303
 20
1616.709686527804
 30
0.0
  0
VERTEX
  5
6BE
  8
0
  6
CONTINUOUS
 62
     7
 10
2279.351347861997
 20
1616.706618456029
 30
0.0
  0
VERTEX
  5
6BF
  8
0
  6
CONTINUOUS
 62
     7
 10
2279.356855204145
 20
1616.703665137871
 30
0.0
  0
VERTEX
  5
6C0
  8
0
  6
CONTINUOUS
 62
     7
 10
2279.362524061802
 20
1616.700845761012
 30
0.0
  0
VERTEX
  5
6C1
  8
0
  6
CONTINUOUS
 62
     7
 10
2279.368348142687
 20
1616.698181832894
 30
0.0
  0
VERTEX
  5
6C2
  8
0
  6
CONTINUOUS
 62
     7
 10
2279.374321154519
 20
1616.695694860953
 30
0.0
  0
VERTEX
  5
6C3
  8
0
  6
CONTINUOUS
 62
     7
 10
2279.380436805019
 20
1616.693406352629
 30
0.0
  0
VERTEX
  5
6C4
  8
0
  6
CONTINUOUS
 62
     7
 10
2279.386688801905
 20
1616.691337815362
 30
0.0
  0
VERTEX
  5
6C5
  8
0
  6
CONTINUOUS
 62
     7
 10
2279.393070852897
 20
1616.689510756588
 30
0.0
  0
VERTEX
  5
6C6
  8
0
  6
CONTINUOUS
 62
     7
 10
2279.39957643363
 20
1616.687945308607
 30
0.0
  0
VERTEX
  5
6C7
  8
0
  6
CONTINUOUS
 62
     7
 10
2279.406194206701
 20
1616.68663308578
 30
0.0
  0
VERTEX
  5
6C8
  8
0
  6
CONTINUOUS
 62
     7
 10
2279.412908296415
 20
1616.685538812412
 30
0.0
  0
VERTEX
  5
6C9
  8
0
  6
CONTINUOUS
 62
     7
 10
2279.419702649999
 20
1616.684626163593
 30
0.0
  0
VERTEX
  5
6CA
  8
0
  6
CONTINUOUS
 62
     7
 10
2279.426561214678
 20
1616.683858814414
 30
0.0
  0
VERTEX
  5
6CB
  8
0
  6
CONTINUOUS
 62
     7
 10
2279.433467937679
 20
1616.683200439964
 30
0.0
  0
VERTEX
  5
6CC
  8
0
  6
CONTINUOUS
 62
     7
 10
2279.440406766228
 20
1616.682614715334
 30
0.0
  0
VERTEX
  5
6CD
  8
0
  6
CONTINUOUS
 62
     7
 10
2279.44736164755
 20
1616.682065315614
 30
0.0
  0
SEQEND
  5
759
  8
0
  6
CONTINUOUS
 62
     7
  0
LINE
  5
102
  8
0
  6
CONTINUOUS
 62
     7
 10
2280.24736164755
 20
1617.168129413431
 30
0.0
 11
2279.44736164755
 21
1617.168129413431
 31
0.0
  0
LINE
  5
103
  8
0
  6
CONTINUOUS
 62
     7
 10
2279.24736164755
 20
1616.970916593868
 30
0.0
 11
2279.24736164755
 21
1616.982065315614
 31
0.0
  0
LINE
  5
104
  8
0
  6
CONTINUOUS
 62
     7
 10
2279.24736164755
 20
1616.682065315612
 30
0.0
 11
2279.24736164755
 21
1616.882065315614
 31
0.0
  0
LINE
  5
105
  8
0
  6
CONTINUOUS
 62
     7
 10
2279.24736164755
 20
1616.682065315612
 30
0.0
 11
2279.24736164755
 21
1416.682065315612
 31
0.0
  0
LINE
  5
106
  8
0
  6
CONTINUOUS
 62
     7
 10
2875.24736164755
 20
1616.682065315612
 30
0.0
 11
2279.24736164755
 21
1616.682065315612
 31
0.0
  0
LINE
  5
107
  8
0
  6
CONTINUOUS
 62
     7
 10
2875.24736164755
 20
1416.682065315612
 30
0.0
 11
2875.24736164755
 21
1616.682065315612
 31
0.0
  0
LINE
  5
108
  8
0
  6
CONTINUOUS
 62
     7
 10
2279.24736164755
 20
1416.682065315612
 30
0.0
 11
2875.24736164755
 21
1416.682065315612
 31
0.0
  0
LINE
  5
109
  8
0
  6
CONTINUOUS
 62
     7
 10
1680.74736164755
 20
1616.682065315613
 30
0.0
 11
1680.74736164755
 21
1416.682065315613
 31
0.0
  0
LINE
  5
10A
  8
0
  6
CONTINUOUS
 62
     7
 10
2353.72736164755
 20
1616.682065315613
 30
0.0
 11
1680.74736164755
 21
1616.682065315613
 31
0.0
  0
LINE
  5
10B
  8
0
  6
CONTINUOUS
 62
     7
 10
2276.74736164755
 20
1416.682065315613
 30
0.0
 11
2276.74736164755
 21
1616.682065315613
 31
0.0
  0
LINE
  5
10C
  8
0
  6
CONTINUOUS
 62
     7
 10
1680.74736164755
 20
1416.682065315613
 30
0.0
 11
2353.72736164755
 21
1416.682065315613
 31
0.0
  0
LINE
  5
10D
  8
0
  6
CONTINUOUS
 62
     7
 10
2276.74736164755
 20
1430.682065315614
 30
0.0
 11
2279.24736164755
 21
1430.682065315614
 31
0.0
  0
LINE
  5
10E
  8
0
  6
CONTINUOUS
 62
     7
 10
2264.247361647547
 20
1638.682065315614
 30
0.0
 11
2264.247361647547
 21
1617.182065315615
 31
0.0
  0
LINE
  5
10F
  8
0
  6
CONTINUOUS
 62
     7
 10
2291.747361647548
 20
1617.182065315615
 30
0.0
 11
2291.747361647548
 21
1638.682065315614
 31
0.0
  0
LINE
  5
110
  8
0
  6
CONTINUOUS
 62
     7
 10
2861.747361647548
 20
1638.682065315614
 30
0.0
 11
2861.747361647548
 21
1617.182065315615
 31
0.0
  0
LINE
  5
111
  8
0
  6
CONTINUOUS
 62
     7
 10
2861.747361647548
 20
1416.682065315612
 30
0.0
 11
2861.747361647548
 21
1412.682065315614
 31
0.0
  0
LINE
  5
112
  8
0
  6
CONTINUOUS
 62
     7
 10
2861.747361647548
 20
1412.682065315614
 30
0.0
 11
2879.247361647548
 21
1412.682065315614
 31
0.0
  0
LINE
  5
113
  8
0
  6
CONTINUOUS
 62
     7
 10
2879.247361647548
 20
1412.682065315614
 30
0.0
 11
2879.247361647548
 21
1638.682065315614
 31
0.0
  0
LINE
  5
114
  8
0
  6
CONTINUOUS
 62
     7
 10
2861.747361647548
 20
1413.682065315615
 30
0.0
 11
1694.247361647548
 21
1413.682065315615
 31
0.0
  0
LINE
  5
115
  8
0
  6
CONTINUOUS
 62
     7
 10
2880.497361647548
 20
1638.682065315614
 30
0.0
 11
1675.497361647548
 21
1638.682065315614
 31
0.0
  0
LINE
  5
116
  8
0
  6
CONTINUOUS
 62
     7
 10
1675.497361647548
 20
1638.682065315614
 30
0.0
 11
1675.497361647548
 21
1641.682065315615
 31
0.0
  0
LINE
  5
117
  8
0
  6
CONTINUOUS
 62
     7
 10
1675.497361647548
 20
1641.682065315615
 30
0.0
 11
2880.497361647548
 21
1641.682065315615
 31
0.0
  0
LINE
  5
118
  8
0
  6
CONTINUOUS
 62
     7
 10
2880.497361647548
 20
1641.682065315615
 30
0.0
 11
2880.497361647548
 21
1638.682065315614
 31
0.0
  0
LINE
  5
119
  8
0
  6
CONTINUOUS
 62
     7
 10
2880.497361647548
 20
1659.682065315615
 30
0.0
 11
1675.497361647548
 21
1659.682065315615
 31
0.0
  0
LINE
  5
11A
  8
0
  6
CONTINUOUS
 62
     7
 10
1675.497361647548
 20
1662.682065315614
 30
0.0
 11
2880.497361647548
 21
1662.682065315614
 31
0.0
  0
LINE
  5
11B
  8
0
  6
CONTINUOUS
 62
     7
 10
1675.497361647548
 20
1659.682065315615
 30
0.0
 11
1675.497361647548
 21
1662.682065315614
 31
0.0
  0
LINE
  5
11C
  8
0
  6
CONTINUOUS
 62
     7
 10
2880.497361647548
 20
1662.682065315614
 30
0.0
 11
2880.497361647548
 21
1659.682065315615
 31
0.0
  0
LINE
  5
11D
  8
0
  6
CONTINUOUS
 62
     7
 10
1675.497361647548
 20
1659.682065315615
 30
0.0
 11
1675.497361647548
 21
1641.682065315615
 31
0.0
  0
LINE
  5
11E
  8
0
  6
CONTINUOUS
 62
     7
 10
2880.497361647548
 20
1659.682065315615
 30
0.0
 11
2880.497361647548
 21
1641.682065315615
 31
0.0
  0
LINE
  5
11F
  8
0
  6
CONTINUOUS
 62
     7
 10
1694.247361647548
 20
1412.682065315614
 30
0.0
 11
1694.247361647548
 21
1416.682065315613
 31
0.0
  0
LINE
  5
120
  8
0
  6
CONTINUOUS
 62
     7
 10
1694.247361647548
 20
1617.182065315615
 30
0.0
 11
1694.247361647548
 21
1638.682065315615
 31
0.0
  0
LINE
  5
121
  8
0
  6
CONTINUOUS
 62
     7
 10
1676.747361647548
 20
1412.682065315614
 30
0.0
 11
1694.247361647548
 21
1412.682065315614
 31
0.0
  0
LINE
  5
122
  8
0
  6
CONTINUOUS
 62
     7
 10
1676.747361647548
 20
1638.682065315615
 30
0.0
 11
1676.747361647548
 21
1412.682065315614
 31
0.0
  0
LINE
  5
12A
  8
0
  6
CONTINUOUS
 62
     8
 10
2875.04736164755
 20
1617.168129413431
 30
0.0
 11
2875.04736164755
 21
1617.182065315615
 31
0.0
  0
LINE
  5
12B
  8
0
  6
CONTINUOUS
 62
     8
 10
2276.54736164755
 20
1617.168129413431
 30
0.0
 11
2276.54736164755
 21
1617.182065315615
 31
0.0
  0
LINE
  5
12C
  8
0
  6
CONTINUOUS
 62
     8
 10
1680.94736164755
 20
1617.182065315615
 30
0.0
 11
1680.94736164755
 21
1617.168129413431
 31
0.0
  0
LINE
  5
12D
  8
0
  6
CONTINUOUS
 62
     8
 10
2279.44736164755
 20
1617.182065315615
 30
0.0
 11
2279.44736164755
 21
1617.168129413431
 31
0.0
  0
ARC
  5
16C
  8
0
  6
CONTINUOUS
 62
     7
 10
1026.600999354987
 20
1604.682065315615
 30
0.0
 40
0.7999999999999545
 50
90.0
 51
180.0
  0
LINE
  5
16D
  8
0
  6
CONTINUOUS
 62
     7
 10
1025.600999354988
 20
1604.682065315615
 30
0.0
 11
1025.800999354987
 21
1604.682065315615
 31
0.0
  0
ARC
  5
16E
  8
0
  6
CONTINUOUS
 62
     7
 10
1026.600999354987
 20
1604.682065315615
 30
0.0
 40
1.0
 50
90.0
 51
180.0
  0
LINE
  5
16F
  8
0
  6
CONTINUOUS
 62
     7
 10
1026.600999354987
 20
1605.482065315615
 30
0.0
 11
1026.600999354987
 21
1605.682065315615
 31
0.0
  0
LINE
  5
170
  8
0
  6
CONTINUOUS
 62
     7
 10
1027.400999354987
 20
1583.682065315614
 30
0.0
 11
1027.200999354987
 21
1583.882065315614
 31
0.0
  0
LINE
  5
171
  8
0
  6
CONTINUOUS
 62
     7
 10
1027.200999354987
 20
1583.882065315614
 30
0.0
 11
1027.200999354987
 21
1603.882065315614
 31
0.0
  0
LINE
  5
172
  8
0
  6
CONTINUOUS
 62
     7
 10
1027.400999354987
 20
1603.682065315615
 30
0.0
 11
1027.200999354987
 21
1603.882065315614
 31
0.0
  0
LINE
  5
173
  8
0
  6
CONTINUOUS
 62
     7
 10
1027.200999354987
 20
1603.882065315614
 30
0.0
 11
1039.700999354988
 21
1603.882065315614
 31
0.0
  0
LINE
  5
174
  8
0
  6
CONTINUOUS
 62
     7
 10
1039.900999354988
 20
1603.682065315615
 30
0.0
 11
1039.700999354988
 21
1603.882065315614
 31
0.0
  0
LINE
  5
175
  8
0
  6
CONTINUOUS
 62
     7
 10
1025.600999354988
 20
1583.882065315614
 30
0.0
 11
1025.800999354987
 21
1583.882065315614
 31
0.0
  0
LINE
  5
176
  8
0
  6
CONTINUOUS
 62
     7
 10
1025.800999354987
 20
1583.682065315614
 30
0.0
 11
1025.800999354987
 21
1583.882065315614
 31
0.0
  0
ARC
  5
177
  8
0
  6
CONTINUOUS
 62
     7
 10
1025.800999354987
 20
1583.882065315614
 30
0.0
 40
0.2000000000000455
 50
180.0
 51
270.0000000000008
  0
LINE
  5
178
  8
0
  6
CONTINUOUS
 62
     7
 10
1027.400999354987
 20
1583.682065315614
 30
0.0
 11
1025.800999354987
 21
1583.682065315614
 31
0.0
  0
LINE
  5
179
  8
0
  6
CONTINUOUS
 62
     7
 10
1025.800999354987
 20
1583.882065315614
 30
0.0
 11
1027.200999354987
 21
1583.882065315614
 31
0.0
  0
LINE
  5
17A
  8
0
  6
CONTINUOUS
 62
     7
 10
1025.600999354988
 20
1583.882065315614
 30
0.0
 11
1025.600999354988
 21
1604.682065315615
 31
0.0
  0
LINE
  5
17B
  8
0
  6
CONTINUOUS
 62
     7
 10
1025.800999354987
 20
1604.682065315615
 30
0.0
 11
1025.800999354987
 21
1583.882065315614
 31
0.0
  0
LINE
  5
17C
  8
0
  6
CONTINUOUS
 62
     7
 10
1036.984185585007
 20
1605.482065315615
 30
0.0
 11
1026.600999354987
 21
1605.482065315615
 31
0.0
  0
LINE
  5
17D
  8
0
  6
CONTINUOUS
 62
     7
 10
1026.600999354987
 20
1605.682065315615
 30
0.0
 11
1036.984185585007
 21
1605.682065315615
 31
0.0
  0
LINE
  5
17E
  8
0
  6
CONTINUOUS
 62
     7
 10
1036.984185585007
 20
1605.482065315615
 30
0.0
 11
1036.984185585007
 21
1605.682065315615
 31
0.0
  0
ARC
  5
17F
  8
0
  6
CONTINUOUS
 62
     7
 10
1039.901037680916
 20
1616.675097364523
 30
0.0
 40
0.3000000000001072
 50
43.62165296730249
 51
80.42341151898742
  0
LINE
  5
180
  8
0
  6
CONTINUOUS
 62
     7
 10
1039.95094743497
 20
1616.970916593868
 30
0.0
 11
1039.98422060434
 21
1617.168129413431
 31
0.0
  0
ARC
  5
181
  8
0
  6
CONTINUOUS
 62
     7
 10
1039.901037680916
 20
1616.675097364523
 30
0.0
 40
0.5000000000000436
 50
0.7984942260975312
 51
80.42341151896028
  0
POLYLINE
  5
182
  8
0
  6
CONTINUOUS
 62
     7
 66
     1
 10
0.0
 20
0.0
 30
0.0
  0
VERTEX
  5
6CE
  8
0
  6
CONTINUOUS
 62
     7
 10
1040.118211038445
 20
1616.882065315615
 30
0.0
  0
VERTEX
  5
6CF
  8
0
  6
CONTINUOUS
 62
     7
 10
1040.12456249836
 20
1616.879307383437
 30
0.0
  0
VERTEX
  5
6D0
  8
0
  6
CONTINUOUS
 62
     7
 10
1040.130890559686
 20
1616.876480943689
 30
0.0
  0
VERTEX
  5
6D1
  8
0
  6
CONTINUOUS
 62
     7
 10
1040.137193238256
 20
1616.873585156526
 30
0.0
  0
VERTEX
  5
6D2
  8
0
  6
CONTINUOUS
 62
     7
 10
1040.143469441391
 20
1616.870621999143
 30
0.0
  0
VERTEX
  5
6D3
  8
0
  6
CONTINUOUS
 62
     7
 10
1040.149718076416
 20
1616.867593448734
 30
0.0
  0
VERTEX
  5
6D4
  8
0
  6
CONTINUOUS
 62
     7
 10
1040.155938050655
 20
1616.864501482495
 30
0.0
  0
VERTEX
  5
6D5
  8
0
  6
CONTINUOUS
 62
     7
 10
1040.16212827143
 20
1616.86134807762
 30
0.0
  0
VERTEX
  5
6D6
  8
0
  6
CONTINUOUS
 62
     7
 10
1040.168287646066
 20
1616.858135211305
 30
0.0
  0
VERTEX
  5
6D7
  8
0
  6
CONTINUOUS
 62
     7
 10
1040.174415081886
 20
1616.854864860744
 30
0.0
  0
VERTEX
  5
6D8
  8
0
  6
CONTINUOUS
 62
     7
 10
1040.180509486213
 20
1616.851539003133
 30
0.0
  0
VERTEX
  5
6D9
  8
0
  6
CONTINUOUS
 62
     7
 10
1040.186569766372
 20
1616.848159615666
 30
0.0
  0
VERTEX
  5
6DA
  8
0
  6
CONTINUOUS
 62
     7
 10
1040.192594829685
 20
1616.844728675538
 30
0.0
  0
VERTEX
  5
6DB
  8
0
  6
CONTINUOUS
 62
     7
 10
1040.198583583476
 20
1616.841248159944
 30
0.0
  0
VERTEX
  5
6DC
  8
0
  6
CONTINUOUS
 62
     7
 10
1040.204534935069
 20
1616.83772004608
 30
0.0
  0
VERTEX
  5
6DD
  8
0
  6
CONTINUOUS
 62
     7
 10
1040.210447791787
 20
1616.834146311139
 30
0.0
  0
VERTEX
  5
6DE
  8
0
  6
CONTINUOUS
 62
     7
 10
1040.216321060954
 20
1616.830528932318
 30
0.0
  0
VERTEX
  5
6DF
  8
0
  6
CONTINUOUS
 62
     7
 10
1040.222153649894
 20
1616.826869886811
 30
0.0
  0
VERTEX
  5
6E0
  8
0
  6
CONTINUOUS
 62
     7
 10
1040.227944465929
 20
1616.823171151812
 30
0.0
  0
VERTEX
  5
6E1
  8
0
  6
CONTINUOUS
 62
     7
 10
1040.233692416384
 20
1616.819434704517
 30
0.0
  0
VERTEX
  5
6E2
  8
0
  6
CONTINUOUS
 62
     7
 10
1040.239396408582
 20
1616.815662522121
 30
0.0
  0
VERTEX
  5
6E3
  8
0
  6
CONTINUOUS
 62
     7
 10
1040.245055349846
 20
1616.811856581819
 30
0.0
  0
VERTEX
  5
6E4
  8
0
  6
CONTINUOUS
 62
     7
 10
1040.250668147501
 20
1616.808018860804
 30
0.0
  0
VERTEX
  5
6E5
  8
0
  6
CONTINUOUS
 62
     7
 10
1040.256233708869
 20
1616.804151336274
 30
0.0
  0
VERTEX
  5
6E6
  8
0
  6
CONTINUOUS
 62
     7
 10
1040.261750941275
 20
1616.800255985423
 30
0.0
  0
VERTEX
  5
6E7
  8
0
  6
CONTINUOUS
 62
     7
 10
1040.267218692294
 20
1616.796334863267
 30
0.0
  0
VERTEX
  5
6E8
  8
0
  6
CONTINUOUS
 62
     7
 10
1040.272634750493
 20
1616.792391404228
 30
0.0
  0
VERTEX
  5
6E9
  8
0
  6
CONTINUOUS
 62
     7
 10
1040.277995995603
 20
1616.788430226521
 30
0.0
  0
VERTEX
  5
6EA
  8
0
  6
CONTINUOUS
 62
     7
 10
1040.283299277861
 20
1616.784455986776
 30
0.0
  0
VERTEX
  5
6EB
  8
0
  6
CONTINUOUS
 62
     7
 10
1040.288541447507
 20
1616.780473341622
 30
0.0
  0
VERTEX
  5
6EC
  8
0
  6
CONTINUOUS
 62
     7
 10
1040.293719354776
 20
1616.776486947691
 30
0.0
  0
VERTEX
  5
6ED
  8
0
  6
CONTINUOUS
 62
     7
 10
1040.298829849908
 20
1616.772501461613
 30
0.0
  0
VERTEX
  5
6EE
  8
0
  6
CONTINUOUS
 62
     7
 10
1040.30386978314
 20
1616.768521540018
 30
0.0
  0
VERTEX
  5
6EF
  8
0
  6
CONTINUOUS
 62
     7
 10
1040.308836004711
 20
1616.764551839535
 30
0.0
  0
VERTEX
  5
6F0
  8
0
  6
CONTINUOUS
 62
     7
 10
1040.313725364858
 20
1616.760597016796
 30
0.0
  0
VERTEX
  5
6F1
  8
0
  6
CONTINUOUS
 62
     7
 10
1040.31853471382
 20
1616.75666172843
 30
0.0
  0
VERTEX
  5
6F2
  8
0
  6
CONTINUOUS
 62
     7
 10
1040.323260901833
 20
1616.752750631068
 30
0.0
  0
VERTEX
  5
6F3
  8
0
  6
CONTINUOUS
 62
     7
 10
1040.327900779137
 20
1616.74886838134
 30
0.0
  0
VERTEX
  5
6F4
  8
0
  6
CONTINUOUS
 62
     7
 10
1040.332451195969
 20
1616.745019635875
 30
0.0
  0
VERTEX
  5
6F5
  8
0
  6
CONTINUOUS
 62
     7
 10
1040.336909001689
 20
1616.741209052618
 30
0.0
  0
VERTEX
  5
6F6
  8
0
  6
CONTINUOUS
 62
     7
 10
1040.341270666315
 20
1616.737441856798
 30
0.0
  0
VERTEX
  5
6F7
  8
0
  6
CONTINUOUS
 62
     7
 10
1040.345531689891
 20
1616.733724724187
 30
0.0
  0
VERTEX
  5
6F8
  8
0
  6
CONTINUOUS
 62
     7
 10
1040.349687419639
 20
1616.730064559096
 30
0.0
  0
VERTEX
  5
6F9
  8
0
  6
CONTINUOUS
 62
     7
 10
1040.353733202781
 20
1616.726468265835
 30
0.0
  0
VERTEX
  5
6FA
  8
0
  6
CONTINUOUS
 62
     7
 10
1040.357664386541
 20
1616.722942748713
 30
0.0
  0
VERTEX
  5
6FB
  8
0
  6
CONTINUOUS
 62
     7
 10
1040.36147631814
 20
1616.719494912039
 30
0.0
  0
VERTEX
  5
6FC
  8
0
  6
CONTINUOUS
 62
     7
 10
1040.3651643448
 20
1616.716131660122
 30
0.0
  0
VERTEX
  5
6FD
  8
0
  6
CONTINUOUS
 62
     7
 10
1040.368723813746
 20
1616.712859897274
 30
0.0
  0
VERTEX
  5
6FE
  8
0
  6
CONTINUOUS
 62
     7
 10
1040.372150072198
 20
1616.709686527803
 30
0.0
  0
VERTEX
  5
6FF
  8
0
  6
CONTINUOUS
 62
     7
 10
1040.37543846737
 20
1616.706618456029
 30
0.0
  0
VERTEX
  5
700
  8
0
  6
CONTINUOUS
 62
     7
 10
1040.378581837091
 20
1616.70366513787
 30
0.0
  0
VERTEX
  5
701
  8
0
  6
CONTINUOUS
 62
     7
 10
1040.381563448432
 20
1616.700845761012
 30
0.0
  0
VERTEX
  5
702
  8
0
  6
CONTINUOUS
 62
     7
 10
1040.384364287091
 20
1616.698181832894
 30
0.0
  0
VERTEX
  5
703
  8
0
  6
CONTINUOUS
 62
     7
 10
1040.386965338765
 20
1616.695694860953
 30
0.0
  0
VERTEX
  5
704
  8
0
  6
CONTINUOUS
 62
     7
 10
1040.389347589153
 20
1616.69340635263
 30
0.0
  0
VERTEX
  5
705
  8
0
  6
CONTINUOUS
 62
     7
 10
1040.391492023951
 20
1616.691337815362
 30
0.0
  0
VERTEX
  5
706
  8
0
  6
CONTINUOUS
 62
     7
 10
1040.393379628858
 20
1616.689510756588
 30
0.0
  0
VERTEX
  5
707
  8
0
  6
CONTINUOUS
 62
     7
 10
1040.394992742312
 20
1616.687945308607
 30
0.0
  0
VERTEX
  5
708
  8
0
  6
CONTINUOUS
 62
     7
 10
1040.396341756132
 20
1616.68663308578
 30
0.0
  0
VERTEX
  5
709
  8
0
  6
CONTINUOUS
 62
     7
 10
1040.397463514161
 20
1616.685538812412
 30
0.0
  0
VERTEX
  5
70A
  8
0
  6
CONTINUOUS
 62
     7
 10
1040.398395892363
 20
1616.684626163593
 30
0.0
  0
VERTEX
  5
70B
  8
0
  6
CONTINUOUS
 62
     7
 10
1040.399176766704
 20
1616.683858814414
 30
0.0
  0
VERTEX
  5
70C
  8
0
  6
CONTINUOUS
 62
     7
 10
1040.39984401315
 20
1616.683200439964
 30
0.0
  0
VERTEX
  5
70D
  8
0
  6
CONTINUOUS
 62
     7
 10
1040.400435507665
 20
1616.682614715334
 30
0.0
  0
VERTEX
  5
70E
  8
0
  6
CONTINUOUS
 62
     7
 10
1040.400989126216
 20
1616.682065315614
 30
0.0
  0
SEQEND
  5
75A
  8
0
  6
CONTINUOUS
 62
     7
  0
LINE
  5
183
  8
0
  6
CONTINUOUS
 62
     7
 10
1039.020862535951
 20
1616.251371872339
 30
0.0
 11
1038.179673917317
 21
1606.578105480527
 31
0.0
  0
LINE
  5
184
  8
0
  6
CONTINUOUS
 62
     7
 10
1038.179673917317
 20
1606.578105480527
 30
0.0
 11
1037.980425861932
 21
1606.595432119708
 31
0.0
  0
LINE
  5
185
  8
0
  6
CONTINUOUS
 62
     7
 10
1037.980425861932
 20
1606.595432119708
 30
0.0
 11
1038.821614480566
 21
1616.268698511521
 31
0.0
  0
LINE
  5
186
  8
0
  6
CONTINUOUS
 62
     7
 10
1039.020862535951
 20
1616.251371872339
 30
0.0
 11
1038.821614480566
 21
1616.268698511521
 31
0.0
  0
LINE
  5
187
  8
0
  6
CONTINUOUS
 62
     7
 10
1039.700999354988
 20
1603.882065315614
 30
0.0
 11
1039.700999354988
 21
1616.882065315615
 31
0.0
  0
LINE
  5
188
  8
0
  6
CONTINUOUS
 62
     7
 10
1039.900999354988
 20
1616.682065315614
 30
0.0
 11
1039.700999354988
 21
1616.882065315615
 31
0.0
  0
ARC
  5
189
  8
0
  6
CONTINUOUS
 62
     7
 10
1036.984185585007
 20
1606.682065315614
 30
0.0
 40
1.200000000000187
 50
270.0000000000008
 51
355.0300534053125
  0
ARC
  5
18A
  8
0
  6
CONTINUOUS
 62
     7
 10
1039.817854757491
 20
1616.182065315614
 30
0.0
 40
0.8000000000001298
 50
80.4234115189544
 51
175.0300534053053
  0
LINE
  5
18B
  8
0
  6
CONTINUOUS
 62
     7
 10
1039.700999354988
 20
1616.882065315615
 30
0.0
 11
1040.118211038445
 21
1616.882065315615
 31
0.0
  0
ARC
  5
18C
  8
0
  6
CONTINUOUS
 62
     7
 10
1036.984185585007
 20
1606.682065315614
 30
0.0
 40
0.9999999999999509
 50
270.0000000000008
 51
355.0300534053223
  0
ARC
  5
18D
  8
0
  6
CONTINUOUS
 62
     7
 10
1039.817854757491
 20
1616.182065315614
 30
0.0
 40
1.000000000000125
 50
80.42341151894743
 51
175.0300534053085
  0
LINE
  5
18E
  8
0
  6
CONTINUOUS
 62
     7
 10
1025.40099935499
 20
1552.182033131548
 30
0.0
 11
1025.90099935499
 21
1552.182033131548
 31
0.0
  0
LINE
  5
18F
  8
0
  6
CONTINUOUS
 62
     7
 10
1025.40099935499
 20
1452.182033131547
 30
0.0
 11
1025.90099935499
 21
1452.182033131547
 31
0.0
  0
LINE
  5
190
  8
0
  6
CONTINUOUS
 62
     7
 10
1043.900999354991
 20
1616.682065315613
 30
0.0
 11
1043.90099935499
 21
1416.682065315613
 31
0.0
  0
LINE
  5
191
  8
0
  6
CONTINUOUS
 62
     7
 10
1043.90099935499
 20
1416.682065315613
 30
0.0
 11
1025.90099935499
 21
1416.682065315613
 31
0.0
  0
LINE
  5
192
  8
0
  6
CONTINUOUS
 62
     7
 10
1025.900999354988
 20
1583.182065315613
 30
0.0
 11
1025.90099935499
 21
1416.682065315613
 31
0.0
  0
LINE
  5
193
  8
0
  6
CONTINUOUS
 62
     7
 10
1027.400999354991
 20
1603.682065315613
 30
0.0
 11
1027.400999354988
 21
1583.182065315613
 31
0.0
  0
LINE
  5
194
  8
0
  6
CONTINUOUS
 62
     7
 10
1027.400999354988
 20
1583.182065315613
 30
0.0
 11
1025.900999354988
 21
1583.182065315613
 31
0.0
  0
LINE
  5
195
  8
0
  6
CONTINUOUS
 62
     7
 10
1039.900999354991
 20
1603.682065315613
 30
0.0
 11
1027.400999354991
 21
1603.682065315613
 31
0.0
  0
LINE
  5
196
  8
0
  6
CONTINUOUS
 62
     7
 10
1039.900999354991
 20
1616.682065315613
 30
0.0
 11
1039.900999354991
 21
1603.682065315613
 31
0.0
  0
LINE
  5
197
  8
0
  6
CONTINUOUS
 62
     7
 10
1043.900999354991
 20
1616.682065315613
 30
0.0
 11
1039.900999354991
 21
1616.682065315613
 31
0.0
  0
LINE
  5
198
  8
0
  6
CONTINUOUS
 62
     7
 10
445.40099935499
 20
1662.682065315615
 30
0.0
 11
1042.40099935499
 21
1662.682065315614
 31
0.0
  0
ARC
  5
199
  8
0
  6
CONTINUOUS
 62
     7
 10
1042.40099935499
 20
1659.682065315615
 30
0.0
 40
2.999999999999773
 50
0.0
 51
90.0
  0
LINE
  5
19A
  8
0
  6
CONTINUOUS
 62
     7
 10
1045.40099935499
 20
1659.682065315615
 30
0.0
 11
1045.40099935499
 21
1641.682065315615
 31
0.0
  0
ARC
  5
19B
  8
0
  6
CONTINUOUS
 62
     7
 10
1042.40099935499
 20
1641.682065315615
 30
0.0
 40
3.000000000000227
 50
270.0000000000008
 51
0.0
  0
LINE
  5
19C
  8
0
  6
CONTINUOUS
 62
     7
 10
445.40099935499
 20
1638.682065315614
 30
0.0
 11
445.40099935499
 21
1662.682065315615
 31
0.0
  0
LINE
  5
19D
  8
0
  6
CONTINUOUS
 62
     7
 10
1042.40099935499
 20
1638.682065315614
 30
0.0
 11
445.40099935499
 21
1638.682065315614
 31
0.0
  0
LINE
  5
19E
  8
0
  6
CONTINUOUS
 62
     7
 10
1025.40099935499
 20
1638.682065315615
 30
0.0
 11
1025.40099935499
 21
1412.682065315614
 31
0.0
  0
LINE
  5
19F
  8
0
  6
CONTINUOUS
 62
     7
 10
1025.40099935499
 20
1412.682065315614
 30
0.0
 11
445.40099935499
 21
1412.682065315614
 31
0.0
  0
LINE
  5
1A0
  8
0
  6
CONTINUOUS
 62
     7
 10
445.40099935499
 20
1638.682065315615
 30
0.0
 11
445.40099935499
 21
1412.682065315614
 31
0.0
  0
LINE
  5
1E2
  8
0
  6
CONTINUOUS
 62
     7
 10
3756.553210963688
 20
1616.882065315614
 30
0.0
 11
3756.553210963688
 21
1603.882065315614
 31
0.0
  0
LINE
  5
1E3
  8
0
  6
CONTINUOUS
 62
     7
 10
3756.553210963688
 20
1603.882065315614
 30
0.0
 11
3756.353210963689
 21
1603.682065315615
 31
0.0
  0
LINE
  5
1E4
  8
0
  6
CONTINUOUS
 62
     7
 10
3756.553210963688
 20
1616.882065315614
 30
0.0
 11
3756.353210963689
 21
1616.682065315614
 31
0.0
  0
LINE
  5
1E5
  8
0
  6
CONTINUOUS
 62
     7
 10
3757.43259583811
 20
1616.268698511521
 30
0.0
 11
3758.273784456745
 21
1606.595432119708
 31
0.0
  0
LINE
  5
1E6
  8
0
  6
CONTINUOUS
 62
     7
 10
3758.273784456745
 20
1606.595432119708
 30
0.0
 11
3758.07453640136
 21
1606.578105480527
 31
0.0
  0
LINE
  5
1E7
  8
0
  6
CONTINUOUS
 62
     7
 10
3758.07453640136
 20
1606.578105480527
 30
0.0
 11
3757.233347782725
 21
1616.251371872339
 31
0.0
  0
LINE
  5
1E8
  8
0
  6
CONTINUOUS
 62
     7
 10
3757.233347782725
 20
1616.251371872339
 30
0.0
 11
3757.43259583811
 21
1616.268698511521
 31
0.0
  0
LINE
  5
1E9
  8
0
  6
CONTINUOUS
 62
     7
 10
3770.653210963689
 20
1604.682065315614
 30
0.0
 11
3770.653210963689
 21
1583.882065315614
 31
0.0
  0
LINE
  5
1EA
  8
0
  6
CONTINUOUS
 62
     7
 10
3770.653210963689
 20
1583.882065315614
 30
0.0
 11
3770.453210963689
 21
1583.882065315614
 31
0.0
  0
LINE
  5
1EB
  8
0
  6
CONTINUOUS
 62
     7
 10
3770.453210963689
 20
1583.882065315614
 30
0.0
 11
3770.453210963689
 21
1604.682065315614
 31
0.0
  0
LINE
  5
1EC
  8
0
  6
CONTINUOUS
 62
     7
 10
3770.653210963689
 20
1604.682065315614
 30
0.0
 11
3770.453210963689
 21
1604.682065315614
 31
0.0
  0
LINE
  5
1ED
  8
0
  6
CONTINUOUS
 62
     7
 10
3756.13599928023
 20
1616.882065315614
 30
0.0
 11
3756.553210963688
 21
1616.882065315614
 31
0.0
  0
POLYLINE
  5
1EE
  8
0
  6
CONTINUOUS
 62
     7
 66
     1
 10
0.0
 20
0.0
 30
0.0
  0
VERTEX
  5
70F
  8
0
  6
CONTINUOUS
 62
     7
 10
3756.13599928023
 20
1616.882065315614
 30
0.0
  0
VERTEX
  5
710
  8
0
  6
CONTINUOUS
 62
     7
 10
3756.129647820317
 20
1616.879307383437
 30
0.0
  0
VERTEX
  5
711
  8
0
  6
CONTINUOUS
 62
     7
 10
3756.123319758991
 20
1616.876480943689
 30
0.0
  0
VERTEX
  5
712
  8
0
  6
CONTINUOUS
 62
     7
 10
3756.117017080422
 20
1616.873585156526
 30
0.0
  0
VERTEX
  5
713
  8
0
  6
CONTINUOUS
 62
     7
 10
3756.110740877288
 20
1616.870621999142
 30
0.0
  0
VERTEX
  5
714
  8
0
  6
CONTINUOUS
 62
     7
 10
3756.104492242262
 20
1616.867593448733
 30
0.0
  0
VERTEX
  5
715
  8
0
  6
CONTINUOUS
 62
     7
 10
3756.098272268024
 20
1616.864501482494
 30
0.0
  0
VERTEX
  5
716
  8
0
  6
CONTINUOUS
 62
     7
 10
3756.092082047249
 20
1616.86134807762
 30
0.0
  0
VERTEX
  5
717
  8
0
  6
CONTINUOUS
 62
     7
 10
3756.085922672613
 20
1616.858135211304
 30
0.0
  0
VERTEX
  5
718
  8
0
  6
CONTINUOUS
 62
     7
 10
3756.079795236793
 20
1616.854864860743
 30
0.0
  0
VERTEX
  5
719
  8
0
  6
CONTINUOUS
 62
     7
 10
3756.073700832466
 20
1616.851539003132
 30
0.0
  0
VERTEX
  5
71A
  8
0
  6
CONTINUOUS
 62
     7
 10
3756.067640552308
 20
1616.848159615665
 30
0.0
  0
VERTEX
  5
71B
  8
0
  6
CONTINUOUS
 62
     7
 10
3756.061615488994
 20
1616.844728675537
 30
0.0
  0
VERTEX
  5
71C
  8
0
  6
CONTINUOUS
 62
     7
 10
3756.055626735203
 20
1616.841248159943
 30
0.0
  0
VERTEX
  5
71D
  8
0
  6
CONTINUOUS
 62
     7
 10
3756.04967538361
 20
1616.837720046079
 30
0.0
  0
VERTEX
  5
71E
  8
0
  6
CONTINUOUS
 62
     7
 10
3756.043762526891
 20
1616.834146311139
 30
0.0
  0
VERTEX
  5
71F
  8
0
  6
CONTINUOUS
 62
     7
 10
3756.037889257724
 20
1616.830528932317
 30
0.0
  0
VERTEX
  5
720
  8
0
  6
CONTINUOUS
 62
     7
 10
3756.032056668785
 20
1616.82686988681
 30
0.0
  0
VERTEX
  5
721
  8
0
  6
CONTINUOUS
 62
     7
 10
3756.026265852749
 20
1616.823171151811
 30
0.0
  0
VERTEX
  5
722
  8
0
  6
CONTINUOUS
 62
     7
 10
3756.020517902294
 20
1616.819434704517
 30
0.0
  0
VERTEX
  5
723
  8
0
  6
CONTINUOUS
 62
     7
 10
3756.014813910096
 20
1616.815662522121
 30
0.0
  0
VERTEX
  5
724
  8
0
  6
CONTINUOUS
 62
     7
 10
3756.009154968831
 20
1616.811856581818
 30
0.0
  0
VERTEX
  5
725
  8
0
  6
CONTINUOUS
 62
     7
 10
3756.003542171176
 20
1616.808018860804
 30
0.0
  0
VERTEX
  5
726
  8
0
  6
CONTINUOUS
 62
     7
 10
3755.997976609808
 20
1616.804151336274
 30
0.0
  0
VERTEX
  5
727
  8
0
  6
CONTINUOUS
 62
     7
 10
3755.992459377403
 20
1616.800255985423
 30
0.0
  0
VERTEX
  5
728
  8
0
  6
CONTINUOUS
 62
     7
 10
3755.986991626383
 20
1616.796334863267
 30
0.0
  0
VERTEX
  5
729
  8
0
  6
CONTINUOUS
 62
     7
 10
3755.981575568183
 20
1616.792391404228
 30
0.0
  0
VERTEX
  5
72A
  8
0
  6
CONTINUOUS
 62
     7
 10
3755.976214323074
 20
1616.788430226521
 30
0.0
  0
VERTEX
  5
72B
  8
0
  6
CONTINUOUS
 62
     7
 10
3755.970911040816
 20
1616.784455986776
 30
0.0
  0
VERTEX
  5
72C
  8
0
  6
CONTINUOUS
 62
     7
 10
3755.96566887117
 20
1616.780473341623
 30
0.0
  0
VERTEX
  5
72D
  8
0
  6
CONTINUOUS
 62
     7
 10
3755.960490963901
 20
1616.776486947692
 30
0.0
  0
VERTEX
  5
72E
  8
0
  6
CONTINUOUS
 62
     7
 10
3755.955380468768
 20
1616.772501461614
 30
0.0
  0
VERTEX
  5
72F
  8
0
  6
CONTINUOUS
 62
     7
 10
3755.950340535537
 20
1616.768521540018
 30
0.0
  0
VERTEX
  5
730
  8
0
  6
CONTINUOUS
 62
     7
 10
3755.945374313965
 20
1616.764551839535
 30
0.0
  0
VERTEX
  5
731
  8
0
  6
CONTINUOUS
 62
     7
 10
3755.940484953818
 20
1616.760597016796
 30
0.0
  0
VERTEX
  5
732
  8
0
  6
CONTINUOUS
 62
     7
 10
3755.935675604856
 20
1616.75666172843
 30
0.0
  0
VERTEX
  5
733
  8
0
  6
CONTINUOUS
 62
     7
 10
3755.930949416843
 20
1616.752750631068
 30
0.0
  0
VERTEX
  5
734
  8
0
  6
CONTINUOUS
 62
     7
 10
3755.926309539539
 20
1616.74886838134
 30
0.0
  0
VERTEX
  5
735
  8
0
  6
CONTINUOUS
 62
     7
 10
3755.921759122707
 20
1616.745019635875
 30
0.0
  0
VERTEX
  5
736
  8
0
  6
CONTINUOUS
 62
     7
 10
3755.917301316987
 20
1616.741209052618
 30
0.0
  0
VERTEX
  5
737
  8
0
  6
CONTINUOUS
 62
     7
 10
3755.91293965236
 20
1616.737441856798
 30
0.0
  0
VERTEX
  5
738
  8
0
  6
CONTINUOUS
 62
     7
 10
3755.908678628785
 20
1616.733724724187
 30
0.0
  0
VERTEX
  5
739
  8
0
  6
CONTINUOUS
 62
     7
 10
3755.904522899038
 20
1616.730064559097
 30
0.0
  0
VERTEX
  5
73A
  8
0
  6
CONTINUOUS
 62
     7
 10
3755.900477115897
 20
1616.726468265836
 30
0.0
  0
VERTEX
  5
73B
  8
0
  6
CONTINUOUS
 62
     7
 10
3755.896545932136
 20
1616.722942748713
 30
0.0
  0
VERTEX
  5
73C
  8
0
  6
CONTINUOUS
 62
     7
 10
3755.892734000537
 20
1616.719494912039
 30
0.0
  0
VERTEX
  5
73D
  8
0
  6
CONTINUOUS
 62
     7
 10
3755.889045973875
 20
1616.716131660123
 30
0.0
  0
VERTEX
  5
73E
  8
0
  6
CONTINUOUS
 62
     7
 10
3755.88548650493
 20
1616.712859897274
 30
0.0
  0
VERTEX
  5
73F
  8
0
  6
CONTINUOUS
 62
     7
 10
3755.882060246478
 20
1616.709686527803
 30
0.0
  0
VERTEX
  5
740
  8
0
  6
CONTINUOUS
 62
     7
 10
3755.878771851306
 20
1616.706618456029
 30
0.0
  0
VERTEX
  5
741
  8
0
  6
CONTINUOUS
 62
     7
 10
3755.875628481586
 20
1616.70366513787
 30
0.0
  0
VERTEX
  5
742
  8
0
  6
CONTINUOUS
 62
     7
 10
3755.872646870244
 20
1616.700845761012
 30
0.0
  0
VERTEX
  5
743
  8
0
  6
CONTINUOUS
 62
     7
 10
3755.869846031586
 20
1616.698181832893
 30
0.0
  0
VERTEX
  5
744
  8
0
  6
CONTINUOUS
 62
     7
 10
3755.867244979911
 20
1616.695694860953
 30
0.0
  0
VERTEX
  5
745
  8
0
  6
CONTINUOUS
 62
     7
 10
3755.864862729523
 20
1616.69340635263
 30
0.0
  0
VERTEX
  5
746
  8
0
  6
CONTINUOUS
 62
     7
 10
3755.862718294724
 20
1616.691337815362
 30
0.0
  0
VERTEX
  5
747
  8
0
  6
CONTINUOUS
 62
     7
 10
3755.860830689819
 20
1616.689510756589
 30
0.0
  0
VERTEX
  5
748
  8
0
  6
CONTINUOUS
 62
     7
 10
3755.859217576363
 20
1616.687945308607
 30
0.0
  0
VERTEX
  5
749
  8
0
  6
CONTINUOUS
 62
     7
 10
3755.857868562543
 20
1616.686633085779
 30
0.0
  0
VERTEX
  5
74A
  8
0
  6
CONTINUOUS
 62
     7
 10
3755.856746804515
 20
1616.685538812412
 30
0.0
  0
VERTEX
  5
74B
  8
0
  6
CONTINUOUS
 62
     7
 10
3755.855814426314
 20
1616.684626163594
 30
0.0
  0
VERTEX
  5
74C
  8
0
  6
CONTINUOUS
 62
     7
 10
3755.855033551972
 20
1616.683858814414
 30
0.0
  0
VERTEX
  5
74D
  8
0
  6
CONTINUOUS
 62
     7
 10
3755.854366305526
 20
1616.683200439965
 30
0.0
  0
VERTEX
  5
74E
  8
0
  6
CONTINUOUS
 62
     7
 10
3755.85377481101
 20
1616.682614715334
 30
0.0
  0
VERTEX
  5
74F
  8
0
  6
CONTINUOUS
 62
     7
 10
3755.85322119246
 20
1616.682065315614
 30
0.0
  0
SEQEND
  5
75B
  8
0
  6
CONTINUOUS
 62
     7
  0
LINE
  5
1EF
  8
0
  6
CONTINUOUS
 62
     7
 10
3770.453210963689
 20
1583.682065315614
 30
0.0
 11
3770.453210963689
 21
1583.882065315614
 31
0.0
  0
ARC
  5
1F0
  8
0
  6
CONTINUOUS
 62
     7
 10
3770.453210963689
 20
1583.882065315614
 30
0.0
 40
0.2000000000000455
 50
270.0000000000008
 51
0.0
  0
LINE
  5
1F1
  8
0
  6
CONTINUOUS
 62
     7
 10
3770.453210963689
 20
1583.682065315614
 30
0.0
 11
3768.853210963689
 21
1583.682065315614
 31
0.0
  0
LINE
  5
1F2
  8
0
  6
CONTINUOUS
 62
     7
 10
3768.853210963689
 20
1583.682065315614
 30
0.0
 11
3769.053210963689
 21
1583.882065315614
 31
0.0
  0
LINE
  5
1F3
  8
0
  6
CONTINUOUS
 62
     7
 10
3769.053210963689
 20
1583.882065315614
 30
0.0
 11
3770.453210963689
 21
1583.882065315614
 31
0.0
  0
LINE
  5
1F4
  8
0
  6
CONTINUOUS
 62
     7
 10
3769.053210963689
 20
1603.882065315614
 30
0.0
 11
3769.053210963689
 21
1583.882065315614
 31
0.0
  0
LINE
  5
1F5
  8
0
  6
CONTINUOUS
 62
     7
 10
3769.053210963689
 20
1603.882065315614
 30
0.0
 11
3768.853210963689
 21
1603.682065315615
 31
0.0
  0
ARC
  5
1F6
  8
0
  6
CONTINUOUS
 62
     7
 10
3756.353172637761
 20
1616.675097364523
 30
0.0
 40
0.3000000000004442
 50
99.57658848109824
 51
136.3783470328188
  0
ARC
  5
1F7
  8
0
  6
CONTINUOUS
 62
     7
 10
3756.436355561185
 20
1616.182065315614
 30
0.0
 40
0.8000000000001298
 50
4.969946594694715
 51
99.57658848104562
  0
ARC
  5
1F8
  8
0
  6
CONTINUOUS
 62
     7
 10
3759.270024733669
 20
1606.682065315614
 30
0.0
 40
1.199999999999961
 50
184.9699465946901
 51
270.0000000000008
  0
LINE
  5
1F9
  8
0
  6
CONTINUOUS
 62
     7
 10
3769.653210963689
 20
1605.482065315615
 30
0.0
 11
3759.270024733669
 21
1605.482065315615
 31
0.0
  0
ARC
  5
1FA
  8
0
  6
CONTINUOUS
 62
     7
 10
3769.653210963689
 20
1604.682065315614
 30
0.0
 40
0.8000000000001819
 50
0.0
 51
90.0
  0
LINE
  5
1FB
  8
0
  6
CONTINUOUS
 62
     7
 10
3756.553210963688
 20
1603.882065315614
 30
0.0
 11
3769.053210963689
 21
1603.882065315614
 31
0.0
  0
LINE
  5
1FC
  8
0
  6
CONTINUOUS
 62
     7
 10
3759.270024733669
 20
1605.682065315615
 30
0.0
 11
3769.653210963689
 21
1605.682065315615
 31
0.0
  0
LINE
  5
1FD
  8
0
  6
CONTINUOUS
 62
     7
 10
3769.653210963689
 20
1605.682065315615
 30
0.0
 11
3769.653210963689
 21
1605.482065315615
 31
0.0
  0
LINE
  5
1FE
  8
0
  6
CONTINUOUS
 62
     7
 10
3759.270024733669
 20
1605.682065315615
 30
0.0
 11
3759.270024733669
 21
1605.482065315615
 31
0.0
  0
ARC
  5
1FF
  8
0
  6
CONTINUOUS
 62
     7
 10
3769.653210963689
 20
1604.682065315614
 30
0.0
 40
1.000000000000227
 50
0.0
 51
90.0
  0
LINE
  5
200
  8
0
  6
CONTINUOUS
 62
     7
 10
3756.303262883706
 20
1616.970916593868
 30
0.0
 11
3756.269989714336
 21
1617.168129413431
 31
0.0
  0
ARC
  5
201
  8
0
  6
CONTINUOUS
 62
     7
 10
3756.436355561185
 20
1616.182065315614
 30
0.0
 40
0.9999999999999706
 50
4.96994659469147
 51
99.57658848106757
  0
ARC
  5
202
  8
0
  6
CONTINUOUS
 62
     7
 10
3756.353172637761
 20
1616.675097364523
 30
0.0
 40
0.5000000000006438
 50
99.57658848112114
 51
179.2015057739036
  0
ARC
  5
203
  8
0
  6
CONTINUOUS
 62
     7
 10
3759.270024733669
 20
1606.682065315614
 30
0.0
 40
0.9999999999997726
 50
184.9699465946815
 51
270.0000000000008
  0
LINE
  5
204
  8
0
  6
CONTINUOUS
 62
     7
 10
3770.353210963681
 20
1552.182033131548
 30
0.0
 11
3770.853210963681
 21
1552.182033131548
 31
0.0
  0
LINE
  5
205
  8
0
  6
CONTINUOUS
 62
     7
 10
3770.353210963681
 20
1452.182033131547
 30
0.0
 11
3770.853210963681
 21
1452.182033131547
 31
0.0
  0
LINE
  5
206
  8
0
  6
CONTINUOUS
 62
     7
 10
3768.853210963685
 20
1603.682065315613
 30
0.0
 11
3768.853210963686
 21
1583.182065315613
 31
0.0
  0
LINE
  5
207
  8
0
  6
CONTINUOUS
 62
     7
 10
3768.853210963686
 20
1583.182065315613
 30
0.0
 11
3770.353210963685
 21
1583.182065315613
 31
0.0
  0
LINE
  5
208
  8
0
  6
CONTINUOUS
 62
     7
 10
3752.353210963686
 20
1416.682065315612
 30
0.0
 11
3752.353210963688
 21
1616.682065315612
 31
0.0
  0
LINE
  5
209
  8
0
  6
CONTINUOUS
 62
     7
 10
3756.353210963688
 20
1616.682065315612
 30
0.0
 11
3756.353210963685
 21
1603.682065315613
 31
0.0
  0
LINE
  5
20A
  8
0
  6
CONTINUOUS
 62
     7
 10
3756.353210963685
 20
1603.682065315613
 30
0.0
 11
3768.853210963685
 21
1603.682065315613
 31
0.0
  0
LINE
  5
20B
  8
0
  6
CONTINUOUS
 62
     7
 10
3752.353210963686
 20
1416.682065315612
 30
0.0
 11
3770.353210963686
 21
1416.682065315612
 31
0.0
  0
LINE
  5
20C
  8
0
  6
CONTINUOUS
 62
     7
 10
3752.353210963688
 20
1616.682065315612
 30
0.0
 11
3756.353210963688
 21
1616.682065315612
 31
0.0
  0
LINE
  5
20D
  8
0
  6
CONTINUOUS
 62
     7
 10
3770.353210963686
 20
1416.682065315612
 30
0.0
 11
3770.353210963685
 21
1583.182065315613
 31
0.0
  0
LINE
  5
20E
  8
0
  6
CONTINUOUS
 62
     7
 10
3770.853210963681
 20
1412.682065315614
 30
0.0
 11
4350.853210963681
 21
1412.682065315614
 31
0.0
  0
LINE
  5
20F
  8
0
  6
CONTINUOUS
 62
     7
 10
3770.853210963681
 20
1412.682065315614
 30
0.0
 11
3770.853210963681
 21
1638.682065315614
 31
0.0
  0
LINE
  5
210
  8
0
  6
CONTINUOUS
 62
     7
 10
4350.853210963681
 20
1412.682065315614
 30
0.0
 11
4350.853210963681
 21
1638.682065315614
 31
0.0
  0
ARC
  5
211
  8
0
  6
CONTINUOUS
 62
     7
 10
3753.853210963681
 20
1659.682065315615
 30
0.0
 40
3.000000000000455
 50
90.0
 51
180.0
  0
LINE
  5
212
  8
0
  6
CONTINUOUS
 62
     7
 10
4350.853210963681
 20
1662.682065315615
 30
0.0
 11
3753.853210963681
 21
1662.682065315614
 31
0.0
  0
LINE
  5
213
  8
0
  6
CONTINUOUS
 62
     7
 10
4350.853210963681
 20
1638.682065315614
 30
0.0
 11
4350.853210963681
 21
1662.682065315615
 31
0.0
  0
ARC
  5
214
  8
0
  6
CONTINUOUS
 62
     7
 10
3753.853210963681
 20
1641.682065315615
 30
0.0
 40
3.000000000000455
 50
180.0
 51
270.0000000000008
  0
LINE
  5
215
  8
0
  6
CONTINUOUS
 62
     7
 10
3750.85321096368
 20
1659.682065315615
 30
0.0
 11
3750.85321096368
 21
1641.682065315615
 31
0.0
  0
LINE
  5
216
  8
0
  6
CONTINUOUS
 62
     7
 10
3753.853210963681
 20
1638.682065315614
 30
0.0
 11
4350.853210963681
 21
1638.682065315614
 31
0.0
  0
LINE
  5
276
  8
0
  6
CONTINUOUS
 62
     7
 10
2880.497361647548
 20
3131.619882401437
 30
0.0
 11
2880.497361647548
 21
2534.619882401437
 31
0.0
  0
LINE
  5
277
  8
0
  6
CONTINUOUS
 62
     7
 10
1675.497361647548
 20
2534.619882401437
 30
0.0
 11
2880.497361647548
 21
2534.619882401437
 31
0.0
  0
LINE
  5
278
  8
0
  6
CONTINUOUS
 62
     7
 10
1675.497361647548
 20
3131.619882401437
 30
0.0
 11
1675.497361647548
 21
2534.619882401437
 31
0.0
  0
LINE
  5
279
  8
0
  6
CONTINUOUS
 62
     7
 10
2880.497361647548
 20
3131.619882401437
 30
0.0
 11
1675.497361647548
 21
3131.619882401437
 31
0.0
  0
LINE
  5
27B
  8
0
  6
CONTINUOUS
 62
     7
 10
2880.497361647548
 20
2531.619882401437
 30
0.0
 11
1675.497361647548
 21
2531.619882401437
 31
0.0
  0
LINE
  5
27C
  8
0
  6
CONTINUOUS
 62
     7
 10
2880.497361647548
 20
2534.619882401437
 30
0.0
 11
2880.497361647548
 21
2531.619882401437
 31
0.0
  0
LINE
  5
27D
  8
0
  6
CONTINUOUS
 62
     7
 10
1675.497361647548
 20
2531.619882401437
 30
0.0
 11
1675.497361647548
 21
2534.619882401437
 31
0.0
  0
LINE
  5
2A7
  8
0
  6
CONTINUOUS
 62
     7
 10
2306.246213682833
 20
647.3939826855039
 30
0.0
 11
2848.245958584045
 21
647.3939826855038
 31
0.0
  0
LINE
  5
2B7
  8
0
  6
CONTINUOUS
 62
     7
 10
2192.997361647548
 20
621.0939826855039
 30
0.0
 11
2232.997361647548
 21
621.0939826855039
 31
0.0
  0
CIRCLE
  5
2B8
  8
0
  6
CONTINUOUS
 62
     7
 10
2212.997361647546
 20
543.3939826855043
 30
0.0
 40
2.5
  0
CIRCLE
  5
2B9
  8
0
  6
CONTINUOUS
 62
     7
 10
2212.997361647548
 20
593.3939826855043
 30
0.0
 40
2.5
  0
CIRCLE
  5
2BA
  8
0
  6
CONTINUOUS
 62
     7
 10
2209.997361647548
 20
573.3939826855038
 30
0.0
 40
2.5
  0
CIRCLE
  5
2BB
  8
0
  6
CONTINUOUS
 62
     7
 10
2209.997361647548
 20
503.3939826855038
 30
0.0
 40
2.5
  0
LINE
  5
2BC
  8
0
  6
CONTINUOUS
 62
     7
 10
2262.997361647548
 20
478.3939826855039
 30
0.0
 11
2262.997361647548
 21
623.3939826855038
 31
0.0
  0
ARC
  5
2BD
  8
0
  6
CONTINUOUS
 62
     7
 10
2197.997361647548
 20
478.3939826855038
 30
0.0
 40
5.0
 50
180.0
 51
270.0000000000008
  0
LINE
  5
2BE
  8
0
  6
CONTINUOUS
 62
     7
 10
2197.997361647548
 20
473.3939826855038
 30
0.0
 11
2257.997361647548
 21
473.3939826855038
 31
0.0
  0
LINE
  5
2BF
  8
0
  6
CONTINUOUS
 62
     7
 10
2192.997361647548
 20
478.3939826855038
 30
0.0
 11
2192.997361647548
 21
621.0939826855039
 31
0.0
  0
CIRCLE
  5
2C0
  8
0
  6
CONTINUOUS
 62
     7
 10
2242.997361647548
 20
593.3939826855038
 30
0.0
 40
2.5
  0
CIRCLE
  5
2C1
  8
0
  6
CONTINUOUS
 62
     7
 10
2242.997361647546
 20
543.3939826855038
 30
0.0
 40
2.5
  0
CIRCLE
  5
2C2
  8
0
  6
CONTINUOUS
 62
     7
 10
2239.997361647548
 20
503.3939826855038
 30
0.0
 40
2.500000000000455
  0
LINE
  5
2C3
  8
0
  6
CONTINUOUS
 62
     7
 10
2262.997361647548
 20
623.3939826855038
 30
0.0
 11
2232.997361647548
 21
623.3939826855038
 31
0.0
  0
LINE
  5
2C4
  8
0
  6
CONTINUOUS
 62
     7
 10
2232.997361647548
 20
621.0939826855039
 30
0.0
 11
2232.997361647548
 21
623.3939826855038
 31
0.0
  0
ARC
  5
2C5
  8
0
  6
CONTINUOUS
 62
     7
 10
2257.997361647548
 20
478.3939826855038
 30
0.0
 40
5.0
 50
270.0000000000008
 51
0.0000000000013028
  0
CIRCLE
  5
2C6
  8
0
  6
CONTINUOUS
 62
     7
 10
2239.997361647548
 20
573.3939826855038
 30
0.0
 40
2.500000000000455
  0
CIRCLE
  5
2C7
  8
0
  6
CONTINUOUS
 62
     7
 10
2810.497361647546
 20
543.3939826855043
 30
0.0
 40
2.5
  0
CIRCLE
  5
2C8
  8
0
  6
CONTINUOUS
 62
     7
 10
2810.497361647548
 20
593.3939826855044
 30
0.0
 40
2.499999999999545
  0
CIRCLE
  5
2C9
  8
0
  6
CONTINUOUS
 62
     7
 10
2807.497361647548
 20
573.3939826855039
 30
0.0
 40
2.5
  0
CIRCLE
  5
2CA
  8
0
  6
CONTINUOUS
 62
     7
 10
2807.497361647548
 20
503.3939826855038
 30
0.0
 40
2.5
  0
LINE
  5
2CB
  8
0
  6
CONTINUOUS
 62
     7
 10
2860.497361647548
 20
623.3939826855039
 30
0.0
 11
2830.497361647547
 21
623.3939826855039
 31
0.0
  0
ARC
  5
2CC
  8
0
  6
CONTINUOUS
 62
     7
 10
2795.497361647548
 20
478.3939826855039
 30
0.0
 40
5.0
 50
180.0
 51
270.0000000000008
  0
LINE
  5
2CD
  8
0
  6
CONTINUOUS
 62
     7
 10
2790.497361647548
 20
621.093982685504
 30
0.0
 11
2830.497361647547
 21
621.093982685504
 31
0.0
  0
LINE
  5
2CE
  8
0
  6
CONTINUOUS
 62
     7
 10
2860.497361647548
 20
478.393982685504
 30
0.0
 11
2860.497361647548
 21
623.3939826855039
 31
0.0
  0
ARC
  5
2CF
  8
0
  6
CONTINUOUS
 62
     7
 10
2855.497361647548
 20
478.3939826855039
 30
0.0
 40
5.0
 50
270.0000000000008
 51
0.0000000000006514
  0
LINE
  5
2D0
  8
0
  6
CONTINUOUS
 62
     7
 10
2795.497361647548
 20
473.3939826855039
 30
0.0
 11
2855.497361647548
 21
473.3939826855039
 31
0.0
  0
LINE
  5
2D1
  8
0
  6
CONTINUOUS
 62
     7
 10
2790.497361647548
 20
478.3939826855039
 30
0.0
 11
2790.497361647548
 21
621.093982685504
 31
0.0
  0
LINE
  5
2D2
  8
0
  6
CONTINUOUS
 62
     7
 10
2830.497361647547
 20
621.093982685504
 30
0.0
 11
2830.497361647547
 21
623.3939826855039
 31
0.0
  0
CIRCLE
  5
2D3
  8
0
  6
CONTINUOUS
 62
     7
 10
2837.497361647548
 20
573.3939826855039
 30
0.0
 40
2.5
  0
CIRCLE
  5
2D4
  8
0
  6
CONTINUOUS
 62
     7
 10
2837.497361647548
 20
503.3939826855038
 30
0.0
 40
2.5
  0
CIRCLE
  5
2D5
  8
0
  6
CONTINUOUS
 62
     7
 10
2840.497361647548
 20
593.3939826855039
 30
0.0
 40
2.5
  0
CIRCLE
  5
2D6
  8
0
  6
CONTINUOUS
 62
     7
 10
2840.497361647546
 20
543.3939826855038
 30
0.0
 40
2.5
  0
ARC
  5
2D7
  8
0
  6
CONTINUOUS
 62
     7
 10
1697.997361647547
 20
478.3939826854832
 30
0.0
 40
5.0
 50
179.9999999999994
 51
270.0000000000034
  0
LINE
  5
2D8
  8
0
  6
CONTINUOUS
 62
     7
 10
1692.997361647547
 20
478.3939826854833
 30
0.0
 11
1692.997361647545
 21
623.3939826854831
 31
0.0
  0
LINE
  5
2D9
  8
0
  6
CONTINUOUS
 62
     7
 10
1692.997361647545
 20
623.3939826854831
 30
0.0
 11
1722.997361647545
 21
623.3939826854835
 31
0.0
  0
LINE
  5
2DA
  8
0
  6
CONTINUOUS
 62
     7
 10
1722.997361647544
 20
621.0939826854835
 30
0.0
 11
1722.997361647545
 21
623.3939826854835
 31
0.0
  0
LINE
  5
2DB
  8
0
  6
CONTINUOUS
 62
     7
 10
1762.997361647545
 20
621.0939826854841
 30
0.0
 11
1722.997361647544
 21
621.0939826854835
 31
0.0
  0
LINE
  5
2DC
  8
0
  6
CONTINUOUS
 62
     7
 10
1762.997361647546
 20
478.3939826854841
 30
0.0
 11
1762.997361647545
 21
621.0939826854841
 31
0.0
  0
ARC
  5
2DD
  8
0
  6
CONTINUOUS
 62
     7
 10
1757.997361647547
 20
478.393982685484
 30
0.0
 40
5.0
 50
270.0000000000008
 51
0.0000000000006514
  0
LINE
  5
2DE
  8
0
  6
CONTINUOUS
 62
     7
 10
1757.997361647547
 20
473.393982685484
 30
0.0
 11
1697.997361647547
 21
473.3939826854832
 31
0.0
  0
CIRCLE
  5
2DF
  8
0
  6
CONTINUOUS
 62
     7
 10
1712.997361647545
 20
593.3939826854834
 30
0.0
 40
2.500000000000227
  0
CIRCLE
  5
2E0
  8
0
  6
CONTINUOUS
 62
     7
 10
1742.997361647548
 20
543.3939826854842
 30
0.0
 40
2.5
  0
CIRCLE
  5
2E1
  8
0
  6
CONTINUOUS
 62
     7
 10
1742.997361647545
 20
593.3939826854843
 30
0.0
 40
2.5
  0
CIRCLE
  5
2E2
  8
0
  6
CONTINUOUS
 62
     7
 10
1712.997361647548
 20
543.3939826854835
 30
0.0
 40
2.5
  0
CIRCLE
  5
2E3
  8
0
  6
CONTINUOUS
 62
     7
 10
1745.997361647545
 20
573.3939826854839
 30
0.0
 40
2.5
  0
CIRCLE
  5
2E4
  8
0
  6
CONTINUOUS
 62
     7
 10
1715.997361647545
 20
573.3939826854835
 30
0.0
 40
2.5
  0
CIRCLE
  5
2E5
  8
0
  6
CONTINUOUS
 62
     7
 10
1745.997361647547
 20
503.3939826854838
 30
0.0
 40
2.5
  0
CIRCLE
  5
2E6
  8
0
  6
CONTINUOUS
 62
     7
 10
1715.997361647547
 20
503.3939826854834
 30
0.0
 40
2.499999999999773
  0
LINE
  5
2E7
  8
0
  6
CONTINUOUS
 62
     7
 10
2192.997361647544
 20
568.3939826855039
 30
0.0
 11
1762.997361647541
 21
568.3939826855039
 31
0.0
  0
LINE
  5
2E8
  8
0
  6
CONTINUOUS
 62
     7
 10
2790.497361647544
 20
568.3939826855039
 30
0.0
 11
2561.246086133436
 21
568.3939826855039
 31
0.0
  0
LINE
  5
2E9
  8
0
  6
CONTINUOUS
 62
     7
 10
2561.246086133436
 20
568.3939826855039
 30
0.0
 11
2290.497361647544
 21
568.3939826855039
 31
0.0
  0
LINE
  5
2EA
  8
0
  6
CONTINUOUS
 62
     7
 10
2324.247361647547
 20
440.9439505014369
 30
0.0
 11
2324.247361647547
 21
436.8939505014368
 31
0.0
  0
ARC
  5
2EB
  8
0
  6
CONTINUOUS
 62
     7
 10
2324.047361647547
 20
440.9439505014369
 30
0.0
 40
0.1999999999999886
 50
0.0
 51
90.0
  0
ARC
  5
2EC
  8
0
  6
CONTINUOUS
 62
     7
 10
2324.047361647548
 20
441.943950501437
 30
0.0
 40
0.8000000000001819
 50
180.0
 51
269.9999999999682
  0
LINE
  5
2ED
  8
0
  6
CONTINUOUS
 62
     7
 10
2323.247361647548
 20
442.9439505014369
 30
0.0
 11
2323.247361647548
 21
441.9439505014369
 31
0.0
  0
ARC
  5
2EE
  8
0
  6
CONTINUOUS
 62
     7
 10
2321.047361647548
 20
442.9439505014369
 30
0.0
 40
2.199999999999989
 50
0.0
 51
90.0
  0
ARC
  5
2EF
  8
0
  6
CONTINUOUS
 62
     7
 10
2314.447361647547
 20
442.9439505014369
 30
0.0
 40
2.199999999999989
 50
90.0
 51
180.0
  0
LINE
  5
2F0
  8
0
  6
CONTINUOUS
 62
     7
 10
2312.247361647547
 20
436.343950501437
 30
0.0
 11
2312.247361647547
 21
442.9439505014369
 31
0.0
  0
ARC
  5
2F1
  8
0
  6
CONTINUOUS
 62
     7
 10
2314.447361647547
 20
436.343950501437
 30
0.0
 40
2.199999999999989
 50
180.0
 51
270.0000000000008
  0
LINE
  5
2F2
  8
0
  6
CONTINUOUS
 62
     7
 10
2315.247361647548
 20
434.1439505014369
 30
0.0
 11
2314.447361647547
 21
434.1439505014369
 31
0.0
  0
LINE
  5
2F3
  8
0
  6
CONTINUOUS
 62
     7
 10
2315.247361647548
 20
432.3939505014369
 30
0.0
 11
2315.247361647548
 21
434.1439505014369
 31
0.0
  0
LINE
  5
2F4
  8
0
  6
CONTINUOUS
 62
     7
 10
2314.447361647547
 20
432.3939505014369
 30
0.0
 11
2315.247361647548
 21
432.3939505014369
 31
0.0
  0
ARC
  5
2F5
  8
0
  6
CONTINUOUS
 62
     7
 10
2314.447361647547
 20
436.3439505014368
 30
0.0
 40
3.950000000000045
 50
180.0
 51
270.0000000000008
  0
LINE
  5
2F6
  8
0
  6
CONTINUOUS
 62
     7
 10
2310.497361647548
 20
442.9439505014369
 30
0.0
 11
2310.497361647548
 21
436.343950501437
 31
0.0
  0
ARC
  5
2F7
  8
0
  6
CONTINUOUS
 62
     7
 10
2314.447361647547
 20
442.943950501437
 30
0.0
 40
3.949999999999932
 50
90.0
 51
180.0
  0
LINE
  5
2F8
  8
0
  6
CONTINUOUS
 62
     7
 10
2321.047361647548
 20
446.8939505014368
 30
0.0
 11
2314.447361647547
 21
446.8939505014368
 31
0.0
  0
ARC
  5
2F9
  8
0
  6
CONTINUOUS
 62
     7
 10
2321.047361647548
 20
442.943950501437
 30
0.0
 40
3.950000000000273
 50
359.9999995166827
 51
90.0
  0
ARC
  5
2FA
  8
0
  6
CONTINUOUS
 62
     7
 10
2325.797361647548
 20
441.9439505014369
 30
0.0
 40
0.199999999999989
 50
0.0
 51
90.0000036969587
  0
LINE
  5
2FB
  8
0
  6
CONTINUOUS
 62
     7
 10
2325.997361647548
 20
436.8939505014368
 30
0.0
 11
2325.997361647548
 21
441.9439505014369
 31
0.0
  0
LINE
  5
2FC
  8
0
  6
CONTINUOUS
 62
     7
 10
2324.247361647547
 20
436.8939505014368
 30
0.0
 11
2325.997361647548
 21
436.8939505014368
 31
0.0
  0
ARC
  5
2FD
  8
0
  6
CONTINUOUS
 62
     7
 10
2325.797361647548
 20
442.943950501437
 30
0.0
 40
0.8000000000000115
 50
180.0000023863837
 51
269.9999990757611
  0
LINE
  5
2FE
  8
0
  6
CONTINUOUS
 62
     7
 10
2314.447361647547
 20
445.1439505014369
 30
0.0
 11
2321.047361647548
 21
445.1439505014369
 31
0.0
  0
LINE
  5
2FF
  8
0
  6
CONTINUOUS
 62
     7
 10
2314.447361647547
 20
446.8939505014368
 30
0.0
 11
2314.447361647547
 21
455.1939505014369
 31
0.0
  0
LINE
  5
300
  8
0
  6
CONTINUOUS
 62
     7
 10
2314.447361647547
 20
455.1939505014369
 30
0.0
 11
2321.447361647548
 21
455.1939505014369
 31
0.0
  0
LINE
  5
301
  8
0
  6
CONTINUOUS
 62
     7
 10
2321.447361647548
 20
446.8939505014368
 30
0.0
 11
2321.447361647548
 21
455.1939505014369
 31
0.0
  0
LINE
  5
302
  8
0
  6
CONTINUOUS
 62
     7
 10
2314.447361647547
 20
455.1939505014369
 30
0.0
 11
2314.447361647547
 21
458.693950501432
 31
0.0
  0
LINE
  5
303
  8
0
  6
CONTINUOUS
 62
     7
 10
2314.447361647547
 20
458.6939505014369
 30
0.0
 11
2319.388728106509
 21
458.6939505014369
 31
0.0
  0
LINE
  5
304
  8
0
  6
CONTINUOUS
 62
     7
 10
2321.447361647548
 20
455.1939505014369
 30
0.0
 11
2321.447361647548
 21
458.3562281615979
 31
0.0
  0
LINE
  5
305
  8
0
  6
CONTINUOUS
 62
     7
 10
2314.447361647547
 20
458.7542578806796
 30
0.0
 11
2314.447361647547
 21
458.6939505014674
 31
0.0
  0
LINE
  5
306
  8
0
  6
CONTINUOUS
 62
     7
 10
2314.447361647547
 20
459.7858612042349
 30
0.0
 11
2318.825595719251
 21
459.7858612042349
 31
0.0
  0
LINE
  5
307
  8
0
  6
CONTINUOUS
 62
     7
 10
2314.447361647547
 20
458.7542578806509
 30
0.0
 11
2314.447361647547
 21
459.7858612042349
 31
0.0
  0
LINE
  5
308
  8
0
  6
CONTINUOUS
 62
     7
 10
1726.747361647548
 20
440.9439505014369
 30
0.0
 11
1726.747361647548
 21
436.8939505014368
 31
0.0
  0
ARC
  5
309
  8
0
  6
CONTINUOUS
 62
     7
 10
1726.547361647548
 20
440.9439505014369
 30
0.0
 40
0.2000000000000455
 50
0.0
 51
90.0
  0
ARC
  5
30A
  8
0
  6
CONTINUOUS
 62
     7
 10
1726.547361647548
 20
441.943950501437
 30
0.0
 40
0.8000000000001819
 50
180.0
 51
269.9999999999845
  0
LINE
  5
30B
  8
0
  6
CONTINUOUS
 62
     7
 10
1725.747361647548
 20
442.9439505014369
 30
0.0
 11
1725.747361647548
 21
441.9439505014369
 31
0.0
  0
ARC
  5
30C
  8
0
  6
CONTINUOUS
 62
     7
 10
1723.547361647548
 20
442.9439505014369
 30
0.0
 40
2.200000000000045
 50
0.0
 51
90.0
  0
ARC
  5
30D
  8
0
  6
CONTINUOUS
 62
     7
 10
1716.947361647548
 20
442.9439505014369
 30
0.0
 40
2.199999999999989
 50
90.0
 51
180.0
  0
LINE
  5
30E
  8
0
  6
CONTINUOUS
 62
     7
 10
1714.747361647548
 20
436.343950501437
 30
0.0
 11
1714.747361647548
 21
442.9439505014369
 31
0.0
  0
LINE
  5
30F
  8
0
  6
CONTINUOUS
 62
     7
 10
1717.747361647548
 20
434.1439505014369
 30
0.0
 11
1716.947361647548
 21
434.1439505014369
 31
0.0
  0
LINE
  5
310
  8
0
  6
CONTINUOUS
 62
     7
 10
1717.747361647548
 20
432.3939505014369
 30
0.0
 11
1717.747361647548
 21
434.1439505014369
 31
0.0
  0
LINE
  5
311
  8
0
  6
CONTINUOUS
 62
     7
 10
1716.947361647548
 20
432.3939505014369
 30
0.0
 11
1717.747361647548
 21
432.3939505014369
 31
0.0
  0
ARC
  5
312
  8
0
  6
CONTINUOUS
 62
     7
 10
1716.947361647548
 20
436.3439505014368
 30
0.0
 40
3.950000000000045
 50
180.0
 51
270.0000000000041
  0
LINE
  5
313
  8
0
  6
CONTINUOUS
 62
     7
 10
1723.547361647548
 20
446.8939505014368
 30
0.0
 11
1716.947361647548
 21
446.8939505014368
 31
0.0
  0
ARC
  5
314
  8
0
  6
CONTINUOUS
 62
     7
 10
1723.547361647548
 20
442.943950501437
 30
0.0
 40
3.950000000000046
 50
359.9999995166827
 51
90.00000000000331
  0
ARC
  5
315
  8
0
  6
CONTINUOUS
 62
     7
 10
1728.297361647548
 20
442.943950501437
 30
0.0
 40
0.8000000000001826
 50
180.0000023863837
 51
269.9999990757448
  0
ARC
  5
316
  8
0
  6
CONTINUOUS
 62
     7
 10
1728.297361647548
 20
441.9439505014369
 30
0.0
 40
0.199999999999989
 50
0.0
 51
90.0000036969587
  0
LINE
  5
317
  8
0
  6
CONTINUOUS
 62
     7
 10
1728.497361647548
 20
436.8939505014368
 30
0.0
 11
1728.497361647548
 21
441.9439505014369
 31
0.0
  0
LINE
  5
318
  8
0
  6
CONTINUOUS
 62
     7
 10
1726.747361647548
 20
436.8939505014368
 30
0.0
 11
1728.497361647548
 21
436.8939505014368
 31
0.0
  0
ARC
  5
319
  8
0
  6
CONTINUOUS
 62
     7
 10
1716.947361647548
 20
436.343950501437
 30
0.0
 40
2.199999999999989
 50
180.0
 51
270.0000000000008
  0
LINE
  5
31A
  8
0
  6
CONTINUOUS
 62
     7
 10
1716.947361647548
 20
445.1439505014369
 30
0.0
 11
1723.547361647548
 21
445.1439505014369
 31
0.0
  0
LINE
  5
31B
  8
0
  6
CONTINUOUS
 62
     7
 10
1712.997361647548
 20
442.9439505014369
 30
0.0
 11
1712.997361647548
 21
436.343950501437
 31
0.0
  0
ARC
  5
31C
  8
0
  6
CONTINUOUS
 62
     7
 10
1716.947361647548
 20
442.943950501437
 30
0.0
 40
3.949999999999932
 50
89.9999999999967
 51
180.0
  0
LINE
  5
31D
  8
0
  6
CONTINUOUS
 62
     7
 10
1716.947361647548
 20
455.1939505014369
 30
0.0
 11
1723.947361647548
 21
455.1939505014369
 31
0.0
  0
LINE
  5
31E
  8
0
  6
CONTINUOUS
 62
     7
 10
1716.947361647548
 20
458.6939505014369
 30
0.0
 11
1721.888728106509
 21
458.6939505014369
 31
0.0
  0
LINE
  5
31F
  8
0
  6
CONTINUOUS
 62
     7
 10
1723.947361647548
 20
455.1939505014369
 30
0.0
 11
1723.947361647548
 21
458.3562281615979
 31
0.0
  0
LINE
  5
320
  8
0
  6
CONTINUOUS
 62
     7
 10
1716.947361647548
 20
455.1939505014369
 30
0.0
 11
1716.947361647548
 21
458.693950501432
 31
0.0
  0
LINE
  5
321
  8
0
  6
CONTINUOUS
 62
     7
 10
1723.947361647548
 20
446.8939505014368
 30
0.0
 11
1723.947361647548
 21
455.1939505014369
 31
0.0
  0
LINE
  5
322
  8
0
  6
CONTINUOUS
 62
     7
 10
1716.947361647548
 20
446.8939505014368
 30
0.0
 11
1716.947361647548
 21
455.1939505014369
 31
0.0
  0
LINE
  5
323
  8
0
  6
CONTINUOUS
 62
     7
 10
1716.947361647548
 20
458.7542578806796
 30
0.0
 11
1716.947361647548
 21
458.6939505014674
 31
0.0
  0
LINE
  5
324
  8
0
  6
CONTINUOUS
 62
     7
 10
1716.947361647548
 20
459.7858612042349
 30
0.0
 11
1721.325595719251
 21
459.7858612042349
 31
0.0
  0
LINE
  5
325
  8
0
  6
CONTINUOUS
 62
     7
 10
1716.947361647548
 20
458.7542578806509
 30
0.0
 11
1716.947361647548
 21
459.7858612042349
 31
0.0
  0
LINE
  5
326
  8
0
  6
CONTINUOUS
 62
     7
 10
2317.107251443703
 20
439.0749402935223
 30
0.0
 11
2318.070442098755
 21
438.1117496384704
 31
0.0
  0
ARC
  5
327
  8
0
  6
CONTINUOUS
 62
     7
 10
2317.076678564134
 20
424.8095165914367
 30
0.0
 40
0.780000000000057
 50
188.1532085725881
 51
270.0000000000008
  0
ARC
  5
328
  8
0
  6
CONTINUOUS
 62
     7
 10
2314.176293835685
 20
424.393982685504
 30
0.0
 40
2.150000000000271
 50
8.153198677875318
 51
97.96953880498509
  0
ARC
  5
329
  8
0
  6
CONTINUOUS
 62
     7
 10
2313.711827741618
 20
427.7116281227775
 30
0.0
 40
1.200000000000273
 50
180.0
 51
277.9695368848548
  0
LINE
  5
32A
  8
0
  6
CONTINUOUS
 62
     7
 10
2312.511827741618
 20
428.689190134411
 30
0.0
 11
2312.511827741618
 21
427.7116281227777
 31
0.0
  0
ARC
  5
32B
  8
0
  6
CONTINUOUS
 62
     7
 10
2313.711827741618
 20
428.6891901344111
 30
0.0
 40
1.200000000000273
 50
112.6498989714242
 51
180.0
  0
LINE
  5
32C
  8
0
  6
CONTINUOUS
 62
     7
 10
2313.917426464439
 20
430.0752669588948
 30
0.0
 11
2313.24970869941
 21
429.7966403548857
 31
0.0
  0
ARC
  5
32D
  8
0
  6
CONTINUOUS
 62
     7
 10
2314.687624868118
 20
428.2295165914372
 30
0.0
 40
2.000000000000159
 50
90.0
 51
112.6498989714118
  0
LINE
  5
32E
  8
0
  6
CONTINUOUS
 62
     7
 10
2315.585446431514
 20
430.2295165914368
 30
0.0
 11
2314.687624868118
 21
430.2295165914368
 31
0.0
  0
LINE
  5
32F
  8
0
  6
CONTINUOUS
 62
     7
 10
2316.008703689597
 20
428.423488047629
 30
0.0
 11
2317.107251443703
 21
427.3249402935223
 31
0.0
  0
ARC
  5
330
  8
0
  6
CONTINUOUS
 62
     7
 10
2315.30159690841
 20
427.7163812664427
 30
0.0
 40
0.9999999999999679
 50
44.99999999998848
 51
112.6498989714029
  0
LINE
  5
331
  8
0
  6
CONTINUOUS
 62
     7
 10
2313.981406489344
 20
428.24905971745
 30
0.0
 11
2314.916497706571
 21
428.6392564501714
 31
0.0
  0
ARC
  5
332
  8
0
  6
CONTINUOUS
 62
     7
 10
2314.176293835685
 20
424.3939826855043
 30
0.0
 40
3.860000000000106
 50
23.66022218901884
 51
92.89403417331653
  0
ARC
  5
333
  8
0
  6
CONTINUOUS
 62
     7
 10
2321.247361647551
 20
431.4650504973699
 30
0.0
 40
3.859999999999943
 50
203.6602221890255
 51
246.3397778109791
  0
ARC
  5
334
  8
0
  6
CONTINUOUS
 62
     7
 10
2314.176293835685
 20
436.1439826855041
 30
0.0
 40
2.150000000000196
 50
8.153201311964441
 51
83.81778457481084
  0
ARC
  5
335
  8
0
  6
CONTINUOUS
 62
     7
 10
2314.491827741618
 20
439.0569430961871
 30
0.0
 40
0.7799999999999834
 50
180.0
 51
263.8177875581711
  0
LINE
  5
336
  8
0
  6
CONTINUOUS
 62
     7
 10
2313.711827741618
 20
440.3020900866865
 30
0.0
 11
2313.711827741618
 21
439.0569430961871
 31
0.0
  0
ARC
  5
337
  8
0
  6
CONTINUOUS
 62
     7
 10
2314.491827741618
 20
440.3020900866865
 30
0.0
 40
0.779999999999995
 50
96.18221463096353
 51
180.0
  0
ARC
  5
338
  8
0
  6
CONTINUOUS
 62
     7
 10
2314.176293835685
 20
443.2150504973695
 30
0.0
 40
2.150000000000196
 50
276.1822146309924
 51
351.8467986880364
  0
ARC
  5
339
  8
0
  6
CONTINUOUS
 62
     7
 10
2317.076678564134
 20
442.7995165914369
 30
0.0
 40
0.780000000000131
 50
90.0
 51
171.8467986880389
  0
LINE
  5
33A
  8
0
  6
CONTINUOUS
 62
     7
 10
2319.414951793639
 20
439.1855451352446
 30
0.0
 11
2318.316404039532
 21
440.2840928893513
 31
0.0
  0
ARC
  5
33B
  8
0
  6
CONTINUOUS
 62
     7
 10
2314.176293835685
 20
436.1439826855039
 30
0.0
 40
3.860000000000209
 50
9.169004714997147
 51
66.3397778109786
  0
ARC
  5
33C
  8
0
  6
CONTINUOUS
 62
     7
 10
2321.24736164755
 20
431.465050497369
 30
0.0
 40
2.149999999999952
 50
207.5911861619077
 51
263.8177853690211
  0
LINE
  5
33D
  8
0
  6
CONTINUOUS
 62
     7
 10
2317.107251443703
 20
427.3249402935223
 30
0.0
 11
2318.316404039532
 21
428.5340928893514
 31
0.0
  0
ARC
  5
33E
  8
0
  6
CONTINUOUS
 62
     7
 10
2321.247361647551
 20
424.3939826855037
 30
0.0
 40
3.859999999999943
 50
113.6602221890218
 51
156.3397778109746
  0
ARC
  5
33F
  8
0
  6
CONTINUOUS
 62
     7
 10
2314.176293835685
 20
443.21505049737
 30
0.0
 40
3.860000000000243
 50
293.6602221890225
 51
336.3397778109774
  0
LINE
  5
340
  8
0
  6
CONTINUOUS
 62
     7
 10
2316.304562493079
 20
436.4488966437823
 30
0.0
 11
2317.711827741618
 21
429.9159862637111
 31
0.0
  0
LINE
  5
341
  8
0
  6
CONTINUOUS
 62
     7
 10
2319.341870746273
 20
430.4692571326859
 30
0.0
 11
2317.986973116141
 21
436.7590626977798
 31
0.0
  0
LINE
  5
342
  8
0
  6
CONTINUOUS
 62
     7
 10
2318.316404039532
 20
428.5340928893514
 30
0.0
 11
2317.35321338448
 21
429.4972835444033
 31
0.0
  0
ARC
  5
343
  8
0
  6
CONTINUOUS
 62
     7
 10
2321.24736164755
 20
424.3939826855042
 30
0.0
 40
2.150000000000188
 50
96.18221463099195
 51
171.8467986880371
  0
LINE
  5
344
  8
0
  6
CONTINUOUS
 62
     7
 10
2318.316404039532
 20
440.2840928893513
 30
0.0
 11
2317.107251443703
 21
439.0749402935223
 31
0.0
  0
ARC
  5
345
  8
0
  6
CONTINUOUS
 62
     7
 10
2320.122058574825
 20
439.8926519164309
 30
0.0
 40
1.000000000000141
 50
225.0000000000123
 51
292.6498989714252
  0
ARC
  5
346
  8
0
  6
CONTINUOUS
 62
     7
 10
2321.711827741618
 20
439.8974050600961
 30
0.0
 40
1.200000000000027
 50
359.9999999999981
 51
97.96953811719789
  0
LINE
  5
347
  8
0
  6
CONTINUOUS
 62
     7
 10
2322.911827741618
 20
438.9198430484627
 30
0.0
 11
2322.911827741618
 21
439.897405060096
 31
0.0
  0
ARC
  5
348
  8
0
  6
CONTINUOUS
 62
     7
 10
2315.585446431514
 20
427.7295165914367
 30
0.0
 40
2.500000000000057
 50
45.00000000000369
 51
89.99999999998958
  0
ARC
  5
349
  8
0
  6
CONTINUOUS
 62
     7
 10
2320.931827741618
 20
427.3069430961871
 30
0.0
 40
0.7800000000002001
 50
276.1822146309648
 51
0.0
  0
ARC
  5
34A
  8
0
  6
CONTINUOUS
 62
     7
 10
2321.24736164755
 20
443.2150504973696
 30
0.0
 40
2.150000000000023
 50
188.1531978500981
 51
277.9695381171896
  0
LINE
  5
34B
  8
0
  6
CONTINUOUS
 62
     7
 10
2318.346976919102
 20
443.5795165914369
 30
0.0
 11
2317.076678564134
 21
443.5795165914369
 31
0.0
  0
ARC
  5
34C
  8
0
  6
CONTINUOUS
 62
     7
 10
2320.931827741618
 20
428.5520900866866
 30
0.0
 40
0.7800000000002001
 50
359.9999999999966
 51
83.81778536903602
  0
ARC
  5
34D
  8
0
  6
CONTINUOUS
 62
     7
 10
2319.838209051722
 20
439.8795165914373
 30
0.0
 40
2.5
 50
225.0000000000054
 51
269.9999999999904
  0
LINE
  5
34E
  8
0
  6
CONTINUOUS
 62
     7
 10
2319.838209051721
 20
437.3795165914368
 30
0.0
 11
2320.736030615118
 21
437.3795165914368
 31
0.0
  0
ARC
  5
34F
  8
0
  6
CONTINUOUS
 62
     7
 10
2318.346976919102
 20
442.7995165914368
 30
0.0
 40
0.7800000000001884
 50
8.153210854300395
 51
90.0
  0
LINE
  5
350
  8
0
  6
CONTINUOUS
 62
     7
 10
2321.442248993891
 20
439.3599734654238
 30
0.0
 11
2320.507157776664
 21
438.9697767327022
 31
0.0
  0
LINE
  5
351
  8
0
  6
CONTINUOUS
 62
     7
 10
2317.076678564134
 20
424.0295165914368
 30
0.0
 11
2318.346976919102
 21
424.0295165914368
 31
0.0
  0
LINE
  5
352
  8
0
  6
CONTINUOUS
 62
     7
 10
2321.506229018796
 20
437.5337662239789
 30
0.0
 11
2322.173946783825
 21
437.8123928279879
 31
0.0
  0
ARC
  5
353
  8
0
  6
CONTINUOUS
 62
     7
 10
2321.24736164755
 20
443.2150504973694
 30
0.0
 40
3.859999999999994
 50
203.6602221890223
 51
272.8940341733173
  0
ARC
  5
354
  8
0
  6
CONTINUOUS
 62
     7
 10
2318.346976919102
 20
424.8095165914368
 30
0.0
 40
0.7800000000001148
 50
270.0000000000008
 51
351.846798688048
  0
LINE
  5
355
  8
0
  6
CONTINUOUS
 62
     7
 10
2321.711827741618
 20
427.3069430961871
 30
0.0
 11
2321.711827741618
 21
428.5520900866865
 31
0.0
  0
ARC
  5
356
  8
0
  6
CONTINUOUS
 62
     7
 10
2321.711827741618
 20
438.9198430484626
 30
0.0
 40
1.200000000000057
 50
292.649898971404
 51
0.0000000000054281
  0
ARC
  5
357
  8
0
  6
CONTINUOUS
 62
     7
 10
2320.736030615118
 20
439.3795165914364
 30
0.0
 40
2.0
 50
270.0000000000008
 51
292.6498989714018
  0
LINE
  5
358
  8
0
  6
CONTINUOUS
 62
     7
 10
1724.006229018796
 20
437.5337662239789
 30
0.0
 11
1724.673946783825
 21
437.8123928279879
 31
0.0
  0
ARC
  5
359
  8
0
  6
CONTINUOUS
 62
     7
 10
1723.236030615118
 20
439.3795165914364
 30
0.0
 40
2.0
 50
269.9999999999943
 51
292.6498989714078
  0
ARC
  5
35A
  8
0
  6
CONTINUOUS
 62
     7
 10
1722.338209051722
 20
439.8795165914373
 30
0.0
 40
2.5
 50
225.0000000000054
 51
270.0000000000008
  0
LINE
  5
35B
  8
0
  6
CONTINUOUS
 62
     7
 10
1723.942248993891
 20
439.3599734654238
 30
0.0
 11
1723.007157776665
 21
438.9697767327022
 31
0.0
  0
ARC
  5
35C
  8
0
  6
CONTINUOUS
 62
     7
 10
1723.747361647551
 20
443.2150504973694
 30
0.0
 40
3.860000000000106
 50
203.6602221890196
 51
272.8940341733173
  0
ARC
  5
35D
  8
0
  6
CONTINUOUS
 62
     7
 10
1716.676293835685
 20
443.21505049737
 30
0.0
 40
3.860000000000035
 50
293.6602221890256
 51
336.339777810976
  0
LINE
  5
35E
  8
0
  6
CONTINUOUS
 62
     7
 10
1721.841870746273
 20
430.4692571326859
 30
0.0
 11
1720.486973116142
 21
436.7590626977798
 31
0.0
  0
ARC
  5
35F
  8
0
  6
CONTINUOUS
 62
     7
 10
1723.74736164755
 20
431.465050497369
 30
0.0
 40
2.149999999999952
 50
207.5911861619049
 51
263.8177853690211
  0
LINE
  5
360
  8
0
  6
CONTINUOUS
 62
     7
 10
1716.41742646444
 20
430.0752669588948
 30
0.0
 11
1715.749708699411
 21
429.7966403548857
 31
0.0
  0
LINE
  5
361
  8
0
  6
CONTINUOUS
 62
     7
 10
1718.085446431514
 20
430.2295165914368
 30
0.0
 11
1717.187624868119
 21
430.2295165914368
 31
0.0
  0
LINE
  5
362
  8
0
  6
CONTINUOUS
 62
     7
 10
1719.607251443703
 20
427.3249402935223
 30
0.0
 11
1720.816404039532
 21
428.5340928893514
 31
0.0
  0
LINE
  5
363
  8
0
  6
CONTINUOUS
 62
     7
 10
1718.508703689597
 20
428.423488047629
 30
0.0
 11
1719.607251443703
 21
427.3249402935223
 31
0.0
  0
ARC
  5
364
  8
0
  6
CONTINUOUS
 62
     7
 10
1723.747361647551
 20
424.3939826855037
 30
0.0
 40
3.860000000000126
 50
113.6602221890279
 51
156.339777810976
  0
ARC
  5
365
  8
0
  6
CONTINUOUS
 62
     7
 10
1723.747361647551
 20
431.4650504973699
 30
0.0
 40
3.860000000000035
 50
203.6602221890241
 51
246.3397778109759
  0
LINE
  5
366
  8
0
  6
CONTINUOUS
 62
     7
 10
1718.80456249308
 20
436.4488966437823
 30
0.0
 11
1720.211827741618
 21
429.9159862637111
 31
0.0
  0
LINE
  5
367
  8
0
  6
CONTINUOUS
 62
     7
 10
1716.211827741618
 20
440.3020900866865
 30
0.0
 11
1716.211827741618
 21
439.0569430961871
 31
0.0
  0
ARC
  5
368
  8
0
  6
CONTINUOUS
 62
     7
 10
1716.991827741618
 20
440.3020900866865
 30
0.0
 40
0.780000000000044
 50
96.18221463099675
 51
180.0
  0
LINE
  5
369
  8
0
  6
CONTINUOUS
 62
     7
 10
1722.338209051722
 20
437.3795165914368
 30
0.0
 11
1723.236030615117
 21
437.3795165914368
 31
0.0
  0
LINE
  5
36A
  8
0
  6
CONTINUOUS
 62
     7
 10
1720.816404039532
 20
440.2840928893513
 30
0.0
 11
1719.607251443703
 21
439.0749402935223
 31
0.0
  0
ARC
  5
36B
  8
0
  6
CONTINUOUS
 62
     7
 10
1716.676293835685
 20
424.3939826855043
 30
0.0
 40
3.860000000000106
 50
23.66022218901884
 51
92.89403417331653
  0
ARC
  5
36C
  8
0
  6
CONTINUOUS
 62
     7
 10
1723.747361647551
 20
443.2150504973696
 30
0.0
 40
2.149999999999959
 50
188.1531978500972
 51
277.9695381171776
  0
ARC
  5
36D
  8
0
  6
CONTINUOUS
 62
     7
 10
1722.622058574826
 20
439.8926519164309
 30
0.0
 40
1.000000000000048
 50
224.9999999999939
 51
292.6498989714012
  0
LINE
  5
36E
  8
0
  6
CONTINUOUS
 62
     7
 10
1715.011827741618
 20
428.689190134411
 30
0.0
 11
1715.011827741618
 21
427.7116281227777
 31
0.0
  0
ARC
  5
36F
  8
0
  6
CONTINUOUS
 62
     7
 10
1716.211827741618
 20
427.7116281227775
 30
0.0
 40
1.199999999999981
 50
180.0
 51
277.9695368848871
  0
ARC
  5
370
  8
0
  6
CONTINUOUS
 62
     7
 10
1716.676293835685
 20
424.393982685504
 30
0.0
 40
2.149999999999925
 50
8.153198677877038
 51
97.96953880498509
  0
ARC
  5
371
  8
0
  6
CONTINUOUS
 62
     7
 10
1717.187624868118
 20
428.2295165914372
 30
0.0
 40
2.000000000000072
 50
89.99999999999349
 51
112.6498989714058
  0
ARC
  5
372
  8
0
  6
CONTINUOUS
 62
     7
 10
1716.676293835685
 20
436.1439826855039
 30
0.0
 40
3.859999999999995
 50
9.169004714997685
 51
66.3397778109786
  0
ARC
  5
373
  8
0
  6
CONTINUOUS
 62
     7
 10
1716.991827741618
 20
439.0569430961871
 30
0.0
 40
0.7800000000002001
 50
180.0
 51
263.8177875581877
  0
ARC
  5
374
  8
0
  6
CONTINUOUS
 62
     7
 10
1723.431827741618
 20
428.5520900866866
 30
0.0
 40
0.7799999999999727
 50
359.9999999999966
 51
83.8177853690194
  0
ARC
  5
375
  8
0
  6
CONTINUOUS
 62
     7
 10
1718.085446431514
 20
427.7295165914367
 30
0.0
 40
2.5000000000001
 50
45.0
 51
90.0
  0
LINE
  5
376
  8
0
  6
CONTINUOUS
 62
     7
 10
1720.816404039532
 20
428.5340928893514
 30
0.0
 11
1719.853213384481
 21
429.4972835444033
 31
0.0
  0
LINE
  5
377
  8
0
  6
CONTINUOUS
 62
     7
 10
1721.914951793639
 20
439.1855451352446
 30
0.0
 11
1720.816404039532
 21
440.2840928893513
 31
0.0
  0
LINE
  5
378
  8
0
  6
CONTINUOUS
 62
     7
 10
1716.481406489345
 20
428.24905971745
 30
0.0
 11
1717.416497706571
 21
428.6392564501714
 31
0.0
  0
ARC
  5
379
  8
0
  6
CONTINUOUS
 62
     7
 10
1717.80159690841
 20
427.7163812664427
 30
0.0
 40
1.000000000000036
 50
44.9999999999977
 51
112.6498989714269
  0
LINE
  5
37A
  8
0
  6
CONTINUOUS
 62
     7
 10
1725.411827741618
 20
438.9198430484627
 30
0.0
 11
1725.411827741618
 21
439.897405060096
 31
0.0
  0
LINE
  5
37B
  8
0
  6
CONTINUOUS
 62
     7
 10
1719.607251443703
 20
439.0749402935223
 30
0.0
 11
1720.570442098755
 21
438.1117496384704
 31
0.0
  0
ARC
  5
37C
  8
0
  6
CONTINUOUS
 62
     7
 10
1719.576678564134
 20
442.7995165914369
 30
0.0
 40
0.7800000000000296
 50
90.0
 51
171.8467986880342
  0
ARC
  5
37D
  8
0
  6
CONTINUOUS
 62
     7
 10
1724.211827741618
 20
439.8974050600961
 30
0.0
 40
1.200000000000059
 50
359.9999999999981
 51
97.96953811720864
  0
ARC
  5
37E
  8
0
  6
CONTINUOUS
 62
     7
 10
1716.211827741618
 20
428.6891901344111
 30
0.0
 40
1.199999999999917
 50
112.6498989713942
 51
180.0
  0
ARC
  5
37F
  8
0
  6
CONTINUOUS
 62
     7
 10
1724.211827741618
 20
438.9198430484626
 30
0.0
 40
1.19999999999997
 50
292.649898971394
 51
0.0000000000054281
  0
ARC
  5
380
  8
0
  6
CONTINUOUS
 62
     7
 10
1723.747361647551
 20
424.3939826855042
 30
0.0
 40
2.149999999999963
 50
96.18221463098591
 51
171.8467986880362
  0
ARC
  5
381
  8
0
  6
CONTINUOUS
 62
     7
 10
1719.576678564134
 20
424.8095165914367
 30
0.0
 40
0.7799999999999727
 50
188.1532085725904
 51
270.0000000000008
  0
ARC
  5
382
  8
0
  6
CONTINUOUS
 62
     7
 10
1716.676293835685
 20
443.2150504973695
 30
0.0
 40
2.150000000000009
 50
276.1822146309804
 51
351.8467986880355
  0
ARC
  5
383
  8
0
  6
CONTINUOUS
 62
     7
 10
1723.431827741618
 20
427.3069430961871
 30
0.0
 40
0.7799999999999727
 50
276.1822146309814
 51
0.0
  0
ARC
  5
384
  8
0
  6
CONTINUOUS
 62
     7
 10
1720.846976919102
 20
442.7995165914368
 30
0.0
 40
0.7799999999999727
 50
8.153210854302765
 51
90.0
  0
LINE
  5
385
  8
0
  6
CONTINUOUS
 62
     7
 10
1720.846976919102
 20
443.5795165914369
 30
0.0
 11
1719.576678564134
 21
443.5795165914369
 31
0.0
  0
LINE
  5
386
  8
0
  6
CONTINUOUS
 62
     7
 10
1724.211827741618
 20
427.3069430961871
 30
0.0
 11
1724.211827741618
 21
428.5520900866865
 31
0.0
  0
ARC
  5
387
  8
0
  6
CONTINUOUS
 62
     7
 10
1716.676293835685
 20
436.1439826855041
 30
0.0
 40
2.150000000000038
 50
8.153201311965303
 51
83.81778457480482
  0
ARC
  5
388
  8
0
  6
CONTINUOUS
 62
     7
 10
1720.846976919102
 20
424.8095165914368
 30
0.0
 40
0.7799999999999727
 50
270.0000000000008
 51
351.8467986880456
  0
LINE
  5
389
  8
0
  6
CONTINUOUS
 62
     7
 10
1719.576678564134
 20
424.0295165914368
 30
0.0
 11
1720.846976919102
 21
424.0295165914368
 31
0.0
  0
LINE
  5
38A
  8
0
  6
CONTINUOUS
 62
     7
 10
2323.197361647547
 20
420.6439826855038
 30
0.0
 11
2331.397361647548
 21
420.6439826855038
 31
0.0
  0
LINE
  5
38B
  8
0
  6
CONTINUOUS
 62
     7
 10
2331.397361647548
 20
420.6439826855038
 30
0.0
 11
2331.397361647548
 21
426.4455455671599
 31
0.0
  0
LINE
  5
38C
  8
0
  6
CONTINUOUS
 62
     7
 10
2323.197361647547
 20
426.4455455671599
 30
0.0
 11
2323.197361647547
 21
420.6439826855038
 31
0.0
  0
ARC
  5
38D
  8
0
  6
CONTINUOUS
 62
     7
 10
2327.297361647548
 20
429.6439826855038
 30
0.0
 40
5.200000000000336
 50
322.0419714193181
 51
217.9580285806804
  0
LINE
  5
38E
  8
0
  6
CONTINUOUS
 62
     7
 10
2320.397361647547
 20
433.1439826855038
 30
0.0
 11
2321.247361647548
 21
433.1439826855038
 31
0.0
  0
LINE
  5
38F
  8
0
  6
CONTINUOUS
 62
     7
 10
2320.397361647547
 20
434.6439826855038
 30
0.0
 11
2320.397361647547
 21
433.1439826855038
 31
0.0
  0
LINE
  5
390
  8
0
  6
CONTINUOUS
 62
     7
 10
2321.247361647548
 20
434.6439826855038
 30
0.0
 11
2320.397361647547
 21
434.6439826855038
 31
0.0
  0
ARC
  5
391
  8
0
  6
CONTINUOUS
 62
     7
 10
2321.247361647549
 20
430.8939826855054
 30
0.0
 40
3.750000000000189
 50
45.39624402694157
 51
90.00000000002085
  0
ARC
  5
392
  8
0
  6
CONTINUOUS
 62
     7
 10
2321.247361647547
 20
431.1439826855036
 30
0.0
 40
2.0
 50
36.71402945430059
 51
89.99999999998697
  0
LINE
  5
393
  8
0
  6
CONTINUOUS
 62
     7
 10
2324.047361647547
 20
434.8439826855038
 30
0.0
 11
2324.047361647547
 21
433.7032313844629
 31
0.0
  0
LINE
  5
394
  8
0
  6
CONTINUOUS
 62
     7
 10
2327.297361647548
 20
434.8439826855038
 30
0.0
 11
2324.047361647547
 21
434.8439826855038
 31
0.0
  0
LINE
  5
395
  8
0
  6
CONTINUOUS
 62
     7
 10
2332.247361647548
 20
420.6439826855038
 30
0.0
 11
2332.247361647548
 21
428.0510294532963
 31
0.0
  0
LINE
  5
396
  8
0
  6
CONTINUOUS
 62
     7
 10
2331.397361647548
 20
420.6439826855038
 30
0.0
 11
2332.247361647548
 21
420.6439826855038
 31
0.0
  0
LINE
  5
397
  8
0
  6
CONTINUOUS
 62
     7
 10
2314.247361647548
 20
420.6439826855038
 30
0.0
 11
2321.247361647548
 21
420.6439826855038
 31
0.0
  0
ARC
  5
398
  8
0
  6
CONTINUOUS
 62
     7
 10
2314.247361647546
 20
424.3939826855024
 30
0.0
 40
3.75
 50
180.0
 51
270.0000000000217
  0
LINE
  5
399
  8
0
  6
CONTINUOUS
 62
     7
 10
2310.497361647548
 20
425.0854104692638
 30
0.0
 11
2310.497361647548
 21
424.3939826855039
 31
0.0
  0
LINE
  5
39A
  8
0
  6
CONTINUOUS
 62
     7
 10
2309.999713795988
 20
426.4526867042648
 30
0.0
 11
2310.497361647548
 21
425.0854104692638
 31
0.0
  0
ARC
  5
39B
  8
0
  6
CONTINUOUS
 62
     7
 10
2308.590174864809
 20
425.9396564892766
 30
0.0
 40
1.500000000000095
 50
20.00000000000037
 51
136.8297092601803
  0
LINE
  5
39C
  8
0
  6
CONTINUOUS
 62
     7
 10
2306.762277203953
 20
426.1835601207708
 30
0.0
 11
2307.496189639124
 21
426.9659100281158
 31
0.0
  0
ARC
  5
39D
  8
0
  6
CONTINUOUS
 62
     7
 10
2304.938968494475
 20
427.893982685507
 30
0.0
 40
2.50000000000002
 50
270.0000000000425
 51
316.8297092601388
  0
LINE
  5
39E
  8
0
  6
CONTINUOUS
 62
     7
 10
2293.247361647548
 20
425.3939826855039
 30
0.0
 11
2304.938968494477
 21
425.3939826855039
 31
0.0
  0
ARC
  5
39F
  8
0
  6
CONTINUOUS
 62
     7
 10
2293.247361647548
 20
428.1439826855039
 30
0.0
 40
2.75
 50
180.0
 51
270.0000000000008
  0
LINE
  5
3A0
  8
0
  6
CONTINUOUS
 62
     7
 10
2292.247361647548
 20
431.1439826855039
 30
0.0
 11
2290.497361647548
 21
431.1439826855039
 31
0.0
  0
LINE
  5
3A1
  8
0
  6
CONTINUOUS
 62
     7
 10
2292.247361647548
 20
428.1439826855039
 30
0.0
 11
2292.247361647548
 21
431.1439826855039
 31
0.0
  0
ARC
  5
3A2
  8
0
  6
CONTINUOUS
 62
     7
 10
2293.247361647547
 20
428.1439826855032
 30
0.0
 40
1.0
 50
180.0
 51
270.0000000000008
  0
LINE
  5
3A3
  8
0
  6
CONTINUOUS
 62
     7
 10
2305.193371853521
 20
427.1439826855039
 30
0.0
 11
2293.247361647548
 21
427.1439826855039
 31
0.0
  0
ARC
  5
3A4
  8
0
  6
CONTINUOUS
 62
     7
 10
2305.193371853519
 20
428.1439826855071
 30
0.0
 40
1.000000000000129
 50
270.0000000000008
 51
314.9999999998926
  0
LINE
  5
3A5
  8
0
  6
CONTINUOUS
 62
     7
 10
2306.728905759453
 20
428.2653030290638
 30
0.0
 11
2305.900478634707
 21
427.4368759043169
 31
0.0
  0
ARC
  5
3A6
  8
0
  6
CONTINUOUS
 62
     7
 10
2308.850226103015
 20
426.1439826854995
 30
0.0
 40
3.000000000000145
 50
90.65295157111336
 51
134.9999999999578
  0
ARC
  5
3A7
  8
0
  6
CONTINUOUS
 62
     7
 10
2308.78185065442
 20
426.1439826855042
 30
0.0
 40
3.00000000000005
 50
19.99999999999731
 51
89.3470484289214
  0
LINE
  5
3A8
  8
0
  6
CONTINUOUS
 62
     7
 10
2312.247361647548
 20
425.3939826855039
 30
0.0
 11
2311.600928516778
 21
427.1700431154808
 31
0.0
  0
LINE
  5
3A9
  8
0
  6
CONTINUOUS
 62
     7
 10
2312.247361647548
 20
424.3939826855039
 30
0.0
 11
2312.247361647548
 21
425.3939826855039
 31
0.0
  0
ARC
  5
3AA
  8
0
  6
CONTINUOUS
 62
     7
 10
2314.247361647548
 20
424.3939826855042
 30
0.0
 40
2.000000000000455
 50
180.0
 51
269.9999999999878
  0
LINE
  5
3AB
  8
0
  6
CONTINUOUS
 62
     7
 10
2321.247361647548
 20
422.3939826855039
 30
0.0
 11
2314.247361647548
 21
422.3939826855039
 31
0.0
  0
ARC
  5
3AC
  8
0
  6
CONTINUOUS
 62
     7
 10
2321.247361647547
 20
424.3939826855042
 30
0.0
 40
2.0
 50
270.0000000000138
 51
347.1614318590153
  0
ARC
  5
3AD
  8
0
  6
CONTINUOUS
 62
     7
 10
2321.247361647549
 20
424.3939826855024
 30
0.0
 40
3.750000000000065
 50
269.9999999999799
 51
301.3322514975831
  0
LINE
  5
3AE
  8
0
  6
CONTINUOUS
 62
     7
 10
2332.247361647548
 20
431.2369359177113
 30
0.0
 11
2332.247361647548
 21
434.8439826855038
 31
0.0
  0
LINE
  5
3AF
  8
0
  6
CONTINUOUS
 62
     7
 10
2332.247361647548
 20
434.8439826855038
 30
0.0
 11
2327.297361647548
 21
434.8439826855038
 31
0.0
  0
LINE
  5
3B0
  8
0
  6
CONTINUOUS
 62
     7
 10
2290.497361647548
 20
462.1439826855038
 30
0.0
 11
2292.247361647548
 21
462.1439826855038
 31
0.0
  0
LINE
  5
3B1
  8
0
  6
CONTINUOUS
 62
     7
 10
2292.247361647548
 20
431.1439826855039
 30
0.0
 11
2292.247361647548
 21
462.1439826855038
 31
0.0
  0
LINE
  5
3B2
  8
0
  6
CONTINUOUS
 62
     7
 10
2290.497361647548
 20
465.1439826855038
 30
0.0
 11
2292.247361647548
 21
465.1439826855038
 31
0.0
  0
LINE
  5
3B3
  8
0
  6
CONTINUOUS
 62
     7
 10
2292.247361647548
 20
462.1439826855038
 30
0.0
 11
2292.247361647548
 21
465.1439826855044
 31
0.0
  0
ARC
  5
3B4
  8
0
  6
CONTINUOUS
 62
     7
 10
1729.797361647548
 20
429.6439826855038
 30
0.0
 40
5.200000000000336
 50
322.0419714193166
 51
217.9580285806804
  0
LINE
  5
3B5
  8
0
  6
CONTINUOUS
 62
     7
 10
1733.897361647548
 20
420.6439826855038
 30
0.0
 11
1733.897361647548
 21
426.4455455671599
 31
0.0
  0
LINE
  5
3B6
  8
0
  6
CONTINUOUS
 62
     7
 10
1725.697361647548
 20
420.6439826855038
 30
0.0
 11
1733.897361647548
 21
420.6439826855038
 31
0.0
  0
LINE
  5
3B7
  8
0
  6
CONTINUOUS
 62
     7
 10
1725.697361647548
 20
426.4455455671599
 30
0.0
 11
1725.697361647548
 21
420.6439826855038
 31
0.0
  0
LINE
  5
3B8
  8
0
  6
CONTINUOUS
 62
     7
 10
1734.747361647548
 20
420.6439826855038
 30
0.0
 11
1734.747361647548
 21
428.0510294532963
 31
0.0
  0
LINE
  5
3B9
  8
0
  6
CONTINUOUS
 62
     7
 10
1733.897361647548
 20
420.6439826855038
 30
0.0
 11
1734.747361647548
 21
420.6439826855038
 31
0.0
  0
LINE
  5
3BA
  8
0
  6
CONTINUOUS
 62
     7
 10
1734.747361647548
 20
434.8439826855038
 30
0.0
 11
1729.797361647548
 21
434.8439826855038
 31
0.0
  0
LINE
  5
3BB
  8
0
  6
CONTINUOUS
 62
     7
 10
1734.747361647548
 20
431.2369359177113
 30
0.0
 11
1734.747361647548
 21
434.8439826855038
 31
0.0
  0
LINE
  5
3BC
  8
0
  6
CONTINUOUS
 62
     7
 10
1722.897361647548
 20
433.1439826855038
 30
0.0
 11
1723.747361647548
 21
433.1439826855038
 31
0.0
  0
LINE
  5
3BD
  8
0
  6
CONTINUOUS
 62
     7
 10
1722.897361647548
 20
434.6439826855038
 30
0.0
 11
1722.897361647548
 21
433.1439826855038
 31
0.0
  0
ARC
  5
3BE
  8
0
  6
CONTINUOUS
 62
     7
 10
1723.747361647548
 20
431.1439826855036
 30
0.0
 40
2.0
 50
36.71402945430059
 51
89.99999999998697
  0
ARC
  5
3BF
  8
0
  6
CONTINUOUS
 62
     7
 10
1723.747361647549
 20
430.8939826855054
 30
0.0
 40
3.750000000000189
 50
45.39624402694157
 51
90.00000000002085
  0
LINE
  5
3C0
  8
0
  6
CONTINUOUS
 62
     7
 10
1723.747361647548
 20
434.6439826855038
 30
0.0
 11
1722.897361647548
 21
434.6439826855038
 31
0.0
  0
LINE
  5
3C1
  8
0
  6
CONTINUOUS
 62
     7
 10
1726.547361647548
 20
434.8439826855038
 30
0.0
 11
1726.547361647548
 21
433.7032313844629
 31
0.0
  0
LINE
  5
3C2
  8
0
  6
CONTINUOUS
 62
     7
 10
1729.797361647548
 20
434.8439826855038
 30
0.0
 11
1726.547361647548
 21
434.8439826855038
 31
0.0
  0
LINE
  5
3C3
  8
0
  6
CONTINUOUS
 62
     7
 10
1716.747361647548
 20
420.6439826855038
 30
0.0
 11
1723.747361647548
 21
420.6439826855038
 31
0.0
  0
ARC
  5
3C4
  8
0
  6
CONTINUOUS
 62
     7
 10
1716.747361647547
 20
424.3939826855024
 30
0.0
 40
3.750000000000227
 50
180.0
 51
270.0000000000217
  0
ARC
  5
3C5
  8
0
  6
CONTINUOUS
 62
     7
 10
1711.09017486481
 20
425.9396564892766
 30
0.0
 40
1.500000000000106
 50
19.9999999999974
 51
136.8297092601744
  0
LINE
  5
3C6
  8
0
  6
CONTINUOUS
 62
     7
 10
1709.262277203953
 20
426.1835601207708
 30
0.0
 11
1709.996189639124
 21
426.9659100281158
 31
0.0
  0
ARC
  5
3C7
  8
0
  6
CONTINUOUS
 62
     7
 10
1695.747361647548
 20
428.1439826855039
 30
0.0
 40
2.750000000000227
 50
180.0
 51
270.0000000000008
  0
LINE
  5
3C8
  8
0
  6
CONTINUOUS
 62
     7
 10
1694.747361647548
 20
431.1439826855039
 30
0.0
 11
1692.997361647548
 21
431.1439826855039
 31
0.0
  0
LINE
  5
3C9
  8
0
  6
CONTINUOUS
 62
     7
 10
1694.747361647548
 20
428.1439826855039
 30
0.0
 11
1694.747361647548
 21
431.1439826855039
 31
0.0
  0
ARC
  5
3CA
  8
0
  6
CONTINUOUS
 62
     7
 10
1695.747361647547
 20
428.1439826855032
 30
0.0
 40
1.0
 50
180.0
 51
270.0000000000008
  0
ARC
  5
3CB
  8
0
  6
CONTINUOUS
 62
     7
 10
1707.69337185352
 20
428.1439826855071
 30
0.0
 40
1.0
 50
270.0000000000008
 51
314.9999999998834
  0
ARC
  5
3CC
  8
0
  6
CONTINUOUS
 62
     7
 10
1711.281850654421
 20
426.1439826855042
 30
0.0
 40
3.00000000000005
 50
19.99999999999731
 51
89.3470484289214
  0
LINE
  5
3CD
  8
0
  6
CONTINUOUS
 62
     7
 10
1714.747361647548
 20
425.3939826855039
 30
0.0
 11
1714.100928516778
 21
427.1700431154808
 31
0.0
  0
LINE
  5
3CE
  8
0
  6
CONTINUOUS
 62
     7
 10
1714.747361647548
 20
424.3939826855039
 30
0.0
 11
1714.747361647548
 21
425.3939826855039
 31
0.0
  0
ARC
  5
3CF
  8
0
  6
CONTINUOUS
 62
     7
 10
1716.747361647549
 20
424.3939826855042
 30
0.0
 40
2.000000000000227
 50
180.0
 51
269.9999999999878
  0
LINE
  5
3D0
  8
0
  6
CONTINUOUS
 62
     7
 10
1723.747361647548
 20
422.3939826855039
 30
0.0
 11
1716.747361647548
 21
422.3939826855039
 31
0.0
  0
ARC
  5
3D1
  8
0
  6
CONTINUOUS
 62
     7
 10
1707.438968494475
 20
427.893982685507
 30
0.0
 40
2.499999999999943
 50
270.0000000000425
 51
316.8297092601352
  0
ARC
  5
3D2
  8
0
  6
CONTINUOUS
 62
     7
 10
1723.747361647549
 20
424.3939826855024
 30
0.0
 40
3.750000000000065
 50
269.9999999999799
 51
301.3322514975831
  0
ARC
  5
3D3
  8
0
  6
CONTINUOUS
 62
     7
 10
1711.350226103015
 20
426.1439826854995
 30
0.0
 40
3.000000000000145
 50
90.6529515711177
 51
134.9999999999578
  0
LINE
  5
3D4
  8
0
  6
CONTINUOUS
 62
     7
 10
1707.693371853521
 20
427.1439826855039
 30
0.0
 11
1695.747361647548
 21
427.1439826855039
 31
0.0
  0
LINE
  5
3D5
  8
0
  6
CONTINUOUS
 62
     7
 10
1712.499713795988
 20
426.4526867042648
 30
0.0
 11
1712.997361647548
 21
425.0854104692638
 31
0.0
  0
ARC
  5
3D6
  8
0
  6
CONTINUOUS
 62
     7
 10
1723.747361647548
 20
424.3939826855042
 30
0.0
 40
2.000000000000047
 50
270.0000000000138
 51
347.1614318590167
  0
LINE
  5
3D7
  8
0
  6
CONTINUOUS
 62
     7
 10
1709.228905759454
 20
428.2653030290638
 30
0.0
 11
1708.400478634707
 21
427.4368759043169
 31
0.0
  0
LINE
  5
3D8
  8
0
  6
CONTINUOUS
 62
     7
 10
1712.997361647548
 20
425.0854104692638
 30
0.0
 11
1712.997361647548
 21
424.3939826855039
 31
0.0
  0
LINE
  5
3D9
  8
0
  6
CONTINUOUS
 62
     7
 10
1695.747361647548
 20
425.3939826855039
 30
0.0
 11
1707.438968494477
 21
425.3939826855039
 31
0.0
  0
LINE
  5
3DA
  8
0
  6
CONTINUOUS
 62
     7
 10
1692.997361647548
 20
462.1439826855038
 30
0.0
 11
1694.747361647548
 21
462.1439826855038
 31
0.0
  0
LINE
  5
3DB
  8
0
  6
CONTINUOUS
 62
     7
 10
1694.747361647548
 20
431.1439826855039
 30
0.0
 11
1694.747361647548
 21
462.1439826855038
 31
0.0
  0
LINE
  5
3DC
  8
0
  6
CONTINUOUS
 62
     7
 10
1692.997361647548
 20
465.1439826855038
 30
0.0
 11
1694.747361647548
 21
465.1439826855038
 31
0.0
  0
LINE
  5
3DD
  8
0
  6
CONTINUOUS
 62
     7
 10
1694.747361647548
 20
462.1439826855038
 30
0.0
 11
1694.747361647548
 21
465.1439826855044
 31
0.0
  0
ARC
  5
3DE
  8
0
  6
CONTINUOUS
 62
     7
 10
2239.047361647548
 20
436.3439505014368
 30
0.0
 40
3.950000000000273
 50
270.0000000000008
 51
0.0000000000024736
  0
ARC
  5
3DF
  8
0
  6
CONTINUOUS
 62
     7
 10
2239.047361647548
 20
442.9439505014369
 30
0.0
 40
2.199999999999989
 50
0.0
 51
90.0
  0
ARC
  5
3E0
  8
0
  6
CONTINUOUS
 62
     7
 10
2239.047361647548
 20
436.343950501437
 30
0.0
 40
2.199999999999989
 50
270.0000000000008
 51
0.0
  0
ARC
  5
3E1
  8
0
  6
CONTINUOUS
 62
     7
 10
2227.697361647548
 20
442.943950501437
 30
0.0
 40
0.8000000000000114
 50
270.0000000000008
 51
359.9999957311285
  0
LINE
  5
3E2
  8
0
  6
CONTINUOUS
 62
     7
 10
2238.247361647548
 20
434.1439505014369
 30
0.0
 11
2238.247361647548
 21
432.3939505014369
 31
0.0
  0
LINE
  5
3E3
  8
0
  6
CONTINUOUS
 62
     7
 10
2241.247361647548
 20
442.9439505014369
 30
0.0
 11
2241.247361647548
 21
436.343950501437
 31
0.0
  0
ARC
  5
3E4
  8
0
  6
CONTINUOUS
 62
     7
 10
2239.047361647548
 20
442.943950501437
 30
0.0
 40
3.950000000000273
 50
359.9999999999983
 51
90.0
  0
LINE
  5
3E5
  8
0
  6
CONTINUOUS
 62
     7
 10
2242.997361647548
 20
436.343950501437
 30
0.0
 11
2242.997361647548
 21
442.9439505014369
 31
0.0
  0
ARC
  5
3E6
  8
0
  6
CONTINUOUS
 62
     7
 10
2227.697361647548
 20
441.9439505014369
 30
0.0
 40
0.2000000000002728
 50
90.0
 51
180.0
  0
LINE
  5
3E7
  8
0
  6
CONTINUOUS
 62
     7
 10
2239.047361647548
 20
434.1439505014369
 30
0.0
 11
2238.247361647548
 21
434.1439505014369
 31
0.0
  0
LINE
  5
3E8
  8
0
  6
CONTINUOUS
 62
     7
 10
2239.047361647548
 20
446.8939505014368
 30
0.0
 11
2232.447361647548
 21
446.8939505014368
 31
0.0
  0
LINE
  5
3E9
  8
0
  6
CONTINUOUS
 62
     7
 10
2229.247361647548
 20
436.8939505014368
 30
0.0
 11
2229.247361647548
 21
440.9439505014369
 31
0.0
  0
ARC
  5
3EA
  8
0
  6
CONTINUOUS
 62
     7
 10
2229.447361647547
 20
441.943950501437
 30
0.0
 40
0.8000000000001819
 50
270.0000000000334
 51
359.9999999999886
  0
LINE
  5
3EB
  8
0
  6
CONTINUOUS
 62
     7
 10
2227.497361647548
 20
441.9439505014369
 30
0.0
 11
2227.497361647548
 21
436.8939505014368
 31
0.0
  0
LINE
  5
3EC
  8
0
  6
CONTINUOUS
 62
     7
 10
2227.497361647548
 20
436.8939505014368
 30
0.0
 11
2229.247361647548
 21
436.8939505014368
 31
0.0
  0
ARC
  5
3ED
  8
0
  6
CONTINUOUS
 62
     7
 10
2229.447361647548
 20
440.9439505014369
 30
0.0
 40
0.2000000000002728
 50
90.0
 51
180.0
  0
LINE
  5
3EE
  8
0
  6
CONTINUOUS
 62
     7
 10
2238.247361647548
 20
432.3939505014369
 30
0.0
 11
2239.047361647548
 21
432.3939505014369
 31
0.0
  0
LINE
  5
3EF
  8
0
  6
CONTINUOUS
 62
     7
 10
2232.447361647548
 20
445.1439505014369
 30
0.0
 11
2239.047361647548
 21
445.1439505014369
 31
0.0
  0
LINE
  5
3F0
  8
0
  6
CONTINUOUS
 62
     7
 10
2230.247361647548
 20
441.9439505014369
 30
0.0
 11
2230.247361647548
 21
442.9439505014369
 31
0.0
  0
ARC
  5
3F1
  8
0
  6
CONTINUOUS
 62
     7
 10
2232.447361647548
 20
442.943950501437
 30
0.0
 40
3.950000000000273
 50
90.0
 51
180.0000008645825
  0
ARC
  5
3F2
  8
0
  6
CONTINUOUS
 62
     7
 10
2232.447361647548
 20
442.9439505014369
 30
0.0
 40
2.199999999999989
 50
90.0
 51
180.0
  0
LINE
  5
3F3
  8
0
  6
CONTINUOUS
 62
     7
 10
2232.447361647548
 20
455.1939505014369
 30
0.0
 11
2239.447361647548
 21
455.1939505014369
 31
0.0
  0
LINE
  5
3F4
  8
0
  6
CONTINUOUS
 62
     7
 10
2232.447361647548
 20
455.1939505014369
 30
0.0
 11
2232.447361647548
 21
458.3562281615988
 31
0.0
  0
LINE
  5
3F5
  8
0
  6
CONTINUOUS
 62
     7
 10
2234.105995188588
 20
458.6939505014369
 30
0.0
 11
2239.447361647548
 21
458.6939505014369
 31
0.0
  0
LINE
  5
3F6
  8
0
  6
CONTINUOUS
 62
     7
 10
2239.447361647548
 20
455.1939505014369
 30
0.0
 11
2239.447361647548
 21
458.693950501432
 31
0.0
  0
LINE
  5
3F7
  8
0
  6
CONTINUOUS
 62
     7
 10
2239.447361647548
 20
446.8939505014368
 30
0.0
 11
2239.447361647548
 21
455.1939505014369
 31
0.0
  0
LINE
  5
3F8
  8
0
  6
CONTINUOUS
 62
     7
 10
2232.447361647548
 20
446.8939505014368
 30
0.0
 11
2232.447361647548
 21
455.1939505014369
 31
0.0
  0
LINE
  5
3F9
  8
0
  6
CONTINUOUS
 62
     7
 10
2239.447361647548
 20
458.7542578806796
 30
0.0
 11
2239.447361647548
 21
458.6939505014674
 31
0.0
  0
LINE
  5
3FA
  8
0
  6
CONTINUOUS
 62
     7
 10
2234.669127575845
 20
459.7858612042349
 30
0.0
 11
2239.32559571925
 21
459.7858612042349
 31
0.0
  0
LINE
  5
3FB
  8
0
  6
CONTINUOUS
 62
     7
 10
2239.447361647548
 20
458.7542578806509
 30
0.0
 11
2239.447361647548
 21
459.6252794707552
 31
0.0
  0
LINE
  5
3FC
  8
0
  6
CONTINUOUS
 62
     7
 10
2838.747361647548
 20
442.9439505014369
 30
0.0
 11
2838.747361647548
 21
436.3439505014369
 31
0.0
  0
ARC
  5
3FD
  8
0
  6
CONTINUOUS
 62
     7
 10
2829.947361647548
 20
442.9439505014369
 30
0.0
 40
2.200000000000273
 50
90.0
 51
180.0
  0
LINE
  5
3FE
  8
0
  6
CONTINUOUS
 62
     7
 10
2827.747361647548
 20
441.9439505014369
 30
0.0
 11
2827.747361647548
 21
442.9439505014369
 31
0.0
  0
ARC
  5
3FF
  8
0
  6
CONTINUOUS
 62
     7
 10
2826.947361647547
 20
441.943950501437
 30
0.0
 40
0.8000000000001819
 50
270.0000000000334
 51
359.9999999999927
  0
ARC
  5
400
  8
0
  6
CONTINUOUS
 62
     7
 10
2826.947361647548
 20
440.9439505014369
 30
0.0
 40
0.2000000000002728
 50
90.0
 51
180.0
  0
LINE
  5
401
  8
0
  6
CONTINUOUS
 62
     7
 10
2826.747361647547
 20
436.8939505014368
 30
0.0
 11
2826.747361647547
 21
440.9439505014369
 31
0.0
  0
LINE
  5
402
  8
0
  6
CONTINUOUS
 62
     7
 10
2824.997361647548
 20
436.8939505014368
 30
0.0
 11
2826.747361647547
 21
436.8939505014368
 31
0.0
  0
LINE
  5
403
  8
0
  6
CONTINUOUS
 62
     7
 10
2824.997361647548
 20
441.9439505014369
 30
0.0
 11
2824.997361647548
 21
436.8939505014368
 31
0.0
  0
ARC
  5
404
  8
0
  6
CONTINUOUS
 62
     7
 10
2825.197361647547
 20
441.9439505014369
 30
0.0
 40
0.1999999999999886
 50
90.0
 51
180.0
  0
ARC
  5
405
  8
0
  6
CONTINUOUS
 62
     7
 10
2825.197361647547
 20
442.943950501437
 30
0.0
 40
0.8000000000000114
 50
270.0000000000008
 51
359.9999957311285
  0
ARC
  5
406
  8
0
  6
CONTINUOUS
 62
     7
 10
2829.947361647547
 20
442.943950501437
 30
0.0
 40
3.950000000000273
 50
89.9999999999934
 51
180.0000008645825
  0
LINE
  5
407
  8
0
  6
CONTINUOUS
 62
     7
 10
2840.497361647548
 20
436.3439505014369
 30
0.0
 11
2840.497361647548
 21
442.9439505014369
 31
0.0
  0
LINE
  5
408
  8
0
  6
CONTINUOUS
 62
     7
 10
2836.547361647547
 20
434.1439505014368
 30
0.0
 11
2835.747361647548
 21
434.1439505014368
 31
0.0
  0
ARC
  5
409
  8
0
  6
CONTINUOUS
 62
     7
 10
2836.547361647547
 20
436.3439505014367
 30
0.0
 40
3.950000000000273
 50
270.0000000000008
 51
0.0000000000024736
  0
ARC
  5
40A
  8
0
  6
CONTINUOUS
 62
     7
 10
2836.547361647547
 20
442.943950501437
 30
0.0
 40
3.950000000000273
 50
359.9999999999992
 51
90.0
  0
LINE
  5
40B
  8
0
  6
CONTINUOUS
 62
     7
 10
2836.547361647547
 20
446.8939505014368
 30
0.0
 11
2829.947361647548
 21
446.8939505014368
 31
0.0
  0
LINE
  5
40C
  8
0
  6
CONTINUOUS
 62
     7
 10
2829.947361647548
 20
445.1439505014368
 30
0.0
 11
2836.547361647547
 21
445.1439505014368
 31
0.0
  0
ARC
  5
40D
  8
0
  6
CONTINUOUS
 62
     7
 10
2836.547361647547
 20
442.9439505014369
 30
0.0
 40
2.200000000000273
 50
0.0
 51
90.0
  0
ARC
  5
40E
  8
0
  6
CONTINUOUS
 62
     7
 10
2836.547361647547
 20
436.3439505014369
 30
0.0
 40
2.200000000000273
 50
270.0000000000008
 51
0.0
  0
LINE
  5
40F
  8
0
  6
CONTINUOUS
 62
     7
 10
2835.747361647548
 20
432.3939505014368
 30
0.0
 11
2836.547361647547
 21
432.3939505014368
 31
0.0
  0
LINE
  5
410
  8
0
  6
CONTINUOUS
 62
     7
 10
2835.747361647548
 20
434.1439505014368
 30
0.0
 11
2835.747361647548
 21
432.3939505014368
 31
0.0
  0
LINE
  5
411
  8
0
  6
CONTINUOUS
 62
     7
 10
2829.947361647548
 20
446.8939505014368
 30
0.0
 11
2829.947361647548
 21
455.1939505014369
 31
0.0
  0
LINE
  5
412
  8
0
  6
CONTINUOUS
 62
     7
 10
2829.947361647548
 20
455.1939505014369
 30
0.0
 11
2836.947361647547
 21
455.1939505014369
 31
0.0
  0
LINE
  5
413
  8
0
  6
CONTINUOUS
 62
     7
 10
2836.947361647547
 20
446.8939505014368
 30
0.0
 11
2836.947361647547
 21
455.1939505014369
 31
0.0
  0
LINE
  5
414
  8
0
  6
CONTINUOUS
 62
     7
 10
2829.947361647548
 20
455.1939505014369
 30
0.0
 11
2829.947361647548
 21
458.3562281615987
 31
0.0
  0
LINE
  5
415
  8
0
  6
CONTINUOUS
 62
     7
 10
2831.605995188587
 20
458.6939505014369
 30
0.0
 11
2836.947361647547
 21
458.6939505014369
 31
0.0
  0
LINE
  5
416
  8
0
  6
CONTINUOUS
 62
     7
 10
2836.947361647547
 20
455.1939505014369
 30
0.0
 11
2836.947361647547
 21
458.693950501432
 31
0.0
  0
LINE
  5
417
  8
0
  6
CONTINUOUS
 62
     7
 10
2836.947361647547
 20
458.7542578806796
 30
0.0
 11
2836.947361647547
 21
458.6939505014673
 31
0.0
  0
LINE
  5
418
  8
0
  6
CONTINUOUS
 62
     7
 10
2832.169127575845
 20
459.7858612042349
 30
0.0
 11
2836.82559571925
 21
459.7858612042349
 31
0.0
  0
LINE
  5
419
  8
0
  6
CONTINUOUS
 62
     7
 10
2836.947361647547
 20
458.7542578806508
 30
0.0
 11
2836.947361647547
 21
459.6252794707553
 31
0.0
  0
ARC
  5
41A
  8
0
  6
CONTINUOUS
 62
     7
 10
2836.747361647548
 20
424.393982685504
 30
0.0
 40
2.150000000000449
 50
82.03046188282319
 51
171.8467960390181
  0
ARC
  5
41B
  8
0
  6
CONTINUOUS
 62
     7
 10
2833.846976919098
 20
424.8095165914368
 30
0.0
 40
0.7799999999999727
 50
270.0000000000008
 51
351.8468059898146
  0
LINE
  5
41C
  8
0
  6
CONTINUOUS
 62
     7
 10
2832.576678564131
 20
424.0295165914368
 30
0.0
 11
2833.846976919098
 21
424.0295165914368
 31
0.0
  0
ARC
  5
41D
  8
0
  6
CONTINUOUS
 62
     7
 10
2832.576678564131
 20
424.8095165914368
 30
0.0
 40
0.7800000000001148
 50
188.1532013119536
 51
270.0000000000008
  0
ARC
  5
41E
  8
0
  6
CONTINUOUS
 62
     7
 10
2829.676293835682
 20
424.3939826855041
 30
0.0
 40
2.150000000000204
 50
8.153201311965942
 51
83.81778616322987
  0
ARC
  5
41F
  8
0
  6
CONTINUOUS
 62
     7
 10
2829.991827741614
 20
427.3069430961871
 30
0.0
 40
0.7800000000000001
 50
180.0
 51
263.8177831798698
  0
LINE
  5
420
  8
0
  6
CONTINUOUS
 62
     7
 10
2829.211827741614
 20
428.5520900866865
 30
0.0
 11
2829.211827741614
 21
427.3069430961871
 31
0.0
  0
ARC
  5
421
  8
0
  6
CONTINUOUS
 62
     7
 10
2829.991827741615
 20
428.5520900866866
 30
0.0
 40
0.7800000000002001
 50
96.18221463099721
 51
180.0
  0
ARC
  5
422
  8
0
  6
CONTINUOUS
 62
     7
 10
2829.676293835682
 20
431.4650504973695
 30
0.0
 40
2.150000000000009
 50
276.1822146309804
 51
332.4088138380886
  0
LINE
  5
423
  8
0
  6
CONTINUOUS
 62
     7
 10
2832.936682367091
 20
436.7590626977798
 30
0.0
 11
2831.581784736959
 21
430.4692571326859
 31
0.0
  0
ARC
  5
424
  8
0
  6
CONTINUOUS
 62
     7
 10
2829.676293835682
 20
443.2150504973694
 30
0.0
 40
3.860000000000106
 50
267.1059658266776
 51
336.339777810982
  0
LINE
  5
425
  8
0
  6
CONTINUOUS
 62
     7
 10
2830.416497706567
 20
438.9697767327022
 30
0.0
 11
2829.481406489341
 21
439.3599734654238
 31
0.0
  0
ARC
  5
426
  8
0
  6
CONTINUOUS
 62
     7
 10
2830.801596908407
 20
439.892651916431
 30
0.0
 40
1.000000000000141
 50
247.3501010285764
 51
314.9999999999893
  0
LINE
  5
427
  8
0
  6
CONTINUOUS
 62
     7
 10
2832.6072514437
 20
440.2840928893513
 30
0.0
 11
2831.508703689593
 21
439.1855451352446
 31
0.0
  0
LINE
  5
428
  8
0
  6
CONTINUOUS
 62
     7
 10
2833.816404039529
 20
439.0749402935223
 30
0.0
 11
2832.6072514437
 21
440.2840928893513
 31
0.0
  0
LINE
  5
429
  8
0
  6
CONTINUOUS
 62
     7
 10
2832.853213384477
 20
438.1117496384704
 30
0.0
 11
2833.816404039529
 21
439.0749402935223
 31
0.0
  0
ARC
  5
42A
  8
0
  6
CONTINUOUS
 62
     7
 10
2831.085446431511
 20
439.8795165914372
 30
0.0
 40
2.499999999999943
 50
270.0000000000008
 51
314.9999999999971
  0
LINE
  5
42B
  8
0
  6
CONTINUOUS
 62
     7
 10
2830.187624868115
 20
437.3795165914368
 30
0.0
 11
2831.085446431511
 21
437.3795165914368
 31
0.0
  0
ARC
  5
42C
  8
0
  6
CONTINUOUS
 62
     7
 10
2830.187624868115
 20
439.3795165914364
 30
0.0
 40
2.0
 50
247.3501010285998
 51
270.0000000000008
  0
LINE
  5
42D
  8
0
  6
CONTINUOUS
 62
     7
 10
2828.749708699408
 20
437.8123928279879
 30
0.0
 11
2829.417426464436
 21
437.5337662239789
 31
0.0
  0
ARC
  5
42E
  8
0
  6
CONTINUOUS
 62
     7
 10
2829.211827741614
 20
438.9198430484626
 30
0.0
 40
1.199999999999882
 50
180.0
 51
247.3501010286177
  0
LINE
  5
42F
  8
0
  6
CONTINUOUS
 62
     7
 10
2828.011827741615
 20
439.897405060096
 30
0.0
 11
2828.011827741615
 21
438.9198430484627
 31
0.0
  0
ARC
  5
430
  8
0
  6
CONTINUOUS
 62
     7
 10
2829.211827741614
 20
439.8974050600961
 30
0.0
 40
1.200000000000027
 50
82.03046188280211
 51
180.0
  0
ARC
  5
431
  8
0
  6
CONTINUOUS
 62
     7
 10
2829.676293835682
 20
443.2150504973698
 30
0.0
 40
2.150000000000023
 50
262.030461882812
 51
351.846794858497
  0
ARC
  5
432
  8
0
  6
CONTINUOUS
 62
     7
 10
2832.576678564131
 20
442.7995165914369
 30
0.0
 40
0.7800000000002753
 50
90.0
 51
171.8468092438033
  0
LINE
  5
433
  8
0
  6
CONTINUOUS
 62
     7
 10
2833.846976919098
 20
443.5795165914369
 30
0.0
 11
2832.576678564131
 21
443.5795165914369
 31
0.0
  0
ARC
  5
434
  8
0
  6
CONTINUOUS
 62
     7
 10
2833.846976919098
 20
442.7995165914369
 30
0.0
 40
0.780000000000147
 50
8.153201311969374
 51
90.0
  0
ARC
  5
435
  8
0
  6
CONTINUOUS
 62
     7
 10
2836.747361647547
 20
443.2150504973695
 30
0.0
 40
2.150000000000009
 50
188.1532013119625
 51
263.8177853690212
  0
ARC
  5
436
  8
0
  6
CONTINUOUS
 62
     7
 10
2836.431827741615
 20
440.3020900866865
 30
0.0
 40
0.780000000000044
 50
0.0
 51
83.81778536900325
  0
LINE
  5
437
  8
0
  6
CONTINUOUS
 62
     7
 10
2837.211827741614
 20
439.0569430961871
 30
0.0
 11
2837.211827741614
 21
440.3020900866865
 31
0.0
  0
ARC
  5
438
  8
0
  6
CONTINUOUS
 62
     7
 10
2836.431827741615
 20
439.0569430961871
 30
0.0
 40
0.780000000000017
 50
276.1822061523962
 51
0.0
  0
ARC
  5
439
  8
0
  6
CONTINUOUS
 62
     7
 10
2836.747361647547
 20
436.1439826855042
 30
0.0
 40
2.149999999999934
 50
96.18221770693756
 51
171.8467986880368
  0
LINE
  5
43A
  8
0
  6
CONTINUOUS
 62
     7
 10
2833.211827741614
 20
429.9159862637111
 30
0.0
 11
2834.619092990153
 21
436.4488966437823
 31
0.0
  0
ARC
  5
43B
  8
0
  6
CONTINUOUS
 62
     7
 10
2829.676293835681
 20
431.4650504973699
 30
0.0
 40
3.859999999999943
 50
293.6602221890225
 51
336.3397778109762
  0
ARC
  5
43C
  8
0
  6
CONTINUOUS
 62
     7
 10
2829.676293835681
 20
424.3939826855038
 30
0.0
 40
3.859999999999943
 50
23.66022218902387
 51
66.33977781097828
  0
ARC
  5
43D
  8
0
  6
CONTINUOUS
 62
     7
 10
2835.622058574822
 20
427.7163812664427
 30
0.0
 40
0.9999999999999679
 50
67.35010102859711
 51
135.0000000000115
  0
LINE
  5
43E
  8
0
  6
CONTINUOUS
 62
     7
 10
2833.816404039529
 20
427.3249402935223
 30
0.0
 11
2834.914951793636
 21
428.423488047629
 31
0.0
  0
LINE
  5
43F
  8
0
  6
CONTINUOUS
 62
     7
 10
2832.6072514437
 20
428.5340928893514
 30
0.0
 11
2833.816404039529
 21
427.3249402935223
 31
0.0
  0
LINE
  5
440
  8
0
  6
CONTINUOUS
 62
     7
 10
2833.570442098752
 20
429.4972835444033
 30
0.0
 11
2832.6072514437
 21
428.5340928893514
 31
0.0
  0
ARC
  5
441
  8
0
  6
CONTINUOUS
 62
     7
 10
2836.236030615114
 20
428.2295165914372
 30
0.0
 40
2.000000000000057
 50
67.35010102860025
 51
90.0
  0
LINE
  5
442
  8
0
  6
CONTINUOUS
 62
     7
 10
2837.673946783822
 20
429.7966403548857
 30
0.0
 11
2837.006229018793
 21
430.0752669588948
 31
0.0
  0
ARC
  5
443
  8
0
  6
CONTINUOUS
 62
     7
 10
2837.211827741614
 20
428.6891901344111
 30
0.0
 40
1.200000000000273
 50
359.9999999999981
 51
67.35010102857578
  0
LINE
  5
444
  8
0
  6
CONTINUOUS
 62
     7
 10
2838.411827741614
 20
427.7116281227777
 30
0.0
 11
2838.411827741614
 21
428.689190134411
 31
0.0
  0
ARC
  5
445
  8
0
  6
CONTINUOUS
 62
     7
 10
2836.747361647547
 20
424.3939826855043
 30
0.0
 40
3.860000000000106
 50
87.10596582668346
 51
156.3397778109812
  0
LINE
  5
446
  8
0
  6
CONTINUOUS
 62
     7
 10
2836.007157776662
 20
428.6392564501714
 30
0.0
 11
2836.942248993888
 21
428.24905971745
 31
0.0
  0
ARC
  5
447
  8
0
  6
CONTINUOUS
 62
     7
 10
2836.747361647548
 20
436.1439826855039
 30
0.0
 40
3.860000000000209
 50
113.6602221890214
 51
170.8309952850029
  0
ARC
  5
448
  8
0
  6
CONTINUOUS
 62
     7
 10
2836.747361647548
 20
443.21505049737
 30
0.0
 40
3.860000000000243
 50
203.6602221890243
 51
246.3397778109791
  0
ARC
  5
449
  8
0
  6
CONTINUOUS
 62
     7
 10
2837.211827741614
 20
427.7116281227776
 30
0.0
 40
1.200000000000273
 50
262.0304618828244
 51
0.0000000000027141
  0
ARC
  5
44A
  8
0
  6
CONTINUOUS
 62
     7
 10
2835.338209051718
 20
427.7295165914365
 30
0.0
 40
2.500000000000342
 50
90.00000000001042
 51
135.0000000000018
  0
LINE
  5
44B
  8
0
  6
CONTINUOUS
 62
     7
 10
2836.236030615114
 20
430.2295165914368
 30
0.0
 11
2835.338209051718
 21
430.2295165914368
 31
0.0
  0
ARC
  5
44C
  8
0
  6
CONTINUOUS
 62
     7
 10
2239.247361647548
 20
424.3939826855041
 30
0.0
 40
2.150000000000023
 50
82.03046188281118
 51
171.8467960390178
  0
ARC
  5
44D
  8
0
  6
CONTINUOUS
 62
     7
 10
2236.346976919098
 20
424.8095165914368
 30
0.0
 40
0.7800000000003534
 50
270.0000000000008
 51
351.8468059898152
  0
LINE
  5
44E
  8
0
  6
CONTINUOUS
 62
     7
 10
2235.076678564131
 20
424.0295165914368
 30
0.0
 11
2236.346976919098
 21
424.0295165914368
 31
0.0
  0
ARC
  5
44F
  8
0
  6
CONTINUOUS
 62
     7
 10
2235.076678564131
 20
424.8095165914368
 30
0.0
 40
0.780000000000573
 50
188.153201311953
 51
270.0000000000008
  0
ARC
  5
450
  8
0
  6
CONTINUOUS
 62
     7
 10
2232.176293835682
 20
424.3939826855041
 30
0.0
 40
2.149999999999948
 50
8.153201311969381
 51
83.81778616322987
  0
ARC
  5
451
  8
0
  6
CONTINUOUS
 62
     7
 10
2232.491827741615
 20
427.3069430961871
 30
0.0
 40
0.7800000000000001
 50
180.0
 51
263.8177831798698
  0
LINE
  5
452
  8
0
  6
CONTINUOUS
 62
     7
 10
2231.711827741615
 20
428.5520900866866
 30
0.0
 11
2231.711827741615
 21
427.3069430961872
 31
0.0
  0
ARC
  5
453
  8
0
  6
CONTINUOUS
 62
     7
 10
2232.491827741615
 20
428.5520900866866
 30
0.0
 40
0.779999999999995
 50
96.18221463096353
 51
180.0
  0
ARC
  5
454
  8
0
  6
CONTINUOUS
 62
     7
 10
2232.176293835682
 20
431.4650504973695
 30
0.0
 40
2.150000000000009
 50
276.1822146309804
 51
332.4088138380886
  0
LINE
  5
455
  8
0
  6
CONTINUOUS
 62
     7
 10
2235.436682367091
 20
436.7590626977798
 30
0.0
 11
2234.08178473696
 21
430.469257132686
 31
0.0
  0
ARC
  5
456
  8
0
  6
CONTINUOUS
 62
     7
 10
2239.247361647548
 20
436.143982685504
 30
0.0
 40
3.860000000000209
 50
113.6602221890279
 51
170.8309952850029
  0
ARC
  5
457
  8
0
  6
CONTINUOUS
 62
     7
 10
2239.247361647548
 20
443.21505049737
 30
0.0
 40
3.860000000000221
 50
203.6602221890235
 51
246.3397778109729
  0
ARC
  5
458
  8
0
  6
CONTINUOUS
 62
     7
 10
2232.176293835682
 20
443.2150504973694
 30
0.0
 40
3.860000000000016
 50
267.1059658266776
 51
336.3397778109792
  0
LINE
  5
459
  8
0
  6
CONTINUOUS
 62
     7
 10
2232.916497706567
 20
438.9697767327023
 30
0.0
 11
2231.981406489341
 21
439.3599734654238
 31
0.0
  0
ARC
  5
45A
  8
0
  6
CONTINUOUS
 62
     7
 10
2233.301596908407
 20
439.892651916431
 30
0.0
 40
1.000000000000141
 50
247.3501010285764
 51
315.0000000000077
  0
LINE
  5
45B
  8
0
  6
CONTINUOUS
 62
     7
 10
2235.1072514437
 20
440.2840928893514
 30
0.0
 11
2234.008703689594
 21
439.1855451352446
 31
0.0
  0
LINE
  5
45C
  8
0
  6
CONTINUOUS
 62
     7
 10
2236.31640403953
 20
439.0749402935223
 30
0.0
 11
2235.1072514437
 21
440.2840928893514
 31
0.0
  0
LINE
  5
45D
  8
0
  6
CONTINUOUS
 62
     7
 10
2235.353213384477
 20
438.1117496384704
 30
0.0
 11
2236.31640403953
 21
439.0749402935223
 31
0.0
  0
ARC
  5
45E
  8
0
  6
CONTINUOUS
 62
     7
 10
2233.585446431511
 20
439.8795165914373
 30
0.0
 40
2.500000000000302
 50
270.0000000000113
 51
315.0000000000036
  0
LINE
  5
45F
  8
0
  6
CONTINUOUS
 62
     7
 10
2232.687624868115
 20
437.3795165914369
 30
0.0
 11
2233.585446431511
 21
437.3795165914369
 31
0.0
  0
ARC
  5
460
  8
0
  6
CONTINUOUS
 62
     7
 10
2232.687624868115
 20
439.3795165914364
 30
0.0
 40
2.0
 50
247.3501010286004
 51
270.0000000000008
  0
LINE
  5
461
  8
0
  6
CONTINUOUS
 62
     7
 10
2231.249708699408
 20
437.812392827988
 30
0.0
 11
2231.917426464437
 21
437.533766223979
 31
0.0
  0
ARC
  5
462
  8
0
  6
CONTINUOUS
 62
     7
 10
2231.711827741615
 20
438.9198430484626
 30
0.0
 40
1.200000000000057
 50
180.0
 51
247.3501010285977
  0
LINE
  5
463
  8
0
  6
CONTINUOUS
 62
     7
 10
2230.511827741615
 20
439.897405060096
 30
0.0
 11
2230.511827741615
 21
438.9198430484627
 31
0.0
  0
ARC
  5
464
  8
0
  6
CONTINUOUS
 62
     7
 10
2231.711827741615
 20
439.8974050600961
 30
0.0
 40
1.199999999999964
 50
82.03046188282362
 51
180.0
  0
ARC
  5
465
  8
0
  6
CONTINUOUS
 62
     7
 10
2232.176293835682
 20
443.2150504973698
 30
0.0
 40
2.150000000000086
 50
262.0304618828
 51
351.846794858497
  0
ARC
  5
466
  8
0
  6
CONTINUOUS
 62
     7
 10
2235.076678564131
 20
442.7995165914369
 30
0.0
 40
0.7800000000002671
 50
90.0
 51
171.8468092438074
  0
LINE
  5
467
  8
0
  6
CONTINUOUS
 62
     7
 10
2236.346976919098
 20
443.5795165914369
 30
0.0
 11
2235.076678564131
 21
443.5795165914369
 31
0.0
  0
ARC
  5
468
  8
0
  6
CONTINUOUS
 62
     7
 10
2236.346976919098
 20
442.7995165914369
 30
0.0
 40
0.7800000000005972
 50
8.153201311964636
 51
90.0
  0
ARC
  5
469
  8
0
  6
CONTINUOUS
 62
     7
 10
2239.247361647548
 20
443.2150504973695
 30
0.0
 40
2.150000000000172
 50
188.1532013119607
 51
263.8177853690092
  0
ARC
  5
46A
  8
0
  6
CONTINUOUS
 62
     7
 10
2238.931827741615
 20
440.3020900866866
 30
0.0
 40
0.7799999999999385
 50
0.0
 51
83.81778536903602
  0
LINE
  5
46B
  8
0
  6
CONTINUOUS
 62
     7
 10
2239.711827741615
 20
439.0569430961871
 30
0.0
 11
2239.711827741615
 21
440.3020900866866
 31
0.0
  0
ARC
  5
46C
  8
0
  6
CONTINUOUS
 62
     7
 10
2238.931827741615
 20
439.0569430961871
 30
0.0
 40
0.779999999999968
 50
276.1822061523631
 51
0.0
  0
ARC
  5
46D
  8
0
  6
CONTINUOUS
 62
     7
 10
2239.247361647548
 20
436.1439826855042
 30
0.0
 40
2.15000000000018
 50
96.18221770694946
 51
171.8467986880386
  0
LINE
  5
46E
  8
0
  6
CONTINUOUS
 62
     7
 10
2235.711827741615
 20
429.9159862637111
 30
0.0
 11
2237.119092990154
 21
436.4488966437824
 31
0.0
  0
ARC
  5
46F
  8
0
  6
CONTINUOUS
 62
     7
 10
2232.176293835682
 20
431.46505049737
 30
0.0
 40
3.859999999999943
 50
293.6602221890225
 51
336.3397778109762
  0
ARC
  5
470
  8
0
  6
CONTINUOUS
 62
     7
 10
2232.176293835682
 20
424.3939826855038
 30
0.0
 40
3.859999999999943
 50
23.66022218902464
 51
66.33977781097828
  0
ARC
  5
471
  8
0
  6
CONTINUOUS
 62
     7
 10
2239.247361647548
 20
424.3939826855043
 30
0.0
 40
3.860000000000083
 50
87.10596582668343
 51
156.3397778109819
  0
LINE
  5
472
  8
0
  6
CONTINUOUS
 62
     7
 10
2238.507157776662
 20
428.6392564501715
 30
0.0
 11
2239.442248993888
 21
428.24905971745
 31
0.0
  0
ARC
  5
473
  8
0
  6
CONTINUOUS
 62
     7
 10
2238.122058574822
 20
427.7163812664427
 30
0.0
 40
1.000000000000089
 50
67.35010102857433
 51
135.0000000000092
  0
LINE
  5
474
  8
0
  6
CONTINUOUS
 62
     7
 10
2236.31640403953
 20
427.3249402935223
 30
0.0
 11
2237.414951793636
 21
428.4234880476291
 31
0.0
  0
LINE
  5
475
  8
0
  6
CONTINUOUS
 62
     7
 10
2235.1072514437
 20
428.5340928893514
 30
0.0
 11
2236.31640403953
 21
427.3249402935223
 31
0.0
  0
LINE
  5
476
  8
0
  6
CONTINUOUS
 62
     7
 10
2236.070442098752
 20
429.4972835444033
 30
0.0
 11
2235.1072514437
 21
428.5340928893514
 31
0.0
  0
ARC
  5
477
  8
0
  6
CONTINUOUS
 62
     7
 10
2237.838209051718
 20
427.7295165914366
 30
0.0
 40
2.5
 50
90.0
 51
134.9999999999954
  0
LINE
  5
478
  8
0
  6
CONTINUOUS
 62
     7
 10
2238.736030615114
 20
430.2295165914369
 30
0.0
 11
2237.838209051718
 21
430.2295165914369
 31
0.0
  0
ARC
  5
479
  8
0
  6
CONTINUOUS
 62
     7
 10
2238.736030615114
 20
428.2295165914373
 30
0.0
 40
2.0
 50
67.35010102860025
 51
90.0
  0
LINE
  5
47A
  8
0
  6
CONTINUOUS
 62
     7
 10
2240.173946783822
 20
429.7966403548857
 30
0.0
 11
2239.506229018793
 21
430.0752669588948
 31
0.0
  0
ARC
  5
47B
  8
0
  6
CONTINUOUS
 62
     7
 10
2239.711827741615
 20
428.6891901344111
 30
0.0
 40
1.20000000000018
 50
359.9999999999981
 51
67.35010102857578
  0
LINE
  5
47C
  8
0
  6
CONTINUOUS
 62
     7
 10
2240.911827741615
 20
427.7116281227777
 30
0.0
 11
2240.911827741615
 21
428.6891901344111
 31
0.0
  0
ARC
  5
47D
  8
0
  6
CONTINUOUS
 62
     7
 10
2239.711827741615
 20
427.7116281227777
 30
0.0
 40
1.199999999999964
 50
262.0304618828244
 51
0.0
  0
LINE
  5
47E
  8
0
  6
CONTINUOUS
 62
     7
 10
2222.097361647548
 20
420.6439826855039
 30
0.0
 11
2230.297361647548
 21
420.6439826855038
 31
0.0
  0
LINE
  5
47F
  8
0
  6
CONTINUOUS
 62
     7
 10
2222.097361647548
 20
426.4455455671599
 30
0.0
 11
2222.097361647548
 21
420.6439826855039
 31
0.0
  0
ARC
  5
480
  8
0
  6
CONTINUOUS
 62
     7
 10
2226.197361647547
 20
429.6439826855038
 30
0.0
 40
5.200000000000301
 50
322.0419714193217
 51
217.9580285806861
  0
LINE
  5
481
  8
0
  6
CONTINUOUS
 62
     7
 10
2230.297361647548
 20
420.6439826855038
 30
0.0
 11
2230.297361647548
 21
426.4455455671599
 31
0.0
  0
LINE
  5
482
  8
0
  6
CONTINUOUS
 62
     7
 10
2239.247361647548
 20
422.3939826855039
 30
0.0
 11
2232.247361647548
 21
422.3939826855039
 31
0.0
  0
ARC
  5
483
  8
0
  6
CONTINUOUS
 62
     7
 10
2239.247361647548
 20
424.3939826855042
 30
0.0
 40
2.0
 50
270.0000000000138
 51
359.9999999999927
  0
LINE
  5
484
  8
0
  6
CONTINUOUS
 62
     7
 10
2241.247361647548
 20
425.3939826855039
 30
0.0
 11
2241.247361647548
 21
424.3939826855039
 31
0.0
  0
LINE
  5
485
  8
0
  6
CONTINUOUS
 62
     7
 10
2241.893794778318
 20
427.1700431154809
 30
0.0
 11
2241.247361647548
 21
425.3939826855039
 31
0.0
  0
ARC
  5
486
  8
0
  6
CONTINUOUS
 62
     7
 10
2244.712872640675
 20
426.1439826855042
 30
0.0
 40
3.000000000000155
 50
90.6529515710786
 51
160.0000000000057
  0
ARC
  5
487
  8
0
  6
CONTINUOUS
 62
     7
 10
2244.644497192081
 20
426.1439826854995
 30
0.0
 40
3.000000000000076
 50
45.00000000004836
 51
89.34704842887798
  0
LINE
  5
488
  8
0
  6
CONTINUOUS
 62
     7
 10
2247.594244660389
 20
427.4368759043169
 30
0.0
 11
2246.765817535641
 21
428.2653030290638
 31
0.0
  0
ARC
  5
489
  8
0
  6
CONTINUOUS
 62
     7
 10
2248.301351441576
 20
428.143982685507
 30
0.0
 40
1.0
 50
225.0000000001252
 51
270.0000000000008
  0
ARC
  5
48A
  8
0
  6
CONTINUOUS
 62
     7
 10
2260.247361647548
 20
428.1439826855038
 30
0.0
 40
2.75
 50
270.0000000000008
 51
0.0
  0
ARC
  5
48B
  8
0
  6
CONTINUOUS
 62
     7
 10
2248.55575480062
 20
427.893982685507
 30
0.0
 40
2.50000000000002
 50
223.1702907398628
 51
269.9999999999591
  0
LINE
  5
48C
  8
0
  6
CONTINUOUS
 62
     7
 10
2245.998533655972
 20
426.9659100281159
 30
0.0
 11
2246.732446091143
 21
426.1835601207708
 31
0.0
  0
ARC
  5
48D
  8
0
  6
CONTINUOUS
 62
     7
 10
2244.904548430286
 20
425.9396564892766
 30
0.0
 40
1.50000000000032
 50
43.17029073983317
 51
160.0000000000056
  0
LINE
  5
48E
  8
0
  6
CONTINUOUS
 62
     7
 10
2242.997361647548
 20
425.0854104692638
 30
0.0
 11
2243.495009499108
 21
426.4526867042648
 31
0.0
  0
LINE
  5
48F
  8
0
  6
CONTINUOUS
 62
     7
 10
2242.997361647548
 20
424.3939826855039
 30
0.0
 11
2242.997361647548
 21
425.0854104692638
 31
0.0
  0
ARC
  5
490
  8
0
  6
CONTINUOUS
 62
     7
 10
2239.247361647549
 20
424.3939826855023
 30
0.0
 40
3.750000000000455
 50
269.9999999999869
 51
0.0000000000243181
  0
LINE
  5
491
  8
0
  6
CONTINUOUS
 62
     7
 10
2232.247361647548
 20
420.6439826855038
 30
0.0
 11
2239.247361647548
 21
420.6439826855038
 31
0.0
  0
ARC
  5
492
  8
0
  6
CONTINUOUS
 62
     7
 10
2232.247361647546
 20
424.3939826855023
 30
0.0
 40
3.750000000000016
 50
238.6677485024181
 51
270.0000000000217
  0
ARC
  5
493
  8
0
  6
CONTINUOUS
 62
     7
 10
2232.247361647548
 20
424.3939826855042
 30
0.0
 40
2.000000000000256
 50
192.8385681409819
 51
269.9999999999878
  0
LINE
  5
494
  8
0
  6
CONTINUOUS
 62
     7
 10
2261.247361647548
 20
431.1439826855038
 30
0.0
 11
2261.247361647548
 21
428.1439826855038
 31
0.0
  0
LINE
  5
495
  8
0
  6
CONTINUOUS
 62
     7
 10
2262.997361647548
 20
431.1439826855038
 30
0.0
 11
2261.247361647548
 21
431.1439826855038
 31
0.0
  0
LINE
  5
496
  8
0
  6
CONTINUOUS
 62
     7
 10
2248.555754800619
 20
425.3939826855039
 30
0.0
 11
2260.247361647548
 21
425.3939826855039
 31
0.0
  0
ARC
  5
497
  8
0
  6
CONTINUOUS
 62
     7
 10
2260.247361647548
 20
428.1439826855031
 30
0.0
 40
1.000000000000455
 50
270.0000000000008
 51
0.0
  0
LINE
  5
498
  8
0
  6
CONTINUOUS
 62
     7
 10
2260.247361647548
 20
427.1439826855038
 30
0.0
 11
2248.301351441575
 21
427.1439826855038
 31
0.0
  0
LINE
  5
499
  8
0
  6
CONTINUOUS
 62
     7
 10
2233.097361647548
 20
434.6439826855038
 30
0.0
 11
2232.247361647548
 21
434.6439826855038
 31
0.0
  0
LINE
  5
49A
  8
0
  6
CONTINUOUS
 62
     7
 10
2233.097361647548
 20
433.1439826855039
 30
0.0
 11
2233.097361647548
 21
434.6439826855038
 31
0.0
  0
LINE
  5
49B
  8
0
  6
CONTINUOUS
 62
     7
 10
2232.247361647548
 20
433.1439826855039
 30
0.0
 11
2233.097361647548
 21
433.1439826855039
 31
0.0
  0
ARC
  5
49C
  8
0
  6
CONTINUOUS
 62
     7
 10
2232.247361647548
 20
431.1439826855036
 30
0.0
 40
2.000000000000239
 50
90.00000000001303
 51
143.2859705457059
  0
ARC
  5
49D
  8
0
  6
CONTINUOUS
 62
     7
 10
2232.247361647546
 20
430.8939826855054
 30
0.0
 40
3.750000000000189
 50
89.99999999997915
 51
134.6037559730584
  0
LINE
  5
49E
  8
0
  6
CONTINUOUS
 62
     7
 10
2229.447361647547
 20
434.8439826855038
 30
0.0
 11
2226.197361647547
 21
434.8439826855038
 31
0.0
  0
LINE
  5
49F
  8
0
  6
CONTINUOUS
 62
     7
 10
2229.447361647547
 20
433.7032313844629
 30
0.0
 11
2229.447361647547
 21
434.8439826855038
 31
0.0
  0
LINE
  5
4A0
  8
0
  6
CONTINUOUS
 62
     7
 10
2221.247361647548
 20
434.8439826855038
 30
0.0
 11
2221.247361647548
 21
431.2369359177114
 31
0.0
  0
LINE
  5
4A1
  8
0
  6
CONTINUOUS
 62
     7
 10
2226.197361647547
 20
434.8439826855038
 30
0.0
 11
2221.247361647548
 21
434.8439826855038
 31
0.0
  0
LINE
  5
4A2
  8
0
  6
CONTINUOUS
 62
     7
 10
2221.247361647548
 20
428.0510294532964
 30
0.0
 11
2221.247361647548
 21
420.6439826855039
 31
0.0
  0
LINE
  5
4A3
  8
0
  6
CONTINUOUS
 62
     7
 10
2221.247361647548
 20
420.6439826855039
 30
0.0
 11
2222.097361647548
 21
420.6439826855039
 31
0.0
  0
LINE
  5
4A4
  8
0
  6
CONTINUOUS
 62
     7
 10
2261.247361647548
 20
462.1439826855039
 30
0.0
 11
2262.997361647548
 21
462.1439826855039
 31
0.0
  0
LINE
  5
4A5
  8
0
  6
CONTINUOUS
 62
     7
 10
2261.247361647548
 20
465.1439826855038
 30
0.0
 11
2262.997361647548
 21
465.1439826855038
 31
0.0
  0
LINE
  5
4A6
  8
0
  6
CONTINUOUS
 62
     7
 10
2261.247361647548
 20
465.1439826855044
 30
0.0
 11
2261.247361647548
 21
462.1439826855039
 31
0.0
  0
LINE
  5
4A7
  8
0
  6
CONTINUOUS
 62
     7
 10
2261.247361647548
 20
462.1439826855039
 30
0.0
 11
2261.247361647548
 21
431.1439826855038
 31
0.0
  0
LINE
  5
4A8
  8
0
  6
CONTINUOUS
 62
     7
 10
2827.797361647547
 20
420.6439826855038
 30
0.0
 11
2827.797361647547
 21
426.4455455671599
 31
0.0
  0
LINE
  5
4A9
  8
0
  6
CONTINUOUS
 62
     7
 10
2819.597361647548
 20
420.6439826855039
 30
0.0
 11
2827.797361647547
 21
420.6439826855038
 31
0.0
  0
LINE
  5
4AA
  8
0
  6
CONTINUOUS
 62
     7
 10
2819.597361647548
 20
426.4455455671599
 30
0.0
 11
2819.597361647548
 21
420.6439826855039
 31
0.0
  0
ARC
  5
4AB
  8
0
  6
CONTINUOUS
 62
     7
 10
2823.697361647548
 20
429.6439826855038
 30
0.0
 40
5.200000000000336
 50
322.041971419315
 51
217.9580285806804
  0
LINE
  5
4AC
  8
0
  6
CONTINUOUS
 62
     7
 10
2839.393794778317
 20
427.1700431154808
 30
0.0
 11
2838.747361647548
 21
425.3939826855039
 31
0.0
  0
LINE
  5
4AD
  8
0
  6
CONTINUOUS
 62
     7
 10
2845.094244660389
 20
427.4368759043168
 30
0.0
 11
2844.265817535641
 21
428.2653030290638
 31
0.0
  0
ARC
  5
4AE
  8
0
  6
CONTINUOUS
 62
     7
 10
2845.801351441576
 20
428.143982685507
 30
0.0
 40
1.0
 50
225.0000000001252
 51
270.0000000000008
  0
ARC
  5
4AF
  8
0
  6
CONTINUOUS
 62
     7
 10
2846.05575480062
 20
427.893982685507
 30
0.0
 40
2.5
 50
223.1702907398709
 51
269.9999999999696
  0
LINE
  5
4B0
  8
0
  6
CONTINUOUS
 62
     7
 10
2840.497361647548
 20
425.0854104692638
 30
0.0
 11
2840.995009499107
 21
426.4526867042648
 31
0.0
  0
LINE
  5
4B1
  8
0
  6
CONTINUOUS
 62
     7
 10
2840.497361647548
 20
424.3939826855038
 30
0.0
 11
2840.497361647548
 21
425.0854104692638
 31
0.0
  0
LINE
  5
4B2
  8
0
  6
CONTINUOUS
 62
     7
 10
2829.747361647547
 20
420.6439826855038
 30
0.0
 11
2836.747361647548
 21
420.6439826855038
 31
0.0
  0
ARC
  5
4B3
  8
0
  6
CONTINUOUS
 62
     7
 10
2829.747361647546
 20
424.3939826855023
 30
0.0
 40
3.750000000000016
 50
238.6677485024181
 51
270.0000000000217
  0
ARC
  5
4B4
  8
0
  6
CONTINUOUS
 62
     7
 10
2829.747361647548
 20
424.3939826855041
 30
0.0
 40
2.0
 50
192.8385681409832
 51
269.9999999999878
  0
LINE
  5
4B5
  8
0
  6
CONTINUOUS
 62
     7
 10
2860.497361647548
 20
431.1439826855038
 30
0.0
 11
2858.747361647548
 21
431.1439826855038
 31
0.0
  0
ARC
  5
4B6
  8
0
  6
CONTINUOUS
 62
     7
 10
2857.747361647547
 20
428.1439826855038
 30
0.0
 40
2.750000000000455
 50
270.0000000000008
 51
0.0
  0
LINE
  5
4B7
  8
0
  6
CONTINUOUS
 62
     7
 10
2857.747361647547
 20
427.1439826855038
 30
0.0
 11
2845.801351441574
 21
427.1439826855038
 31
0.0
  0
ARC
  5
4B8
  8
0
  6
CONTINUOUS
 62
     7
 10
2857.747361647548
 20
428.1439826855031
 30
0.0
 40
1.0
 50
270.0000000000008
 51
0.0
  0
ARC
  5
4B9
  8
0
  6
CONTINUOUS
 62
     7
 10
2842.212872640675
 20
426.1439826855042
 30
0.0
 40
3.00000000000005
 50
90.6529515710786
 51
160.0000000000027
  0
LINE
  5
4BA
  8
0
  6
CONTINUOUS
 62
     7
 10
2858.747361647548
 20
431.1439826855038
 30
0.0
 11
2858.747361647548
 21
428.1439826855038
 31
0.0
  0
LINE
  5
4BB
  8
0
  6
CONTINUOUS
 62
     7
 10
2846.055754800619
 20
425.3939826855038
 30
0.0
 11
2857.747361647547
 21
425.3939826855038
 31
0.0
  0
ARC
  5
4BC
  8
0
  6
CONTINUOUS
 62
     7
 10
2836.747361647547
 20
424.3939826855041
 30
0.0
 40
2.0
 50
270.0000000000138
 51
359.9999999999927
  0
ARC
  5
4BD
  8
0
  6
CONTINUOUS
 62
     7
 10
2842.404548430286
 20
425.9396564892766
 30
0.0
 40
1.50000000000032
 50
43.17029073981971
 51
160.0000000000056
  0
LINE
  5
4BE
  8
0
  6
CONTINUOUS
 62
     7
 10
2838.747361647548
 20
425.3939826855039
 30
0.0
 11
2838.747361647548
 21
424.3939826855038
 31
0.0
  0
LINE
  5
4BF
  8
0
  6
CONTINUOUS
 62
     7
 10
2843.498533655972
 20
426.9659100281158
 30
0.0
 11
2844.232446091143
 21
426.1835601207708
 31
0.0
  0
ARC
  5
4C0
  8
0
  6
CONTINUOUS
 62
     7
 10
2836.747361647549
 20
424.3939826855023
 30
0.0
 40
3.749999999999943
 50
269.999999999973
 51
0.0000000000234496
  0
ARC
  5
4C1
  8
0
  6
CONTINUOUS
 62
     7
 10
2842.144497192081
 20
426.1439826854995
 30
0.0
 40
3.000000000000105
 50
45.00000000004146
 51
89.34704842888665
  0
LINE
  5
4C2
  8
0
  6
CONTINUOUS
 62
     7
 10
2836.747361647548
 20
422.3939826855038
 30
0.0
 11
2829.747361647547
 21
422.3939826855038
 31
0.0
  0
ARC
  5
4C3
  8
0
  6
CONTINUOUS
 62
     7
 10
2829.747361647546
 20
430.8939826855054
 30
0.0
 40
3.75
 50
89.99999999997915
 51
134.6037559730535
  0
LINE
  5
4C4
  8
0
  6
CONTINUOUS
 62
     7
 10
2830.597361647548
 20
433.1439826855038
 30
0.0
 11
2830.597361647548
 21
434.6439826855038
 31
0.0
  0
LINE
  5
4C5
  8
0
  6
CONTINUOUS
 62
     7
 10
2829.747361647547
 20
433.1439826855038
 30
0.0
 11
2830.597361647548
 21
433.1439826855038
 31
0.0
  0
ARC
  5
4C6
  8
0
  6
CONTINUOUS
 62
     7
 10
2829.747361647548
 20
431.1439826855036
 30
0.0
 40
2.0
 50
90.00000000001303
 51
143.2859705456994
  0
LINE
  5
4C7
  8
0
  6
CONTINUOUS
 62
     7
 10
2830.597361647548
 20
434.6439826855038
 30
0.0
 11
2829.747361647547
 21
434.6439826855038
 31
0.0
  0
LINE
  5
4C8
  8
0
  6
CONTINUOUS
 62
     7
 10
2823.697361647548
 20
434.8439826855038
 30
0.0
 11
2818.747361647548
 21
434.8439826855038
 31
0.0
  0
LINE
  5
4C9
  8
0
  6
CONTINUOUS
 62
     7
 10
2818.747361647548
 20
434.8439826855038
 30
0.0
 11
2818.747361647548
 21
431.2369359177113
 31
0.0
  0
LINE
  5
4CA
  8
0
  6
CONTINUOUS
 62
     7
 10
2826.947361647548
 20
434.8439826855038
 30
0.0
 11
2823.697361647548
 21
434.8439826855038
 31
0.0
  0
LINE
  5
4CB
  8
0
  6
CONTINUOUS
 62
     7
 10
2826.947361647548
 20
433.7032313844629
 30
0.0
 11
2826.947361647548
 21
434.8439826855038
 31
0.0
  0
LINE
  5
4CC
  8
0
  6
CONTINUOUS
 62
     7
 10
2818.747361647548
 20
428.0510294532963
 30
0.0
 11
2818.747361647548
 21
420.6439826855039
 31
0.0
  0
LINE
  5
4CD
  8
0
  6
CONTINUOUS
 62
     7
 10
2818.747361647548
 20
420.6439826855039
 30
0.0
 11
2819.597361647548
 21
420.6439826855039
 31
0.0
  0
LINE
  5
4CE
  8
0
  6
CONTINUOUS
 62
     7
 10
2858.747361647548
 20
462.1439826855038
 30
0.0
 11
2860.497361647548
 21
462.1439826855038
 31
0.0
  0
LINE
  5
4CF
  8
0
  6
CONTINUOUS
 62
     7
 10
2858.747361647548
 20
465.1439826855038
 30
0.0
 11
2860.497361647548
 21
465.1439826855038
 31
0.0
  0
LINE
  5
4D0
  8
0
  6
CONTINUOUS
 62
     7
 10
2858.747361647548
 20
465.1439826855044
 30
0.0
 11
2858.747361647548
 21
462.1439826855038
 31
0.0
  0
LINE
  5
4D1
  8
0
  6
CONTINUOUS
 62
     7
 10
2858.747361647548
 20
462.1439826855038
 30
0.0
 11
2858.747361647548
 21
431.1439826855038
 31
0.0
  0
LINE
  5
4D2
  8
0
  6
CONTINUOUS
 62
     7
 10
2304.897361647548
 20
446.8939505014368
 30
0.0
 11
2304.897361647548
 21
452.8939505014368
 31
0.0
  0
LINE
  5
4D3
  8
0
  6
CONTINUOUS
 62
     7
 10
2845.897361647547
 20
452.8939505014368
 30
0.0
 11
2845.897361647547
 21
446.8939505014368
 31
0.0
  0
LINE
  5
4D4
  8
0
  6
CONTINUOUS
 62
     7
 10
1707.397361647548
 20
446.8939505014368
 30
0.0
 11
1707.397361647548
 21
452.8939505014368
 31
0.0
  0
LINE
  5
4D5
  8
0
  6
CONTINUOUS
 62
     7
 10
2248.397361647548
 20
452.8939505014368
 30
0.0
 11
2248.397361647548
 21
446.8939505014368
 31
0.0
  0
ARC
  5
4D6
  8
0
  6
CONTINUOUS
 62
     7
 10
2236.997361647548
 20
457.8939505014369
 30
0.0
 40
3.000000000000455
 50
0.0
 51
171.1358288719073
  0
POLYLINE
  5
4D7
  8
0
  6
CONTINUOUS
 62
     7
 66
     1
 10
0.0
 20
0.0
 30
0.0
 70
   128
  0
VERTEX
  5
750
  8
0
  6
CONTINUOUS
 62
     7
 10
2239.447361647548
 20
456.1626215321185
 30
0.0
  0
VERTEX
  5
751
  8
0
  6
CONTINUOUS
 62
     7
 10
2239.816439509906
 20
456.8678900714599
 30
0.0
  0
VERTEX
  5
752
  8
0
  6
CONTINUOUS
 62
     7
 10
2239.997361647548
 20
457.8939505014369
 30
0.0
  0
SEQEND
  5
75C
  8
0
  6
CONTINUOUS
 62
     7
  0
ARC
  5
4D8
  8
0
  6
CONTINUOUS
 62
     7
 10
1718.997361647549
 20
457.8939505014369
 30
0.0
 40
3.000000000000227
 50
8.864171128070303
 51
180.0
  0
ARC
  5
4D9
  8
0
  6
CONTINUOUS
 62
     7
 10
1718.997361647549
 20
457.8939505014369
 30
0.0
 40
3.000000000000227
 50
180.0
 51
226.8953261800903
  0
LINE
  5
4DA
  8
0
  6
CONTINUOUS
 62
     7
 10
1712.997361647549
 20
452.8939505014368
 30
0.0
 11
1712.997361647549
 21
446.8939505014368
 31
0.0
  0
LINE
  5
4DB
  8
0
  6
CONTINUOUS
 62
     7
 10
1762.997361647544
 20
536.8939505014368
 30
0.0
 11
2192.997361647545
 21
536.8939505014368
 31
0.0
  0
LINE
  5
4DC
  8
0
  6
CONTINUOUS
 62
     7
 10
2242.997361647548
 20
452.8939505014368
 30
0.0
 11
2242.997361647548
 21
446.8939505014368
 31
0.0
  0
LINE
  5
4DD
  8
0
  6
CONTINUOUS
 62
     7
 10
2242.997361647548
 20
446.8939505014368
 30
0.0
 11
2239.447361647548
 21
446.8939505014368
 31
0.0
  0
LINE
  5
4DE
  8
0
  6
CONTINUOUS
 62
     7
 10
2232.447361647548
 20
446.8939505014368
 30
0.0
 11
2222.997361647548
 21
446.8939505014368
 31
0.0
  0
LINE
  5
4DF
  8
0
  6
CONTINUOUS
 62
     7
 10
2222.997361647548
 20
446.8939505014368
 30
0.0
 11
2222.997361647548
 21
436.8939505014368
 31
0.0
  0
LINE
  5
4E0
  8
0
  6
CONTINUOUS
 62
     7
 10
1732.997361647549
 20
436.8939505014368
 30
0.0
 11
2222.997361647548
 21
436.8939505014368
 31
0.0
  0
LINE
  5
4E1
  8
0
  6
CONTINUOUS
 62
     7
 10
1732.997361647549
 20
446.8939505014368
 30
0.0
 11
1732.997361647549
 21
436.8939505014368
 31
0.0
  0
LINE
  5
4E2
  8
0
  6
CONTINUOUS
 62
     7
 10
1712.997361647549
 20
446.8939505014368
 30
0.0
 11
1716.947361647548
 21
446.8939505014368
 31
0.0
  0
LINE
  5
4E3
  8
0
  6
CONTINUOUS
 62
     7
 10
1723.947361647548
 20
446.8939505014368
 30
0.0
 11
1732.997361647549
 21
446.8939505014368
 31
0.0
  0
ARC
  5
4E4
  8
0
  6
CONTINUOUS
 62
     7
 10
2834.497361647548
 20
457.8939505014369
 30
0.0
 40
3.000000000000455
 50
0.0
 51
171.1358288719098
  0
POLYLINE
  5
4E5
  8
0
  6
CONTINUOUS
 62
     7
 66
     1
 10
0.0
 20
0.0
 30
0.0
 70
   128
  0
VERTEX
  5
753
  8
0
  6
CONTINUOUS
 62
     7
 10
2836.947361647547
 20
456.1626215321183
 30
0.0
  0
VERTEX
  5
754
  8
0
  6
CONTINUOUS
 62
     7
 10
2837.316439509906
 20
456.8678900714598
 30
0.0
  0
VERTEX
  5
755
  8
0
  6
CONTINUOUS
 62
     7
 10
2837.497361647548
 20
457.8939505014369
 30
0.0
  0
SEQEND
  5
75D
  8
0
  6
CONTINUOUS
 62
     7
  0
ARC
  5
4E6
  8
0
  6
CONTINUOUS
 62
     7
 10
2316.497361647548
 20
457.8939505014369
 30
0.0
 40
2.999999999999958
 50
8.864171128070973
 51
180.0
  0
ARC
  5
4E7
  8
0
  6
CONTINUOUS
 62
     7
 10
2316.497361647548
 20
457.8939505014369
 30
0.0
 40
3.000000000000076
 50
180.0
 51
226.8953261800896
  0
LINE
  5
4E8
  8
0
  6
CONTINUOUS
 62
     7
 10
2310.497361647549
 20
452.8939505014368
 30
0.0
 11
2310.497361647549
 21
446.8939505014368
 31
0.0
  0
LINE
  5
4E9
  8
0
  6
CONTINUOUS
 62
     7
 10
2310.497361647548
 20
536.8939505014368
 30
0.0
 11
2561.246086133438
 21
536.8939505014368
 31
0.0
  0
LINE
  5
4EA
  8
0
  6
CONTINUOUS
 62
     7
 10
2561.246086133438
 20
536.8939505014368
 30
0.0
 11
2790.497361647545
 21
536.8939505014368
 31
0.0
  0
LINE
  5
4EB
  8
0
  6
CONTINUOUS
 62
     7
 10
2840.497361647548
 20
452.8939505014368
 30
0.0
 11
2840.497361647548
 21
446.8939505014368
 31
0.0
  0
LINE
  5
4EC
  8
0
  6
CONTINUOUS
 62
     7
 10
2840.497361647548
 20
446.8939505014368
 30
0.0
 11
2836.947361647547
 21
446.8939505014368
 31
0.0
  0
LINE
  5
4ED
  8
0
  6
CONTINUOUS
 62
     7
 10
2829.947361647548
 20
446.8939505014368
 30
0.0
 11
2820.497361647548
 21
446.8939505014368
 31
0.0
  0
LINE
  5
4EE
  8
0
  6
CONTINUOUS
 62
     7
 10
2820.497361647548
 20
446.8939505014368
 30
0.0
 11
2820.497361647548
 21
436.8939505014368
 31
0.0
  0
LINE
  5
4EF
  8
0
  6
CONTINUOUS
 62
     7
 10
2253.517361647549
 20
436.8939505014368
 30
0.0
 11
2561.246086133438
 21
436.8939505014368
 31
0.0
  0
LINE
  5
4F0
  8
0
  6
CONTINUOUS
 62
     7
 10
2561.246086133438
 20
436.8939505014368
 30
0.0
 11
2820.497361647548
 21
436.8939505014368
 31
0.0
  0
LINE
  5
4F1
  8
0
  6
CONTINUOUS
 62
     7
 10
2330.497361647549
 20
446.8939505014368
 30
0.0
 11
2330.497361647549
 21
436.8939505014368
 31
0.0
  0
LINE
  5
4F2
  8
0
  6
CONTINUOUS
 62
     7
 10
2310.497361647549
 20
446.8939505014368
 30
0.0
 11
2314.447361647547
 21
446.8939505014368
 31
0.0
  0
LINE
  5
4F3
  8
0
  6
CONTINUOUS
 62
     7
 10
2321.447361647548
 20
446.8939505014368
 30
0.0
 11
2330.497361647549
 21
446.8939505014368
 31
0.0
  0
LINE
  5
4F4
  8
0
  6
CONTINUOUS
 62
     7
 10
1700.497361647548
 20
473.3939826854833
 30
0.0
 11
1700.497361647548
 21
436.8939505014368
 31
0.0
  0
LINE
  5
4F5
  8
0
  6
CONTINUOUS
 62
     7
 10
1712.997361647548
 20
473.3939826854834
 30
0.0
 11
1712.997361647548
 21
452.8939505014368
 31
0.0
  0
LINE
  5
4F6
  8
0
  6
CONTINUOUS
 62
     7
 10
1706.997361647548
 20
452.8939505014368
 30
0.0
 11
1706.997361647548
 21
446.8939505014368
 31
0.0
  0
LINE
  5
4F7
  8
0
  6
CONTINUOUS
 62
     7
 10
1712.997361647548
 20
446.8939505014368
 30
0.0
 11
1712.997361647548
 21
442.943950501437
 31
0.0
  0
LINE
  5
4F8
  8
0
  6
CONTINUOUS
 62
     7
 10
1700.497361647548
 20
436.8939505014368
 30
0.0
 11
1712.997361647548
 21
436.8939505014368
 31
0.0
  0
LINE
  5
4F9
  8
0
  6
CONTINUOUS
 62
     7
 10
1706.997361647548
 20
452.8939505014368
 30
0.0
 11
1712.997361647548
 21
452.8939505014368
 31
0.0
  0
LINE
  5
4FA
  8
0
  6
CONTINUOUS
 62
     7
 10
1706.997361647548
 20
446.8939505014368
 30
0.0
 11
1712.997361647548
 21
446.8939505014368
 31
0.0
  0
LINE
  5
4FB
  8
0
  6
CONTINUOUS
 62
     7
 10
2304.497361647548
 20
446.8939505014368
 30
0.0
 11
2310.497361647548
 21
446.8939505014368
 31
0.0
  0
LINE
  5
4FC
  8
0
  6
CONTINUOUS
 62
     7
 10
2310.497361647548
 20
446.8939505014368
 30
0.0
 11
2310.497361647548
 21
442.943950501437
 31
0.0
  0
LINE
  5
4FD
  8
0
  6
CONTINUOUS
 62
     7
 10
2297.997361647548
 20
436.8939505014368
 30
0.0
 11
2310.497361647548
 21
436.8939505014368
 31
0.0
  0
LINE
  5
4FE
  8
0
  6
CONTINUOUS
 62
     7
 10
2297.997361647548
 20
536.8939505014368
 30
0.0
 11
2310.497361647548
 21
536.8939505014368
 31
0.0
  0
LINE
  5
4FF
  8
0
  6
CONTINUOUS
 62
     7
 10
2304.497361647548
 20
452.8939505014368
 30
0.0
 11
2310.497361647548
 21
452.8939505014368
 31
0.0
  0
LINE
  5
500
  8
0
  6
CONTINUOUS
 62
     7
 10
2304.497361647548
 20
452.8939505014368
 30
0.0
 11
2304.497361647548
 21
446.8939505014368
 31
0.0
  0
LINE
  5
501
  8
0
  6
CONTINUOUS
 62
     7
 10
2310.497361647548
 20
536.8939505014368
 30
0.0
 11
2310.497361647548
 21
452.8939505014368
 31
0.0
  0
LINE
  5
502
  8
0
  6
CONTINUOUS
 62
     7
 10
2297.997361647548
 20
536.8939505014368
 30
0.0
 11
2297.997361647548
 21
436.8939505014368
 31
0.0
  0
LINE
  5
503
  8
0
  6
CONTINUOUS
 62
     7
 10
2255.497361647548
 20
473.3939826855038
 30
0.0
 11
2255.497361647548
 21
436.8939505014368
 31
0.0
  0
LINE
  5
504
  8
0
  6
CONTINUOUS
 62
     7
 10
2242.997361647548
 20
446.8939505014368
 30
0.0
 11
2242.997361647548
 21
442.9439505014369
 31
0.0
  0
LINE
  5
505
  8
0
  6
CONTINUOUS
 62
     7
 10
2248.797361647548
 20
446.8939505014368
 30
0.0
 11
2242.997361647548
 21
446.8939505014368
 31
0.0
  0
LINE
  5
506
  8
0
  6
CONTINUOUS
 62
     7
 10
2248.797361647548
 20
446.8939505014368
 30
0.0
 11
2248.797361647548
 21
452.8939505014368
 31
0.0
  0
LINE
  5
507
  8
0
  6
CONTINUOUS
 62
     7
 10
2248.797361647548
 20
452.8939505014368
 30
0.0
 11
2242.997361647548
 21
452.8939505014368
 31
0.0
  0
LINE
  5
508
  8
0
  6
CONTINUOUS
 62
     7
 10
2242.997361647548
 20
473.3939826855038
 30
0.0
 11
2242.997361647548
 21
452.8939505014368
 31
0.0
  0
LINE
  5
509
  8
0
  6
CONTINUOUS
 62
     7
 10
2242.997361647548
 20
436.8939505014368
 30
0.0
 11
2255.497361647548
 21
436.8939505014368
 31
0.0
  0
LINE
  5
50A
  8
0
  6
CONTINUOUS
 62
     7
 10
2840.497361647548
 20
446.8939505014368
 30
0.0
 11
2840.497361647548
 21
442.943950501437
 31
0.0
  0
LINE
  5
50B
  8
0
  6
CONTINUOUS
 62
     7
 10
2846.297361647548
 20
446.8939505014368
 30
0.0
 11
2840.497361647548
 21
446.8939505014368
 31
0.0
  0
LINE
  5
50C
  8
0
  6
CONTINUOUS
 62
     7
 10
2846.297361647548
 20
446.8939505014368
 30
0.0
 11
2846.297361647548
 21
452.8939505014368
 31
0.0
  0
LINE
  5
50D
  8
0
  6
CONTINUOUS
 62
     7
 10
2846.297361647548
 20
452.8939505014368
 30
0.0
 11
2840.497361647548
 21
452.8939505014368
 31
0.0
  0
LINE
  5
50E
  8
0
  6
CONTINUOUS
 62
     7
 10
2840.497361647548
 20
473.3939826855039
 30
0.0
 11
2840.497361647548
 21
452.8939505014368
 31
0.0
  0
LINE
  5
50F
  8
0
  6
CONTINUOUS
 62
     7
 10
2852.997361647548
 20
473.3939826855039
 30
0.0
 11
2852.997361647548
 21
436.8939505014368
 31
0.0
  0
LINE
  5
510
  8
0
  6
CONTINUOUS
 62
     7
 10
2840.497361647548
 20
436.8939505014368
 30
0.0
 11
2852.997361647548
 21
436.8939505014368
 31
0.0
  0
LINE
  5
511
  8
0
  6
CONTINUOUS
 62
     7
 10
2192.997361647544
 20
567.8939826855018
 30
0.0
 11
1762.997361647541
 21
567.8939826855018
 31
0.0
  0
LINE
  5
512
  8
0
  6
CONTINUOUS
 62
     7
 10
2790.497361647544
 20
567.893982685502
 30
0.0
 11
2561.246086133436
 21
567.893982685502
 31
0.0
  0
LINE
  5
513
  8
0
  6
CONTINUOUS
 62
     7
 10
2561.246086133436
 20
567.893982685502
 30
0.0
 11
2290.497361647544
 21
567.893982685502
 31
0.0
  0
LINE
  5
514
  8
0
  6
CONTINUOUS
 62
     7
 10
1713.497361647541
 20
573.3939826855039
 30
0.0
 11
1718.497361647541
 21
573.3939826855039
 31
0.0
  0
LINE
  5
515
  8
0
  6
CONTINUOUS
 62
     7
 10
1743.497361647542
 20
573.3939826855039
 30
0.0
 11
1748.497361647541
 21
573.3939826855039
 31
0.0
  0
LINE
  5
516
  8
0
  6
CONTINUOUS
 62
     7
 10
1762.997361647542
 20
573.3939826855039
 30
0.0
 11
2192.997361647544
 21
573.3939826855039
 31
0.0
  0
LINE
  5
517
  8
0
  6
CONTINUOUS
 62
     7
 10
2207.497361647543
 20
573.3939826855039
 30
0.0
 11
2212.497361647544
 21
573.3939826855039
 31
0.0
  0
LINE
  5
518
  8
0
  6
CONTINUOUS
 62
     7
 10
2237.497361647544
 20
573.3939826855039
 30
0.0
 11
2242.497361647544
 21
573.3939826855039
 31
0.0
  0
LINE
  5
519
  8
0
  6
CONTINUOUS
 62
     7
 10
2262.997361647548
 20
415.3939826855039
 30
0.0
 11
2262.997361647548
 21
623.3939826855039
 31
0.0
  0
LINE
  5
51A
  8
0
  6
CONTINUOUS
 62
     7
 10
2290.497361647548
 20
623.3939826855039
 30
0.0
 11
2290.497361647548
 21
415.3939826855039
 31
0.0
  0
LINE
  5
51B
  8
0
  6
CONTINUOUS
 62
     7
 10
2290.497361647548
 20
415.3939826855039
 30
0.0
 11
2262.997361647548
 21
415.3939826855039
 31
0.0
  0
LINE
  5
51C
  8
0
  6
CONTINUOUS
 62
     7
 10
2262.997361647548
 20
623.3939826855039
 30
0.0
 11
2290.497361647548
 21
623.3939826855039
 31
0.0
  0
LINE
  5
51D
  8
0
  6
CONTINUOUS
 62
     7
 10
1675.497361647548
 20
623.3939826855039
 30
0.0
 11
1692.997361647548
 21
623.3939826855039
 31
0.0
  0
LINE
  5
51E
  8
0
  6
CONTINUOUS
 62
     7
 10
1692.997361647548
 20
623.3939826855039
 30
0.0
 11
1692.997361647548
 21
397.3939826855039
 31
0.0
  0
LINE
  5
51F
  8
0
  6
CONTINUOUS
 62
     7
 10
1692.997361647548
 20
397.3939826855039
 30
0.0
 11
1675.497361647548
 21
397.3939826855039
 31
0.0
  0
LINE
  5
520
  8
0
  6
CONTINUOUS
 62
     7
 10
1675.497361647548
 20
397.3939826855039
 30
0.0
 11
1675.497361647548
 21
623.3939826855039
 31
0.0
  0
LINE
  5
521
  8
0
  6
CONTINUOUS
 62
     7
 10
1692.997361647547
 20
398.3939826855039
 30
0.0
 11
2561.246086133438
 21
398.3939826855039
 31
0.0
  0
LINE
  5
522
  8
0
  6
CONTINUOUS
 62
     7
 10
2561.246086133437
 20
398.3939826855039
 30
0.0
 11
2860.497361647548
 21
398.3939826855039
 31
0.0
  0
LINE
  5
523
  8
0
  6
CONTINUOUS
 62
     7
 10
1692.997361647547
 20
415.3939826855039
 30
0.0
 11
2262.997361647545
 21
415.3939826855039
 31
0.0
  0
LINE
  5
524
  8
0
  6
CONTINUOUS
 62
     7
 10
2213.517361647545
 20
415.3939826855039
 30
0.0
 11
2561.246086133438
 21
415.3939826855039
 31
0.0
  0
LINE
  5
525
  8
0
  6
CONTINUOUS
 62
     7
 10
2561.246086133437
 20
415.3939826855039
 30
0.0
 11
2860.497361647548
 21
415.3939826855039
 31
0.0
  0
LINE
  5
526
  8
0
  6
CONTINUOUS
 62
     7
 10
2290.497361647548
 20
573.3939826855039
 30
0.0
 11
2561.246086133436
 21
573.3939826855039
 31
0.0
  0
LINE
  5
527
  8
0
  6
CONTINUOUS
 62
     7
 10
2561.246086133437
 20
573.3939826855039
 30
0.0
 11
2790.497361647544
 21
573.3939826855039
 31
0.0
  0
LINE
  5
528
  8
0
  6
CONTINUOUS
 62
     7
 10
2804.997361647544
 20
573.3939826855039
 30
0.0
 11
2809.997361647543
 21
573.3939826855039
 31
0.0
  0
LINE
  5
529
  8
0
  6
CONTINUOUS
 62
     7
 10
2834.997361647544
 20
573.3939826855039
 30
0.0
 11
2839.997361647544
 21
573.3939826855039
 31
0.0
  0
LINE
  5
52A
  8
0
  6
CONTINUOUS
 62
     7
 10
1674.247361647548
 20
623.3939826855039
 30
0.0
 11
1674.247361647548
 21
647.393982685504
 31
0.0
  0
LINE
  5
52B
  8
0
  6
CONTINUOUS
 62
     7
 10
1674.247361647548
 20
647.393982685504
 30
0.0
 11
2879.247361647548
 21
647.393982685504
 31
0.0
  0
LINE
  5
52C
  8
0
  6
CONTINUOUS
 62
     7
 10
2879.247361647548
 20
623.3939826855039
 30
0.0
 11
2879.247361647548
 21
647.393982685504
 31
0.0
  0
LINE
  5
52D
  8
0
  6
CONTINUOUS
 62
     7
 10
1674.247361647548
 20
623.3939826855039
 30
0.0
 11
2879.247361647548
 21
623.3939826855039
 31
0.0
  0
LINE
  5
52E
  8
0
  6
CONTINUOUS
 62
     7
 10
2860.497361647548
 20
397.3939826855039
 30
0.0
 11
2860.497361647548
 21
623.3939826855039
 31
0.0
  0
LINE
  5
52F
  8
0
  6
CONTINUOUS
 62
     7
 10
2877.997361647548
 20
623.3939826855039
 30
0.0
 11
2877.997361647548
 21
397.3939826855039
 31
0.0
  0
LINE
  5
530
  8
0
  6
CONTINUOUS
 62
     7
 10
2877.997361647548
 20
397.3939826855039
 30
0.0
 11
2860.497361647548
 21
397.3939826855039
 31
0.0
  0
LINE
  5
531
  8
0
  6
CONTINUOUS
 62
     7
 10
2860.497361647548
 20
623.3939826855039
 30
0.0
 11
2877.997361647548
 21
623.3939826855039
 31
0.0
  0
LINE
  5
53A
  8
0
  6
CONTINUOUS
 62
     8
 10
1762.997361647541
 20
568.5939826855039
 30
0.0
 11
2192.997361647544
 21
568.5939826855039
 31
0.0
  0
LINE
  5
53B
  8
0
  6
CONTINUOUS
 62
     8
 10
2290.497361647544
 20
568.5939826855039
 30
0.0
 11
2561.246086133436
 21
568.5939826855039
 31
0.0
  0
LINE
  5
53C
  8
0
  6
CONTINUOUS
 62
     8
 10
2561.246086133436
 20
568.5939826855039
 30
0.0
 11
2790.497361647544
 21
568.5939826855039
 31
0.0
  0
LINE
  5
53D
  8
0
  6
CONTINUOUS
 62
     8
 10
2314.447361647547
 20
458.7542578806509
 30
0.0
 11
2319.371360814784
 21
458.7542578806509
 31
0.0
  0
LINE
  5
53E
  8
0
  6
CONTINUOUS
 62
     8
 10
1716.947361647548
 20
458.7542578806509
 30
0.0
 11
1721.871360814784
 21
458.7542578806509
 31
0.0
  0
LINE
  5
53F
  8
0
  6
CONTINUOUS
 62
     8
 10
2234.123362480313
 20
458.7542578806509
 30
0.0
 11
2239.447361647548
 21
458.7542578806509
 31
0.0
  0
LINE
  5
540
  8
0
  6
CONTINUOUS
 62
     8
 10
2831.623362480312
 20
458.7542578806508
 30
0.0
 11
2836.947361647547
 21
458.7542578806508
 31
0.0
  0
ENDSEC
  0
EOF
