  0
SECTION
  2
HEADER
  9
$ACADVER
  1
AC1006
  9
$DWGCODEPAGE
  3
ansi_932
  9
$INSBASE
 10
0.0
 20
0.0
 30
0.0
  9
$EXTMIN
 10
468.8870793538676
 20
165.7088516276313
  9
$EXTMAX
 10
4839.484712179223
 20
3280.431146134536
  9
$LIMMIN
 10
0.0
 20
0.0
  9
$LIMMAX
 10
5000.0
 20
3500.0
  9
$ORTHOMODE
 70
     0
  9
$REGENMODE
 70
     1
  9
$FILLMODE
 70
     1
  9
$QTEXTMODE
 70
     0
  9
$MIRRTEXT
 70
     1
  9
$DRAGMODE
 70
     2
  9
$LTSCALE
 40
1.0
  9
$OSMODE
 70
    37
  9
$ATTMODE
 70
     1
  9
$TEXTSIZE
 40
3.5
  9
$TRACEWID
 40
1.0
  9
$TEXTSTYLE
  7
STANDARD
  9
$CLAYER
  8
0
  9
$CELTYPE
  6
BYLAYER
  9
$CECOLOR
 62
   256
  9
$DIMSCALE
 40
1.0
  9
$DIMASZ
 40
3.302
  9
$DIMEXO
 40
1.0
  9
$DIMDLI
 40
3.75
  9
$DIMRND
 40
0.0
  9
$DIMDLE
 40
0.0
  9
$DIMEXE
 40
1.0
  9
$DIMTP
 40
0.0
  9
$DIMTM
 40
0.0
  9
$DIMTXT
 40
3.5
  9
$DIMCEN
 40
2.5
  9
$DIMTSZ
 40
0.0
  9
$DIMTOL
 70
     0
  9
$DIMLIM
 70
     0
  9
$DIMTIH
 70
     1
  9
$DIMTOH
 70
     1
  9
$DIMSE1
 70
     0
  9
$DIMSE2
 70
     0
  9
$DIMTAD
 70
     1
  9
$DIMZIN
 70
     0
  9
$DIMBLK
  1

  9
$DIMASO
 70
     1
  9
$DIMSHO
 70
     1
  9
$DIMPOST
  1

  9
$DIMAPOST
  1

  9
$DIMALT
 70
     0
  9
$DIMALTD
 70
     3
  9
$DIMALTF
 40
0.0393700787401575
  9
$DIMLFAC
 40
1.0
  9
$DIMTOFL
 70
     1
  9
$DIMTVP
 40
0.0
  9
$DIMTIX
 70
     0
  9
$DIMSOXD
 70
     0
  9
$DIMSAH
 70
     0
  9
$DIMBLK1
  1

  9
$DIMBLK2
  1

  9
$LUNITS
 70
     2
  9
$LUPREC
 70
     3
  9
$SKETCHINC
 40
1.0
  9
$FILLETRAD
 40
10.0
  9
$AUNITS
 70
     0
  9
$AUPREC
 70
     2
  9
$MENU
  1
.
  9
$ELEVATION
 40
0.0
  9
$THICKNESS
 40
0.0
  9
$LIMCHECK
 70
     0
  9
$CHAMFERA
 40
0.0
  9
$CHAMFERB
 40
0.0
  9
$SKPOLY
 70
     0
  9
$TDCREATE
 40
2459847.203402361
  9
$TDUPDATE
 40
2460140.102636817
  9
$TDINDWG
 40
0.0013666204
  9
$TDUSRTIMER
 40
0.0013666204
  9
$USRTIMER
 70
     1
  9
$ANGBASE
 50
0.0
  9
$ANGDIR
 70
     0
  9
$PDMODE
 70
     0
  9
$PDSIZE
 40
-1.0
  9
$PLINEWID
 40
0.0
  9
$COORDS
 70
     1
  9
$SPLFRAME
 70
     0
  9
$SPLINETYPE
 70
     6
  9
$SPLINESEGS
 70
     8
  9
$ATTDIA
 70
     0
  9
$ATTREQ
 70
     1
  9
$HANDLING
 70
     1
  9
$HANDSEED
  5
6DE
  9
$SURFTAB1
 70
     6
  9
$SURFTAB2
 70
     6
  9
$SURFTYPE
 70
     6
  9
$SURFU
 70
     6
  9
$SURFV
 70
     6
  9
$UCSNAME
  2

  9
$UCSORG
 10
0.0
 20
0.0
 30
0.0
  9
$UCSXDIR
 10
1.0
 20
0.0
 30
0.0
  9
$UCSYDIR
 10
0.0
 20
1.0
 30
0.0
  9
$USERI1
 70
     0
  9
$USERI2
 70
     0
  9
$USERI3
 70
     0
  9
$USERI4
 70
     0
  9
$USERI5
 70
     0
  9
$USERR1
 40
0.0
  9
$USERR2
 40
0.0
  9
$USERR3
 40
0.0
  9
$USERR4
 40
0.0
  9
$USERR5
 40
0.0
  9
$WORLDVIEW
 70
     1
  0
ENDSEC
  0
SECTION
  2
TABLES
  0
TABLE
  2
VPORT
 70
     1
  0
VPORT
  2
*ACTIVE
 70
     0
 10
0.0
 20
0.0
 11
1.0
 21
1.0
 12
3022.741775528458
 22
1736.33585927201
 13
0.0
 23
0.0
 14
10.0
 24
10.0
 15
10.0
 25
10.0
 16
0.0
 26
0.0
 36
1.0
 17
0.0
 27
0.0
 37
0.0
 40
3527.76080000007
 41
2.235364396654719
 42
50.0
 43
0.0
 44
0.0
 50
0.0
 51
0.0
 71
     0
 72
  2000
 73
     1
 74
     3
 75
     0
 76
     0
 77
     0
 78
     0
  0
ENDTAB
  0
TABLE
  2
LTYPE
 70
     6
  0
LTYPE
  2
CONTINUOUS
 70
     0
  3
Solid line
 72
    65
 73
     0
 40
0.0
  0
LTYPE
  2
HIDDEN
 70
     0
  3
Hidden __ __ __ __ __ __ __ __ __ __ __ __ __ __
 72
    65
 73
     2
 40
1.905
 49
1.27
 49
-0.635
  0
LTYPE
  2
PHANTOM
 70
     0
  3
Phantom ______  __  __  ______  __  __  ______
 72
    65
 73
     6
 40
12.7
 49
6.35
 49
-1.27
 49
1.27
 49
-1.27
 49
1.27
 49
-1.27
  0
LTYPE
  2
CENTER
 70
     0
  3
Center ____ _ ____ _ ____ _ ____ _ ____ _ ____
 72
    65
 73
     4
 40
10.16
 49
6.35
 49
-1.27
 49
1.27
 49
-1.27
  0
LTYPE
  2
CENTERX2
 70
     0
  3
Center (2x) ________  __  ________  __  _____
 72
    65
 73
     4
 40
20.32
 49
12.7
 49
-2.54
 49
2.54
 49
-2.54
  0
LTYPE
  2
DOT2
 70
     0
  3
Dot (.5x) ........................................
 72
    65
 73
     2
 40
0.635
 49
0.0
 49
-0.635
  0
ENDTAB
  0
TABLE
  2
LAYER
 70
     4
  0
LAYER
  2
0
 70
     0
 62
     7
  6
CONTINUOUS
  0
LAYER
  2
SLD-0
 70
     0
 62
   179
  6
CONTINUOUS
  0
LAYER
  2
寸法
 70
     0
 62
   179
  6
CONTINUOUS
  0
LAYER
  2
DEFPOINTS
 70
     0
 62
     7
  6
CONTINUOUS
  0
ENDTAB
  0
TABLE
  2
STYLE
 70
     2
  0
STYLE
  2
STANDARD
 70
     0
 40
0.0
 41
1.0
 50
0.0
 71
     0
 42
3.5
  3
txt
  4
bigfont
  0
STYLE
  2
SLDTEXTSTYLE0
 70
     0
 40
0.0
 41
0.75
 50
0.0
 71
     0
 42
3.5
  3
TXT
  4
bigfont
  0
ENDTAB
  0
TABLE
  2
VIEW
 70
     0
  0
ENDTAB
  0
TABLE
  2
UCS
 70
     0
  0
ENDTAB
  0
ENDSEC
  0
SECTION
  2
BLOCKS
  0
ENDSEC
  0
SECTION
  2
ENTITIES
  0
LINE
  5
75
  8
0
  6
CONTINUOUS
 62
     7
 10
4839.484712179223
 20
284.470902007842
 30
0.0
 11
3312.374599790194
 21
284.4709020078419
 31
0.0
  0
TEXT
  5
77
  8
0
  6
CONTINUOUS
 62
     7
 10
1403.679317180367
 20
3227.514479467869
 30
0.0
 40
52.91666666666666
  1
＜上面＞
 41
0.75
  7
SLDTEXTSTYLE0
  0
TEXT
  5
78
  8
0
  6
CONTINUOUS
 62
     7
 10
460.9495793538676
 20
2444.939730285465
 30
0.0
 40
52.91666666666666
  1
＜左側面＞
 41
0.75
  7
SLDTEXTSTYLE0
  0
TEXT
  5
79
  8
0
  6
CONTINUOUS
 62
     7
 10
1394.955675414448
 20
2444.743332205345
 30
0.0
 40
52.91666666666666
  1
＜正面＞
 41
0.75
  7
SLDTEXTSTYLE0
  0
TEXT
  5
7A
  8
0
  6
CONTINUOUS
 62
     7
 10
3377.814243189123
 20
326.489054196763
 30
0.0
 40
52.91666666666666
  1
品名：
 41
0.75
  7
SLDTEXTSTYLE0
  0
TEXT
  5
7B
  8
0
  6
CONTINUOUS
 62
     7
 10
4446.663437481703
 20
332.3177187478654
 30
0.0
 40
52.91666666666666
  1
Pamouna
 41
0.75
  7
SLDTEXTSTYLE0
  0
TEXT
  5
7C
  8
寸法
  6
CONTINUOUS
 62
     7
 10
4688.007304885427
 20
165.7088516276312
 30
0.0
 40
52.91666666666666
  1
1/1
 41
0.75
  7
SLDTEXTSTYLE0
  0
TEXT
  5
7D
  8
寸法
  6
CONTINUOUS
 62
     7
 10
3611.283129349216
 20
332.2465883182592
 30
0.0
 40
66.14583333333331
  1
MA-WM900
 41
0.75
  7
SLDTEXTSTYLE0
  0
TEXT
  5
7E
  8
寸法
  6
CONTINUOUS
 62
     7
 10
3817.918628884302
 20
2444.939730285464
 30
0.0
 40
52.91666666666666
  1
＜右側面＞
 41
0.75
  7
SLDTEXTSTYLE0
  0
TEXT
  5
7F
  8
寸法
  6
CONTINUOUS
 62
     7
 10
4198.79693921183
 20
165.7088544215994
 30
0.0
 40
52.91666666666666
  1
2022/09/24
 41
0.75
  7
SLDTEXTSTYLE0
  0
TEXT
  5
80
  8
寸法
  6
CONTINUOUS
 62
     7
 10
1394.955675414448
 20
1265.268061545298
 30
0.0
 40
52.91666666666666
  1
＜背面＞
 41
0.75
  7
SLDTEXTSTYLE0
  0
LINE
  5
81
  8
0
  6
CONTINUOUS
 62
     7
 10
2442.697673528688
 20
1658.511623671919
 30
0.0
 11
2439.197673528688
 21
1658.511623671919
 31
0.0
  0
LINE
  5
82
  8
0
  6
CONTINUOUS
 62
     7
 10
2442.697673528688
 20
1676.011623671919
 30
0.0
 11
2439.197673528688
 21
1676.011623671919
 31
0.0
  0
LINE
  5
83
  8
0
  6
CONTINUOUS
 62
     7
 10
2442.697673528688
 20
2244.511623671915
 30
0.0
 11
2439.197673528688
 21
2244.511623671915
 31
0.0
  0
LINE
  5
84
  8
0
  6
CONTINUOUS
 62
     7
 10
2442.697673528688
 20
2227.011623671915
 30
0.0
 11
2439.197673528688
 21
2227.011623671915
 31
0.0
  0
LINE
  5
85
  8
0
  6
CONTINUOUS
 62
     7
 10
2493.197673528688
 20
2250.511623671915
 30
0.0
 11
2442.697673528688
 21
2250.511623671915
 31
0.0
  0
LINE
  5
87
  8
0
  6
CONTINUOUS
 62
     7
 10
2442.697673528688
 20
1652.511623671915
 30
0.0
 11
2493.197673528688
 21
1652.511623671915
 31
0.0
  0
LINE
  5
88
  8
0
  6
CONTINUOUS
 62
     7
 10
2442.697673528688
 20
2250.511623671915
 30
0.0
 11
2442.697673528688
 21
1652.511623671915
 31
0.0
  0
LINE
  5
89
  8
0
  6
CONTINUOUS
 62
     7
 10
2738.697673528688
 20
2250.511623671915
 30
0.0
 11
2688.197673528688
 21
2250.511623671915
 31
0.0
  0
LINE
  5
8A
  8
0
  6
CONTINUOUS
 62
     7
 10
2738.697673528688
 20
1652.511623671915
 30
0.0
 11
2738.697673528688
 21
2250.511623671915
 31
0.0
  0
LINE
  5
8C
  8
0
  6
CONTINUOUS
 62
     7
 10
2688.197673528688
 20
1652.511623671915
 30
0.0
 11
2738.697673528688
 21
1652.511623671915
 31
0.0
  0
LINE
  5
8D
  8
0
  6
CONTINUOUS
 62
     7
 10
2439.197673528688
 20
1652.511623671919
 30
0.0
 11
2439.197673528688
 21
2250.511623671919
 31
0.0
  0
LINE
  5
8E
  8
0
  6
CONTINUOUS
 62
     7
 10
2388.697673528688
 20
1652.511623671919
 30
0.0
 11
2439.197673528688
 21
1652.511623671919
 31
0.0
  0
LINE
  5
90
  8
0
  6
CONTINUOUS
 62
     7
 10
2439.197673528688
 20
2250.511623671919
 30
0.0
 11
2388.697673528688
 21
2250.511623671919
 31
0.0
  0
LINE
  5
99
  8
0
  6
CONTINUOUS
 62
     7
 10
1843.197673528688
 20
1652.511623671919
 30
0.0
 11
1893.697673528688
 21
1652.511623671919
 31
0.0
  0
LINE
  5
9A
  8
0
  6
CONTINUOUS
 62
     7
 10
1843.197673528688
 20
2250.511623671919
 30
0.0
 11
1843.197673528688
 21
1652.511623671919
 31
0.0
  0
LINE
  5
9C
  8
0
  6
CONTINUOUS
 62
     7
 10
1893.697673528688
 20
2250.511623671919
 30
0.0
 11
1843.197673528688
 21
2250.511623671919
 31
0.0
  0
LINE
  5
9F
  8
0
  6
CONTINUOUS
 62
     7
 10
1893.697673528688
 20
1652.511623671919
 30
0.0
 11
2388.697673528688
 21
1652.511623671919
 31
0.0
  0
LINE
  5
A2
  8
0
  6
CONTINUOUS
 62
     7
 10
2388.697673528688
 20
2250.511623671919
 30
0.0
 11
1893.697673528688
 21
2250.511623671919
 31
0.0
  0
LINE
  5
A3
  8
0
  6
CONTINUOUS
 62
     7
 10
2688.197673528688
 20
2250.511623671916
 30
0.0
 11
2493.197673528688
 21
2250.511623671916
 31
0.0
  0
LINE
  5
A8
  8
0
  6
CONTINUOUS
 62
     7
 10
2493.197673528688
 20
1652.511623671916
 30
0.0
 11
2688.197673528688
 21
1652.511623671916
 31
0.0
  0
LINE
  5
A9
  8
0
  6
CONTINUOUS
 62
     7
 10
2740.197673528688
 20
2245.511623671915
 30
0.0
 11
2738.697673528688
 21
2245.511623671915
 31
0.0
  0
LINE
  5
AA
  8
0
  6
CONTINUOUS
 62
     7
 10
2740.197673528688
 20
1657.511623671915
 30
0.0
 11
2740.197673528688
 21
2245.511623671915
 31
0.0
  0
LINE
  5
AB
  8
0
  6
CONTINUOUS
 62
     7
 10
2738.697673528688
 20
1657.511623671915
 30
0.0
 11
2740.197673528688
 21
1657.511623671915
 31
0.0
  0
LINE
  5
AC
  8
0
  6
CONTINUOUS
 62
     7
 10
1843.197673528688
 20
2245.511623671919
 30
0.0
 11
1841.697673528688
 21
2245.511623671919
 31
0.0
  0
LINE
  5
AD
  8
0
  6
CONTINUOUS
 62
     7
 10
1841.697673528688
 20
2245.511623671919
 30
0.0
 11
1841.697673528688
 21
1657.511623671918
 31
0.0
  0
LINE
  5
AE
  8
0
  6
CONTINUOUS
 62
     7
 10
1841.697673528688
 20
1657.511623671918
 30
0.0
 11
1843.197673528688
 21
1657.511623671918
 31
0.0
  0
LINE
  5
AF
  8
0
  6
CONTINUOUS
 62
     7
 10
721.5348109654188
 20
2178.886623671918
 30
0.0
 11
721.5348109654183
 21
2177.961623671917
 31
0.0
  0
LINE
  5
B0
  8
0
  6
CONTINUOUS
 62
     7
 10
721.5348109654096
 20
2163.061623671916
 30
0.0
 11
721.5348109654091
 21
2162.136623671917
 31
0.0
  0
LINE
  5
B1
  8
0
  6
CONTINUOUS
 62
     7
 10
721.5348109654091
 20
2162.136623671917
 30
0.0
 11
721.399995890468
 21
2162.136623671917
 31
0.0
  0
LINE
  5
B2
  8
0
  6
CONTINUOUS
 62
     7
 10
721.399995890468
 20
2178.886623671918
 30
0.0
 11
721.5348109654188
 21
2178.886623671918
 31
0.0
  0
LINE
  5
B3
  8
0
  6
CONTINUOUS
 62
     7
 10
722.8999958904802
 20
2162.136623671917
 30
0.0
 11
721.5348109654091
 21
2162.136623671917
 31
0.0
  0
LINE
  5
B4
  8
0
  6
CONTINUOUS
 62
     7
 10
721.5348109654188
 20
2178.886623671918
 30
0.0
 11
722.8999958904701
 21
2178.886623671918
 31
0.0
  0
LINE
  5
B5
  8
0
  6
CONTINUOUS
 62
     7
 10
721.534810965413
 20
1740.886623671918
 30
0.0
 11
721.5348109654125
 21
1739.961623671917
 31
0.0
  0
LINE
  5
B6
  8
0
  6
CONTINUOUS
 62
     7
 10
721.5348109654038
 20
1725.061623671916
 30
0.0
 11
721.5348109654033
 21
1724.136623671917
 31
0.0
  0
LINE
  5
B7
  8
0
  6
CONTINUOUS
 62
     7
 10
721.5348109654033
 20
1724.136623671917
 30
0.0
 11
721.399995890468
 21
1724.136623671917
 31
0.0
  0
LINE
  5
B8
  8
0
  6
CONTINUOUS
 62
     7
 10
721.3999958904681
 20
1740.886623671918
 30
0.0
 11
721.534810965413
 21
1740.886623671918
 31
0.0
  0
LINE
  5
B9
  8
0
  6
CONTINUOUS
 62
     7
 10
722.8999958904745
 20
1724.136623671917
 30
0.0
 11
721.5348109654033
 21
1724.136623671917
 31
0.0
  0
LINE
  5
BA
  8
0
  6
CONTINUOUS
 62
     7
 10
721.534810965413
 20
1740.886623671918
 30
0.0
 11
722.8999958904644
 21
1740.886623671918
 31
0.0
  0
LINE
  5
BB
  8
0
  6
CONTINUOUS
 62
     7
 10
722.89999589047
 20
2179.467581810977
 30
0.0
 11
723.3999958904831
 21
2179.467581810977
 31
0.0
  0
LINE
  5
BC
  8
0
  6
CONTINUOUS
 62
     7
 10
722.8999958904701
 20
2177.911623671684
 30
0.0
 11
723.3999958904701
 21
2177.911623671684
 31
0.0
  0
LINE
  5
BD
  8
0
  6
CONTINUOUS
 62
     7
 10
722.8999958904701
 20
2177.911623671684
 30
0.0
 11
722.89999589047
 21
2179.467581810977
 31
0.0
  0
LINE
  5
BE
  8
0
  6
CONTINUOUS
 62
     7
 10
723.3999958904832
 20
2161.555665532848
 30
0.0
 11
722.8999958904768
 21
2161.555665532849
 31
0.0
  0
LINE
  5
BF
  8
0
  6
CONTINUOUS
 62
     7
 10
722.8999958904768
 20
2161.555665532849
 30
0.0
 11
722.8999958904859
 21
2163.111623672135
 31
0.0
  0
LINE
  5
C0
  8
0
  6
CONTINUOUS
 62
     7
 10
723.3999958904859
 20
2163.111623672135
 30
0.0
 11
722.8999958904859
 21
2163.111623672135
 31
0.0
  0
LINE
  5
C1
  8
0
  6
CONTINUOUS
 62
     7
 10
723.1999958904736
 20
2188.903197829669
 30
0.0
 11
722.8999958904734
 21
2188.903197829669
 31
0.0
  0
LINE
  5
C2
  8
0
  6
CONTINUOUS
 62
     7
 10
723.3999958904735
 20
2188.903197829669
 30
0.0
 11
723.1999958904736
 21
2188.903197829669
 31
0.0
  0
LINE
  5
C3
  8
0
  6
CONTINUOUS
 62
     7
 10
722.8999958904734
 20
2188.903197829669
 30
0.0
 11
722.89999589047
 21
2179.467581810977
 31
0.0
  0
LINE
  5
C4
  8
0
  6
CONTINUOUS
 62
     7
 10
723.1999958904794
 20
2152.120049514167
 30
0.0
 11
723.3999958904793
 21
2152.120049514167
 31
0.0
  0
LINE
  5
C5
  8
0
  6
CONTINUOUS
 62
     7
 10
722.8999958904794
 20
2152.120049514167
 30
0.0
 11
723.1999958904794
 21
2152.120049514167
 31
0.0
  0
LINE
  5
C6
  8
0
  6
CONTINUOUS
 62
     7
 10
722.8999958904768
 20
2161.555665532849
 30
0.0
 11
722.8999958904794
 21
2152.120049514167
 31
0.0
  0
POLYLINE
  5
C7
  8
0
  6
CONTINUOUS
 62
     7
 10
0.0
 20
0.0
 30
0.0
 66
     1
 70
     8
  0
VERTEX
  5
296
  8
0
  6
CONTINUOUS
 62
     7
 10
721.3999958904864
 20
2199.011623671918
 30
0.0
 70
    32
  0
VERTEX
  5
297
  8
0
  6
CONTINUOUS
 62
     7
 10
721.4172647158656
 20
2199.011623671918
 30
0.0
 70
    32
  0
VERTEX
  5
298
  8
0
  6
CONTINUOUS
 62
     7
 10
721.4346897993362
 20
2199.011623671918
 30
0.0
 70
    32
  0
VERTEX
  5
299
  8
0
  6
CONTINUOUS
 62
     7
 10
721.4524273989897
 20
2199.011623671919
 30
0.0
 70
    32
  0
VERTEX
  5
29A
  8
0
  6
CONTINUOUS
 62
     7
 10
721.4706337729172
 20
2199.011623671918
 30
0.0
 70
    32
  0
VERTEX
  5
29B
  8
0
  6
CONTINUOUS
 62
     7
 10
721.4894651792104
 20
2199.011623671919
 30
0.0
 70
    32
  0
VERTEX
  5
29C
  8
0
  6
CONTINUOUS
 62
     7
 10
721.5090778759601
 20
2199.011623671918
 30
0.0
 70
    32
  0
VERTEX
  5
29D
  8
0
  6
CONTINUOUS
 62
     7
 10
721.5296280992492
 20
2199.011623671918
 30
0.0
 70
    32
  0
VERTEX
  5
29E
  8
0
  6
CONTINUOUS
 62
     7
 10
721.5512258868683
 20
2199.011623671918
 30
0.0
 70
    32
  0
VERTEX
  5
29F
  8
0
  6
CONTINUOUS
 62
     7
 10
721.5738376821894
 20
2199.011623671918
 30
0.0
 70
    32
  0
VERTEX
  5
2A0
  8
0
  6
CONTINUOUS
 62
     7
 10
721.5974021109707
 20
2199.011623671918
 30
0.0
 70
    32
  0
VERTEX
  5
2A1
  8
0
  6
CONTINUOUS
 62
     7
 10
721.6218577989716
 20
2199.011623671918
 30
0.0
 70
    32
  0
VERTEX
  5
2A2
  8
0
  6
CONTINUOUS
 62
     7
 10
721.64714337195
 20
2199.011623671918
 30
0.0
 70
    32
  0
VERTEX
  5
2A3
  8
0
  6
CONTINUOUS
 62
     7
 10
721.6731974556651
 20
2199.011623671918
 30
0.0
 70
    32
  0
VERTEX
  5
2A4
  8
0
  6
CONTINUOUS
 62
     7
 10
721.6999586758755
 20
2199.011623671918
 30
0.0
 70
    32
  0
VERTEX
  5
2A5
  8
0
  6
CONTINUOUS
 62
     7
 10
721.7273656583395
 20
2199.011623671918
 30
0.0
 70
    32
  0
VERTEX
  5
2A6
  8
0
  6
CONTINUOUS
 62
     7
 10
721.755357028816
 20
2199.011623671919
 30
0.0
 70
    32
  0
VERTEX
  5
2A7
  8
0
  6
CONTINUOUS
 62
     7
 10
721.7838714130637
 20
2199.011623671919
 30
0.0
 70
    32
  0
VERTEX
  5
2A8
  8
0
  6
CONTINUOUS
 62
     7
 10
721.8128560639171
 20
2199.011623671919
 30
0.0
 70
    32
  0
VERTEX
  5
2A9
  8
0
  6
CONTINUOUS
 62
     7
 10
721.8423003727971
 20
2199.011623671918
 30
0.0
 70
    32
  0
VERTEX
  5
2AA
  8
0
  6
CONTINUOUS
 62
     7
 10
721.872206577206
 20
2199.011623671918
 30
0.0
 70
    32
  0
VERTEX
  5
2AB
  8
0
  6
CONTINUOUS
 62
     7
 10
721.9025769177524
 20
2199.011623671918
 30
0.0
 70
    32
  0
VERTEX
  5
2AC
  8
0
  6
CONTINUOUS
 62
     7
 10
721.9334136350449
 20
2199.011623671918
 30
0.0
 70
    32
  0
VERTEX
  5
2AD
  8
0
  6
CONTINUOUS
 62
     7
 10
721.9647189696924
 20
2199.011623671918
 30
0.0
 70
    32
  0
VERTEX
  5
2AE
  8
0
  6
CONTINUOUS
 62
     7
 10
721.9964951623036
 20
2199.011623671918
 30
0.0
 70
    32
  0
VERTEX
  5
2AF
  8
0
  6
CONTINUOUS
 62
     7
 10
722.0287444534872
 20
2199.011623671918
 30
0.0
 70
    32
  0
VERTEX
  5
2B0
  8
0
  6
CONTINUOUS
 62
     7
 10
722.061469083852
 20
2199.011623671918
 30
0.0
 70
    32
  0
VERTEX
  5
2B1
  8
0
  6
CONTINUOUS
 62
     7
 10
722.0946712940067
 20
2199.011623671919
 30
0.0
 70
    32
  0
VERTEX
  5
2B2
  8
0
  6
CONTINUOUS
 62
     7
 10
722.1283517328152
 20
2199.011623671918
 30
0.0
 70
    32
  0
VERTEX
  5
2B3
  8
0
  6
CONTINUOUS
 62
     7
 10
722.1624991261381
 20
2199.011623671918
 30
0.0
 70
    32
  0
VERTEX
  5
2B4
  8
0
  6
CONTINUOUS
 62
     7
 10
722.1970967930481
 20
2199.011623671919
 30
0.0
 70
    32
  0
VERTEX
  5
2B5
  8
0
  6
CONTINUOUS
 62
     7
 10
722.2321280257374
 20
2199.011623671918
 30
0.0
 70
    32
  0
VERTEX
  5
2B6
  8
0
  6
CONTINUOUS
 62
     7
 10
722.2675761163986
 20
2199.011623671918
 30
0.0
 70
    32
  0
VERTEX
  5
2B7
  8
0
  6
CONTINUOUS
 62
     7
 10
722.3034243572238
 20
2199.011623671918
 30
0.0
 70
    32
  0
VERTEX
  5
2B8
  8
0
  6
CONTINUOUS
 62
     7
 10
722.3396560404054
 20
2199.011623671918
 30
0.0
 70
    32
  0
VERTEX
  5
2B9
  8
0
  6
CONTINUOUS
 62
     7
 10
722.3762544581357
 20
2199.011623671918
 30
0.0
 70
    32
  0
VERTEX
  5
2BA
  8
0
  6
CONTINUOUS
 62
     7
 10
722.413202902607
 20
2199.011623671918
 30
0.0
 70
    32
  0
VERTEX
  5
2BB
  8
0
  6
CONTINUOUS
 62
     7
 10
722.450484666012
 20
2199.011623671918
 30
0.0
 70
    32
  0
VERTEX
  5
2BC
  8
0
  6
CONTINUOUS
 62
     7
 10
722.4880830425485
 20
2199.011623671918
 30
0.0
 70
    32
  0
VERTEX
  5
2BD
  8
0
  6
CONTINUOUS
 62
     7
 10
722.5259813516897
 20
2199.011623671918
 30
0.0
 70
    32
  0
VERTEX
  5
2BE
  8
0
  6
CONTINUOUS
 62
     7
 10
722.5641629301966
 20
2199.011623671919
 30
0.0
 70
    32
  0
VERTEX
  5
2BF
  8
0
  6
CONTINUOUS
 62
     7
 10
722.6026111151651
 20
2199.011623671919
 30
0.0
 70
    32
  0
VERTEX
  5
2C0
  8
0
  6
CONTINUOUS
 62
     7
 10
722.6413092436914
 20
2199.011623671919
 30
0.0
 70
    32
  0
VERTEX
  5
2C1
  8
0
  6
CONTINUOUS
 62
     7
 10
722.6802406528715
 20
2199.011623671919
 30
0.0
 70
    32
  0
VERTEX
  5
2C2
  8
0
  6
CONTINUOUS
 62
     7
 10
722.7193886798018
 20
2199.01162367192
 30
0.0
 70
    32
  0
VERTEX
  5
2C3
  8
0
  6
CONTINUOUS
 62
     7
 10
722.7587366615785
 20
2199.01162367192
 30
0.0
 70
    32
  0
VERTEX
  5
2C4
  8
0
  6
CONTINUOUS
 62
     7
 10
722.7982679352974
 20
2199.01162367192
 30
0.0
 70
    32
  0
VERTEX
  5
2C5
  8
0
  6
CONTINUOUS
 62
     7
 10
722.837965838055
 20
2199.01162367192
 30
0.0
 70
    32
  0
VERTEX
  5
2C6
  8
0
  6
CONTINUOUS
 62
     7
 10
722.8778137069471
 20
2199.011623671921
 30
0.0
 70
    32
  0
VERTEX
  5
2C7
  8
0
  6
CONTINUOUS
 62
     7
 10
722.9177948790701
 20
2199.011623671921
 30
0.0
 70
    32
  0
VERTEX
  5
2C8
  8
0
  6
CONTINUOUS
 62
     7
 10
722.9578926915201
 20
2199.011623671921
 30
0.0
 70
    32
  0
VERTEX
  5
2C9
  8
0
  6
CONTINUOUS
 62
     7
 10
722.9980904813932
 20
2199.011623671922
 30
0.0
 70
    32
  0
VERTEX
  5
2CA
  8
0
  6
CONTINUOUS
 62
     7
 10
723.0383715857855
 20
2199.011623671922
 30
0.0
 70
    32
  0
VERTEX
  5
2CB
  8
0
  6
CONTINUOUS
 62
     7
 10
723.0787193417933
 20
2199.011623671922
 30
0.0
 70
    32
  0
VERTEX
  5
2CC
  8
0
  6
CONTINUOUS
 62
     7
 10
723.1191170865128
 20
2199.011623671923
 30
0.0
 70
    32
  0
VERTEX
  5
2CD
  8
0
  6
CONTINUOUS
 62
     7
 10
723.1595481570397
 20
2199.011623671923
 30
0.0
 70
    32
  0
VERTEX
  5
2CE
  8
0
  6
CONTINUOUS
 62
     7
 10
723.1999958904706
 20
2199.011623671924
 30
0.0
 70
    32
  0
SEQEND
  5
6CA
  8
0
  6
CONTINUOUS
 62
     7
  0
LINE
  5
C8
  8
0
  6
CONTINUOUS
 62
     7
 10
723.199995890473
 20
2198.011623671925
 30
0.0
 11
723.1999958904706
 21
2199.011623671924
 31
0.0
  0
POLYLINE
  5
C9
  8
0
  6
CONTINUOUS
 62
     7
 10
0.0
 20
0.0
 30
0.0
 66
     1
 70
     8
  0
VERTEX
  5
2CF
  8
0
  6
CONTINUOUS
 62
     7
 10
723.1999958904945
 20
2142.011623671919
 30
0.0
 70
    32
  0
VERTEX
  5
2D0
  8
0
  6
CONTINUOUS
 62
     7
 10
723.1595474117978
 20
2142.011623671919
 30
0.0
 70
    32
  0
VERTEX
  5
2D1
  8
0
  6
CONTINUOUS
 62
     7
 10
723.1191155994959
 20
2142.011623671919
 30
0.0
 70
    32
  0
VERTEX
  5
2D2
  8
0
  6
CONTINUOUS
 62
     7
 10
723.0787171199834
 20
2142.011623671918
 30
0.0
 70
    32
  0
VERTEX
  5
2D3
  8
0
  6
CONTINUOUS
 62
     7
 10
723.0383686396555
 20
2142.011623671918
 30
0.0
 70
    32
  0
VERTEX
  5
2D4
  8
0
  6
CONTINUOUS
 62
     7
 10
722.998086824907
 20
2142.011623671919
 30
0.0
 70
    32
  0
VERTEX
  5
2D5
  8
0
  6
CONTINUOUS
 62
     7
 10
722.9578883421324
 20
2142.011623671919
 30
0.0
 70
    32
  0
VERTEX
  5
2D6
  8
0
  6
CONTINUOUS
 62
     7
 10
722.9177898577267
 20
2142.011623671919
 30
0.0
 70
    32
  0
VERTEX
  5
2D7
  8
0
  6
CONTINUOUS
 62
     7
 10
722.8778080380848
 20
2142.011623671919
 30
0.0
 70
    32
  0
VERTEX
  5
2D8
  8
0
  6
CONTINUOUS
 62
     7
 10
722.8379595496012
 20
2142.011623671919
 30
0.0
 70
    32
  0
VERTEX
  5
2D9
  8
0
  6
CONTINUOUS
 62
     7
 10
722.7982610586712
 20
2142.011623671919
 30
0.0
 70
    32
  0
VERTEX
  5
2DA
  8
0
  6
CONTINUOUS
 62
     7
 10
722.7587292316894
 20
2142.011623671919
 30
0.0
 70
    32
  0
VERTEX
  5
2DB
  8
0
  6
CONTINUOUS
 62
     7
 10
722.7193807350503
 20
2142.011623671919
 30
0.0
 70
    32
  0
VERTEX
  5
2DC
  8
0
  6
CONTINUOUS
 62
     7
 10
722.680232235149
 20
2142.011623671919
 30
0.0
 70
    32
  0
VERTEX
  5
2DD
  8
0
  6
CONTINUOUS
 62
     7
 10
722.6413003983805
 20
2142.011623671919
 30
0.0
 70
    32
  0
VERTEX
  5
2DE
  8
0
  6
CONTINUOUS
 62
     7
 10
722.6026018911393
 20
2142.011623671919
 30
0.0
 70
    32
  0
VERTEX
  5
2DF
  8
0
  6
CONTINUOUS
 62
     7
 10
722.5641533798203
 20
2142.011623671919
 30
0.0
 70
    32
  0
VERTEX
  5
2E0
  8
0
  6
CONTINUOUS
 62
     7
 10
722.5259715308183
 20
2142.011623671919
 30
0.0
 70
    32
  0
VERTEX
  5
2E1
  8
0
  6
CONTINUOUS
 62
     7
 10
722.4880730105282
 20
2142.011623671919
 30
0.0
 70
    32
  0
VERTEX
  5
2E2
  8
0
  6
CONTINUOUS
 62
     7
 10
722.450474485587
 20
2142.011623671919
 30
0.0
 70
    32
  0
VERTEX
  5
2E3
  8
0
  6
CONTINUOUS
 62
     7
 10
722.4131926350933
 20
2142.011623671919
 30
0.0
 70
    32
  0
VERTEX
  5
2E4
  8
0
  6
CONTINUOUS
 62
     7
 10
722.3762441563514
 20
2142.011623671919
 30
0.0
 70
    32
  0
VERTEX
  5
2E5
  8
0
  6
CONTINUOUS
 62
     7
 10
722.3396457481094
 20
2142.011623671919
 30
0.0
 70
    32
  0
VERTEX
  5
2E6
  8
0
  6
CONTINUOUS
 62
     7
 10
722.303414109115
 20
2142.011623671919
 30
0.0
 70
    32
  0
VERTEX
  5
2E7
  8
0
  6
CONTINUOUS
 62
     7
 10
722.2675659381161
 20
2142.011623671919
 30
0.0
 70
    32
  0
VERTEX
  5
2E8
  8
0
  6
CONTINUOUS
 62
     7
 10
722.2321179338608
 20
2142.011623671919
 30
0.0
 70
    32
  0
VERTEX
  5
2E9
  8
0
  6
CONTINUOUS
 62
     7
 10
722.1970867950969
 20
2142.011623671919
 30
0.0
 70
    32
  0
VERTEX
  5
2EA
  8
0
  6
CONTINUOUS
 62
     7
 10
722.1624892205723
 20
2142.011623671919
 30
0.0
 70
    32
  0
VERTEX
  5
2EB
  8
0
  6
CONTINUOUS
 62
     7
 10
722.1283419090348
 20
2142.011623671919
 30
0.0
 70
    32
  0
VERTEX
  5
2EC
  8
0
  6
CONTINUOUS
 62
     7
 10
722.0946615266367
 20
2142.011623671919
 30
0.0
 70
    32
  0
VERTEX
  5
2ED
  8
0
  6
CONTINUOUS
 62
     7
 10
722.0614591800937
 20
2142.011623671919
 30
0.0
 70
    32
  0
VERTEX
  5
2EE
  8
0
  6
CONTINUOUS
 62
     7
 10
722.0287341779364
 20
2142.011623671918
 30
0.0
 70
    32
  0
VERTEX
  5
2EF
  8
0
  6
CONTINUOUS
 62
     7
 10
721.9964843221591
 20
2142.011623671919
 30
0.0
 70
    32
  0
VERTEX
  5
2F0
  8
0
  6
CONTINUOUS
 62
     7
 10
721.9647074147554
 20
2142.011623671919
 30
0.0
 70
    32
  0
VERTEX
  5
2F1
  8
0
  6
CONTINUOUS
 62
     7
 10
721.9334012577194
 20
2142.011623671919
 30
0.0
 70
    32
  0
VERTEX
  5
2F2
  8
0
  6
CONTINUOUS
 62
     7
 10
721.9025636530453
 20
2142.011623671919
 30
0.0
 70
    32
  0
VERTEX
  5
2F3
  8
0
  6
CONTINUOUS
 62
     7
 10
721.8721924027266
 20
2142.011623671918
 30
0.0
 70
    32
  0
VERTEX
  5
2F4
  8
0
  6
CONTINUOUS
 62
     7
 10
721.8422853087577
 20
2142.011623671919
 30
0.0
 70
    32
  0
VERTEX
  5
2F5
  8
0
  6
CONTINUOUS
 62
     7
 10
721.8128401731324
 20
2142.011623671919
 30
0.0
 70
    32
  0
VERTEX
  5
2F6
  8
0
  6
CONTINUOUS
 62
     7
 10
721.7838548010343
 20
2142.011623671919
 30
0.0
 70
    32
  0
VERTEX
  5
2F7
  8
0
  6
CONTINUOUS
 62
     7
 10
721.7553398707149
 20
2142.011623671919
 30
0.0
 70
    32
  0
VERTEX
  5
2F8
  8
0
  6
CONTINUOUS
 62
     7
 10
721.727348215598
 20
2142.011623671919
 30
0.0
 70
    32
  0
VERTEX
  5
2F9
  8
0
  6
CONTINUOUS
 62
     7
 10
721.6999412845745
 20
2142.011623671919
 30
0.0
 70
    32
  0
VERTEX
  5
2FA
  8
0
  6
CONTINUOUS
 62
     7
 10
721.6731805265357
 20
2142.011623671919
 30
0.0
 70
    32
  0
VERTEX
  5
2FB
  8
0
  6
CONTINUOUS
 62
     7
 10
721.6471273903732
 20
2142.011623671919
 30
0.0
 70
    32
  0
VERTEX
  5
2FC
  8
0
  6
CONTINUOUS
 62
     7
 10
721.6218433249777
 20
2142.011623671919
 30
0.0
 70
    32
  0
VERTEX
  5
2FD
  8
0
  6
CONTINUOUS
 62
     7
 10
721.5973897792412
 20
2142.011623671919
 30
0.0
 70
    32
  0
VERTEX
  5
2FE
  8
0
  6
CONTINUOUS
 62
     7
 10
721.5738282020549
 20
2142.011623671919
 30
0.0
 70
    32
  0
VERTEX
  5
2FF
  8
0
  6
CONTINUOUS
 62
     7
 10
721.5512200423099
 20
2142.011623671918
 30
0.0
 70
    32
  0
VERTEX
  5
300
  8
0
  6
CONTINUOUS
 62
     7
 10
721.5296267488976
 20
2142.011623671919
 30
0.0
 70
    32
  0
VERTEX
  5
301
  8
0
  6
CONTINUOUS
 62
     7
 10
721.5090806838485
 20
2142.011623671919
 30
0.0
 70
    32
  0
VERTEX
  5
302
  8
0
  6
CONTINUOUS
 62
     7
 10
721.4894703207757
 20
2142.011623671919
 30
0.0
 70
    32
  0
VERTEX
  5
303
  8
0
  6
CONTINUOUS
 62
     7
 10
721.4706397199824
 20
2142.011623671918
 30
0.0
 70
    32
  0
VERTEX
  5
304
  8
0
  6
CONTINUOUS
 62
     7
 10
721.4524329290128
 20
2142.011623671919
 30
0.0
 70
    32
  0
VERTEX
  5
305
  8
0
  6
CONTINUOUS
 62
     7
 10
721.4346939954108
 20
2142.011623671919
 30
0.0
 70
    32
  0
VERTEX
  5
306
  8
0
  6
CONTINUOUS
 62
     7
 10
721.4172669667207
 20
2142.011623671919
 30
0.0
 70
    32
  0
VERTEX
  5
307
  8
0
  6
CONTINUOUS
 62
     7
 10
721.3999958904864
 20
2142.011623671919
 30
0.0
 70
    32
  0
SEQEND
  5
6CB
  8
0
  6
CONTINUOUS
 62
     7
  0
LINE
  5
CA
  8
0
  6
CONTINUOUS
 62
     7
 10
723.1999958904823
 20
2143.011623671917
 30
0.0
 11
723.1999958904945
 21
2142.011623671919
 31
0.0
  0
POLYLINE
  5
CB
  8
0
  6
CONTINUOUS
 62
     7
 66
     1
 10
0.0
 20
0.0
 30
0.0
  0
VERTEX
  5
308
  8
0
  6
CONTINUOUS
 62
     7
 10
721.3999958904863
 20
2180.754122313586
 30
0.0
  0
VERTEX
  5
309
  8
0
  6
CONTINUOUS
 62
     7
 10
721.4088602327463
 20
2180.745325830778
 30
0.0
  0
VERTEX
  5
30A
  8
0
  6
CONTINUOUS
 62
     7
 10
721.4178435516392
 20
2180.736680031389
 30
0.0
  0
VERTEX
  5
30B
  8
0
  6
CONTINUOUS
 62
     7
 10
721.4270365772401
 20
2180.728300276804
 30
0.0
  0
VERTEX
  5
30C
  8
0
  6
CONTINUOUS
 62
     7
 10
721.4364432300856
 20
2180.720193373954
 30
0.0
  0
VERTEX
  5
30D
  8
0
  6
CONTINUOUS
 62
     7
 10
721.4460508089126
 20
2180.712345344379
 30
0.0
  0
VERTEX
  5
30E
  8
0
  6
CONTINUOUS
 62
     7
 10
721.455846612458
 20
2180.704742209621
 30
0.0
  0
VERTEX
  5
30F
  8
0
  6
CONTINUOUS
 62
     7
 10
721.4658179394588
 20
2180.697369991219
 30
0.0
  0
VERTEX
  5
310
  8
0
  6
CONTINUOUS
 62
     7
 10
721.4759520886515
 20
2180.690214710712
 30
0.0
  0
VERTEX
  5
311
  8
0
  6
CONTINUOUS
 62
     7
 10
721.4862363587729
 20
2180.683262389642
 30
0.0
  0
VERTEX
  5
312
  8
0
  6
CONTINUOUS
 62
     7
 10
721.4966580485606
 20
2180.676499049549
 30
0.0
  0
VERTEX
  5
313
  8
0
  6
CONTINUOUS
 62
     7
 10
721.5072044567505
 20
2180.669910711971
 30
0.0
  0
VERTEX
  5
314
  8
0
  6
CONTINUOUS
 62
     7
 10
721.5178628820803
 20
2180.66348339845
 30
0.0
  0
VERTEX
  5
315
  8
0
  6
CONTINUOUS
 62
     7
 10
721.5286206232862
 20
2180.657203130526
 30
0.0
  0
VERTEX
  5
316
  8
0
  6
CONTINUOUS
 62
     7
 10
721.5394649791056
 20
2180.651055929739
 30
0.0
  0
VERTEX
  5
317
  8
0
  6
CONTINUOUS
 62
     7
 10
721.5503832482749
 20
2180.645027817628
 30
0.0
  0
VERTEX
  5
318
  8
0
  6
CONTINUOUS
 62
     7
 10
721.5613627295311
 20
2180.639104815735
 30
0.0
  0
VERTEX
  5
319
  8
0
  6
CONTINUOUS
 62
     7
 10
721.5723924904247
 20
2180.633275088644
 30
0.0
  0
VERTEX
  5
31A
  8
0
  6
CONTINUOUS
 62
     7
 10
721.5834712678369
 20
2180.627538516031
 30
0.0
  0
VERTEX
  5
31B
  8
0
  6
CONTINUOUS
 62
     7
 10
721.5946010861112
 20
2180.621898960571
 30
0.0
  0
VERTEX
  5
31C
  8
0
  6
CONTINUOUS
 62
     7
 10
721.6057839723112
 20
2180.616360288234
 30
0.0
  0
VERTEX
  5
31D
  8
0
  6
CONTINUOUS
 62
     7
 10
721.6170219535
 20
2180.610926364989
 30
0.0
  0
VERTEX
  5
31E
  8
0
  6
CONTINUOUS
 62
     7
 10
721.6283170567407
 20
2180.605601056804
 30
0.0
  0
VERTEX
  5
31F
  8
0
  6
CONTINUOUS
 62
     7
 10
721.6396713090971
 20
2180.60038822965
 30
0.0
  0
VERTEX
  5
320
  8
0
  6
CONTINUOUS
 62
     7
 10
721.6510867376322
 20
2180.595291749497
 30
0.0
  0
VERTEX
  5
321
  8
0
  6
CONTINUOUS
 62
     7
 10
721.6625653694098
 20
2180.590315482313
 30
0.0
  0
VERTEX
  5
322
  8
0
  6
CONTINUOUS
 62
     7
 10
721.6741092314927
 20
2180.585463294067
 30
0.0
  0
VERTEX
  5
323
  8
0
  6
CONTINUOUS
 62
     7
 10
721.6857203509445
 20
2180.58073905073
 30
0.0
  0
VERTEX
  5
324
  8
0
  6
CONTINUOUS
 62
     7
 10
721.6974007548285
 20
2180.576146618271
 30
0.0
  0
VERTEX
  5
325
  8
0
  6
CONTINUOUS
 62
     7
 10
721.7091524702081
 20
2180.571689862658
 30
0.0
  0
VERTEX
  5
326
  8
0
  6
CONTINUOUS
 62
     7
 10
721.7209775241466
 20
2180.567372649863
 30
0.0
  0
VERTEX
  5
327
  8
0
  6
CONTINUOUS
 62
     7
 10
721.732877917265
 20
2180.563198851436
 30
0.0
  0
VERTEX
  5
328
  8
0
  6
CONTINUOUS
 62
     7
 10
721.7448542647425
 20
2180.559172631443
 30
0.0
  0
VERTEX
  5
329
  8
0
  6
CONTINUOUS
 62
     7
 10
721.7569051425951
 20
2180.555298584487
 30
0.0
  0
VERTEX
  5
32A
  8
0
  6
CONTINUOUS
 62
     7
 10
721.7690289634988
 20
2180.551581339658
 30
0.0
  0
VERTEX
  5
32B
  8
0
  6
CONTINUOUS
 62
     7
 10
721.7812241401301
 20
2180.548025526041
 30
0.0
  0
VERTEX
  5
32C
  8
0
  6
CONTINUOUS
 62
     7
 10
721.7934890851649
 20
2180.544635772728
 30
0.0
  0
VERTEX
  5
32D
  8
0
  6
CONTINUOUS
 62
     7
 10
721.8058222112793
 20
2180.541416708807
 30
0.0
  0
VERTEX
  5
32E
  8
0
  6
CONTINUOUS
 62
     7
 10
721.8182219311495
 20
2180.538372963365
 30
0.0
  0
VERTEX
  5
32F
  8
0
  6
CONTINUOUS
 62
     7
 10
721.8306866574517
 20
2180.535509165492
 30
0.0
  0
VERTEX
  5
330
  8
0
  6
CONTINUOUS
 62
     7
 10
721.8432148028619
 20
2180.532829944278
 30
0.0
  0
VERTEX
  5
331
  8
0
  6
CONTINUOUS
 62
     7
 10
721.8558047800562
 20
2180.530339928809
 30
0.0
  0
VERTEX
  5
332
  8
0
  6
CONTINUOUS
 62
     7
 10
721.8684550017109
 20
2180.528043748176
 30
0.0
  0
VERTEX
  5
333
  8
0
  6
CONTINUOUS
 62
     7
 10
721.881163880502
 20
2180.525946031466
 30
0.0
  0
VERTEX
  5
334
  8
0
  6
CONTINUOUS
 62
     7
 10
721.8939295621198
 20
2180.524049478567
 30
0.0
  0
VERTEX
  5
335
  8
0
  6
CONTINUOUS
 62
     7
 10
721.9067483768596
 20
2180.522343671587
 30
0.0
  0
VERTEX
  5
336
  8
0
  6
CONTINUOUS
 62
     7
 10
721.9196158992406
 20
2180.520812731501
 30
0.0
  0
VERTEX
  5
337
  8
0
  6
CONTINUOUS
 62
     7
 10
721.9325277012955
 20
2180.519440761318
 30
0.0
  0
VERTEX
  5
338
  8
0
  6
CONTINUOUS
 62
     7
 10
721.9454793550565
 20
2180.518211864048
 30
0.0
  0
VERTEX
  5
339
  8
0
  6
CONTINUOUS
 62
     7
 10
721.9584664325564
 20
2180.5171101427
 30
0.0
  0
VERTEX
  5
33A
  8
0
  6
CONTINUOUS
 62
     7
 10
721.971484505828
 20
2180.516119700285
 30
0.0
  0
VERTEX
  5
33B
  8
0
  6
CONTINUOUS
 62
     7
 10
721.9845291469037
 20
2180.515224639812
 30
0.0
  0
VERTEX
  5
33C
  8
0
  6
CONTINUOUS
 62
     7
 10
721.9975959278165
 20
2180.514409064291
 30
0.0
  0
VERTEX
  5
33D
  8
0
  6
CONTINUOUS
 62
     7
 10
722.0106804205985
 20
2180.513657076732
 30
0.0
  0
VERTEX
  5
33E
  8
0
  6
CONTINUOUS
 62
     7
 10
722.0237781972828
 20
2180.512952780143
 30
0.0
  0
VERTEX
  5
33F
  8
0
  6
CONTINUOUS
 62
     7
 10
722.036884829902
 20
2180.512280277535
 30
0.0
  0
VERTEX
  5
340
  8
0
  6
CONTINUOUS
 62
     7
 10
722.0499958904883
 20
2180.511623671917
 30
0.0
  0
SEQEND
  5
6CC
  8
0
  6
CONTINUOUS
 62
     7
  0
LINE
  5
CC
  8
0
  6
CONTINUOUS
 62
     7
 10
723.199995890473
 20
2198.011623671925
 30
0.0
 11
723.1999958904736
 21
2188.903197829669
 31
0.0
  0
LINE
  5
CD
  8
0
  6
CONTINUOUS
 62
     7
 10
722.8999958904802
 20
2180.511623671917
 30
0.0
 11
722.0499958904883
 21
2180.511623671917
 31
0.0
  0
LINE
  5
CE
  8
0
  6
CONTINUOUS
 62
     7
 10
723.399995890473
 20
2198.011623671925
 30
0.0
 11
723.199995890473
 21
2198.011623671925
 31
0.0
  0
LINE
  5
CF
  8
0
  6
CONTINUOUS
 62
     7
 10
723.3999958904823
 20
2143.011623671917
 30
0.0
 11
723.1999958904823
 21
2143.011623671917
 31
0.0
  0
LINE
  5
D0
  8
0
  6
CONTINUOUS
 62
     7
 10
723.1999958904794
 20
2152.120049514167
 30
0.0
 11
723.1999958904823
 21
2143.011623671917
 31
0.0
  0
POLYLINE
  5
D1
  8
0
  6
CONTINUOUS
 62
     7
 66
     1
 10
0.0
 20
0.0
 30
0.0
  0
VERTEX
  5
341
  8
0
  6
CONTINUOUS
 62
     7
 10
722.0499958904772
 20
2160.511623671917
 30
0.0
  0
VERTEX
  5
342
  8
0
  6
CONTINUOUS
 62
     7
 10
722.0271104318474
 20
2160.509348348925
 30
0.0
  0
VERTEX
  5
343
  8
0
  6
CONTINUOUS
 62
     7
 10
722.0042449676471
 20
2160.507032098451
 30
0.0
  0
VERTEX
  5
344
  8
0
  6
CONTINUOUS
 62
     7
 10
721.9814194923056
 20
2160.504633993012
 30
0.0
  0
VERTEX
  5
345
  8
0
  6
CONTINUOUS
 62
     7
 10
721.9586540002527
 20
2160.502113105126
 30
0.0
  0
VERTEX
  5
346
  8
0
  6
CONTINUOUS
 62
     7
 10
721.935968485918
 20
2160.499428507311
 30
0.0
  0
VERTEX
  5
347
  8
0
  6
CONTINUOUS
 62
     7
 10
721.9133829437307
 20
2160.496539272085
 30
0.0
  0
VERTEX
  5
348
  8
0
  6
CONTINUOUS
 62
     7
 10
721.8909173681204
 20
2160.493404471964
 30
0.0
  0
VERTEX
  5
349
  8
0
  6
CONTINUOUS
 62
     7
 10
721.8685917535169
 20
2160.489983179468
 30
0.0
  0
VERTEX
  5
34A
  8
0
  6
CONTINUOUS
 62
     7
 10
721.8464260943492
 20
2160.486234467113
 30
0.0
  0
VERTEX
  5
34B
  8
0
  6
CONTINUOUS
 62
     7
 10
721.8244403850473
 20
2160.482117407417
 30
0.0
  0
VERTEX
  5
34C
  8
0
  6
CONTINUOUS
 62
     7
 10
721.8026546200401
 20
2160.477591072898
 30
0.0
  0
VERTEX
  5
34D
  8
0
  6
CONTINUOUS
 62
     7
 10
721.7810887937578
 20
2160.472614536074
 30
0.0
  0
VERTEX
  5
34E
  8
0
  6
CONTINUOUS
 62
     7
 10
721.7597629006294
 20
2160.467146869462
 30
0.0
  0
VERTEX
  5
34F
  8
0
  6
CONTINUOUS
 62
     7
 10
721.7386969350847
 20
2160.46114714558
 30
0.0
  0
VERTEX
  5
350
  8
0
  6
CONTINUOUS
 62
     7
 10
721.7179108915531
 20
2160.454574436946
 30
0.0
  0
VERTEX
  5
351
  8
0
  6
CONTINUOUS
 62
     7
 10
721.6974247644639
 20
2160.447387816077
 30
0.0
  0
VERTEX
  5
352
  8
0
  6
CONTINUOUS
 62
     7
 10
721.6772545617255
 20
2160.439554515678
 30
0.0
  0
VERTEX
  5
353
  8
0
  6
CONTINUOUS
 62
     7
 10
721.6573903165854
 20
2160.431094937137
 30
0.0
  0
VERTEX
  5
354
  8
0
  6
CONTINUOUS
 62
     7
 10
721.6378116577329
 20
2160.422050779389
 30
0.0
  0
VERTEX
  5
355
  8
0
  6
CONTINUOUS
 62
     7
 10
721.6184981861476
 20
2160.412463798091
 30
0.0
  0
VERTEX
  5
356
  8
0
  6
CONTINUOUS
 62
     7
 10
721.5994295028092
 20
2160.402375748902
 30
0.0
  0
VERTEX
  5
357
  8
0
  6
CONTINUOUS
 62
     7
 10
721.5805852086969
 20
2160.39182838748
 30
0.0
  0
VERTEX
  5
358
  8
0
  6
CONTINUOUS
 62
     7
 10
721.5619449047898
 20
2160.38086346948
 30
0.0
  0
VERTEX
  5
359
  8
0
  6
CONTINUOUS
 62
     7
 10
721.543488192068
 20
2160.369522750562
 30
0.0
  0
VERTEX
  5
35A
  8
0
  6
CONTINUOUS
 62
     7
 10
721.5251946715106
 20
2160.357847986384
 30
0.0
  0
VERTEX
  5
35B
  8
0
  6
CONTINUOUS
 62
     7
 10
721.5070439440972
 20
2160.345880932602
 30
0.0
  0
VERTEX
  5
35C
  8
0
  6
CONTINUOUS
 62
     7
 10
721.4890156108067
 20
2160.333663344874
 30
0.0
  0
VERTEX
  5
35D
  8
0
  6
CONTINUOUS
 62
     7
 10
721.4710892726195
 20
2160.321236978858
 30
0.0
  0
VERTEX
  5
35E
  8
0
  6
CONTINUOUS
 62
     7
 10
721.4532445305144
 20
2160.308643590212
 30
0.0
  0
VERTEX
  5
35F
  8
0
  6
CONTINUOUS
 62
     7
 10
721.4354609854706
 20
2160.295924934593
 30
0.0
  0
VERTEX
  5
360
  8
0
  6
CONTINUOUS
 62
     7
 10
721.4177182384683
 20
2160.283122767659
 30
0.0
  0
VERTEX
  5
361
  8
0
  6
CONTINUOUS
 62
     7
 10
721.3999958904864
 20
2160.270278845067
 30
0.0
  0
SEQEND
  5
6CD
  8
0
  6
CONTINUOUS
 62
     7
  0
LINE
  5
D2
  8
0
  6
CONTINUOUS
 62
     7
 10
722.0499958904772
 20
2160.511623671917
 30
0.0
 11
722.8999958904799
 21
2160.51162367192
 31
0.0
  0
LINE
  5
D3
  8
0
  6
CONTINUOUS
 62
     7
 10
723.3999958904707
 20
2199.011623671924
 30
0.0
 11
723.1999958904706
 21
2199.011623671924
 31
0.0
  0
LINE
  5
D4
  8
0
  6
CONTINUOUS
 62
     7
 10
723.3999958904946
 20
2142.011623671919
 30
0.0
 11
723.1999958904945
 21
2142.011623671919
 31
0.0
  0
LINE
  5
D5
  8
0
  6
CONTINUOUS
 62
     7
 10
722.8999958904643
 20
1741.467581810977
 30
0.0
 11
723.3999958904831
 21
1741.467581810977
 31
0.0
  0
LINE
  5
D6
  8
0
  6
CONTINUOUS
 62
     7
 10
722.8999958904644
 20
1739.911623671684
 30
0.0
 11
723.3999958904643
 21
1739.911623671684
 31
0.0
  0
LINE
  5
D7
  8
0
  6
CONTINUOUS
 62
     7
 10
722.8999958904644
 20
1739.911623671684
 30
0.0
 11
722.8999958904643
 21
1741.467581810977
 31
0.0
  0
LINE
  5
D8
  8
0
  6
CONTINUOUS
 62
     7
 10
723.3999958904831
 20
1723.555665532848
 30
0.0
 11
722.899995890471
 21
1723.555665532849
 31
0.0
  0
LINE
  5
D9
  8
0
  6
CONTINUOUS
 62
     7
 10
722.899995890471
 20
1723.555665532849
 30
0.0
 11
722.8999958904801
 21
1725.111623672135
 31
0.0
  0
LINE
  5
DA
  8
0
  6
CONTINUOUS
 62
     7
 10
723.3999958904801
 20
1725.111623672135
 30
0.0
 11
722.8999958904801
 21
1725.111623672135
 31
0.0
  0
LINE
  5
DB
  8
0
  6
CONTINUOUS
 62
     7
 10
723.1999958904679
 20
1750.903197829669
 30
0.0
 11
722.8999958904677
 21
1750.903197829669
 31
0.0
  0
LINE
  5
DC
  8
0
  6
CONTINUOUS
 62
     7
 10
723.3999958904678
 20
1750.903197829669
 30
0.0
 11
723.1999958904679
 21
1750.903197829669
 31
0.0
  0
LINE
  5
DD
  8
0
  6
CONTINUOUS
 62
     7
 10
722.8999958904677
 20
1750.903197829669
 30
0.0
 11
722.8999958904643
 21
1741.467581810977
 31
0.0
  0
LINE
  5
DE
  8
0
  6
CONTINUOUS
 62
     7
 10
723.1999958904736
 20
1714.120049514167
 30
0.0
 11
723.3999958904735
 21
1714.120049514167
 31
0.0
  0
LINE
  5
DF
  8
0
  6
CONTINUOUS
 62
     7
 10
722.8999958904736
 20
1714.120049514167
 30
0.0
 11
723.1999958904736
 21
1714.120049514167
 31
0.0
  0
LINE
  5
E0
  8
0
  6
CONTINUOUS
 62
     7
 10
722.899995890471
 20
1723.555665532849
 30
0.0
 11
722.8999958904736
 21
1714.120049514167
 31
0.0
  0
POLYLINE
  5
E1
  8
0
  6
CONTINUOUS
 62
     7
 10
0.0
 20
0.0
 30
0.0
 66
     1
 70
     8
  0
VERTEX
  5
362
  8
0
  6
CONTINUOUS
 62
     7
 10
721.399995890468
 20
1761.011623671918
 30
0.0
 70
    32
  0
VERTEX
  5
363
  8
0
  6
CONTINUOUS
 62
     7
 10
721.4172647158474
 20
1761.011623671918
 30
0.0
 70
    32
  0
VERTEX
  5
364
  8
0
  6
CONTINUOUS
 62
     7
 10
721.4346897993181
 20
1761.011623671918
 30
0.0
 70
    32
  0
VERTEX
  5
365
  8
0
  6
CONTINUOUS
 62
     7
 10
721.4524273989718
 20
1761.011623671919
 30
0.0
 70
    32
  0
VERTEX
  5
366
  8
0
  6
CONTINUOUS
 62
     7
 10
721.4706337728993
 20
1761.011623671919
 30
0.0
 70
    32
  0
VERTEX
  5
367
  8
0
  6
CONTINUOUS
 62
     7
 10
721.4894651791923
 20
1761.011623671919
 30
0.0
 70
    32
  0
VERTEX
  5
368
  8
0
  6
CONTINUOUS
 62
     7
 10
721.5090778759421
 20
1761.011623671919
 30
0.0
 70
    32
  0
VERTEX
  5
369
  8
0
  6
CONTINUOUS
 62
     7
 10
721.5296280992311
 20
1761.011623671918
 30
0.0
 70
    32
  0
VERTEX
  5
36A
  8
0
  6
CONTINUOUS
 62
     7
 10
721.55122588685
 20
1761.011623671918
 30
0.0
 70
    32
  0
VERTEX
  5
36B
  8
0
  6
CONTINUOUS
 62
     7
 10
721.5738376821708
 20
1761.011623671918
 30
0.0
 70
    32
  0
VERTEX
  5
36C
  8
0
  6
CONTINUOUS
 62
     7
 10
721.5974021109522
 20
1761.011623671918
 30
0.0
 70
    32
  0
VERTEX
  5
36D
  8
0
  6
CONTINUOUS
 62
     7
 10
721.6218577989528
 20
1761.011623671918
 30
0.0
 70
    32
  0
VERTEX
  5
36E
  8
0
  6
CONTINUOUS
 62
     7
 10
721.6471433719311
 20
1761.011623671918
 30
0.0
 70
    32
  0
VERTEX
  5
36F
  8
0
  6
CONTINUOUS
 62
     7
 10
721.6731974556461
 20
1761.011623671919
 30
0.0
 70
    32
  0
VERTEX
  5
370
  8
0
  6
CONTINUOUS
 62
     7
 10
721.6999586758562
 20
1761.011623671919
 30
0.0
 70
    32
  0
VERTEX
  5
371
  8
0
  6
CONTINUOUS
 62
     7
 10
721.7273656583201
 20
1761.011623671918
 30
0.0
 70
    32
  0
VERTEX
  5
372
  8
0
  6
CONTINUOUS
 62
     7
 10
721.7553570287967
 20
1761.011623671918
 30
0.0
 70
    32
  0
VERTEX
  5
373
  8
0
  6
CONTINUOUS
 62
     7
 10
721.7838714130444
 20
1761.011623671918
 30
0.0
 70
    32
  0
VERTEX
  5
374
  8
0
  6
CONTINUOUS
 62
     7
 10
721.812856063898
 20
1761.011623671918
 30
0.0
 70
    32
  0
VERTEX
  5
375
  8
0
  6
CONTINUOUS
 62
     7
 10
721.8423003727783
 20
1761.011623671918
 30
0.0
 70
    32
  0
VERTEX
  5
376
  8
0
  6
CONTINUOUS
 62
     7
 10
721.8722065771874
 20
1761.011623671919
 30
0.0
 70
    32
  0
VERTEX
  5
377
  8
0
  6
CONTINUOUS
 62
     7
 10
721.9025769177338
 20
1761.011623671918
 30
0.0
 70
    32
  0
VERTEX
  5
378
  8
0
  6
CONTINUOUS
 62
     7
 10
721.9334136350266
 20
1761.011623671918
 30
0.0
 70
    32
  0
VERTEX
  5
379
  8
0
  6
CONTINUOUS
 62
     7
 10
721.9647189696743
 20
1761.011623671918
 30
0.0
 70
    32
  0
VERTEX
  5
37A
  8
0
  6
CONTINUOUS
 62
     7
 10
721.9964951622857
 20
1761.011623671918
 30
0.0
 70
    32
  0
VERTEX
  5
37B
  8
0
  6
CONTINUOUS
 62
     7
 10
722.0287444534696
 20
1761.011623671919
 30
0.0
 70
    32
  0
VERTEX
  5
37C
  8
0
  6
CONTINUOUS
 62
     7
 10
722.0614690838345
 20
1761.011623671918
 30
0.0
 70
    32
  0
VERTEX
  5
37D
  8
0
  6
CONTINUOUS
 62
     7
 10
722.0946712939894
 20
1761.011623671918
 30
0.0
 70
    32
  0
VERTEX
  5
37E
  8
0
  6
CONTINUOUS
 62
     7
 10
722.128351732798
 20
1761.011623671918
 30
0.0
 70
    32
  0
VERTEX
  5
37F
  8
0
  6
CONTINUOUS
 62
     7
 10
722.1624991261212
 20
1761.011623671918
 30
0.0
 70
    32
  0
VERTEX
  5
380
  8
0
  6
CONTINUOUS
 62
     7
 10
722.1970967930315
 20
1761.011623671918
 30
0.0
 70
    32
  0
VERTEX
  5
381
  8
0
  6
CONTINUOUS
 62
     7
 10
722.2321280257212
 20
1761.011623671918
 30
0.0
 70
    32
  0
VERTEX
  5
382
  8
0
  6
CONTINUOUS
 62
     7
 10
722.2675761163828
 20
1761.011623671919
 30
0.0
 70
    32
  0
VERTEX
  5
383
  8
0
  6
CONTINUOUS
 62
     7
 10
722.3034243572083
 20
1761.011623671918
 30
0.0
 70
    32
  0
VERTEX
  5
384
  8
0
  6
CONTINUOUS
 62
     7
 10
722.3396560403901
 20
1761.011623671918
 30
0.0
 70
    32
  0
VERTEX
  5
385
  8
0
  6
CONTINUOUS
 62
     7
 10
722.3762544581208
 20
1761.011623671919
 30
0.0
 70
    32
  0
VERTEX
  5
386
  8
0
  6
CONTINUOUS
 62
     7
 10
722.4132029025925
 20
1761.011623671918
 30
0.0
 70
    32
  0
VERTEX
  5
387
  8
0
  6
CONTINUOUS
 62
     7
 10
722.4504846659978
 20
1761.011623671918
 30
0.0
 70
    32
  0
VERTEX
  5
388
  8
0
  6
CONTINUOUS
 62
     7
 10
722.4880830425345
 20
1761.011623671919
 30
0.0
 70
    32
  0
VERTEX
  5
389
  8
0
  6
CONTINUOUS
 62
     7
 10
722.5259813516763
 20
1761.011623671918
 30
0.0
 70
    32
  0
VERTEX
  5
38A
  8
0
  6
CONTINUOUS
 62
     7
 10
722.5641629301834
 20
1761.011623671919
 30
0.0
 70
    32
  0
VERTEX
  5
38B
  8
0
  6
CONTINUOUS
 62
     7
 10
722.6026111151523
 20
1761.011623671919
 30
0.0
 70
    32
  0
VERTEX
  5
38C
  8
0
  6
CONTINUOUS
 62
     7
 10
722.6413092436791
 20
1761.011623671919
 30
0.0
 70
    32
  0
VERTEX
  5
38D
  8
0
  6
CONTINUOUS
 62
     7
 10
722.6802406528597
 20
1761.011623671919
 30
0.0
 70
    32
  0
VERTEX
  5
38E
  8
0
  6
CONTINUOUS
 62
     7
 10
722.7193886797905
 20
1761.01162367192
 30
0.0
 70
    32
  0
VERTEX
  5
38F
  8
0
  6
CONTINUOUS
 62
     7
 10
722.7587366615676
 20
1761.01162367192
 30
0.0
 70
    32
  0
VERTEX
  5
390
  8
0
  6
CONTINUOUS
 62
     7
 10
722.798267935287
 20
1761.01162367192
 30
0.0
 70
    32
  0
VERTEX
  5
391
  8
0
  6
CONTINUOUS
 62
     7
 10
722.837965838045
 20
1761.011623671921
 30
0.0
 70
    32
  0
VERTEX
  5
392
  8
0
  6
CONTINUOUS
 62
     7
 10
722.8778137069376
 20
1761.011623671921
 30
0.0
 70
    32
  0
VERTEX
  5
393
  8
0
  6
CONTINUOUS
 62
     7
 10
722.9177948790611
 20
1761.011623671922
 30
0.0
 70
    32
  0
VERTEX
  5
394
  8
0
  6
CONTINUOUS
 62
     7
 10
722.9578926915115
 20
1761.011623671922
 30
0.0
 70
    32
  0
VERTEX
  5
395
  8
0
  6
CONTINUOUS
 62
     7
 10
722.9980904813851
 20
1761.011623671922
 30
0.0
 70
    32
  0
VERTEX
  5
396
  8
0
  6
CONTINUOUS
 62
     7
 10
723.038371585778
 20
1761.011623671923
 30
0.0
 70
    32
  0
VERTEX
  5
397
  8
0
  6
CONTINUOUS
 62
     7
 10
723.0787193417863
 20
1761.011623671923
 30
0.0
 70
    32
  0
VERTEX
  5
398
  8
0
  6
CONTINUOUS
 62
     7
 10
723.1191170865061
 20
1761.011623671923
 30
0.0
 70
    32
  0
VERTEX
  5
399
  8
0
  6
CONTINUOUS
 62
     7
 10
723.1595481570336
 20
1761.011623671924
 30
0.0
 70
    32
  0
VERTEX
  5
39A
  8
0
  6
CONTINUOUS
 62
     7
 10
723.199995890465
 20
1761.011623671924
 30
0.0
 70
    32
  0
SEQEND
  5
6CE
  8
0
  6
CONTINUOUS
 62
     7
  0
LINE
  5
E2
  8
0
  6
CONTINUOUS
 62
     7
 10
723.1999958904673
 20
1760.011623671925
 30
0.0
 11
723.199995890465
 21
1761.011623671924
 31
0.0
  0
POLYLINE
  5
E3
  8
0
  6
CONTINUOUS
 62
     7
 10
0.0
 20
0.0
 30
0.0
 66
     1
 70
     8
  0
VERTEX
  5
39B
  8
0
  6
CONTINUOUS
 62
     7
 10
723.1999958904888
 20
1704.011623671919
 30
0.0
 70
    32
  0
VERTEX
  5
39C
  8
0
  6
CONTINUOUS
 62
     7
 10
723.1595474117914
 20
1704.011623671919
 30
0.0
 70
    32
  0
VERTEX
  5
39D
  8
0
  6
CONTINUOUS
 62
     7
 10
723.1191155994891
 20
1704.011623671919
 30
0.0
 70
    32
  0
VERTEX
  5
39E
  8
0
  6
CONTINUOUS
 62
     7
 10
723.0787171199763
 20
1704.011623671919
 30
0.0
 70
    32
  0
VERTEX
  5
39F
  8
0
  6
CONTINUOUS
 62
     7
 10
723.0383686396481
 20
1704.011623671918
 30
0.0
 70
    32
  0
VERTEX
  5
3A0
  8
0
  6
CONTINUOUS
 62
     7
 10
722.9980868248989
 20
1704.011623671918
 30
0.0
 70
    32
  0
VERTEX
  5
3A1
  8
0
  6
CONTINUOUS
 62
     7
 10
722.9578883421237
 20
1704.011623671918
 30
0.0
 70
    32
  0
VERTEX
  5
3A2
  8
0
  6
CONTINUOUS
 62
     7
 10
722.9177898577178
 20
1704.011623671919
 30
0.0
 70
    32
  0
VERTEX
  5
3A3
  8
0
  6
CONTINUOUS
 62
     7
 10
722.8778080380753
 20
1704.011623671919
 30
0.0
 70
    32
  0
VERTEX
  5
3A4
  8
0
  6
CONTINUOUS
 62
     7
 10
722.8379595495916
 20
1704.011623671919
 30
0.0
 70
    32
  0
VERTEX
  5
3A5
  8
0
  6
CONTINUOUS
 62
     7
 10
722.7982610586608
 20
1704.011623671918
 30
0.0
 70
    32
  0
VERTEX
  5
3A6
  8
0
  6
CONTINUOUS
 62
     7
 10
722.7587292316786
 20
1704.011623671919
 30
0.0
 70
    32
  0
VERTEX
  5
3A7
  8
0
  6
CONTINUOUS
 62
     7
 10
722.7193807350391
 20
1704.011623671919
 30
0.0
 70
    32
  0
VERTEX
  5
3A8
  8
0
  6
CONTINUOUS
 62
     7
 10
722.6802322351373
 20
1704.011623671918
 30
0.0
 70
    32
  0
VERTEX
  5
3A9
  8
0
  6
CONTINUOUS
 62
     7
 10
722.6413003983683
 20
1704.011623671919
 30
0.0
 70
    32
  0
VERTEX
  5
3AA
  8
0
  6
CONTINUOUS
 62
     7
 10
722.6026018911266
 20
1704.011623671918
 30
0.0
 70
    32
  0
VERTEX
  5
3AB
  8
0
  6
CONTINUOUS
 62
     7
 10
722.5641533798073
 20
1704.011623671919
 30
0.0
 70
    32
  0
VERTEX
  5
3AC
  8
0
  6
CONTINUOUS
 62
     7
 10
722.5259715308049
 20
1704.011623671918
 30
0.0
 70
    32
  0
VERTEX
  5
3AD
  8
0
  6
CONTINUOUS
 62
     7
 10
722.4880730105144
 20
1704.011623671918
 30
0.0
 70
    32
  0
VERTEX
  5
3AE
  8
0
  6
CONTINUOUS
 62
     7
 10
722.4504744855728
 20
1704.011623671918
 30
0.0
 70
    32
  0
VERTEX
  5
3AF
  8
0
  6
CONTINUOUS
 62
     7
 10
722.4131926350789
 20
1704.011623671919
 30
0.0
 70
    32
  0
VERTEX
  5
3B0
  8
0
  6
CONTINUOUS
 62
     7
 10
722.3762441563365
 20
1704.011623671918
 30
0.0
 70
    32
  0
VERTEX
  5
3B1
  8
0
  6
CONTINUOUS
 62
     7
 10
722.3396457480937
 20
1704.011623671918
 30
0.0
 70
    32
  0
VERTEX
  5
3B2
  8
0
  6
CONTINUOUS
 62
     7
 10
722.3034141090993
 20
1704.011623671918
 30
0.0
 70
    32
  0
VERTEX
  5
3B3
  8
0
  6
CONTINUOUS
 62
     7
 10
722.2675659381
 20
1704.011623671918
 30
0.0
 70
    32
  0
VERTEX
  5
3B4
  8
0
  6
CONTINUOUS
 62
     7
 10
722.2321179338444
 20
1704.011623671919
 30
0.0
 70
    32
  0
VERTEX
  5
3B5
  8
0
  6
CONTINUOUS
 62
     7
 10
722.1970867950802
 20
1704.011623671918
 30
0.0
 70
    32
  0
VERTEX
  5
3B6
  8
0
  6
CONTINUOUS
 62
     7
 10
722.1624892205552
 20
1704.011623671919
 30
0.0
 70
    32
  0
VERTEX
  5
3B7
  8
0
  6
CONTINUOUS
 62
     7
 10
722.1283419090176
 20
1704.011623671918
 30
0.0
 70
    32
  0
VERTEX
  5
3B8
  8
0
  6
CONTINUOUS
 62
     7
 10
722.0946615266192
 20
1704.011623671918
 30
0.0
 70
    32
  0
VERTEX
  5
3B9
  8
0
  6
CONTINUOUS
 62
     7
 10
722.061459180076
 20
1704.011623671918
 30
0.0
 70
    32
  0
VERTEX
  5
3BA
  8
0
  6
CONTINUOUS
 62
     7
 10
722.0287341779184
 20
1704.011623671918
 30
0.0
 70
    32
  0
VERTEX
  5
3BB
  8
0
  6
CONTINUOUS
 62
     7
 10
721.9964843221409
 20
1704.011623671919
 30
0.0
 70
    32
  0
VERTEX
  5
3BC
  8
0
  6
CONTINUOUS
 62
     7
 10
721.964707414737
 20
1704.011623671919
 30
0.0
 70
    32
  0
VERTEX
  5
3BD
  8
0
  6
CONTINUOUS
 62
     7
 10
721.9334012577008
 20
1704.011623671918
 30
0.0
 70
    32
  0
VERTEX
  5
3BE
  8
0
  6
CONTINUOUS
 62
     7
 10
721.9025636530263
 20
1704.011623671918
 30
0.0
 70
    32
  0
VERTEX
  5
3BF
  8
0
  6
CONTINUOUS
 62
     7
 10
721.8721924027077
 20
1704.011623671919
 30
0.0
 70
    32
  0
VERTEX
  5
3C0
  8
0
  6
CONTINUOUS
 62
     7
 10
721.8422853087386
 20
1704.011623671919
 30
0.0
 70
    32
  0
VERTEX
  5
3C1
  8
0
  6
CONTINUOUS
 62
     7
 10
721.8128401731132
 20
1704.011623671918
 30
0.0
 70
    32
  0
VERTEX
  5
3C2
  8
0
  6
CONTINUOUS
 62
     7
 10
721.783854801015
 20
1704.011623671919
 30
0.0
 70
    32
  0
VERTEX
  5
3C3
  8
0
  6
CONTINUOUS
 62
     7
 10
721.7553398706957
 20
1704.011623671918
 30
0.0
 70
    32
  0
VERTEX
  5
3C4
  8
0
  6
CONTINUOUS
 62
     7
 10
721.7273482155787
 20
1704.011623671918
 30
0.0
 70
    32
  0
VERTEX
  5
3C5
  8
0
  6
CONTINUOUS
 62
     7
 10
721.699941284555
 20
1704.011623671919
 30
0.0
 70
    32
  0
VERTEX
  5
3C6
  8
0
  6
CONTINUOUS
 62
     7
 10
721.6731805265165
 20
1704.011623671919
 30
0.0
 70
    32
  0
VERTEX
  5
3C7
  8
0
  6
CONTINUOUS
 62
     7
 10
721.6471273903538
 20
1704.011623671918
 30
0.0
 70
    32
  0
VERTEX
  5
3C8
  8
0
  6
CONTINUOUS
 62
     7
 10
721.6218433249587
 20
1704.011623671918
 30
0.0
 70
    32
  0
VERTEX
  5
3C9
  8
0
  6
CONTINUOUS
 62
     7
 10
721.5973897792225
 20
1704.011623671919
 30
0.0
 70
    32
  0
VERTEX
  5
3CA
  8
0
  6
CONTINUOUS
 62
     7
 10
721.5738282020362
 20
1704.011623671919
 30
0.0
 70
    32
  0
VERTEX
  5
3CB
  8
0
  6
CONTINUOUS
 62
     7
 10
721.5512200422914
 20
1704.011623671919
 30
0.0
 70
    32
  0
VERTEX
  5
3CC
  8
0
  6
CONTINUOUS
 62
     7
 10
721.5296267488794
 20
1704.011623671919
 30
0.0
 70
    32
  0
VERTEX
  5
3CD
  8
0
  6
CONTINUOUS
 62
     7
 10
721.5090806838305
 20
1704.011623671919
 30
0.0
 70
    32
  0
VERTEX
  5
3CE
  8
0
  6
CONTINUOUS
 62
     7
 10
721.4894703207577
 20
1704.011623671918
 30
0.0
 70
    32
  0
VERTEX
  5
3CF
  8
0
  6
CONTINUOUS
 62
     7
 10
721.4706397199647
 20
1704.011623671919
 30
0.0
 70
    32
  0
VERTEX
  5
3D0
  8
0
  6
CONTINUOUS
 62
     7
 10
721.4524329289949
 20
1704.011623671919
 30
0.0
 70
    32
  0
VERTEX
  5
3D1
  8
0
  6
CONTINUOUS
 62
     7
 10
721.4346939953928
 20
1704.011623671919
 30
0.0
 70
    32
  0
VERTEX
  5
3D2
  8
0
  6
CONTINUOUS
 62
     7
 10
721.4172669667024
 20
1704.011623671919
 30
0.0
 70
    32
  0
VERTEX
  5
3D3
  8
0
  6
CONTINUOUS
 62
     7
 10
721.3999958904681
 20
1704.011623671919
 30
0.0
 70
    32
  0
SEQEND
  5
6CF
  8
0
  6
CONTINUOUS
 62
     7
  0
LINE
  5
E4
  8
0
  6
CONTINUOUS
 62
     7
 10
723.1999958904765
 20
1705.011623671918
 30
0.0
 11
723.1999958904888
 21
1704.011623671919
 31
0.0
  0
LINE
  5
E5
  8
0
  6
CONTINUOUS
 62
     7
 10
723.3999958904674
 20
1760.011623671925
 30
0.0
 11
723.1999958904673
 21
1760.011623671925
 31
0.0
  0
LINE
  5
E6
  8
0
  6
CONTINUOUS
 62
     7
 10
723.1999958904673
 20
1760.011623671925
 30
0.0
 11
723.1999958904679
 21
1750.903197829669
 31
0.0
  0
POLYLINE
  5
E7
  8
0
  6
CONTINUOUS
 62
     7
 66
     1
 10
0.0
 20
0.0
 30
0.0
  0
VERTEX
  5
3D4
  8
0
  6
CONTINUOUS
 62
     7
 10
721.399995890468
 20
1742.754122313598
 30
0.0
  0
VERTEX
  5
3D5
  8
0
  6
CONTINUOUS
 62
     7
 10
721.4088602327282
 20
1742.74532583079
 30
0.0
  0
VERTEX
  5
3D6
  8
0
  6
CONTINUOUS
 62
     7
 10
721.4178435516211
 20
1742.736680031401
 30
0.0
  0
VERTEX
  5
3D7
  8
0
  6
CONTINUOUS
 62
     7
 10
721.4270365772219
 20
1742.728300276814
 30
0.0
  0
VERTEX
  5
3D8
  8
0
  6
CONTINUOUS
 62
     7
 10
721.4364432300675
 20
1742.720193373964
 30
0.0
  0
VERTEX
  5
3D9
  8
0
  6
CONTINUOUS
 62
     7
 10
721.4460508088946
 20
1742.712345344389
 30
0.0
  0
VERTEX
  5
3DA
  8
0
  6
CONTINUOUS
 62
     7
 10
721.4558466124402
 20
1742.70474220963
 30
0.0
  0
VERTEX
  5
3DB
  8
0
  6
CONTINUOUS
 62
     7
 10
721.4658179394407
 20
1742.697369991227
 30
0.0
  0
VERTEX
  5
3DC
  8
0
  6
CONTINUOUS
 62
     7
 10
721.4759520886333
 20
1742.690214710721
 30
0.0
  0
VERTEX
  5
3DD
  8
0
  6
CONTINUOUS
 62
     7
 10
721.4862363587551
 20
1742.68326238965
 30
0.0
  0
VERTEX
  5
3DE
  8
0
  6
CONTINUOUS
 62
     7
 10
721.4966580485428
 20
1742.676499049556
 30
0.0
  0
VERTEX
  5
3DF
  8
0
  6
CONTINUOUS
 62
     7
 10
721.507204456733
 20
1742.669910711979
 30
0.0
  0
VERTEX
  5
3E0
  8
0
  6
CONTINUOUS
 62
     7
 10
721.5178628820628
 20
1742.663483398458
 30
0.0
  0
VERTEX
  5
3E1
  8
0
  6
CONTINUOUS
 62
     7
 10
721.5286206232688
 20
1742.657203130533
 30
0.0
  0
VERTEX
  5
3E2
  8
0
  6
CONTINUOUS
 62
     7
 10
721.5394649790885
 20
1742.651055929746
 30
0.0
  0
VERTEX
  5
3E3
  8
0
  6
CONTINUOUS
 62
     7
 10
721.5503832482578
 20
1742.645027817635
 30
0.0
  0
VERTEX
  5
3E4
  8
0
  6
CONTINUOUS
 62
     7
 10
721.5613627295144
 20
1742.639104815741
 30
0.0
  0
VERTEX
  5
3E5
  8
0
  6
CONTINUOUS
 62
     7
 10
721.572392490408
 20
1742.633275088649
 30
0.0
  0
VERTEX
  5
3E6
  8
0
  6
CONTINUOUS
 62
     7
 10
721.5834712678204
 20
1742.627538516036
 30
0.0
  0
VERTEX
  5
3E7
  8
0
  6
CONTINUOUS
 62
     7
 10
721.594601086095
 20
1742.621898960577
 30
0.0
  0
VERTEX
  5
3E8
  8
0
  6
CONTINUOUS
 62
     7
 10
721.6057839722952
 20
1742.616360288239
 30
0.0
  0
VERTEX
  5
3E9
  8
0
  6
CONTINUOUS
 62
     7
 10
721.617021953484
 20
1742.610926364993
 30
0.0
  0
VERTEX
  5
3EA
  8
0
  6
CONTINUOUS
 62
     7
 10
721.6283170567252
 20
1742.605601056809
 30
0.0
  0
VERTEX
  5
3EB
  8
0
  6
CONTINUOUS
 62
     7
 10
721.6396713090818
 20
1742.600388229655
 30
0.0
  0
VERTEX
  5
3EC
  8
0
  6
CONTINUOUS
 62
     7
 10
721.6510867376172
 20
1742.595291749501
 30
0.0
  0
VERTEX
  5
3ED
  8
0
  6
CONTINUOUS
 62
     7
 10
721.662565369395
 20
1742.590315482317
 30
0.0
  0
VERTEX
  5
3EE
  8
0
  6
CONTINUOUS
 62
     7
 10
721.6741092314783
 20
1742.585463294071
 30
0.0
  0
VERTEX
  5
3EF
  8
0
  6
CONTINUOUS
 62
     7
 10
721.6857203509302
 20
1742.580739050734
 30
0.0
  0
VERTEX
  5
3F0
  8
0
  6
CONTINUOUS
 62
     7
 10
721.6974007548145
 20
1742.576146618274
 30
0.0
  0
VERTEX
  5
3F1
  8
0
  6
CONTINUOUS
 62
     7
 10
721.7091524701942
 20
1742.571689862661
 30
0.0
  0
VERTEX
  5
3F2
  8
0
  6
CONTINUOUS
 62
     7
 10
721.7209775241329
 20
1742.567372649865
 30
0.0
  0
VERTEX
  5
3F3
  8
0
  6
CONTINUOUS
 62
     7
 10
721.7328779172517
 20
1742.563198851438
 30
0.0
  0
VERTEX
  5
3F4
  8
0
  6
CONTINUOUS
 62
     7
 10
721.7448542647296
 20
1742.559172631446
 30
0.0
  0
VERTEX
  5
3F5
  8
0
  6
CONTINUOUS
 62
     7
 10
721.7569051425822
 20
1742.55529858449
 30
0.0
  0
VERTEX
  5
3F6
  8
0
  6
CONTINUOUS
 62
     7
 10
721.7690289634863
 20
1742.55158133966
 30
0.0
  0
VERTEX
  5
3F7
  8
0
  6
CONTINUOUS
 62
     7
 10
721.7812241401178
 20
1742.548025526043
 30
0.0
  0
VERTEX
  5
3F8
  8
0
  6
CONTINUOUS
 62
     7
 10
721.7934890851527
 20
1742.54463577273
 30
0.0
  0
VERTEX
  5
3F9
  8
0
  6
CONTINUOUS
 62
     7
 10
721.8058222112678
 20
1742.541416708808
 30
0.0
  0
VERTEX
  5
3FA
  8
0
  6
CONTINUOUS
 62
     7
 10
721.8182219311382
 20
1742.538372963367
 30
0.0
  0
VERTEX
  5
3FB
  8
0
  6
CONTINUOUS
 62
     7
 10
721.8306866574404
 20
1742.535509165494
 30
0.0
  0
VERTEX
  5
3FC
  8
0
  6
CONTINUOUS
 62
     7
 10
721.8432148028511
 20
1742.532829944279
 30
0.0
  0
VERTEX
  5
3FD
  8
0
  6
CONTINUOUS
 62
     7
 10
721.8558047800457
 20
1742.53033992881
 30
0.0
  0
VERTEX
  5
3FE
  8
0
  6
CONTINUOUS
 62
     7
 10
721.8684550017007
 20
1742.528043748177
 30
0.0
  0
VERTEX
  5
3FF
  8
0
  6
CONTINUOUS
 62
     7
 10
721.8811638804921
 20
1742.525946031466
 30
0.0
  0
VERTEX
  5
400
  8
0
  6
CONTINUOUS
 62
     7
 10
721.8939295621102
 20
1742.524049478568
 30
0.0
  0
VERTEX
  5
401
  8
0
  6
CONTINUOUS
 62
     7
 10
721.9067483768503
 20
1742.522343671588
 30
0.0
  0
VERTEX
  5
402
  8
0
  6
CONTINUOUS
 62
     7
 10
721.9196158992316
 20
1742.520812731501
 30
0.0
  0
VERTEX
  5
403
  8
0
  6
CONTINUOUS
 62
     7
 10
721.9325277012866
 20
1742.519440761318
 30
0.0
  0
VERTEX
  5
404
  8
0
  6
CONTINUOUS
 62
     7
 10
721.945479355048
 20
1742.518211864048
 30
0.0
  0
VERTEX
  5
405
  8
0
  6
CONTINUOUS
 62
     7
 10
721.9584664325482
 20
1742.5171101427
 30
0.0
  0
VERTEX
  5
406
  8
0
  6
CONTINUOUS
 62
     7
 10
721.9714845058202
 20
1742.516119700286
 30
0.0
  0
VERTEX
  5
407
  8
0
  6
CONTINUOUS
 62
     7
 10
721.9845291468963
 20
1742.515224639812
 30
0.0
  0
VERTEX
  5
408
  8
0
  6
CONTINUOUS
 62
     7
 10
721.9975959278095
 20
1742.514409064292
 30
0.0
  0
VERTEX
  5
409
  8
0
  6
CONTINUOUS
 62
     7
 10
722.0106804205918
 20
1742.513657076732
 30
0.0
  0
VERTEX
  5
40A
  8
0
  6
CONTINUOUS
 62
     7
 10
722.0237781972763
 20
1742.512952780143
 30
0.0
  0
VERTEX
  5
40B
  8
0
  6
CONTINUOUS
 62
     7
 10
722.0368848298958
 20
1742.512280277535
 30
0.0
  0
VERTEX
  5
40C
  8
0
  6
CONTINUOUS
 62
     7
 10
722.0499958904825
 20
1742.511623671917
 30
0.0
  0
SEQEND
  5
6D0
  8
0
  6
CONTINUOUS
 62
     7
  0
LINE
  5
E8
  8
0
  6
CONTINUOUS
 62
     7
 10
722.8999958904745
 20
1742.511623671917
 30
0.0
 11
722.0499958904825
 21
1742.511623671917
 31
0.0
  0
LINE
  5
E9
  8
0
  6
CONTINUOUS
 62
     7
 10
723.3999958904766
 20
1705.011623671918
 30
0.0
 11
723.1999958904765
 21
1705.011623671918
 31
0.0
  0
LINE
  5
EA
  8
0
  6
CONTINUOUS
 62
     7
 10
723.1999958904736
 20
1714.120049514167
 30
0.0
 11
723.1999958904765
 21
1705.011623671918
 31
0.0
  0
POLYLINE
  5
EB
  8
0
  6
CONTINUOUS
 62
     7
 66
     1
 10
0.0
 20
0.0
 30
0.0
  0
VERTEX
  5
40D
  8
0
  6
CONTINUOUS
 62
     7
 10
722.0499958904715
 20
1722.511623671917
 30
0.0
  0
VERTEX
  5
40E
  8
0
  6
CONTINUOUS
 62
     7
 10
722.0271104318413
 20
1722.509348348925
 30
0.0
  0
VERTEX
  5
40F
  8
0
  6
CONTINUOUS
 62
     7
 10
722.0042449676404
 20
1722.507032098451
 30
0.0
  0
VERTEX
  5
410
  8
0
  6
CONTINUOUS
 62
     7
 10
721.9814194922984
 20
1722.504633993012
 30
0.0
  0
VERTEX
  5
411
  8
0
  6
CONTINUOUS
 62
     7
 10
721.9586540002451
 20
1722.502113105126
 30
0.0
  0
VERTEX
  5
412
  8
0
  6
CONTINUOUS
 62
     7
 10
721.93596848591
 20
1722.499428507311
 30
0.0
  0
VERTEX
  5
413
  8
0
  6
CONTINUOUS
 62
     7
 10
721.9133829437224
 20
1722.496539272084
 30
0.0
  0
VERTEX
  5
414
  8
0
  6
CONTINUOUS
 62
     7
 10
721.8909173681117
 20
1722.493404471963
 30
0.0
  0
VERTEX
  5
415
  8
0
  6
CONTINUOUS
 62
     7
 10
721.8685917535075
 20
1722.489983179467
 30
0.0
  0
VERTEX
  5
416
  8
0
  6
CONTINUOUS
 62
     7
 10
721.8464260943393
 20
1722.486234467111
 30
0.0
  0
VERTEX
  5
417
  8
0
  6
CONTINUOUS
 62
     7
 10
721.824440385037
 20
1722.482117407416
 30
0.0
  0
VERTEX
  5
418
  8
0
  6
CONTINUOUS
 62
     7
 10
721.8026546200296
 20
1722.477591072897
 30
0.0
  0
VERTEX
  5
419
  8
0
  6
CONTINUOUS
 62
     7
 10
721.7810887937468
 20
1722.472614536072
 30
0.0
  0
VERTEX
  5
41A
  8
0
  6
CONTINUOUS
 62
     7
 10
721.759762900618
 20
1722.46714686946
 30
0.0
  0
VERTEX
  5
41B
  8
0
  6
CONTINUOUS
 62
     7
 10
721.738696935073
 20
1722.461147145578
 30
0.0
  0
VERTEX
  5
41C
  8
0
  6
CONTINUOUS
 62
     7
 10
721.7179108915409
 20
1722.454574436944
 30
0.0
  0
VERTEX
  5
41D
  8
0
  6
CONTINUOUS
 62
     7
 10
721.6974247644515
 20
1722.447387816075
 30
0.0
  0
VERTEX
  5
41E
  8
0
  6
CONTINUOUS
 62
     7
 10
721.6772545617126
 20
1722.439554515676
 30
0.0
  0
VERTEX
  5
41F
  8
0
  6
CONTINUOUS
 62
     7
 10
721.6573903165721
 20
1722.431094937134
 30
0.0
  0
VERTEX
  5
420
  8
0
  6
CONTINUOUS
 62
     7
 10
721.6378116577193
 20
1722.422050779386
 30
0.0
  0
VERTEX
  5
421
  8
0
  6
CONTINUOUS
 62
     7
 10
721.6184981861338
 20
1722.412463798087
 30
0.0
  0
VERTEX
  5
422
  8
0
  6
CONTINUOUS
 62
     7
 10
721.5994295027949
 20
1722.402375748898
 30
0.0
  0
VERTEX
  5
423
  8
0
  6
CONTINUOUS
 62
     7
 10
721.5805852086821
 20
1722.391828387475
 30
0.0
  0
VERTEX
  5
424
  8
0
  6
CONTINUOUS
 62
     7
 10
721.5619449047748
 20
1722.380863469476
 30
0.0
  0
VERTEX
  5
425
  8
0
  6
CONTINUOUS
 62
     7
 10
721.5434881920526
 20
1722.369522750558
 30
0.0
  0
VERTEX
  5
426
  8
0
  6
CONTINUOUS
 62
     7
 10
721.5251946714948
 20
1722.357847986379
 30
0.0
  0
VERTEX
  5
427
  8
0
  6
CONTINUOUS
 62
     7
 10
721.507043944081
 20
1722.345880932597
 30
0.0
  0
VERTEX
  5
428
  8
0
  6
CONTINUOUS
 62
     7
 10
721.4890156107904
 20
1722.333663344868
 30
0.0
  0
VERTEX
  5
429
  8
0
  6
CONTINUOUS
 62
     7
 10
721.4710892726025
 20
1722.321236978852
 30
0.0
  0
VERTEX
  5
42A
  8
0
  6
CONTINUOUS
 62
     7
 10
721.4532445304969
 20
1722.308643590206
 30
0.0
  0
VERTEX
  5
42B
  8
0
  6
CONTINUOUS
 62
     7
 10
721.435460985453
 20
1722.295924934587
 30
0.0
  0
VERTEX
  5
42C
  8
0
  6
CONTINUOUS
 62
     7
 10
721.4177182384502
 20
1722.283122767652
 30
0.0
  0
VERTEX
  5
42D
  8
0
  6
CONTINUOUS
 62
     7
 10
721.399995890468
 20
1722.270278845059
 30
0.0
  0
SEQEND
  5
6D1
  8
0
  6
CONTINUOUS
 62
     7
  0
LINE
  5
EC
  8
0
  6
CONTINUOUS
 62
     7
 10
722.0499958904715
 20
1722.511623671917
 30
0.0
 11
722.8999958904742
 21
1722.51162367192
 31
0.0
  0
LINE
  5
ED
  8
0
  6
CONTINUOUS
 62
     7
 10
723.3999958904649
 20
1761.011623671924
 30
0.0
 11
723.199995890465
 21
1761.011623671924
 31
0.0
  0
LINE
  5
EE
  8
0
  6
CONTINUOUS
 62
     7
 10
723.3999958904888
 20
1704.011623671919
 30
0.0
 11
723.1999958904888
 21
1704.011623671919
 31
0.0
  0
LINE
  5
EF
  8
0
  6
CONTINUOUS
 62
     7
 10
721.3999958904864
 20
1739.011623671917
 30
0.0
 11
723.3999958904731
 21
1739.011623671917
 31
0.0
  0
LINE
  5
F0
  8
0
  6
CONTINUOUS
 62
     7
 10
723.399995890473
 20
1726.011623671916
 30
0.0
 11
721.3999958904863
 21
1726.011623671919
 31
0.0
  0
LINE
  5
F1
  8
0
  6
CONTINUOUS
 62
     7
 10
722.128713345287
 20
1725.061623671916
 30
0.0
 11
722.1287133452865
 21
1726.011623671919
 31
0.0
  0
LINE
  5
F2
  8
0
  6
CONTINUOUS
 62
     7
 10
722.1287133452814
 20
1739.011623671918
 30
0.0
 11
722.1287133452811
 21
1739.961623671917
 31
0.0
  0
LINE
  5
F3
  8
0
  6
CONTINUOUS
 62
     7
 10
722.128713345287
 20
1725.061623671916
 30
0.0
 11
721.3999958904864
 21
1725.061623671916
 31
0.0
  0
LINE
  5
F4
  8
0
  6
CONTINUOUS
 62
     7
 10
722.1287133452811
 20
1739.961623671917
 30
0.0
 11
721.3999958904864
 21
1739.961623671917
 31
0.0
  0
LINE
  5
F5
  8
0
  6
CONTINUOUS
 62
     7
 10
722.1900828408824
 20
1725.061623671919
 30
0.0
 11
722.1900828408827
 21
1726.011623671919
 31
0.0
  0
LINE
  5
F6
  8
0
  6
CONTINUOUS
 62
     7
 10
722.1900828408868
 20
1739.011623671918
 30
0.0
 11
722.1900828408872
 21
1739.961623671915
 31
0.0
  0
LINE
  5
F7
  8
0
  6
CONTINUOUS
 62
     7
 10
722.1900828408824
 20
1725.061623671919
 30
0.0
 11
722.128713345287
 21
1725.061623671916
 31
0.0
  0
LINE
  5
F8
  8
0
  6
CONTINUOUS
 62
     7
 10
722.1900828408872
 20
1739.961623671915
 30
0.0
 11
722.1287133452811
 21
1739.961623671917
 31
0.0
  0
LINE
  5
F9
  8
0
  6
CONTINUOUS
 62
     7
 10
721.3999958904863
 20
2177.011623671917
 30
0.0
 11
723.3999958904832
 21
2177.011623671919
 31
0.0
  0
LINE
  5
FA
  8
0
  6
CONTINUOUS
 62
     7
 10
723.3999958904832
 20
2164.011623671919
 30
0.0
 11
721.3999958904863
 21
2164.011623671919
 31
0.0
  0
LINE
  5
FB
  8
0
  6
CONTINUOUS
 62
     7
 10
722.1287133452927
 20
2163.061623671916
 30
0.0
 11
722.1287133452922
 21
2164.011623671919
 31
0.0
  0
LINE
  5
FC
  8
0
  6
CONTINUOUS
 62
     7
 10
722.1287133452871
 20
2177.011623671917
 30
0.0
 11
722.1287133452869
 21
2177.961623671917
 31
0.0
  0
LINE
  5
FD
  8
0
  6
CONTINUOUS
 62
     7
 10
722.1287133452869
 20
2177.961623671917
 30
0.0
 11
721.3999958904864
 21
2177.961623671917
 31
0.0
  0
LINE
  5
FE
  8
0
  6
CONTINUOUS
 62
     7
 10
722.1287133452927
 20
2163.061623671916
 30
0.0
 11
721.3999958904864
 21
2163.061623671916
 31
0.0
  0
LINE
  5
FF
  8
0
  6
CONTINUOUS
 62
     7
 10
722.1900828408882
 20
2163.061623671918
 30
0.0
 11
722.1900828408884
 21
2164.011623671919
 31
0.0
  0
LINE
  5
100
  8
0
  6
CONTINUOUS
 62
     7
 10
722.1900828408926
 20
2177.011623671918
 30
0.0
 11
722.190082840893
 21
2177.961623671915
 31
0.0
  0
LINE
  5
101
  8
0
  6
CONTINUOUS
 62
     7
 10
722.190082840893
 20
2177.961623671915
 30
0.0
 11
722.1287133452869
 21
2177.961623671917
 31
0.0
  0
LINE
  5
102
  8
0
  6
CONTINUOUS
 62
     7
 10
722.1900828408882
 20
2163.061623671918
 30
0.0
 11
722.1287133452927
 21
2163.061623671916
 31
0.0
  0
LINE
  5
103
  8
0
  6
CONTINUOUS
 62
     7
 10
722.8999958904856
 20
2163.036623671917
 30
0.0
 11
722.5884300876476
 21
2163.036623671917
 31
0.0
  0
LINE
  5
104
  8
0
  6
CONTINUOUS
 62
     7
 10
722.5884300876506
 20
2177.986623671917
 30
0.0
 11
722.5884300876504
 21
2177.011623671918
 31
0.0
  0
LINE
  5
105
  8
0
  6
CONTINUOUS
 62
     7
 10
722.5884300876477
 20
2164.011623671919
 30
0.0
 11
722.5884300876476
 21
2163.036623671917
 31
0.0
  0
LINE
  5
106
  8
0
  6
CONTINUOUS
 62
     7
 10
722.8999958904701
 20
2177.986623671917
 30
0.0
 11
722.5884300876506
 21
2177.986623671917
 31
0.0
  0
LINE
  5
107
  8
0
  6
CONTINUOUS
 62
     7
 10
722.5884300876476
 20
2163.036623671917
 30
0.0
 11
722.549287493188
 21
2163.036623671917
 31
0.0
  0
LINE
  5
108
  8
0
  6
CONTINUOUS
 62
     7
 10
722.5884300876506
 20
2177.986623671917
 30
0.0
 11
722.549287493191
 21
2177.986623671917
 31
0.0
  0
LINE
  5
109
  8
0
  6
CONTINUOUS
 62
     7
 10
722.8999958904798
 20
1725.036623671917
 30
0.0
 11
722.5884300876419
 21
1725.036623671916
 31
0.0
  0
LINE
  5
10A
  8
0
  6
CONTINUOUS
 62
     7
 10
722.5884300876448
 20
1739.986623671917
 30
0.0
 11
722.5884300876446
 21
1739.011623671918
 31
0.0
  0
LINE
  5
10B
  8
0
  6
CONTINUOUS
 62
     7
 10
722.5884300876421
 20
1726.011623671919
 30
0.0
 11
722.5884300876419
 21
1725.036623671916
 31
0.0
  0
LINE
  5
10C
  8
0
  6
CONTINUOUS
 62
     7
 10
722.8999958904645
 20
1739.986623671917
 30
0.0
 11
722.5884300876448
 21
1739.986623671917
 31
0.0
  0
LINE
  5
10D
  8
0
  6
CONTINUOUS
 62
     7
 10
722.5884300876419
 20
1725.036623671916
 30
0.0
 11
722.5492874931823
 21
1725.036623671916
 31
0.0
  0
LINE
  5
10E
  8
0
  6
CONTINUOUS
 62
     7
 10
722.5884300876448
 20
1739.986623671917
 30
0.0
 11
722.5492874931851
 21
1739.986623671917
 31
0.0
  0
LINE
  5
10F
  8
0
  6
CONTINUOUS
 62
     7
 10
738.3999958904831
 20
2250.511623671919
 30
0.0
 11
738.3999958904831
 21
1652.511623671919
 31
0.0
  0
LINE
  5
110
  8
0
  6
CONTINUOUS
 62
     7
 10
723.3999958904831
 20
2250.511623671919
 30
0.0
 11
723.3999958904831
 21
1652.511623671919
 31
0.0
  0
LINE
  5
111
  8
0
  6
CONTINUOUS
 62
     7
 10
738.3999958904831
 20
1652.511623671919
 30
0.0
 11
723.3999958904831
 21
1652.511623671919
 31
0.0
  0
LINE
  5
112
  8
0
  6
CONTINUOUS
 62
     7
 10
738.3999958904831
 20
2250.511623671919
 30
0.0
 11
723.3999958904831
 21
2250.511623671919
 31
0.0
  0
LINE
  5
113
  8
0
  6
CONTINUOUS
 62
     7
 10
721.3999958904863
 20
2245.511623671919
 30
0.0
 11
721.3999958904863
 21
1657.511623671918
 31
0.0
  0
LINE
  5
114
  8
0
  6
CONTINUOUS
 62
     7
 10
721.3999958904863
 20
2245.511623671919
 30
0.0
 11
573.3999958904861
 21
2245.511623671919
 31
0.0
  0
LINE
  5
115
  8
0
  6
CONTINUOUS
 62
     7
 10
573.3999958904861
 20
2245.511623671919
 30
0.0
 11
573.3999958904861
 21
1657.511623671918
 31
0.0
  0
LINE
  5
116
  8
0
  6
CONTINUOUS
 62
     7
 10
721.3999958904863
 20
1657.511623671918
 30
0.0
 11
573.3999958904861
 21
1657.511623671918
 31
0.0
  0
LINE
  5
117
  8
0
  6
CONTINUOUS
 62
     8
 10
723.199995890473
 20
2198.011623671925
 30
0.0
 11
721.3999958904861
 21
2198.011623671925
 31
0.0
  0
LINE
  5
118
  8
0
  6
CONTINUOUS
 62
     8
 10
723.1999958904823
 20
2143.011623671917
 30
0.0
 11
721.3999958904861
 21
2143.011623671918
 31
0.0
  0
LINE
  5
119
  8
0
  6
CONTINUOUS
 62
     8
 10
722.0499958904804
 20
2178.886623671917
 30
0.0
 11
722.0499958904777
 21
2180.511623671915
 31
0.0
  0
LINE
  5
11A
  8
0
  6
CONTINUOUS
 62
     8
 10
722.049995890493
 20
2160.511623671919
 30
0.0
 11
722.0499958904801
 21
2162.136623671919
 31
0.0
  0
LINE
  5
11B
  8
0
  6
CONTINUOUS
 62
     8
 10
723.1999958904673
 20
1760.011623671925
 30
0.0
 11
721.3999958904861
 21
1760.011623671925
 31
0.0
  0
LINE
  5
11C
  8
0
  6
CONTINUOUS
 62
     8
 10
723.1999958904765
 20
1705.011623671918
 30
0.0
 11
721.3999958904861
 21
1705.011623671918
 31
0.0
  0
LINE
  5
11D
  8
0
  6
CONTINUOUS
 62
     8
 10
722.0499958904747
 20
1740.886623671917
 30
0.0
 11
722.0499958904719
 21
1742.511623671915
 31
0.0
  0
LINE
  5
11E
  8
0
  6
CONTINUOUS
 62
     8
 10
722.0499958904873
 20
1722.511623671918
 30
0.0
 11
722.0499958904745
 21
1724.136623671919
 31
0.0
  0
LINE
  5
11F
  8
0
  6
CONTINUOUS
 62
     7
 10
3956.051839640828
 20
1652.511623671915
 30
0.0
 11
3971.051839640828
 21
1652.511623671915
 31
0.0
  0
LINE
  5
120
  8
0
  6
CONTINUOUS
 62
     7
 10
3956.051839640828
 20
1652.511623671915
 30
0.0
 11
3956.051839640828
 21
2250.511623671915
 31
0.0
  0
LINE
  5
121
  8
0
  6
CONTINUOUS
 62
     7
 10
3956.051839640828
 20
2250.511623671915
 30
0.0
 11
3971.051839640828
 21
2250.511623671915
 31
0.0
  0
LINE
  5
122
  8
0
  6
CONTINUOUS
 62
     7
 10
3971.051839640828
 20
1652.511623671915
 30
0.0
 11
3971.051839640828
 21
2250.511623671915
 31
0.0
  0
LINE
  5
123
  8
0
  6
CONTINUOUS
 62
     7
 10
3972.917024565897
 20
1724.136623671919
 30
0.0
 11
3972.917024565898
 21
1725.06162367192
 31
0.0
  0
LINE
  5
124
  8
0
  6
CONTINUOUS
 62
     7
 10
3972.917024565907
 20
1739.961623671921
 30
0.0
 11
3972.917024565907
 21
1740.88662367192
 31
0.0
  0
LINE
  5
125
  8
0
  6
CONTINUOUS
 62
     7
 10
3972.917024565907
 20
1740.88662367192
 30
0.0
 11
3973.051839640826
 21
1740.88662367192
 31
0.0
  0
LINE
  5
126
  8
0
  6
CONTINUOUS
 62
     7
 10
3973.051839640826
 20
1724.13662367192
 30
0.0
 11
3972.917024565897
 21
1724.136623671919
 31
0.0
  0
LINE
  5
127
  8
0
  6
CONTINUOUS
 62
     7
 10
3971.551839640836
 20
1740.88662367192
 30
0.0
 11
3972.917024565907
 21
1740.88662367192
 31
0.0
  0
LINE
  5
128
  8
0
  6
CONTINUOUS
 62
     7
 10
3972.917024565897
 20
1724.136623671919
 30
0.0
 11
3971.551839640846
 21
1724.13662367192
 31
0.0
  0
LINE
  5
129
  8
0
  6
CONTINUOUS
 62
     7
 10
3972.917024565871
 20
2162.13662367192
 30
0.0
 11
3972.917024565872
 21
2163.061623671921
 31
0.0
  0
LINE
  5
12A
  8
0
  6
CONTINUOUS
 62
     7
 10
3972.91702456588
 20
2177.961623671922
 30
0.0
 11
3972.917024565881
 21
2178.88662367192
 31
0.0
  0
LINE
  5
12B
  8
0
  6
CONTINUOUS
 62
     7
 10
3972.917024565881
 20
2178.88662367192
 30
0.0
 11
3973.051839640814
 21
2178.88662367192
 31
0.0
  0
LINE
  5
12C
  8
0
  6
CONTINUOUS
 62
     7
 10
3973.051839640814
 20
2162.13662367192
 30
0.0
 11
3972.917024565871
 21
2162.13662367192
 31
0.0
  0
LINE
  5
12D
  8
0
  6
CONTINUOUS
 62
     7
 10
3971.551839640809
 20
2178.88662367192
 30
0.0
 11
3972.917024565881
 21
2178.88662367192
 31
0.0
  0
LINE
  5
12E
  8
0
  6
CONTINUOUS
 62
     7
 10
3972.917024565871
 20
2162.13662367192
 30
0.0
 11
3971.551839640819
 21
2162.13662367192
 31
0.0
  0
LINE
  5
12F
  8
0
  6
CONTINUOUS
 62
     7
 10
3971.551839640846
 20
1723.555665532861
 30
0.0
 11
3971.051839640824
 21
1723.55566553286
 31
0.0
  0
LINE
  5
130
  8
0
  6
CONTINUOUS
 62
     7
 10
3971.551839640846
 20
1725.111623672153
 30
0.0
 11
3971.051839640846
 21
1725.111623672153
 31
0.0
  0
LINE
  5
131
  8
0
  6
CONTINUOUS
 62
     7
 10
3971.551839640846
 20
1725.111623672153
 30
0.0
 11
3971.551839640846
 21
1723.555665532861
 31
0.0
  0
LINE
  5
132
  8
0
  6
CONTINUOUS
 62
     7
 10
3971.051839640824
 20
1741.467581810989
 30
0.0
 11
3971.551839640839
 21
1741.467581810988
 31
0.0
  0
LINE
  5
133
  8
0
  6
CONTINUOUS
 62
     7
 10
3971.551839640839
 20
1741.467581810988
 30
0.0
 11
3971.55183964083
 21
1739.911623671702
 31
0.0
  0
LINE
  5
134
  8
0
  6
CONTINUOUS
 62
     7
 10
3971.05183964083
 20
1739.911623671702
 30
0.0
 11
3971.55183964083
 21
1739.911623671702
 31
0.0
  0
LINE
  5
135
  8
0
  6
CONTINUOUS
 62
     7
 10
3971.251839640843
 20
1714.120049514168
 30
0.0
 11
3971.551839640843
 21
1714.120049514168
 31
0.0
  0
LINE
  5
136
  8
0
  6
CONTINUOUS
 62
     7
 10
3971.051839640843
 20
1714.120049514168
 30
0.0
 11
3971.251839640843
 21
1714.120049514168
 31
0.0
  0
LINE
  5
137
  8
0
  6
CONTINUOUS
 62
     7
 10
3971.551839640843
 20
1714.120049514168
 30
0.0
 11
3971.551839640846
 21
1723.555665532861
 31
0.0
  0
LINE
  5
138
  8
0
  6
CONTINUOUS
 62
     7
 10
3971.251839640837
 20
1750.90319782967
 30
0.0
 11
3971.051839640837
 21
1750.90319782967
 31
0.0
  0
LINE
  5
139
  8
0
  6
CONTINUOUS
 62
     7
 10
3971.551839640837
 20
1750.90319782967
 30
0.0
 11
3971.251839640837
 21
1750.90319782967
 31
0.0
  0
LINE
  5
13A
  8
0
  6
CONTINUOUS
 62
     7
 10
3971.551839640839
 20
1741.467581810988
 30
0.0
 11
3971.551839640837
 21
1750.90319782967
 31
0.0
  0
POLYLINE
  5
13B
  8
0
  6
CONTINUOUS
 62
     7
 10
0.0
 20
0.0
 30
0.0
 66
     1
 70
     8
  0
VERTEX
  5
42E
  8
0
  6
CONTINUOUS
 62
     7
 10
3973.051839640814
 20
1704.011623671919
 30
0.0
 70
    32
  0
VERTEX
  5
42F
  8
0
  6
CONTINUOUS
 62
     7
 10
3973.034570815435
 20
1704.011623671919
 30
0.0
 70
    32
  0
VERTEX
  5
430
  8
0
  6
CONTINUOUS
 62
     7
 10
3973.017145731964
 20
1704.011623671919
 30
0.0
 70
    32
  0
VERTEX
  5
431
  8
0
  6
CONTINUOUS
 62
     7
 10
3972.999408132312
 20
1704.01162367192
 30
0.0
 70
    32
  0
VERTEX
  5
432
  8
0
  6
CONTINUOUS
 62
     7
 10
3972.981201758383
 20
1704.011623671919
 30
0.0
 70
    32
  0
VERTEX
  5
433
  8
0
  6
CONTINUOUS
 62
     7
 10
3972.962370352091
 20
1704.01162367192
 30
0.0
 70
    32
  0
VERTEX
  5
434
  8
0
  6
CONTINUOUS
 62
     7
 10
3972.94275765534
 20
1704.011623671919
 30
0.0
 70
    32
  0
VERTEX
  5
435
  8
0
  6
CONTINUOUS
 62
     7
 10
3972.922207432051
 20
1704.011623671919
 30
0.0
 70
    32
  0
VERTEX
  5
436
  8
0
  6
CONTINUOUS
 62
     7
 10
3972.900609644431
 20
1704.011623671919
 30
0.0
 70
    32
  0
VERTEX
  5
437
  8
0
  6
CONTINUOUS
 62
     7
 10
3972.87799784911
 20
1704.011623671919
 30
0.0
 70
    32
  0
VERTEX
  5
438
  8
0
  6
CONTINUOUS
 62
     7
 10
3972.854433420328
 20
1704.011623671919
 30
0.0
 70
    32
  0
VERTEX
  5
439
  8
0
  6
CONTINUOUS
 62
     7
 10
3972.829977732328
 20
1704.011623671919
 30
0.0
 70
    32
  0
VERTEX
  5
43A
  8
0
  6
CONTINUOUS
 62
     7
 10
3972.804692159349
 20
1704.01162367192
 30
0.0
 70
    32
  0
VERTEX
  5
43B
  8
0
  6
CONTINUOUS
 62
     7
 10
3972.778638075633
 20
1704.011623671919
 30
0.0
 70
    32
  0
VERTEX
  5
43C
  8
0
  6
CONTINUOUS
 62
     7
 10
3972.751876855422
 20
1704.011623671919
 30
0.0
 70
    32
  0
VERTEX
  5
43D
  8
0
  6
CONTINUOUS
 62
     7
 10
3972.724469872959
 20
1704.011623671919
 30
0.0
 70
    32
  0
VERTEX
  5
43E
  8
0
  6
CONTINUOUS
 62
     7
 10
3972.696478502483
 20
1704.01162367192
 30
0.0
 70
    32
  0
VERTEX
  5
43F
  8
0
  6
CONTINUOUS
 62
     7
 10
3972.667964118235
 20
1704.011623671919
 30
0.0
 70
    32
  0
VERTEX
  5
440
  8
0
  6
CONTINUOUS
 62
     7
 10
3972.638979467381
 20
1704.011623671919
 30
0.0
 70
    32
  0
VERTEX
  5
441
  8
0
  6
CONTINUOUS
 62
     7
 10
3972.609535158501
 20
1704.011623671919
 30
0.0
 70
    32
  0
VERTEX
  5
442
  8
0
  6
CONTINUOUS
 62
     7
 10
3972.579628954093
 20
1704.011623671919
 30
0.0
 70
    32
  0
VERTEX
  5
443
  8
0
  6
CONTINUOUS
 62
     7
 10
3972.549258613547
 20
1704.011623671919
 30
0.0
 70
    32
  0
VERTEX
  5
444
  8
0
  6
CONTINUOUS
 62
     7
 10
3972.518421896255
 20
1704.011623671919
 30
0.0
 70
    32
  0
VERTEX
  5
445
  8
0
  6
CONTINUOUS
 62
     7
 10
3972.487116561607
 20
1704.011623671919
 30
0.0
 70
    32
  0
VERTEX
  5
446
  8
0
  6
CONTINUOUS
 62
     7
 10
3972.455340368997
 20
1704.011623671919
 30
0.0
 70
    32
  0
VERTEX
  5
447
  8
0
  6
CONTINUOUS
 62
     7
 10
3972.423091077813
 20
1704.011623671919
 30
0.0
 70
    32
  0
VERTEX
  5
448
  8
0
  6
CONTINUOUS
 62
     7
 10
3972.390366447448
 20
1704.011623671919
 30
0.0
 70
    32
  0
VERTEX
  5
449
  8
0
  6
CONTINUOUS
 62
     7
 10
3972.357164237294
 20
1704.011623671919
 30
0.0
 70
    32
  0
VERTEX
  5
44A
  8
0
  6
CONTINUOUS
 62
     7
 10
3972.323483798486
 20
1704.011623671919
 30
0.0
 70
    32
  0
VERTEX
  5
44B
  8
0
  6
CONTINUOUS
 62
     7
 10
3972.289336405164
 20
1704.011623671919
 30
0.0
 70
    32
  0
VERTEX
  5
44C
  8
0
  6
CONTINUOUS
 62
     7
 10
3972.254738738254
 20
1704.01162367192
 30
0.0
 70
    32
  0
VERTEX
  5
44D
  8
0
  6
CONTINUOUS
 62
     7
 10
3972.219707505565
 20
1704.011623671919
 30
0.0
 70
    32
  0
VERTEX
  5
44E
  8
0
  6
CONTINUOUS
 62
     7
 10
3972.184259414904
 20
1704.011623671919
 30
0.0
 70
    32
  0
VERTEX
  5
44F
  8
0
  6
CONTINUOUS
 62
     7
 10
3972.14841117408
 20
1704.01162367192
 30
0.0
 70
    32
  0
VERTEX
  5
450
  8
0
  6
CONTINUOUS
 62
     7
 10
3972.112179490899
 20
1704.011623671919
 30
0.0
 70
    32
  0
VERTEX
  5
451
  8
0
  6
CONTINUOUS
 62
     7
 10
3972.075581073169
 20
1704.01162367192
 30
0.0
 70
    32
  0
VERTEX
  5
452
  8
0
  6
CONTINUOUS
 62
     7
 10
3972.038632628698
 20
1704.011623671919
 30
0.0
 70
    32
  0
VERTEX
  5
453
  8
0
  6
CONTINUOUS
 62
     7
 10
3972.001350865294
 20
1704.011623671919
 30
0.0
 70
    32
  0
VERTEX
  5
454
  8
0
  6
CONTINUOUS
 62
     7
 10
3971.963752488757
 20
1704.011623671919
 30
0.0
 70
    32
  0
VERTEX
  5
455
  8
0
  6
CONTINUOUS
 62
     7
 10
3971.925854179616
 20
1704.011623671919
 30
0.0
 70
    32
  0
VERTEX
  5
456
  8
0
  6
CONTINUOUS
 62
     7
 10
3971.88767260111
 20
1704.011623671919
 30
0.0
 70
    32
  0
VERTEX
  5
457
  8
0
  6
CONTINUOUS
 62
     7
 10
3971.849224416143
 20
1704.011623671919
 30
0.0
 70
    32
  0
VERTEX
  5
458
  8
0
  6
CONTINUOUS
 62
     7
 10
3971.810526287616
 20
1704.011623671918
 30
0.0
 70
    32
  0
VERTEX
  5
459
  8
0
  6
CONTINUOUS
 62
     7
 10
3971.771594878437
 20
1704.011623671918
 30
0.0
 70
    32
  0
VERTEX
  5
45A
  8
0
  6
CONTINUOUS
 62
     7
 10
3971.732446851507
 20
1704.011623671918
 30
0.0
 70
    32
  0
VERTEX
  5
45B
  8
0
  6
CONTINUOUS
 62
     7
 10
3971.693098869731
 20
1704.011623671918
 30
0.0
 70
    32
  0
VERTEX
  5
45C
  8
0
  6
CONTINUOUS
 62
     7
 10
3971.653567596013
 20
1704.011623671917
 30
0.0
 70
    32
  0
VERTEX
  5
45D
  8
0
  6
CONTINUOUS
 62
     7
 10
3971.613869693255
 20
1704.011623671917
 30
0.0
 70
    32
  0
VERTEX
  5
45E
  8
0
  6
CONTINUOUS
 62
     7
 10
3971.574021824365
 20
1704.011623671917
 30
0.0
 70
    32
  0
VERTEX
  5
45F
  8
0
  6
CONTINUOUS
 62
     7
 10
3971.534040652242
 20
1704.011623671917
 30
0.0
 70
    32
  0
VERTEX
  5
460
  8
0
  6
CONTINUOUS
 62
     7
 10
3971.493942839793
 20
1704.011623671916
 30
0.0
 70
    32
  0
VERTEX
  5
461
  8
0
  6
CONTINUOUS
 62
     7
 10
3971.45374504992
 20
1704.011623671916
 30
0.0
 70
    32
  0
VERTEX
  5
462
  8
0
  6
CONTINUOUS
 62
     7
 10
3971.413463945529
 20
1704.011623671915
 30
0.0
 70
    32
  0
VERTEX
  5
463
  8
0
  6
CONTINUOUS
 62
     7
 10
3971.373116189522
 20
1704.011623671915
 30
0.0
 70
    32
  0
VERTEX
  5
464
  8
0
  6
CONTINUOUS
 62
     7
 10
3971.332718444803
 20
1704.011623671915
 30
0.0
 70
    32
  0
VERTEX
  5
465
  8
0
  6
CONTINUOUS
 62
     7
 10
3971.292287374276
 20
1704.011623671914
 30
0.0
 70
    32
  0
VERTEX
  5
466
  8
0
  6
CONTINUOUS
 62
     7
 10
3971.251839640846
 20
1704.011623671914
 30
0.0
 70
    32
  0
SEQEND
  5
6D2
  8
0
  6
CONTINUOUS
 62
     7
  0
LINE
  5
13C
  8
0
  6
CONTINUOUS
 62
     7
 10
3971.251839640843
 20
1705.011623671913
 30
0.0
 11
3971.251839640846
 21
1704.011623671914
 31
0.0
  0
POLYLINE
  5
13D
  8
0
  6
CONTINUOUS
 62
     7
 10
0.0
 20
0.0
 30
0.0
 66
     1
 70
     8
  0
VERTEX
  5
467
  8
0
  6
CONTINUOUS
 62
     7
 10
3971.251839640822
 20
1761.011623671919
 30
0.0
 70
    32
  0
VERTEX
  5
468
  8
0
  6
CONTINUOUS
 62
     7
 10
3971.292288119518
 20
1761.011623671919
 30
0.0
 70
    32
  0
VERTEX
  5
469
  8
0
  6
CONTINUOUS
 62
     7
 10
3971.332719931819
 20
1761.011623671919
 30
0.0
 70
    32
  0
VERTEX
  5
46A
  8
0
  6
CONTINUOUS
 62
     7
 10
3971.373118411331
 20
1761.011623671919
 30
0.0
 70
    32
  0
VERTEX
  5
46B
  8
0
  6
CONTINUOUS
 62
     7
 10
3971.413466891659
 20
1761.011623671919
 30
0.0
 70
    32
  0
VERTEX
  5
46C
  8
0
  6
CONTINUOUS
 62
     7
 10
3971.453748706407
 20
1761.01162367192
 30
0.0
 70
    32
  0
VERTEX
  5
46D
  8
0
  6
CONTINUOUS
 62
     7
 10
3971.493947189181
 20
1761.011623671919
 30
0.0
 70
    32
  0
VERTEX
  5
46E
  8
0
  6
CONTINUOUS
 62
     7
 10
3971.534045673586
 20
1761.011623671919
 30
0.0
 70
    32
  0
VERTEX
  5
46F
  8
0
  6
CONTINUOUS
 62
     7
 10
3971.574027493228
 20
1761.011623671919
 30
0.0
 70
    32
  0
VERTEX
  5
470
  8
0
  6
CONTINUOUS
 62
     7
 10
3971.613875981709
 20
1761.011623671919
 30
0.0
 70
    32
  0
VERTEX
  5
471
  8
0
  6
CONTINUOUS
 62
     7
 10
3971.653574472638
 20
1761.011623671919
 30
0.0
 70
    32
  0
VERTEX
  5
472
  8
0
  6
CONTINUOUS
 62
     7
 10
3971.693106299621
 20
1761.011623671919
 30
0.0
 70
    32
  0
VERTEX
  5
473
  8
0
  6
CONTINUOUS
 62
     7
 10
3971.732454796259
 20
1761.011623671919
 30
0.0
 70
    32
  0
VERTEX
  5
474
  8
0
  6
CONTINUOUS
 62
     7
 10
3971.771603296159
 20
1761.011623671919
 30
0.0
 70
    32
  0
VERTEX
  5
475
  8
0
  6
CONTINUOUS
 62
     7
 10
3971.810535132927
 20
1761.011623671919
 30
0.0
 70
    32
  0
VERTEX
  5
476
  8
0
  6
CONTINUOUS
 62
     7
 10
3971.849233640168
 20
1761.011623671919
 30
0.0
 70
    32
  0
VERTEX
  5
477
  8
0
  6
CONTINUOUS
 62
     7
 10
3971.887682151486
 20
1761.011623671919
 30
0.0
 70
    32
  0
VERTEX
  5
478
  8
0
  6
CONTINUOUS
 62
     7
 10
3971.925864000487
 20
1761.011623671919
 30
0.0
 70
    32
  0
VERTEX
  5
479
  8
0
  6
CONTINUOUS
 62
     7
 10
3971.963762520778
 20
1761.011623671919
 30
0.0
 70
    32
  0
VERTEX
  5
47A
  8
0
  6
CONTINUOUS
 62
     7
 10
3972.001361045719
 20
1761.011623671919
 30
0.0
 70
    32
  0
VERTEX
  5
47B
  8
0
  6
CONTINUOUS
 62
     7
 10
3972.038642896212
 20
1761.011623671919
 30
0.0
 70
    32
  0
VERTEX
  5
47C
  8
0
  6
CONTINUOUS
 62
     7
 10
3972.075591374953
 20
1761.011623671919
 30
0.0
 70
    32
  0
VERTEX
  5
47D
  8
0
  6
CONTINUOUS
 62
     7
 10
3972.112189783194
 20
1761.011623671918
 30
0.0
 70
    32
  0
VERTEX
  5
47E
  8
0
  6
CONTINUOUS
 62
     7
 10
3972.148421422188
 20
1761.011623671919
 30
0.0
 70
    32
  0
VERTEX
  5
47F
  8
0
  6
CONTINUOUS
 62
     7
 10
3972.184269593187
 20
1761.011623671919
 30
0.0
 70
    32
  0
VERTEX
  5
480
  8
0
  6
CONTINUOUS
 62
     7
 10
3972.219717597441
 20
1761.011623671919
 30
0.0
 70
    32
  0
VERTEX
  5
481
  8
0
  6
CONTINUOUS
 62
     7
 10
3972.254748736206
 20
1761.011623671919
 30
0.0
 70
    32
  0
VERTEX
  5
482
  8
0
  6
CONTINUOUS
 62
     7
 10
3972.289346310729
 20
1761.011623671919
 30
0.0
 70
    32
  0
VERTEX
  5
483
  8
0
  6
CONTINUOUS
 62
     7
 10
3972.323493622267
 20
1761.011623671919
 30
0.0
 70
    32
  0
VERTEX
  5
484
  8
0
  6
CONTINUOUS
 62
     7
 10
3972.357174004664
 20
1761.011623671919
 30
0.0
 70
    32
  0
VERTEX
  5
485
  8
0
  6
CONTINUOUS
 62
     7
 10
3972.390376351206
 20
1761.011623671918
 30
0.0
 70
    32
  0
VERTEX
  5
486
  8
0
  6
CONTINUOUS
 62
     7
 10
3972.423101353364
 20
1761.011623671919
 30
0.0
 70
    32
  0
VERTEX
  5
487
  8
0
  6
CONTINUOUS
 62
     7
 10
3972.455351209141
 20
1761.011623671919
 30
0.0
 70
    32
  0
VERTEX
  5
488
  8
0
  6
CONTINUOUS
 62
     7
 10
3972.487128116544
 20
1761.011623671919
 30
0.0
 70
    32
  0
VERTEX
  5
489
  8
0
  6
CONTINUOUS
 62
     7
 10
3972.51843427358
 20
1761.011623671919
 30
0.0
 70
    32
  0
VERTEX
  5
48A
  8
0
  6
CONTINUOUS
 62
     7
 10
3972.549271878254
 20
1761.011623671919
 30
0.0
 70
    32
  0
VERTEX
  5
48B
  8
0
  6
CONTINUOUS
 62
     7
 10
3972.579643128573
 20
1761.011623671919
 30
0.0
 70
    32
  0
VERTEX
  5
48C
  8
0
  6
CONTINUOUS
 62
     7
 10
3972.609550222541
 20
1761.011623671919
 30
0.0
 70
    32
  0
VERTEX
  5
48D
  8
0
  6
CONTINUOUS
 62
     7
 10
3972.638995358166
 20
1761.011623671919
 30
0.0
 70
    32
  0
VERTEX
  5
48E
  8
0
  6
CONTINUOUS
 62
     7
 10
3972.667980730265
 20
1761.011623671919
 30
0.0
 70
    32
  0
VERTEX
  5
48F
  8
0
  6
CONTINUOUS
 62
     7
 10
3972.696495660583
 20
1761.011623671919
 30
0.0
 70
    32
  0
VERTEX
  5
490
  8
0
  6
CONTINUOUS
 62
     7
 10
3972.724487315701
 20
1761.011623671919
 30
0.0
 70
    32
  0
VERTEX
  5
491
  8
0
  6
CONTINUOUS
 62
     7
 10
3972.751894246724
 20
1761.011623671919
 30
0.0
 70
    32
  0
VERTEX
  5
492
  8
0
  6
CONTINUOUS
 62
     7
 10
3972.778655004763
 20
1761.011623671919
 30
0.0
 70
    32
  0
VERTEX
  5
493
  8
0
  6
CONTINUOUS
 62
     7
 10
3972.804708140926
 20
1761.011623671919
 30
0.0
 70
    32
  0
VERTEX
  5
494
  8
0
  6
CONTINUOUS
 62
     7
 10
3972.829992206321
 20
1761.011623671919
 30
0.0
 70
    32
  0
VERTEX
  5
495
  8
0
  6
CONTINUOUS
 62
     7
 10
3972.854445752058
 20
1761.011623671919
 30
0.0
 70
    32
  0
VERTEX
  5
496
  8
0
  6
CONTINUOUS
 62
     7
 10
3972.878007329245
 20
1761.011623671919
 30
0.0
 70
    32
  0
VERTEX
  5
497
  8
0
  6
CONTINUOUS
 62
     7
 10
3972.90061548899
 20
1761.011623671919
 30
0.0
 70
    32
  0
VERTEX
  5
498
  8
0
  6
CONTINUOUS
 62
     7
 10
3972.922208782403
 20
1761.011623671919
 30
0.0
 70
    32
  0
VERTEX
  5
499
  8
0
  6
CONTINUOUS
 62
     7
 10
3972.942754847452
 20
1761.011623671919
 30
0.0
 70
    32
  0
VERTEX
  5
49A
  8
0
  6
CONTINUOUS
 62
     7
 10
3972.962365210524
 20
1761.011623671919
 30
0.0
 70
    32
  0
VERTEX
  5
49B
  8
0
  6
CONTINUOUS
 62
     7
 10
3972.981195811319
 20
1761.011623671919
 30
0.0
 70
    32
  0
VERTEX
  5
49C
  8
0
  6
CONTINUOUS
 62
     7
 10
3972.999402602288
 20
1761.011623671919
 30
0.0
 70
    32
  0
VERTEX
  5
49D
  8
0
  6
CONTINUOUS
 62
     7
 10
3973.01714153589
 20
1761.011623671919
 30
0.0
 70
    32
  0
VERTEX
  5
49E
  8
0
  6
CONTINUOUS
 62
     7
 10
3973.03456856458
 20
1761.011623671919
 30
0.0
 70
    32
  0
VERTEX
  5
49F
  8
0
  6
CONTINUOUS
 62
     7
 10
3973.051839640814
 20
1761.011623671919
 30
0.0
 70
    32
  0
SEQEND
  5
6D3
  8
0
  6
CONTINUOUS
 62
     7
  0
LINE
  5
13E
  8
0
  6
CONTINUOUS
 62
     7
 10
3971.251839640834
 20
1760.01162367192
 30
0.0
 11
3971.251839640822
 21
1761.011623671919
 31
0.0
  0
POLYLINE
  5
13F
  8
0
  6
CONTINUOUS
 62
     7
 66
     1
 10
0.0
 20
0.0
 30
0.0
  0
VERTEX
  5
4A0
  8
0
  6
CONTINUOUS
 62
     7
 10
3973.051839640814
 20
1722.269125030268
 30
0.0
  0
VERTEX
  5
4A1
  8
0
  6
CONTINUOUS
 62
     7
 10
3973.042975298554
 20
1722.277921513075
 30
0.0
  0
VERTEX
  5
4A2
  8
0
  6
CONTINUOUS
 62
     7
 10
3973.033991979661
 20
1722.286567312464
 30
0.0
  0
VERTEX
  5
4A3
  8
0
  6
CONTINUOUS
 62
     7
 10
3973.02479895406
 20
1722.294947067049
 30
0.0
  0
VERTEX
  5
4A4
  8
0
  6
CONTINUOUS
 62
     7
 10
3973.015392301214
 20
1722.303053969899
 30
0.0
  0
VERTEX
  5
4A5
  8
0
  6
CONTINUOUS
 62
     7
 10
3973.005784722387
 20
1722.310901999472
 30
0.0
  0
VERTEX
  5
4A6
  8
0
  6
CONTINUOUS
 62
     7
 10
3972.995988918842
 20
1722.31850513423
 30
0.0
  0
VERTEX
  5
4A7
  8
0
  6
CONTINUOUS
 62
     7
 10
3972.986017591842
 20
1722.325877352632
 30
0.0
  0
VERTEX
  5
4A8
  8
0
  6
CONTINUOUS
 62
     7
 10
3972.975883442649
 20
1722.333032633138
 30
0.0
  0
VERTEX
  5
4A9
  8
0
  6
CONTINUOUS
 62
     7
 10
3972.965599172527
 20
1722.339984954207
 30
0.0
  0
VERTEX
  5
4AA
  8
0
  6
CONTINUOUS
 62
     7
 10
3972.95517748274
 20
1722.3467482943
 30
0.0
  0
VERTEX
  5
4AB
  8
0
  6
CONTINUOUS
 62
     7
 10
3972.94463107455
 20
1722.353336631876
 30
0.0
  0
VERTEX
  5
4AC
  8
0
  6
CONTINUOUS
 62
     7
 10
3972.93397264922
 20
1722.359763945397
 30
0.0
  0
VERTEX
  5
4AD
  8
0
  6
CONTINUOUS
 62
     7
 10
3972.923214908015
 20
1722.36604421332
 30
0.0
  0
VERTEX
  5
4AE
  8
0
  6
CONTINUOUS
 62
     7
 10
3972.912370552197
 20
1722.372191414107
 30
0.0
  0
VERTEX
  5
4AF
  8
0
  6
CONTINUOUS
 62
     7
 10
3972.901452283026
 20
1722.378219526217
 30
0.0
  0
VERTEX
  5
4B0
  8
0
  6
CONTINUOUS
 62
     7
 10
3972.890472801771
 20
1722.38414252811
 30
0.0
  0
VERTEX
  5
4B1
  8
0
  6
CONTINUOUS
 62
     7
 10
3972.879443040878
 20
1722.389972255202
 30
0.0
  0
VERTEX
  5
4B2
  8
0
  6
CONTINUOUS
 62
     7
 10
3972.868364263466
 20
1722.395708827814
 30
0.0
  0
VERTEX
  5
4B3
  8
0
  6
CONTINUOUS
 62
     7
 10
3972.857234445192
 20
1722.401348383273
 30
0.0
  0
VERTEX
  5
4B4
  8
0
  6
CONTINUOUS
 62
     7
 10
3972.846051558992
 20
1722.40688705561
 30
0.0
  0
VERTEX
  5
4B5
  8
0
  6
CONTINUOUS
 62
     7
 10
3972.834813577803
 20
1722.412320978855
 30
0.0
  0
VERTEX
  5
4B6
  8
0
  6
CONTINUOUS
 62
     7
 10
3972.823518474564
 20
1722.417646287039
 30
0.0
  0
VERTEX
  5
4B7
  8
0
  6
CONTINUOUS
 62
     7
 10
3972.812164222207
 20
1722.422859114193
 30
0.0
  0
VERTEX
  5
4B8
  8
0
  6
CONTINUOUS
 62
     7
 10
3972.800748793672
 20
1722.427955594346
 30
0.0
  0
VERTEX
  5
4B9
  8
0
  6
CONTINUOUS
 62
     7
 10
3972.789270161894
 20
1722.43293186153
 30
0.0
  0
VERTEX
  5
4BA
  8
0
  6
CONTINUOUS
 62
     7
 10
3972.777726299812
 20
1722.437784049775
 30
0.0
  0
VERTEX
  5
4BB
  8
0
  6
CONTINUOUS
 62
     7
 10
3972.76611518036
 20
1722.442508293112
 30
0.0
  0
VERTEX
  5
4BC
  8
0
  6
CONTINUOUS
 62
     7
 10
3972.754434776477
 20
1722.447100725571
 30
0.0
  0
VERTEX
  5
4BD
  8
0
  6
CONTINUOUS
 62
     7
 10
3972.742683061099
 20
1722.451557481183
 30
0.0
  0
VERTEX
  5
4BE
  8
0
  6
CONTINUOUS
 62
     7
 10
3972.73085800716
 20
1722.455874693979
 30
0.0
  0
VERTEX
  5
4BF
  8
0
  6
CONTINUOUS
 62
     7
 10
3972.718957614042
 20
1722.460048492406
 30
0.0
  0
VERTEX
  5
4C0
  8
0
  6
CONTINUOUS
 62
     7
 10
3972.706981266565
 20
1722.464074712398
 30
0.0
  0
VERTEX
  5
4C1
  8
0
  6
CONTINUOUS
 62
     7
 10
3972.694930388713
 20
1722.467948759353
 30
0.0
  0
VERTEX
  5
4C2
  8
0
  6
CONTINUOUS
 62
     7
 10
3972.682806567809
 20
1722.471666004183
 30
0.0
  0
VERTEX
  5
4C3
  8
0
  6
CONTINUOUS
 62
     7
 10
3972.670611391179
 20
1722.475221817799
 30
0.0
  0
VERTEX
  5
4C4
  8
0
  6
CONTINUOUS
 62
     7
 10
3972.658346446144
 20
1722.478611571112
 30
0.0
  0
VERTEX
  5
4C5
  8
0
  6
CONTINUOUS
 62
     7
 10
3972.64601332003
 20
1722.481830635033
 30
0.0
  0
VERTEX
  5
4C6
  8
0
  6
CONTINUOUS
 62
     7
 10
3972.63361360016
 20
1722.484874380474
 30
0.0
  0
VERTEX
  5
4C7
  8
0
  6
CONTINUOUS
 62
     7
 10
3972.621148873858
 20
1722.487738178347
 30
0.0
  0
VERTEX
  5
4C8
  8
0
  6
CONTINUOUS
 62
     7
 10
3972.608620728448
 20
1722.490417399562
 30
0.0
  0
VERTEX
  5
4C9
  8
0
  6
CONTINUOUS
 62
     7
 10
3972.596030751254
 20
1722.49290741503
 30
0.0
  0
VERTEX
  5
4CA
  8
0
  6
CONTINUOUS
 62
     7
 10
3972.5833805296
 20
1722.495203595663
 30
0.0
  0
VERTEX
  5
4CB
  8
0
  6
CONTINUOUS
 62
     7
 10
3972.570671650809
 20
1722.497301312373
 30
0.0
  0
VERTEX
  5
4CC
  8
0
  6
CONTINUOUS
 62
     7
 10
3972.557905969192
 20
1722.499197865271
 30
0.0
  0
VERTEX
  5
4CD
  8
0
  6
CONTINUOUS
 62
     7
 10
3972.545087154452
 20
1722.500903672251
 30
0.0
  0
VERTEX
  5
4CE
  8
0
  6
CONTINUOUS
 62
     7
 10
3972.532219632071
 20
1722.502434612337
 30
0.0
  0
VERTEX
  5
4CF
  8
0
  6
CONTINUOUS
 62
     7
 10
3972.519307830017
 20
1722.50380658252
 30
0.0
  0
VERTEX
  5
4D0
  8
0
  6
CONTINUOUS
 62
     7
 10
3972.506356176257
 20
1722.505035479791
 30
0.0
  0
VERTEX
  5
4D1
  8
0
  6
CONTINUOUS
 62
     7
 10
3972.493369098757
 20
1722.506137201138
 30
0.0
  0
VERTEX
  5
4D2
  8
0
  6
CONTINUOUS
 62
     7
 10
3972.480351025486
 20
1722.507127643552
 30
0.0
  0
VERTEX
  5
4D3
  8
0
  6
CONTINUOUS
 62
     7
 10
3972.46730638441
 20
1722.508022704025
 30
0.0
  0
VERTEX
  5
4D4
  8
0
  6
CONTINUOUS
 62
     7
 10
3972.454239603498
 20
1722.508838279546
 30
0.0
  0
VERTEX
  5
4D5
  8
0
  6
CONTINUOUS
 62
     7
 10
3972.441155110716
 20
1722.509590267106
 30
0.0
  0
VERTEX
  5
4D6
  8
0
  6
CONTINUOUS
 62
     7
 10
3972.428057334033
 20
1722.510294563695
 30
0.0
  0
VERTEX
  5
4D7
  8
0
  6
CONTINUOUS
 62
     7
 10
3972.414950701415
 20
1722.510967066303
 30
0.0
  0
VERTEX
  5
4D8
  8
0
  6
CONTINUOUS
 62
     7
 10
3972.401839640828
 20
1722.51162367192
 30
0.0
  0
SEQEND
  5
6D4
  8
0
  6
CONTINUOUS
 62
     7
  0
LINE
  5
140
  8
0
  6
CONTINUOUS
 62
     7
 10
3971.251839640843
 20
1705.011623671913
 30
0.0
 11
3971.251839640843
 21
1714.120049514168
 31
0.0
  0
LINE
  5
141
  8
0
  6
CONTINUOUS
 62
     7
 10
3971.551839640836
 20
1722.511623671921
 30
0.0
 11
3972.401839640828
 21
1722.51162367192
 31
0.0
  0
LINE
  5
142
  8
0
  6
CONTINUOUS
 62
     7
 10
3971.051839640843
 20
1705.011623671913
 30
0.0
 11
3971.251839640843
 21
1705.011623671913
 31
0.0
  0
LINE
  5
143
  8
0
  6
CONTINUOUS
 62
     7
 10
3971.051839640834
 20
1760.01162367192
 30
0.0
 11
3971.251839640834
 21
1760.01162367192
 31
0.0
  0
LINE
  5
144
  8
0
  6
CONTINUOUS
 62
     7
 10
3971.251839640837
 20
1750.90319782967
 30
0.0
 11
3971.251839640834
 21
1760.01162367192
 31
0.0
  0
POLYLINE
  5
145
  8
0
  6
CONTINUOUS
 62
     7
 66
     1
 10
0.0
 20
0.0
 30
0.0
  0
VERTEX
  5
4D9
  8
0
  6
CONTINUOUS
 62
     7
 10
3972.401839640839
 20
1742.51162367192
 30
0.0
  0
VERTEX
  5
4DA
  8
0
  6
CONTINUOUS
 62
     7
 10
3972.424725099469
 20
1742.513898994912
 30
0.0
  0
VERTEX
  5
4DB
  8
0
  6
CONTINUOUS
 62
     7
 10
3972.447590563668
 20
1742.516215245386
 30
0.0
  0
VERTEX
  5
4DC
  8
0
  6
CONTINUOUS
 62
     7
 10
3972.470416039009
 20
1742.518613350825
 30
0.0
  0
VERTEX
  5
4DD
  8
0
  6
CONTINUOUS
 62
     7
 10
3972.493181531061
 20
1742.521134238711
 30
0.0
  0
VERTEX
  5
4DE
  8
0
  6
CONTINUOUS
 62
     7
 10
3972.515867045396
 20
1742.523818836526
 30
0.0
  0
VERTEX
  5
4DF
  8
0
  6
CONTINUOUS
 62
     7
 10
3972.538452587582
 20
1742.526708071752
 30
0.0
  0
VERTEX
  5
4E0
  8
0
  6
CONTINUOUS
 62
     7
 10
3972.560918163192
 20
1742.529842871873
 30
0.0
  0
VERTEX
  5
4E1
  8
0
  6
CONTINUOUS
 62
     7
 10
3972.583243777794
 20
1742.533264164369
 30
0.0
  0
VERTEX
  5
4E2
  8
0
  6
CONTINUOUS
 62
     7
 10
3972.605409436962
 20
1742.537012876724
 30
0.0
  0
VERTEX
  5
4E3
  8
0
  6
CONTINUOUS
 62
     7
 10
3972.627395146263
 20
1742.541129936419
 30
0.0
  0
VERTEX
  5
4E4
  8
0
  6
CONTINUOUS
 62
     7
 10
3972.649180911269
 20
1742.545656270938
 30
0.0
  0
VERTEX
  5
4E5
  8
0
  6
CONTINUOUS
 62
     7
 10
3972.670746737552
 20
1742.550632807762
 30
0.0
  0
VERTEX
  5
4E6
  8
0
  6
CONTINUOUS
 62
     7
 10
3972.69207263068
 20
1742.556100474374
 30
0.0
  0
VERTEX
  5
4E7
  8
0
  6
CONTINUOUS
 62
     7
 10
3972.713138596223
 20
1742.562100198255
 30
0.0
  0
VERTEX
  5
4E8
  8
0
  6
CONTINUOUS
 62
     7
 10
3972.733924639755
 20
1742.568672906889
 30
0.0
  0
VERTEX
  5
4E9
  8
0
  6
CONTINUOUS
 62
     7
 10
3972.754410766844
 20
1742.575859527757
 30
0.0
  0
VERTEX
  5
4EA
  8
0
  6
CONTINUOUS
 62
     7
 10
3972.774580969582
 20
1742.583692828155
 30
0.0
  0
VERTEX
  5
4EB
  8
0
  6
CONTINUOUS
 62
     7
 10
3972.79444521472
 20
1742.592152406696
 30
0.0
  0
VERTEX
  5
4EC
  8
0
  6
CONTINUOUS
 62
     7
 10
3972.814023873573
 20
1742.601196564444
 30
0.0
  0
VERTEX
  5
4ED
  8
0
  6
CONTINUOUS
 62
     7
 10
3972.833337345158
 20
1742.610783545741
 30
0.0
  0
VERTEX
  5
4EE
  8
0
  6
CONTINUOUS
 62
     7
 10
3972.852406028495
 20
1742.62087159493
 30
0.0
  0
VERTEX
  5
4EF
  8
0
  6
CONTINUOUS
 62
     7
 10
3972.871250322608
 20
1742.631418956352
 30
0.0
  0
VERTEX
  5
4F0
  8
0
  6
CONTINUOUS
 62
     7
 10
3972.889890626514
 20
1742.642383874351
 30
0.0
  0
VERTEX
  5
4F1
  8
0
  6
CONTINUOUS
 62
     7
 10
3972.908347339235
 20
1742.653724593268
 30
0.0
  0
VERTEX
  5
4F2
  8
0
  6
CONTINUOUS
 62
     7
 10
3972.926640859792
 20
1742.665399357446
 30
0.0
  0
VERTEX
  5
4F3
  8
0
  6
CONTINUOUS
 62
     7
 10
3972.944791587205
 20
1742.677366411228
 30
0.0
  0
VERTEX
  5
4F4
  8
0
  6
CONTINUOUS
 62
     7
 10
3972.962819920495
 20
1742.689583998955
 30
0.0
  0
VERTEX
  5
4F5
  8
0
  6
CONTINUOUS
 62
     7
 10
3972.980746258683
 20
1742.70201036497
 30
0.0
  0
VERTEX
  5
4F6
  8
0
  6
CONTINUOUS
 62
     7
 10
3972.998591000787
 20
1742.714603753616
 30
0.0
  0
VERTEX
  5
4F7
  8
0
  6
CONTINUOUS
 62
     7
 10
3973.01637454583
 20
1742.727322409235
 30
0.0
  0
VERTEX
  5
4F8
  8
0
  6
CONTINUOUS
 62
     7
 10
3973.034117292833
 20
1742.740124576169
 30
0.0
  0
VERTEX
  5
4F9
  8
0
  6
CONTINUOUS
 62
     7
 10
3973.051839640814
 20
1742.752968498761
 30
0.0
  0
SEQEND
  5
6D5
  8
0
  6
CONTINUOUS
 62
     7
  0
LINE
  5
146
  8
0
  6
CONTINUOUS
 62
     7
 10
3972.401839640839
 20
1742.51162367192
 30
0.0
 11
3971.551839640836
 21
1742.511623671917
 31
0.0
  0
LINE
  5
147
  8
0
  6
CONTINUOUS
 62
     7
 10
3971.051839640846
 20
1704.011623671914
 30
0.0
 11
3971.251839640846
 21
1704.011623671914
 31
0.0
  0
LINE
  5
148
  8
0
  6
CONTINUOUS
 62
     7
 10
3971.051839640822
 20
1761.011623671919
 30
0.0
 11
3971.251839640822
 21
1761.011623671919
 31
0.0
  0
LINE
  5
149
  8
0
  6
CONTINUOUS
 62
     7
 10
3971.551839640819
 20
2161.555665532861
 30
0.0
 11
3971.051839640824
 21
2161.555665532861
 31
0.0
  0
LINE
  5
14A
  8
0
  6
CONTINUOUS
 62
     7
 10
3971.551839640819
 20
2163.111623672153
 30
0.0
 11
3971.05183964082
 21
2163.111623672153
 31
0.0
  0
LINE
  5
14B
  8
0
  6
CONTINUOUS
 62
     7
 10
3971.551839640819
 20
2163.111623672153
 30
0.0
 11
3971.551839640819
 21
2161.555665532861
 31
0.0
  0
LINE
  5
14C
  8
0
  6
CONTINUOUS
 62
     7
 10
3971.051839640824
 20
2179.467581810989
 30
0.0
 11
3971.551839640813
 21
2179.467581810989
 31
0.0
  0
LINE
  5
14D
  8
0
  6
CONTINUOUS
 62
     7
 10
3971.551839640813
 20
2179.467581810989
 30
0.0
 11
3971.551839640804
 21
2177.911623671702
 31
0.0
  0
LINE
  5
14E
  8
0
  6
CONTINUOUS
 62
     7
 10
3971.051839640804
 20
2177.911623671702
 30
0.0
 11
3971.551839640804
 21
2177.911623671702
 31
0.0
  0
LINE
  5
14F
  8
0
  6
CONTINUOUS
 62
     7
 10
3971.251839640816
 20
2152.120049514169
 30
0.0
 11
3971.551839640816
 21
2152.120049514169
 31
0.0
  0
LINE
  5
150
  8
0
  6
CONTINUOUS
 62
     7
 10
3971.051839640816
 20
2152.120049514169
 30
0.0
 11
3971.251839640816
 21
2152.120049514169
 31
0.0
  0
LINE
  5
151
  8
0
  6
CONTINUOUS
 62
     7
 10
3971.551839640816
 20
2152.120049514169
 30
0.0
 11
3971.551839640819
 21
2161.555665532861
 31
0.0
  0
LINE
  5
152
  8
0
  6
CONTINUOUS
 62
     7
 10
3971.25183964081
 20
2188.903197829671
 30
0.0
 11
3971.05183964081
 21
2188.903197829671
 31
0.0
  0
LINE
  5
153
  8
0
  6
CONTINUOUS
 62
     7
 10
3971.551839640811
 20
2188.903197829671
 30
0.0
 11
3971.25183964081
 21
2188.903197829671
 31
0.0
  0
LINE
  5
154
  8
0
  6
CONTINUOUS
 62
     7
 10
3971.551839640813
 20
2179.467581810989
 30
0.0
 11
3971.551839640811
 21
2188.903197829671
 31
0.0
  0
POLYLINE
  5
155
  8
0
  6
CONTINUOUS
 62
     7
 10
0.0
 20
0.0
 30
0.0
 66
     1
 70
     8
  0
VERTEX
  5
4FA
  8
0
  6
CONTINUOUS
 62
     7
 10
3973.051839640814
 20
2142.011623671919
 30
0.0
 70
    32
  0
VERTEX
  5
4FB
  8
0
  6
CONTINUOUS
 62
     7
 10
3973.034570815434
 20
2142.011623671919
 30
0.0
 70
    32
  0
VERTEX
  5
4FC
  8
0
  6
CONTINUOUS
 62
     7
 10
3973.017145731964
 20
2142.01162367192
 30
0.0
 70
    32
  0
VERTEX
  5
4FD
  8
0
  6
CONTINUOUS
 62
     7
 10
3972.999408132311
 20
2142.01162367192
 30
0.0
 70
    32
  0
VERTEX
  5
4FE
  8
0
  6
CONTINUOUS
 62
     7
 10
3972.981201758383
 20
2142.01162367192
 30
0.0
 70
    32
  0
VERTEX
  5
4FF
  8
0
  6
CONTINUOUS
 62
     7
 10
3972.962370352088
 20
2142.011623671919
 30
0.0
 70
    32
  0
VERTEX
  5
500
  8
0
  6
CONTINUOUS
 62
     7
 10
3972.94275765534
 20
2142.01162367192
 30
0.0
 70
    32
  0
VERTEX
  5
501
  8
0
  6
CONTINUOUS
 62
     7
 10
3972.922207432051
 20
2142.01162367192
 30
0.0
 70
    32
  0
VERTEX
  5
502
  8
0
  6
CONTINUOUS
 62
     7
 10
3972.900609644432
 20
2142.01162367192
 30
0.0
 70
    32
  0
VERTEX
  5
503
  8
0
  6
CONTINUOUS
 62
     7
 10
3972.877997849111
 20
2142.01162367192
 30
0.0
 70
    32
  0
VERTEX
  5
504
  8
0
  6
CONTINUOUS
 62
     7
 10
3972.85443342033
 20
2142.011623671919
 30
0.0
 70
    32
  0
VERTEX
  5
505
  8
0
  6
CONTINUOUS
 62
     7
 10
3972.829977732329
 20
2142.01162367192
 30
0.0
 70
    32
  0
VERTEX
  5
506
  8
0
  6
CONTINUOUS
 62
     7
 10
3972.80469215935
 20
2142.011623671919
 30
0.0
 70
    32
  0
VERTEX
  5
507
  8
0
  6
CONTINUOUS
 62
     7
 10
3972.778638075636
 20
2142.01162367192
 30
0.0
 70
    32
  0
VERTEX
  5
508
  8
0
  6
CONTINUOUS
 62
     7
 10
3972.751876855426
 20
2142.01162367192
 30
0.0
 70
    32
  0
VERTEX
  5
509
  8
0
  6
CONTINUOUS
 62
     7
 10
3972.724469872961
 20
2142.011623671919
 30
0.0
 70
    32
  0
VERTEX
  5
50A
  8
0
  6
CONTINUOUS
 62
     7
 10
3972.696478502484
 20
2142.011623671919
 30
0.0
 70
    32
  0
VERTEX
  5
50B
  8
0
  6
CONTINUOUS
 62
     7
 10
3972.667964118236
 20
2142.011623671919
 30
0.0
 70
    32
  0
VERTEX
  5
50C
  8
0
  6
CONTINUOUS
 62
     7
 10
3972.638979467384
 20
2142.01162367192
 30
0.0
 70
    32
  0
VERTEX
  5
50D
  8
0
  6
CONTINUOUS
 62
     7
 10
3972.609535158504
 20
2142.011623671919
 30
0.0
 70
    32
  0
VERTEX
  5
50E
  8
0
  6
CONTINUOUS
 62
     7
 10
3972.579628954094
 20
2142.011623671919
 30
0.0
 70
    32
  0
VERTEX
  5
50F
  8
0
  6
CONTINUOUS
 62
     7
 10
3972.549258613547
 20
2142.011623671919
 30
0.0
 70
    32
  0
VERTEX
  5
510
  8
0
  6
CONTINUOUS
 62
     7
 10
3972.518421896254
 20
2142.011623671919
 30
0.0
 70
    32
  0
VERTEX
  5
511
  8
0
  6
CONTINUOUS
 62
     7
 10
3972.487116561608
 20
2142.011623671919
 30
0.0
 70
    32
  0
VERTEX
  5
512
  8
0
  6
CONTINUOUS
 62
     7
 10
3972.455340368995
 20
2142.011623671919
 30
0.0
 70
    32
  0
VERTEX
  5
513
  8
0
  6
CONTINUOUS
 62
     7
 10
3972.423091077811
 20
2142.011623671919
 30
0.0
 70
    32
  0
VERTEX
  5
514
  8
0
  6
CONTINUOUS
 62
     7
 10
3972.390366447447
 20
2142.011623671919
 30
0.0
 70
    32
  0
VERTEX
  5
515
  8
0
  6
CONTINUOUS
 62
     7
 10
3972.357164237293
 20
2142.011623671919
 30
0.0
 70
    32
  0
VERTEX
  5
516
  8
0
  6
CONTINUOUS
 62
     7
 10
3972.323483798484
 20
2142.011623671919
 30
0.0
 70
    32
  0
VERTEX
  5
517
  8
0
  6
CONTINUOUS
 62
     7
 10
3972.289336405161
 20
2142.01162367192
 30
0.0
 70
    32
  0
VERTEX
  5
518
  8
0
  6
CONTINUOUS
 62
     7
 10
3972.25473873825
 20
2142.01162367192
 30
0.0
 70
    32
  0
VERTEX
  5
519
  8
0
  6
CONTINUOUS
 62
     7
 10
3972.21970750556
 20
2142.011623671919
 30
0.0
 70
    32
  0
VERTEX
  5
51A
  8
0
  6
CONTINUOUS
 62
     7
 10
3972.184259414899
 20
2142.011623671919
 30
0.0
 70
    32
  0
VERTEX
  5
51B
  8
0
  6
CONTINUOUS
 62
     7
 10
3972.148411174074
 20
2142.01162367192
 30
0.0
 70
    32
  0
VERTEX
  5
51C
  8
0
  6
CONTINUOUS
 62
     7
 10
3972.112179490892
 20
2142.01162367192
 30
0.0
 70
    32
  0
VERTEX
  5
51D
  8
0
  6
CONTINUOUS
 62
     7
 10
3972.075581073161
 20
2142.011623671919
 30
0.0
 70
    32
  0
VERTEX
  5
51E
  8
0
  6
CONTINUOUS
 62
     7
 10
3972.038632628689
 20
2142.011623671919
 30
0.0
 70
    32
  0
VERTEX
  5
51F
  8
0
  6
CONTINUOUS
 62
     7
 10
3972.001350865284
 20
2142.011623671919
 30
0.0
 70
    32
  0
VERTEX
  5
520
  8
0
  6
CONTINUOUS
 62
     7
 10
3971.963752488748
 20
2142.01162367192
 30
0.0
 70
    32
  0
VERTEX
  5
521
  8
0
  6
CONTINUOUS
 62
     7
 10
3971.925854179606
 20
2142.011623671919
 30
0.0
 70
    32
  0
VERTEX
  5
522
  8
0
  6
CONTINUOUS
 62
     7
 10
3971.8876726011
 20
2142.011623671919
 30
0.0
 70
    32
  0
VERTEX
  5
523
  8
0
  6
CONTINUOUS
 62
     7
 10
3971.849224416131
 20
2142.011623671919
 30
0.0
 70
    32
  0
VERTEX
  5
524
  8
0
  6
CONTINUOUS
 62
     7
 10
3971.810526287603
 20
2142.011623671919
 30
0.0
 70
    32
  0
VERTEX
  5
525
  8
0
  6
CONTINUOUS
 62
     7
 10
3971.771594878423
 20
2142.011623671918
 30
0.0
 70
    32
  0
VERTEX
  5
526
  8
0
  6
CONTINUOUS
 62
     7
 10
3971.732446851492
 20
2142.011623671918
 30
0.0
 70
    32
  0
VERTEX
  5
527
  8
0
  6
CONTINUOUS
 62
     7
 10
3971.693098869715
 20
2142.011623671918
 30
0.0
 70
    32
  0
VERTEX
  5
528
  8
0
  6
CONTINUOUS
 62
     7
 10
3971.653567595995
 20
2142.011623671917
 30
0.0
 70
    32
  0
VERTEX
  5
529
  8
0
  6
CONTINUOUS
 62
     7
 10
3971.613869693238
 20
2142.011623671917
 30
0.0
 70
    32
  0
VERTEX
  5
52A
  8
0
  6
CONTINUOUS
 62
     7
 10
3971.574021824346
 20
2142.011623671917
 30
0.0
 70
    32
  0
VERTEX
  5
52B
  8
0
  6
CONTINUOUS
 62
     7
 10
3971.534040652223
 20
2142.011623671917
 30
0.0
 70
    32
  0
VERTEX
  5
52C
  8
0
  6
CONTINUOUS
 62
     7
 10
3971.493942839772
 20
2142.011623671915
 30
0.0
 70
    32
  0
VERTEX
  5
52D
  8
0
  6
CONTINUOUS
 62
     7
 10
3971.453745049898
 20
2142.011623671915
 30
0.0
 70
    32
  0
VERTEX
  5
52E
  8
0
  6
CONTINUOUS
 62
     7
 10
3971.413463945506
 20
2142.011623671915
 30
0.0
 70
    32
  0
VERTEX
  5
52F
  8
0
  6
CONTINUOUS
 62
     7
 10
3971.373116189498
 20
2142.011623671915
 30
0.0
 70
    32
  0
VERTEX
  5
530
  8
0
  6
CONTINUOUS
 62
     7
 10
3971.332718444778
 20
2142.011623671914
 30
0.0
 70
    32
  0
VERTEX
  5
531
  8
0
  6
CONTINUOUS
 62
     7
 10
3971.292287374251
 20
2142.011623671914
 30
0.0
 70
    32
  0
VERTEX
  5
532
  8
0
  6
CONTINUOUS
 62
     7
 10
3971.251839640819
 20
2142.011623671914
 30
0.0
 70
    32
  0
SEQEND
  5
6D6
  8
0
  6
CONTINUOUS
 62
     7
  0
LINE
  5
156
  8
0
  6
CONTINUOUS
 62
     7
 10
3971.251839640816
 20
2143.011623671913
 30
0.0
 11
3971.251839640819
 21
2142.011623671914
 31
0.0
  0
POLYLINE
  5
157
  8
0
  6
CONTINUOUS
 62
     7
 10
0.0
 20
0.0
 30
0.0
 66
     1
 70
     8
  0
VERTEX
  5
533
  8
0
  6
CONTINUOUS
 62
     7
 10
3971.251839640795
 20
2199.011623671919
 30
0.0
 70
    32
  0
VERTEX
  5
534
  8
0
  6
CONTINUOUS
 62
     7
 10
3971.292288119493
 20
2199.011623671919
 30
0.0
 70
    32
  0
VERTEX
  5
535
  8
0
  6
CONTINUOUS
 62
     7
 10
3971.332719931795
 20
2199.01162367192
 30
0.0
 70
    32
  0
VERTEX
  5
536
  8
0
  6
CONTINUOUS
 62
     7
 10
3971.373118411306
 20
2199.011623671919
 30
0.0
 70
    32
  0
VERTEX
  5
537
  8
0
  6
CONTINUOUS
 62
     7
 10
3971.413466891636
 20
2199.011623671919
 30
0.0
 70
    32
  0
VERTEX
  5
538
  8
0
  6
CONTINUOUS
 62
     7
 10
3971.453748706385
 20
2199.011623671919
 30
0.0
 70
    32
  0
VERTEX
  5
539
  8
0
  6
CONTINUOUS
 62
     7
 10
3971.49394718916
 20
2199.011623671919
 30
0.0
 70
    32
  0
VERTEX
  5
53A
  8
0
  6
CONTINUOUS
 62
     7
 10
3971.534045673566
 20
2199.011623671919
 30
0.0
 70
    32
  0
VERTEX
  5
53B
  8
0
  6
CONTINUOUS
 62
     7
 10
3971.574027493208
 20
2199.011623671919
 30
0.0
 70
    32
  0
VERTEX
  5
53C
  8
0
  6
CONTINUOUS
 62
     7
 10
3971.613875981692
 20
2199.01162367192
 30
0.0
 70
    32
  0
VERTEX
  5
53D
  8
0
  6
CONTINUOUS
 62
     7
 10
3971.653574472622
 20
2199.011623671919
 30
0.0
 70
    32
  0
VERTEX
  5
53E
  8
0
  6
CONTINUOUS
 62
     7
 10
3971.693106299605
 20
2199.011623671919
 30
0.0
 70
    32
  0
VERTEX
  5
53F
  8
0
  6
CONTINUOUS
 62
     7
 10
3971.732454796244
 20
2199.01162367192
 30
0.0
 70
    32
  0
VERTEX
  5
540
  8
0
  6
CONTINUOUS
 62
     7
 10
3971.771603296145
 20
2199.011623671919
 30
0.0
 70
    32
  0
VERTEX
  5
541
  8
0
  6
CONTINUOUS
 62
     7
 10
3971.810535132914
 20
2199.011623671919
 30
0.0
 70
    32
  0
VERTEX
  5
542
  8
0
  6
CONTINUOUS
 62
     7
 10
3971.849233640156
 20
2199.011623671919
 30
0.0
 70
    32
  0
VERTEX
  5
543
  8
0
  6
CONTINUOUS
 62
     7
 10
3971.887682151476
 20
2199.01162367192
 30
0.0
 70
    32
  0
VERTEX
  5
544
  8
0
  6
CONTINUOUS
 62
     7
 10
3971.925864000478
 20
2199.011623671919
 30
0.0
 70
    32
  0
VERTEX
  5
545
  8
0
  6
CONTINUOUS
 62
     7
 10
3971.963762520769
 20
2199.011623671919
 30
0.0
 70
    32
  0
VERTEX
  5
546
  8
0
  6
CONTINUOUS
 62
     7
 10
3972.001361045709
 20
2199.011623671919
 30
0.0
 70
    32
  0
VERTEX
  5
547
  8
0
  6
CONTINUOUS
 62
     7
 10
3972.038642896203
 20
2199.011623671919
 30
0.0
 70
    32
  0
VERTEX
  5
548
  8
0
  6
CONTINUOUS
 62
     7
 10
3972.075591374946
 20
2199.01162367192
 30
0.0
 70
    32
  0
VERTEX
  5
549
  8
0
  6
CONTINUOUS
 62
     7
 10
3972.112189783188
 20
2199.011623671919
 30
0.0
 70
    32
  0
VERTEX
  5
54A
  8
0
  6
CONTINUOUS
 62
     7
 10
3972.148421422184
 20
2199.01162367192
 30
0.0
 70
    32
  0
VERTEX
  5
54B
  8
0
  6
CONTINUOUS
 62
     7
 10
3972.184269593183
 20
2199.01162367192
 30
0.0
 70
    32
  0
VERTEX
  5
54C
  8
0
  6
CONTINUOUS
 62
     7
 10
3972.219717597438
 20
2199.01162367192
 30
0.0
 70
    32
  0
VERTEX
  5
54D
  8
0
  6
CONTINUOUS
 62
     7
 10
3972.254748736202
 20
2199.011623671919
 30
0.0
 70
    32
  0
VERTEX
  5
54E
  8
0
  6
CONTINUOUS
 62
     7
 10
3972.289346310726
 20
2199.011623671919
 30
0.0
 70
    32
  0
VERTEX
  5
54F
  8
0
  6
CONTINUOUS
 62
     7
 10
3972.323493622264
 20
2199.011623671919
 30
0.0
 70
    32
  0
VERTEX
  5
550
  8
0
  6
CONTINUOUS
 62
     7
 10
3972.357174004662
 20
2199.011623671919
 30
0.0
 70
    32
  0
VERTEX
  5
551
  8
0
  6
CONTINUOUS
 62
     7
 10
3972.390376351206
 20
2199.011623671919
 30
0.0
 70
    32
  0
VERTEX
  5
552
  8
0
  6
CONTINUOUS
 62
     7
 10
3972.423101353364
 20
2199.01162367192
 30
0.0
 70
    32
  0
VERTEX
  5
553
  8
0
  6
CONTINUOUS
 62
     7
 10
3972.455351209141
 20
2199.011623671919
 30
0.0
 70
    32
  0
VERTEX
  5
554
  8
0
  6
CONTINUOUS
 62
     7
 10
3972.487128116544
 20
2199.011623671919
 30
0.0
 70
    32
  0
VERTEX
  5
555
  8
0
  6
CONTINUOUS
 62
     7
 10
3972.518434273581
 20
2199.011623671919
 30
0.0
 70
    32
  0
VERTEX
  5
556
  8
0
  6
CONTINUOUS
 62
     7
 10
3972.549271878254
 20
2199.011623671919
 30
0.0
 70
    32
  0
VERTEX
  5
557
  8
0
  6
CONTINUOUS
 62
     7
 10
3972.579643128574
 20
2199.011623671919
 30
0.0
 70
    32
  0
VERTEX
  5
558
  8
0
  6
CONTINUOUS
 62
     7
 10
3972.609550222543
 20
2199.01162367192
 30
0.0
 70
    32
  0
VERTEX
  5
559
  8
0
  6
CONTINUOUS
 62
     7
 10
3972.638995358168
 20
2199.01162367192
 30
0.0
 70
    32
  0
VERTEX
  5
55A
  8
0
  6
CONTINUOUS
 62
     7
 10
3972.667980730267
 20
2199.011623671919
 30
0.0
 70
    32
  0
VERTEX
  5
55B
  8
0
  6
CONTINUOUS
 62
     7
 10
3972.696495660585
 20
2199.011623671919
 30
0.0
 70
    32
  0
VERTEX
  5
55C
  8
0
  6
CONTINUOUS
 62
     7
 10
3972.724487315702
 20
2199.011623671919
 30
0.0
 70
    32
  0
VERTEX
  5
55D
  8
0
  6
CONTINUOUS
 62
     7
 10
3972.751894246726
 20
2199.011623671919
 30
0.0
 70
    32
  0
VERTEX
  5
55E
  8
0
  6
CONTINUOUS
 62
     7
 10
3972.778655004766
 20
2199.01162367192
 30
0.0
 70
    32
  0
VERTEX
  5
55F
  8
0
  6
CONTINUOUS
 62
     7
 10
3972.804708140928
 20
2199.011623671919
 30
0.0
 70
    32
  0
VERTEX
  5
560
  8
0
  6
CONTINUOUS
 62
     7
 10
3972.829992206322
 20
2199.01162367192
 30
0.0
 70
    32
  0
VERTEX
  5
561
  8
0
  6
CONTINUOUS
 62
     7
 10
3972.854445752059
 20
2199.01162367192
 30
0.0
 70
    32
  0
VERTEX
  5
562
  8
0
  6
CONTINUOUS
 62
     7
 10
3972.878007329245
 20
2199.011623671919
 30
0.0
 70
    32
  0
VERTEX
  5
563
  8
0
  6
CONTINUOUS
 62
     7
 10
3972.90061548899
 20
2199.01162367192
 30
0.0
 70
    32
  0
VERTEX
  5
564
  8
0
  6
CONTINUOUS
 62
     7
 10
3972.922208782402
 20
2199.01162367192
 30
0.0
 70
    32
  0
VERTEX
  5
565
  8
0
  6
CONTINUOUS
 62
     7
 10
3972.94275484745
 20
2199.011623671919
 30
0.0
 70
    32
  0
VERTEX
  5
566
  8
0
  6
CONTINUOUS
 62
     7
 10
3972.962365210524
 20
2199.011623671919
 30
0.0
 70
    32
  0
VERTEX
  5
567
  8
0
  6
CONTINUOUS
 62
     7
 10
3972.981195811318
 20
2199.011623671919
 30
0.0
 70
    32
  0
VERTEX
  5
568
  8
0
  6
CONTINUOUS
 62
     7
 10
3972.999402602287
 20
2199.011623671919
 30
0.0
 70
    32
  0
VERTEX
  5
569
  8
0
  6
CONTINUOUS
 62
     7
 10
3973.017141535889
 20
2199.011623671919
 30
0.0
 70
    32
  0
VERTEX
  5
56A
  8
0
  6
CONTINUOUS
 62
     7
 10
3973.034568564579
 20
2199.011623671919
 30
0.0
 70
    32
  0
VERTEX
  5
56B
  8
0
  6
CONTINUOUS
 62
     7
 10
3973.051839640814
 20
2199.011623671919
 30
0.0
 70
    32
  0
SEQEND
  5
6D7
  8
0
  6
CONTINUOUS
 62
     7
  0
LINE
  5
158
  8
0
  6
CONTINUOUS
 62
     7
 10
3971.251839640807
 20
2198.01162367192
 30
0.0
 11
3971.251839640795
 21
2199.011623671919
 31
0.0
  0
LINE
  5
159
  8
0
  6
CONTINUOUS
 62
     7
 10
3971.051839640817
 20
2143.011623671913
 30
0.0
 11
3971.251839640816
 21
2143.011623671913
 31
0.0
  0
LINE
  5
15A
  8
0
  6
CONTINUOUS
 62
     7
 10
3971.251839640816
 20
2143.011623671913
 30
0.0
 11
3971.251839640816
 21
2152.120049514169
 31
0.0
  0
POLYLINE
  5
15B
  8
0
  6
CONTINUOUS
 62
     7
 66
     1
 10
0.0
 20
0.0
 30
0.0
  0
VERTEX
  5
56C
  8
0
  6
CONTINUOUS
 62
     7
 10
3973.051839640814
 20
2160.269125030242
 30
0.0
  0
VERTEX
  5
56D
  8
0
  6
CONTINUOUS
 62
     7
 10
3973.042975298553
 20
2160.277921513049
 30
0.0
  0
VERTEX
  5
56E
  8
0
  6
CONTINUOUS
 62
     7
 10
3973.03399197966
 20
2160.286567312439
 30
0.0
  0
VERTEX
  5
56F
  8
0
  6
CONTINUOUS
 62
     7
 10
3973.02479895406
 20
2160.294947067026
 30
0.0
  0
VERTEX
  5
570
  8
0
  6
CONTINUOUS
 62
     7
 10
3973.015392301214
 20
2160.303053969876
 30
0.0
  0
VERTEX
  5
571
  8
0
  6
CONTINUOUS
 62
     7
 10
3973.005784722387
 20
2160.31090199945
 30
0.0
  0
VERTEX
  5
572
  8
0
  6
CONTINUOUS
 62
     7
 10
3972.995988918842
 20
2160.318505134209
 30
0.0
  0
VERTEX
  5
573
  8
0
  6
CONTINUOUS
 62
     7
 10
3972.986017591841
 20
2160.325877352612
 30
0.0
  0
VERTEX
  5
574
  8
0
  6
CONTINUOUS
 62
     7
 10
3972.975883442649
 20
2160.333032633119
 30
0.0
  0
VERTEX
  5
575
  8
0
  6
CONTINUOUS
 62
     7
 10
3972.965599172526
 20
2160.339984954189
 30
0.0
  0
VERTEX
  5
576
  8
0
  6
CONTINUOUS
 62
     7
 10
3972.955177482739
 20
2160.346748294283
 30
0.0
  0
VERTEX
  5
577
  8
0
  6
CONTINUOUS
 62
     7
 10
3972.94463107455
 20
2160.353336631861
 30
0.0
  0
VERTEX
  5
578
  8
0
  6
CONTINUOUS
 62
     7
 10
3972.933972649219
 20
2160.359763945381
 30
0.0
  0
VERTEX
  5
579
  8
0
  6
CONTINUOUS
 62
     7
 10
3972.923214908012
 20
2160.366044213305
 30
0.0
  0
VERTEX
  5
57A
  8
0
  6
CONTINUOUS
 62
     7
 10
3972.912370552194
 20
2160.372191414093
 30
0.0
  0
VERTEX
  5
57B
  8
0
  6
CONTINUOUS
 62
     7
 10
3972.901452283025
 20
2160.378219526204
 30
0.0
  0
VERTEX
  5
57C
  8
0
  6
CONTINUOUS
 62
     7
 10
3972.890472801768
 20
2160.384142528098
 30
0.0
  0
VERTEX
  5
57D
  8
0
  6
CONTINUOUS
 62
     7
 10
3972.879443040874
 20
2160.38997225519
 30
0.0
  0
VERTEX
  5
57E
  8
0
  6
CONTINUOUS
 62
     7
 10
3972.868364263461
 20
2160.395708827802
 30
0.0
  0
VERTEX
  5
57F
  8
0
  6
CONTINUOUS
 62
     7
 10
3972.857234445186
 20
2160.401348383262
 30
0.0
  0
VERTEX
  5
580
  8
0
  6
CONTINUOUS
 62
     7
 10
3972.846051558987
 20
2160.406887055599
 30
0.0
  0
VERTEX
  5
581
  8
0
  6
CONTINUOUS
 62
     7
 10
3972.834813577798
 20
2160.412320978844
 30
0.0
  0
VERTEX
  5
582
  8
0
  6
CONTINUOUS
 62
     7
 10
3972.823518474557
 20
2160.41764628703
 30
0.0
  0
VERTEX
  5
583
  8
0
  6
CONTINUOUS
 62
     7
 10
3972.812164222201
 20
2160.422859114184
 30
0.0
  0
VERTEX
  5
584
  8
0
  6
CONTINUOUS
 62
     7
 10
3972.800748793665
 20
2160.427955594337
 30
0.0
  0
VERTEX
  5
585
  8
0
  6
CONTINUOUS
 62
     7
 10
3972.789270161887
 20
2160.432931861522
 30
0.0
  0
VERTEX
  5
586
  8
0
  6
CONTINUOUS
 62
     7
 10
3972.777726299804
 20
2160.437784049767
 30
0.0
  0
VERTEX
  5
587
  8
0
  6
CONTINUOUS
 62
     7
 10
3972.766115180353
 20
2160.442508293105
 30
0.0
  0
VERTEX
  5
588
  8
0
  6
CONTINUOUS
 62
     7
 10
3972.754434776468
 20
2160.447100725564
 30
0.0
  0
VERTEX
  5
589
  8
0
  6
CONTINUOUS
 62
     7
 10
3972.742683061088
 20
2160.451557481177
 30
0.0
  0
VERTEX
  5
58A
  8
0
  6
CONTINUOUS
 62
     7
 10
3972.730858007149
 20
2160.455874693972
 30
0.0
  0
VERTEX
  5
58B
  8
0
  6
CONTINUOUS
 62
     7
 10
3972.718957614031
 20
2160.460048492399
 30
0.0
  0
VERTEX
  5
58C
  8
0
  6
CONTINUOUS
 62
     7
 10
3972.706981266554
 20
2160.464074712393
 30
0.0
  0
VERTEX
  5
58D
  8
0
  6
CONTINUOUS
 62
     7
 10
3972.6949303887
 20
2160.467948759348
 30
0.0
  0
VERTEX
  5
58E
  8
0
  6
CONTINUOUS
 62
     7
 10
3972.682806567796
 20
2160.471666004178
 30
0.0
  0
VERTEX
  5
58F
  8
0
  6
CONTINUOUS
 62
     7
 10
3972.670611391165
 20
2160.475221817795
 30
0.0
  0
VERTEX
  5
590
  8
0
  6
CONTINUOUS
 62
     7
 10
3972.65834644613
 20
2160.478611571108
 30
0.0
  0
VERTEX
  5
591
  8
0
  6
CONTINUOUS
 62
     7
 10
3972.646013320014
 20
2160.481830635029
 30
0.0
  0
VERTEX
  5
592
  8
0
  6
CONTINUOUS
 62
     7
 10
3972.633613600145
 20
2160.484874380471
 30
0.0
  0
VERTEX
  5
593
  8
0
  6
CONTINUOUS
 62
     7
 10
3972.621148873842
 20
2160.487738178344
 30
0.0
  0
VERTEX
  5
594
  8
0
  6
CONTINUOUS
 62
     7
 10
3972.608620728432
 20
2160.490417399559
 30
0.0
  0
VERTEX
  5
595
  8
0
  6
CONTINUOUS
 62
     7
 10
3972.596030751237
 20
2160.492907415028
 30
0.0
  0
VERTEX
  5
596
  8
0
  6
CONTINUOUS
 62
     7
 10
3972.583380529583
 20
2160.495203595662
 30
0.0
  0
VERTEX
  5
597
  8
0
  6
CONTINUOUS
 62
     7
 10
3972.570671650791
 20
2160.497301312371
 30
0.0
  0
VERTEX
  5
598
  8
0
  6
CONTINUOUS
 62
     7
 10
3972.557905969173
 20
2160.499197865269
 30
0.0
  0
VERTEX
  5
599
  8
0
  6
CONTINUOUS
 62
     7
 10
3972.545087154434
 20
2160.50090367225
 30
0.0
  0
VERTEX
  5
59A
  8
0
  6
CONTINUOUS
 62
     7
 10
3972.532219632052
 20
2160.502434612337
 30
0.0
  0
VERTEX
  5
59B
  8
0
  6
CONTINUOUS
 62
     7
 10
3972.519307829998
 20
2160.50380658252
 30
0.0
  0
VERTEX
  5
59C
  8
0
  6
CONTINUOUS
 62
     7
 10
3972.506356176236
 20
2160.50503547979
 30
0.0
  0
VERTEX
  5
59D
  8
0
  6
CONTINUOUS
 62
     7
 10
3972.493369098736
 20
2160.506137201137
 30
0.0
  0
VERTEX
  5
59E
  8
0
  6
CONTINUOUS
 62
     7
 10
3972.480351025463
 20
2160.507127643552
 30
0.0
  0
VERTEX
  5
59F
  8
0
  6
CONTINUOUS
 62
     7
 10
3972.467306384387
 20
2160.508022704025
 30
0.0
  0
VERTEX
  5
5A0
  8
0
  6
CONTINUOUS
 62
     7
 10
3972.454239603474
 20
2160.508838279547
 30
0.0
  0
VERTEX
  5
5A1
  8
0
  6
CONTINUOUS
 62
     7
 10
3972.441155110692
 20
2160.509590267106
 30
0.0
  0
VERTEX
  5
5A2
  8
0
  6
CONTINUOUS
 62
     7
 10
3972.428057334007
 20
2160.510294563695
 30
0.0
  0
VERTEX
  5
5A3
  8
0
  6
CONTINUOUS
 62
     7
 10
3972.414950701388
 20
2160.510967066303
 30
0.0
  0
VERTEX
  5
5A4
  8
0
  6
CONTINUOUS
 62
     7
 10
3972.401839640801
 20
2160.511623671921
 30
0.0
  0
SEQEND
  5
6D8
  8
0
  6
CONTINUOUS
 62
     7
  0
LINE
  5
15C
  8
0
  6
CONTINUOUS
 62
     7
 10
3971.551839640809
 20
2160.511623671921
 30
0.0
 11
3972.401839640801
 21
2160.511623671921
 31
0.0
  0
LINE
  5
15D
  8
0
  6
CONTINUOUS
 62
     7
 10
3971.051839640807
 20
2198.01162367192
 30
0.0
 11
3971.251839640807
 21
2198.01162367192
 31
0.0
  0
LINE
  5
15E
  8
0
  6
CONTINUOUS
 62
     7
 10
3971.25183964081
 20
2188.903197829671
 30
0.0
 11
3971.251839640807
 21
2198.01162367192
 31
0.0
  0
POLYLINE
  5
15F
  8
0
  6
CONTINUOUS
 62
     7
 66
     1
 10
0.0
 20
0.0
 30
0.0
  0
VERTEX
  5
5A5
  8
0
  6
CONTINUOUS
 62
     7
 10
3972.401839640812
 20
2180.51162367192
 30
0.0
  0
VERTEX
  5
5A6
  8
0
  6
CONTINUOUS
 62
     7
 10
3972.424725099444
 20
2180.513898994913
 30
0.0
  0
VERTEX
  5
5A7
  8
0
  6
CONTINUOUS
 62
     7
 10
3972.447590563644
 20
2180.516215245387
 30
0.0
  0
VERTEX
  5
5A8
  8
0
  6
CONTINUOUS
 62
     7
 10
3972.470416038985
 20
2180.518613350825
 30
0.0
  0
VERTEX
  5
5A9
  8
0
  6
CONTINUOUS
 62
     7
 10
3972.493181531039
 20
2180.521134238712
 30
0.0
  0
VERTEX
  5
5AA
  8
0
  6
CONTINUOUS
 62
     7
 10
3972.515867045373
 20
2180.523818836527
 30
0.0
  0
VERTEX
  5
5AB
  8
0
  6
CONTINUOUS
 62
     7
 10
3972.538452587562
 20
2180.526708071754
 30
0.0
  0
VERTEX
  5
5AC
  8
0
  6
CONTINUOUS
 62
     7
 10
3972.560918163172
 20
2180.529842871874
 30
0.0
  0
VERTEX
  5
5AD
  8
0
  6
CONTINUOUS
 62
     7
 10
3972.583243777776
 20
2180.533264164371
 30
0.0
  0
VERTEX
  5
5AE
  8
0
  6
CONTINUOUS
 62
     7
 10
3972.605409436945
 20
2180.537012876726
 30
0.0
  0
VERTEX
  5
5AF
  8
0
  6
CONTINUOUS
 62
     7
 10
3972.627395146246
 20
2180.541129936422
 30
0.0
  0
VERTEX
  5
5B0
  8
0
  6
CONTINUOUS
 62
     7
 10
3972.649180911254
 20
2180.545656270941
 30
0.0
  0
VERTEX
  5
5B1
  8
0
  6
CONTINUOUS
 62
     7
 10
3972.670746737536
 20
2180.550632807765
 30
0.0
  0
VERTEX
  5
5B2
  8
0
  6
CONTINUOUS
 62
     7
 10
3972.692072630665
 20
2180.556100474377
 30
0.0
  0
VERTEX
  5
5B3
  8
0
  6
CONTINUOUS
 62
     7
 10
3972.71313859621
 20
2180.562100198259
 30
0.0
  0
VERTEX
  5
5B4
  8
0
  6
CONTINUOUS
 62
     7
 10
3972.733924639742
 20
2180.568672906894
 30
0.0
  0
VERTEX
  5
5B5
  8
0
  6
CONTINUOUS
 62
     7
 10
3972.754410766831
 20
2180.575859527762
 30
0.0
  0
VERTEX
  5
5B6
  8
0
  6
CONTINUOUS
 62
     7
 10
3972.77458096957
 20
2180.583692828161
 30
0.0
  0
VERTEX
  5
5B7
  8
0
  6
CONTINUOUS
 62
     7
 10
3972.794445214711
 20
2180.592152406703
 30
0.0
  0
VERTEX
  5
5B8
  8
0
  6
CONTINUOUS
 62
     7
 10
3972.814023873563
 20
2180.601196564452
 30
0.0
  0
VERTEX
  5
5B9
  8
0
  6
CONTINUOUS
 62
     7
 10
3972.833337345149
 20
2180.61078354575
 30
0.0
  0
VERTEX
  5
5BA
  8
0
  6
CONTINUOUS
 62
     7
 10
3972.852406028488
 20
2180.620871594939
 30
0.0
  0
VERTEX
  5
5BB
  8
0
  6
CONTINUOUS
 62
     7
 10
3972.871250322601
 20
2180.631418956362
 30
0.0
  0
VERTEX
  5
5BC
  8
0
  6
CONTINUOUS
 62
     7
 10
3972.889890626507
 20
2180.642383874361
 30
0.0
  0
VERTEX
  5
5BD
  8
0
  6
CONTINUOUS
 62
     7
 10
3972.90834733923
 20
2180.653724593279
 30
0.0
  0
VERTEX
  5
5BE
  8
0
  6
CONTINUOUS
 62
     7
 10
3972.926640859788
 20
2180.665399357458
 30
0.0
  0
VERTEX
  5
5BF
  8
0
  6
CONTINUOUS
 62
     7
 10
3972.944791587202
 20
2180.67736641124
 30
0.0
  0
VERTEX
  5
5C0
  8
0
  6
CONTINUOUS
 62
     7
 10
3972.962819920492
 20
2180.689583998968
 30
0.0
  0
VERTEX
  5
5C1
  8
0
  6
CONTINUOUS
 62
     7
 10
3972.98074625868
 20
2180.702010364984
 30
0.0
  0
VERTEX
  5
5C2
  8
0
  6
CONTINUOUS
 62
     7
 10
3972.998591000785
 20
2180.714603753631
 30
0.0
  0
VERTEX
  5
5C3
  8
0
  6
CONTINUOUS
 62
     7
 10
3973.016374545829
 20
2180.72732240925
 30
0.0
  0
VERTEX
  5
5C4
  8
0
  6
CONTINUOUS
 62
     7
 10
3973.034117292832
 20
2180.740124576185
 30
0.0
  0
VERTEX
  5
5C5
  8
0
  6
CONTINUOUS
 62
     7
 10
3973.051839640814
 20
2180.752968498777
 30
0.0
  0
SEQEND
  5
6D9
  8
0
  6
CONTINUOUS
 62
     7
  0
LINE
  5
160
  8
0
  6
CONTINUOUS
 62
     7
 10
3972.401839640812
 20
2180.51162367192
 30
0.0
 11
3971.55183964081
 21
2180.511623671918
 31
0.0
  0
LINE
  5
161
  8
0
  6
CONTINUOUS
 62
     7
 10
3971.051839640819
 20
2142.011623671914
 30
0.0
 11
3971.251839640819
 21
2142.011623671914
 31
0.0
  0
LINE
  5
162
  8
0
  6
CONTINUOUS
 62
     7
 10
3971.051839640795
 20
2199.011623671919
 30
0.0
 11
3971.251839640795
 21
2199.011623671919
 31
0.0
  0
LINE
  5
163
  8
0
  6
CONTINUOUS
 62
     7
 10
3973.051839640826
 20
2164.01162367192
 30
0.0
 11
3971.051839640811
 21
2164.01162367192
 31
0.0
  0
LINE
  5
164
  8
0
  6
CONTINUOUS
 62
     7
 10
3971.051839640811
 20
2177.011623671922
 30
0.0
 11
3973.051839640826
 21
2177.011623671919
 31
0.0
  0
LINE
  5
165
  8
0
  6
CONTINUOUS
 62
     7
 10
3972.323122185997
 20
2177.961623671921
 30
0.0
 11
3972.323122185998
 21
2177.011623671919
 31
0.0
  0
LINE
  5
166
  8
0
  6
CONTINUOUS
 62
     7
 10
3972.323122186002
 20
2164.01162367192
 30
0.0
 11
3972.323122186003
 21
2163.06162367192
 31
0.0
  0
LINE
  5
167
  8
0
  6
CONTINUOUS
 62
     7
 10
3972.323122186003
 20
2163.06162367192
 30
0.0
 11
3973.051839640826
 21
2163.06162367192
 31
0.0
  0
LINE
  5
168
  8
0
  6
CONTINUOUS
 62
     7
 10
3972.323122185997
 20
2177.961623671921
 30
0.0
 11
3973.051839640826
 21
2177.961623671922
 31
0.0
  0
LINE
  5
169
  8
0
  6
CONTINUOUS
 62
     7
 10
3972.261752690401
 20
2177.961623671919
 30
0.0
 11
3972.261752690401
 21
2177.011623671919
 31
0.0
  0
LINE
  5
16A
  8
0
  6
CONTINUOUS
 62
     7
 10
3972.261752690397
 20
2164.01162367192
 30
0.0
 11
3972.261752690397
 21
2163.061623671922
 31
0.0
  0
LINE
  5
16B
  8
0
  6
CONTINUOUS
 62
     7
 10
3972.261752690397
 20
2163.061623671922
 30
0.0
 11
3972.323122186003
 21
2163.06162367192
 31
0.0
  0
LINE
  5
16C
  8
0
  6
CONTINUOUS
 62
     7
 10
3972.261752690401
 20
2177.961623671919
 30
0.0
 11
3972.323122185997
 21
2177.961623671921
 31
0.0
  0
LINE
  5
16D
  8
0
  6
CONTINUOUS
 62
     7
 10
3973.051839640826
 20
1726.01162367192
 30
0.0
 11
3971.051839640837
 21
1726.01162367192
 31
0.0
  0
LINE
  5
16E
  8
0
  6
CONTINUOUS
 62
     7
 10
3971.051839640837
 20
1739.011623671922
 30
0.0
 11
3973.051839640826
 21
1739.011623671918
 31
0.0
  0
LINE
  5
16F
  8
0
  6
CONTINUOUS
 62
     7
 10
3972.323122186024
 20
1739.961623671921
 30
0.0
 11
3972.323122186024
 21
1739.011623671918
 31
0.0
  0
LINE
  5
170
  8
0
  6
CONTINUOUS
 62
     7
 10
3972.323122186029
 20
1726.01162367192
 30
0.0
 11
3972.32312218603
 21
1725.06162367192
 31
0.0
  0
LINE
  5
171
  8
0
  6
CONTINUOUS
 62
     7
 10
3972.323122186024
 20
1739.961623671921
 30
0.0
 11
3973.051839640814
 21
1739.961623671921
 31
0.0
  0
LINE
  5
172
  8
0
  6
CONTINUOUS
 62
     7
 10
3972.32312218603
 20
1725.06162367192
 30
0.0
 11
3973.051839640826
 21
1725.06162367192
 31
0.0
  0
LINE
  5
173
  8
0
  6
CONTINUOUS
 62
     7
 10
3972.261752690428
 20
1739.961623671919
 30
0.0
 11
3972.261752690428
 21
1739.011623671918
 31
0.0
  0
LINE
  5
174
  8
0
  6
CONTINUOUS
 62
     7
 10
3972.261752690424
 20
1726.01162367192
 30
0.0
 11
3972.261752690423
 21
1725.061623671922
 31
0.0
  0
LINE
  5
175
  8
0
  6
CONTINUOUS
 62
     7
 10
3972.261752690428
 20
1739.961623671919
 30
0.0
 11
3972.323122186024
 21
1739.961623671921
 31
0.0
  0
LINE
  5
176
  8
0
  6
CONTINUOUS
 62
     7
 10
3972.261752690423
 20
1725.061623671922
 30
0.0
 11
3972.32312218603
 21
1725.06162367192
 31
0.0
  0
LINE
  5
177
  8
0
  6
CONTINUOUS
 62
     7
 10
3971.551839640804
 20
2177.986623671921
 30
0.0
 11
3971.863405443642
 21
2177.986623671921
 31
0.0
  0
LINE
  5
178
  8
0
  6
CONTINUOUS
 62
     7
 10
3971.863405443639
 20
2163.036623671921
 30
0.0
 11
3971.863405443639
 21
2164.01162367192
 31
0.0
  0
LINE
  5
179
  8
0
  6
CONTINUOUS
 62
     7
 10
3971.863405443642
 20
2177.011623671919
 30
0.0
 11
3971.863405443642
 21
2177.986623671921
 31
0.0
  0
LINE
  5
17A
  8
0
  6
CONTINUOUS
 62
     7
 10
3971.551839640819
 20
2163.036623671921
 30
0.0
 11
3971.863405443639
 21
2163.036623671921
 31
0.0
  0
LINE
  5
17B
  8
0
  6
CONTINUOUS
 62
     7
 10
3971.863405443639
 20
2163.036623671921
 30
0.0
 11
3971.902548038099
 21
2163.036623671921
 31
0.0
  0
LINE
  5
17C
  8
0
  6
CONTINUOUS
 62
     7
 10
3971.863405443642
 20
2177.986623671921
 30
0.0
 11
3971.902548038101
 21
2177.986623671921
 31
0.0
  0
LINE
  5
17D
  8
0
  6
CONTINUOUS
 62
     7
 10
3971.551839640831
 20
1739.986623671921
 30
0.0
 11
3971.863405443669
 21
1739.986623671921
 31
0.0
  0
LINE
  5
17E
  8
0
  6
CONTINUOUS
 62
     7
 10
3971.863405443666
 20
1725.036623671921
 30
0.0
 11
3971.863405443666
 21
1726.011623671919
 31
0.0
  0
LINE
  5
17F
  8
0
  6
CONTINUOUS
 62
     7
 10
3971.863405443668
 20
1739.011623671918
 30
0.0
 11
3971.863405443669
 21
1739.986623671921
 31
0.0
  0
LINE
  5
180
  8
0
  6
CONTINUOUS
 62
     7
 10
3971.551839640846
 20
1725.036623671921
 30
0.0
 11
3971.863405443666
 21
1725.036623671921
 31
0.0
  0
LINE
  5
181
  8
0
  6
CONTINUOUS
 62
     7
 10
3971.863405443669
 20
1739.986623671921
 30
0.0
 11
3971.902548038128
 21
1739.986623671921
 31
0.0
  0
LINE
  5
182
  8
0
  6
CONTINUOUS
 62
     7
 10
3971.863405443666
 20
1725.036623671921
 30
0.0
 11
3971.902548038126
 21
1725.036623671921
 31
0.0
  0
LINE
  5
183
  8
0
  6
CONTINUOUS
 62
     7
 10
3973.051839640826
 20
1657.511623671915
 30
0.0
 11
3973.051839640826
 21
2245.511623671915
 31
0.0
  0
LINE
  5
184
  8
0
  6
CONTINUOUS
 62
     7
 10
3973.051839640826
 20
2245.511623671915
 30
0.0
 11
4121.051839640826
 21
2245.511623671915
 31
0.0
  0
LINE
  5
185
  8
0
  6
CONTINUOUS
 62
     7
 10
4121.051839640826
 20
1657.511623671915
 30
0.0
 11
4121.051839640826
 21
2245.511623671915
 31
0.0
  0
LINE
  5
186
  8
0
  6
CONTINUOUS
 62
     7
 10
3973.051839640826
 20
1657.511623671915
 30
0.0
 11
4121.051839640826
 21
1657.511623671915
 31
0.0
  0
LINE
  5
187
  8
0
  6
CONTINUOUS
 62
     8
 10
3971.251839640843
 20
1705.011623671913
 30
0.0
 11
3973.051839640826
 21
1705.011623671912
 31
0.0
  0
LINE
  5
188
  8
0
  6
CONTINUOUS
 62
     8
 10
3971.251839640834
 20
1760.01162367192
 30
0.0
 11
3973.051839640826
 21
1760.011623671919
 31
0.0
  0
LINE
  5
189
  8
0
  6
CONTINUOUS
 62
     8
 10
3972.401839640836
 20
1724.13662367192
 30
0.0
 11
3972.401839640839
 21
1722.511623671923
 31
0.0
  0
LINE
  5
18A
  8
0
  6
CONTINUOUS
 62
     8
 10
3972.401839640824
 20
1742.511623671919
 30
0.0
 11
3972.401839640836
 21
1740.886623671919
 31
0.0
  0
LINE
  5
18B
  8
0
  6
CONTINUOUS
 62
     8
 10
3971.251839640816
 20
2143.011623671913
 30
0.0
 11
3973.051839640826
 21
2143.011623671912
 31
0.0
  0
LINE
  5
18C
  8
0
  6
CONTINUOUS
 62
     8
 10
3971.251839640807
 20
2198.01162367192
 30
0.0
 11
3973.051839640826
 21
2198.011623671919
 31
0.0
  0
LINE
  5
18D
  8
0
  6
CONTINUOUS
 62
     8
 10
3972.40183964081
 20
2162.13662367192
 30
0.0
 11
3972.401839640812
 21
2160.511623671923
 31
0.0
  0
LINE
  5
18E
  8
0
  6
CONTINUOUS
 62
     8
 10
3972.401839640797
 20
2180.511623671919
 30
0.0
 11
3972.40183964081
 21
2178.886623671919
 31
0.0
  0
LINE
  5
18F
  8
0
  6
CONTINUOUS
 62
     7
 10
2722.697673528688
 20
3007.686457349631
 30
0.0
 11
1859.197673528688
 21
3007.686457349631
 31
0.0
  0
LINE
  5
190
  8
0
  6
CONTINUOUS
 62
     7
 10
2722.697673528688
 20
2860.186457349632
 30
0.0
 11
1859.197673528688
 21
2860.186457349632
 31
0.0
  0
LINE
  5
191
  8
0
  6
CONTINUOUS
 62
     7
 10
2493.197673528688
 20
2842.686457349635
 30
0.0
 11
2442.697673528688
 21
2842.686457349635
 31
0.0
  0
LINE
  5
192
  8
0
  6
CONTINUOUS
 62
     7
 10
2442.697673528688
 20
2842.686457349635
 30
0.0
 11
2442.697673528688
 21
2857.686457349635
 31
0.0
  0
LINE
  5
194
  8
0
  6
CONTINUOUS
 62
     7
 10
2493.197673528688
 20
2857.686457349635
 30
0.0
 11
2442.697673528688
 21
2857.686457349635
 31
0.0
  0
LINE
  5
195
  8
0
  6
CONTINUOUS
 62
     7
 10
2738.697673528688
 20
2842.686457349635
 30
0.0
 11
2738.697673528688
 21
2857.686457349635
 31
0.0
  0
LINE
  5
196
  8
0
  6
CONTINUOUS
 62
     7
 10
2738.697673528688
 20
2842.686457349635
 30
0.0
 11
2688.197673528688
 21
2842.686457349635
 31
0.0
  0
LINE
  5
198
  8
0
  6
CONTINUOUS
 62
     7
 10
2738.697673528688
 20
2857.686457349635
 30
0.0
 11
2688.197673528688
 21
2857.686457349635
 31
0.0
  0
LINE
  5
199
  8
0
  6
CONTINUOUS
 62
     7
 10
1880.697673533028
 20
2859.886457349626
 30
0.0
 11
1864.697673533027
 21
2859.886457349613
 31
0.0
  0
LINE
  5
19A
  8
0
  6
CONTINUOUS
 62
     7
 10
1882.697673533028
 20
2857.886457349615
 30
0.0
 11
1882.697673533029
 21
2857.686457349615
 31
0.0
  0
LINE
  5
19B
  8
0
  6
CONTINUOUS
 62
     7
 10
1862.697673533027
 20
2857.686457349633
 30
0.0
 11
1862.697673533027
 21
2857.886457349633
 31
0.0
  0
POLYLINE
  5
19C
  8
0
  6
CONTINUOUS
 62
     7
 66
     1
 10
0.0
 20
0.0
 30
0.0
  0
VERTEX
  5
5C6
  8
0
  6
CONTINUOUS
 62
     7
 10
1864.697673533028
 20
2859.886457349613
 30
0.0
  0
VERTEX
  5
5C7
  8
0
  6
CONTINUOUS
 62
     7
 10
1864.648441879213
 20
2859.881182120218
 30
0.0
  0
VERTEX
  5
5C8
  8
0
  6
CONTINUOUS
 62
     7
 10
1864.599240789182
 20
2859.875807123632
 30
0.0
  0
VERTEX
  5
5C9
  8
0
  6
CONTINUOUS
 62
     7
 10
1864.550100826719
 20
2859.87023259267
 30
0.0
  0
VERTEX
  5
5CA
  8
0
  6
CONTINUOUS
 62
     7
 10
1864.501052555608
 20
2859.864358760141
 30
0.0
  0
VERTEX
  5
5CB
  8
0
  6
CONTINUOUS
 62
     7
 10
1864.452126539632
 20
2859.858085858859
 30
0.0
  0
VERTEX
  5
5CC
  8
0
  6
CONTINUOUS
 62
     7
 10
1864.403353342577
 20
2859.851314121633
 30
0.0
  0
VERTEX
  5
5CD
  8
0
  6
CONTINUOUS
 62
     7
 10
1864.354763528224
 20
2859.843943781275
 30
0.0
  0
VERTEX
  5
5CE
  8
0
  6
CONTINUOUS
 62
     7
 10
1864.306387660359
 20
2859.835875070596
 30
0.0
  0
VERTEX
  5
5CF
  8
0
  6
CONTINUOUS
 62
     7
 10
1864.258256302765
 20
2859.827008222408
 30
0.0
  0
VERTEX
  5
5D0
  8
0
  6
CONTINUOUS
 62
     7
 10
1864.210400019227
 20
2859.817243469523
 30
0.0
  0
VERTEX
  5
5D1
  8
0
  6
CONTINUOUS
 62
     7
 10
1864.162849373527
 20
2859.806481044751
 30
0.0
  0
VERTEX
  5
5D2
  8
0
  6
CONTINUOUS
 62
     7
 10
1864.115634929451
 20
2859.794621180904
 30
0.0
  0
VERTEX
  5
5D3
  8
0
  6
CONTINUOUS
 62
     7
 10
1864.068787250781
 20
2859.781564110792
 30
0.0
  0
VERTEX
  5
5D4
  8
0
  6
CONTINUOUS
 62
     7
 10
1864.022336901303
 20
2859.767210067229
 30
0.0
  0
VERTEX
  5
5D5
  8
0
  6
CONTINUOUS
 62
     7
 10
1863.976314444799
 20
2859.751459283024
 30
0.0
  0
VERTEX
  5
5D6
  8
0
  6
CONTINUOUS
 62
     7
 10
1863.930750073691
 20
2859.734220888929
 30
0.0
  0
VERTEX
  5
5D7
  8
0
  6
CONTINUOUS
 62
     7
 10
1863.885669801095
 20
2859.715504152853
 30
0.0
  0
VERTEX
  5
5D8
  8
0
  6
CONTINUOUS
 62
     7
 10
1863.841097007817
 20
2859.695381413479
 30
0.0
  0
VERTEX
  5
5D9
  8
0
  6
CONTINUOUS
 62
     7
 10
1863.797055033578
 20
2859.673925993857
 30
0.0
  0
VERTEX
  5
5DA
  8
0
  6
CONTINUOUS
 62
     7
 10
1863.753567218102
 20
2859.65121121704
 30
0.0
  0
VERTEX
  5
5DB
  8
0
  6
CONTINUOUS
 62
     7
 10
1863.710656901112
 20
2859.627310406079
 30
0.0
  0
VERTEX
  5
5DC
  8
0
  6
CONTINUOUS
 62
     7
 10
1863.668347422329
 20
2859.602296884025
 30
0.0
  0
VERTEX
  5
5DD
  8
0
  6
CONTINUOUS
 62
     7
 10
1863.626662121476
 20
2859.576243973929
 30
0.0
  0
VERTEX
  5
5DE
  8
0
  6
CONTINUOUS
 62
     7
 10
1863.58562434011
 20
2859.54922455138
 30
0.0
  0
VERTEX
  5
5DF
  8
0
  6
CONTINUOUS
 62
     7
 10
1863.545257522322
 20
2859.521286475339
 30
0.0
  0
VERTEX
  5
5E0
  8
0
  6
CONTINUOUS
 62
     7
 10
1863.505585266959
 20
2859.492439846779
 30
0.0
  0
VERTEX
  5
5E1
  8
0
  6
CONTINUOUS
 62
     7
 10
1863.466631185707
 20
2859.462691634788
 30
0.0
  0
VERTEX
  5
5E2
  8
0
  6
CONTINUOUS
 62
     7
 10
1863.42841889025
 20
2859.432048808455
 30
0.0
  0
VERTEX
  5
5E3
  8
0
  6
CONTINUOUS
 62
     7
 10
1863.390971992273
 20
2859.400518336863
 30
0.0
  0
VERTEX
  5
5E4
  8
0
  6
CONTINUOUS
 62
     7
 10
1863.354314103461
 20
2859.368107189101
 30
0.0
  0
VERTEX
  5
5E5
  8
0
  6
CONTINUOUS
 62
     7
 10
1863.318468835498
 20
2859.334822334257
 30
0.0
  0
VERTEX
  5
5E6
  8
0
  6
CONTINUOUS
 62
     7
 10
1863.28345980007
 20
2859.300670741417
 30
0.0
  0
VERTEX
  5
5E7
  8
0
  6
CONTINUOUS
 62
     7
 10
1863.249307830044
 20
2859.265662148617
 30
0.0
  0
VERTEX
  5
5E8
  8
0
  6
CONTINUOUS
 62
     7
 10
1863.216022643191
 20
2859.229817369528
 30
0.0
  0
VERTEX
  5
5E9
  8
0
  6
CONTINUOUS
 62
     7
 10
1863.183611178547
 20
2859.193159986687
 30
0.0
  0
VERTEX
  5
5EA
  8
0
  6
CONTINUOUS
 62
     7
 10
1863.15208037515
 20
2859.155713582632
 30
0.0
  0
VERTEX
  5
5EB
  8
0
  6
CONTINUOUS
 62
     7
 10
1863.121437172036
 20
2859.117501739904
 30
0.0
  0
VERTEX
  5
5EC
  8
0
  6
CONTINUOUS
 62
     7
 10
1863.091688508241
 20
2859.078548041036
 30
0.0
  0
VERTEX
  5
5ED
  8
0
  6
CONTINUOUS
 62
     7
 10
1863.062841322801
 20
2859.038876068569
 30
0.0
  0
VERTEX
  5
5EE
  8
0
  6
CONTINUOUS
 62
     7
 10
1863.034902554754
 20
2858.998509405041
 30
0.0
  0
VERTEX
  5
5EF
  8
0
  6
CONTINUOUS
 62
     7
 10
1863.007882431717
 20
2858.957471622396
 30
0.0
  0
VERTEX
  5
5F0
  8
0
  6
CONTINUOUS
 62
     7
 10
1862.981829274441
 20
2858.915786169889
 30
0.0
  0
VERTEX
  5
5F1
  8
0
  6
CONTINUOUS
 62
     7
 10
1862.956815915166
 20
2858.873476417822
 30
0.0
  0
VERTEX
  5
5F2
  8
0
  6
CONTINUOUS
 62
     7
 10
1862.93291559176
 20
2858.830565735194
 30
0.0
  0
VERTEX
  5
5F3
  8
0
  6
CONTINUOUS
 62
     7
 10
1862.910201542088
 20
2858.787077491002
 30
0.0
  0
VERTEX
  5
5F4
  8
0
  6
CONTINUOUS
 62
     7
 10
1862.888747004019
 20
2858.743035054244
 30
0.0
  0
VERTEX
  5
5F5
  8
0
  6
CONTINUOUS
 62
     7
 10
1862.86862521542
 20
2858.698461793917
 30
0.0
  0
VERTEX
  5
5F6
  8
0
  6
CONTINUOUS
 62
     7
 10
1862.849909414158
 20
2858.65338107902
 30
0.0
  0
VERTEX
  5
5F7
  8
0
  6
CONTINUOUS
 62
     7
 10
1862.832671854275
 20
2858.607816319438
 30
0.0
  0
VERTEX
  5
5F8
  8
0
  6
CONTINUOUS
 62
     7
 10
1862.816921753854
 20
2858.561793544948
 30
0.0
  0
VERTEX
  5
5F9
  8
0
  6
CONTINUOUS
 62
     7
 10
1862.802568249089
 20
2858.515342944907
 30
0.0
  0
VERTEX
  5
5FA
  8
0
  6
CONTINUOUS
 62
     7
 10
1862.789511583147
 20
2858.468495078283
 30
0.0
  0
VERTEX
  5
5FB
  8
0
  6
CONTINUOUS
 62
     7
 10
1862.777651999197
 20
2858.421280504043
 30
0.0
  0
VERTEX
  5
5FC
  8
0
  6
CONTINUOUS
 62
     7
 10
1862.766889740404
 20
2858.373729781156
 30
0.0
  0
VERTEX
  5
5FD
  8
0
  6
CONTINUOUS
 62
     7
 10
1862.757125049937
 20
2858.32587346859
 30
0.0
  0
VERTEX
  5
5FE
  8
0
  6
CONTINUOUS
 62
     7
 10
1862.748258170965
 20
2858.277742125313
 30
0.0
  0
VERTEX
  5
5FF
  8
0
  6
CONTINUOUS
 62
     7
 10
1862.740189346652
 20
2858.229366310292
 30
0.0
  0
VERTEX
  5
600
  8
0
  6
CONTINUOUS
 62
     7
 10
1862.732818820168
 20
2858.180776582495
 30
0.0
  0
VERTEX
  5
601
  8
0
  6
CONTINUOUS
 62
     7
 10
1862.726046834679
 20
2858.132003500891
 30
0.0
  0
VERTEX
  5
602
  8
0
  6
CONTINUOUS
 62
     7
 10
1862.719773633353
 20
2858.083077624447
 30
0.0
  0
VERTEX
  5
603
  8
0
  6
CONTINUOUS
 62
     7
 10
1862.713899459357
 20
2858.034029512131
 30
0.0
  0
VERTEX
  5
604
  8
0
  6
CONTINUOUS
 62
     7
 10
1862.70832455586
 20
2857.984889722912
 30
0.0
  0
VERTEX
  5
605
  8
0
  6
CONTINUOUS
 62
     7
 10
1862.702949166027
 20
2857.935688815756
 30
0.0
  0
VERTEX
  5
606
  8
0
  6
CONTINUOUS
 62
     7
 10
1862.697673533027
 20
2857.886457349633
 30
0.0
  0
SEQEND
  5
6DA
  8
0
  6
CONTINUOUS
 62
     7
  0
POLYLINE
  5
19D
  8
0
  6
CONTINUOUS
 62
     7
 66
     1
 10
0.0
 20
0.0
 30
0.0
  0
VERTEX
  5
607
  8
0
  6
CONTINUOUS
 62
     7
 10
1882.697673533028
 20
2857.886457349615
 30
0.0
  0
VERTEX
  5
608
  8
0
  6
CONTINUOUS
 62
     7
 10
1882.692398303631
 20
2857.93568900343
 30
0.0
  0
VERTEX
  5
609
  8
0
  6
CONTINUOUS
 62
     7
 10
1882.687023307046
 20
2857.984890093461
 30
0.0
  0
VERTEX
  5
60A
  8
0
  6
CONTINUOUS
 62
     7
 10
1882.681448776082
 20
2858.034030055924
 30
0.0
  0
VERTEX
  5
60B
  8
0
  6
CONTINUOUS
 62
     7
 10
1882.675574943553
 20
2858.083078327036
 30
0.0
  0
VERTEX
  5
60C
  8
0
  6
CONTINUOUS
 62
     7
 10
1882.669302042269
 20
2858.132004343011
 30
0.0
  0
VERTEX
  5
60D
  8
0
  6
CONTINUOUS
 62
     7
 10
1882.662530305042
 20
2858.180777540067
 30
0.0
  0
VERTEX
  5
60E
  8
0
  6
CONTINUOUS
 62
     7
 10
1882.655159964684
 20
2858.22936735442
 30
0.0
  0
VERTEX
  5
60F
  8
0
  6
CONTINUOUS
 62
     7
 10
1882.647091254004
 20
2858.277743222285
 30
0.0
  0
VERTEX
  5
610
  8
0
  6
CONTINUOUS
 62
     7
 10
1882.638224405816
 20
2858.325874579879
 30
0.0
  0
VERTEX
  5
611
  8
0
  6
CONTINUOUS
 62
     7
 10
1882.628459652929
 20
2858.373730863418
 30
0.0
  0
VERTEX
  5
612
  8
0
  6
CONTINUOUS
 62
     7
 10
1882.617697228157
 20
2858.421281509117
 30
0.0
  0
VERTEX
  5
613
  8
0
  6
CONTINUOUS
 62
     7
 10
1882.605837364309
 20
2858.468495953194
 30
0.0
  0
VERTEX
  5
614
  8
0
  6
CONTINUOUS
 62
     7
 10
1882.592780294197
 20
2858.515343631864
 30
0.0
  0
VERTEX
  5
615
  8
0
  6
CONTINUOUS
 62
     7
 10
1882.578426250634
 20
2858.561793981342
 30
0.0
  0
VERTEX
  5
616
  8
0
  6
CONTINUOUS
 62
     7
 10
1882.562675466429
 20
2858.607816437846
 30
0.0
  0
VERTEX
  5
617
  8
0
  6
CONTINUOUS
 62
     7
 10
1882.545437072333
 20
2858.653380808954
 30
0.0
  0
VERTEX
  5
618
  8
0
  6
CONTINUOUS
 62
     7
 10
1882.526720336256
 20
2858.698461081551
 30
0.0
  0
VERTEX
  5
619
  8
0
  6
CONTINUOUS
 62
     7
 10
1882.506597596882
 20
2858.74303387483
 30
0.0
  0
VERTEX
  5
61A
  8
0
  6
CONTINUOUS
 62
     7
 10
1882.485142177261
 20
2858.787075849069
 30
0.0
  0
VERTEX
  5
61B
  8
0
  6
CONTINUOUS
 62
     7
 10
1882.462427400443
 20
2858.830563664544
 30
0.0
  0
VERTEX
  5
61C
  8
0
  6
CONTINUOUS
 62
     7
 10
1882.438526589483
 20
2858.873473981535
 30
0.0
  0
VERTEX
  5
61D
  8
0
  6
CONTINUOUS
 62
     7
 10
1882.413513067429
 20
2858.915783460318
 30
0.0
  0
VERTEX
  5
61E
  8
0
  6
CONTINUOUS
 62
     7
 10
1882.387460157333
 20
2858.957468761172
 30
0.0
  0
VERTEX
  5
61F
  8
0
  6
CONTINUOUS
 62
     7
 10
1882.360440734784
 20
2858.998506542538
 30
0.0
  0
VERTEX
  5
620
  8
0
  6
CONTINUOUS
 62
     7
 10
1882.332502658742
 20
2859.038873360327
 30
0.0
  0
VERTEX
  5
621
  8
0
  6
CONTINUOUS
 62
     7
 10
1882.303656030182
 20
2859.078545615689
 30
0.0
  0
VERTEX
  5
622
  8
0
  6
CONTINUOUS
 62
     7
 10
1882.273907818192
 20
2859.117499696942
 30
0.0
  0
VERTEX
  5
623
  8
0
  6
CONTINUOUS
 62
     7
 10
1882.243264991858
 20
2859.155711992399
 30
0.0
  0
VERTEX
  5
624
  8
0
  6
CONTINUOUS
 62
     7
 10
1882.211734520266
 20
2859.193158890376
 30
0.0
  0
VERTEX
  5
625
  8
0
  6
CONTINUOUS
 62
     7
 10
1882.179323372505
 20
2859.229816779188
 30
0.0
  0
VERTEX
  5
626
  8
0
  6
CONTINUOUS
 62
     7
 10
1882.14603851766
 20
2859.265662047151
 30
0.0
  0
VERTEX
  5
627
  8
0
  6
CONTINUOUS
 62
     7
 10
1882.111886924821
 20
2859.300671082581
 30
0.0
  0
VERTEX
  5
628
  8
0
  6
CONTINUOUS
 62
     7
 10
1882.07687833202
 20
2859.334823052607
 30
0.0
  0
VERTEX
  5
629
  8
0
  6
CONTINUOUS
 62
     7
 10
1882.04103355293
 20
2859.368108239459
 30
0.0
  0
VERTEX
  5
62A
  8
0
  6
CONTINUOUS
 62
     7
 10
1882.004376170089
 20
2859.400519704103
 30
0.0
  0
VERTEX
  5
62B
  8
0
  6
CONTINUOUS
 62
     7
 10
1881.966929766035
 20
2859.432050507501
 30
0.0
  0
VERTEX
  5
62C
  8
0
  6
CONTINUOUS
 62
     7
 10
1881.928717923305
 20
2859.462693710615
 30
0.0
  0
VERTEX
  5
62D
  8
0
  6
CONTINUOUS
 62
     7
 10
1881.889764224438
 20
2859.492442374411
 30
0.0
  0
VERTEX
  5
62E
  8
0
  6
CONTINUOUS
 62
     7
 10
1881.850092251971
 20
2859.521289559851
 30
0.0
  0
VERTEX
  5
62F
  8
0
  6
CONTINUOUS
 62
     7
 10
1881.809725588442
 20
2859.549228327898
 30
0.0
  0
VERTEX
  5
630
  8
0
  6
CONTINUOUS
 62
     7
 10
1881.768687805798
 20
2859.576248450935
 30
0.0
  0
VERTEX
  5
631
  8
0
  6
CONTINUOUS
 62
     7
 10
1881.72700235329
 20
2859.602301608211
 30
0.0
  0
VERTEX
  5
632
  8
0
  6
CONTINUOUS
 62
     7
 10
1881.684692601223
 20
2859.627314967486
 30
0.0
  0
VERTEX
  5
633
  8
0
  6
CONTINUOUS
 62
     7
 10
1881.641781918595
 20
2859.651215290894
 30
0.0
  0
VERTEX
  5
634
  8
0
  6
CONTINUOUS
 62
     7
 10
1881.598293674402
 20
2859.673929340564
 30
0.0
  0
VERTEX
  5
635
  8
0
  6
CONTINUOUS
 62
     7
 10
1881.554251237643
 20
2859.695383878633
 30
0.0
  0
VERTEX
  5
636
  8
0
  6
CONTINUOUS
 62
     7
 10
1881.509677977316
 20
2859.715505667232
 30
0.0
  0
VERTEX
  5
637
  8
0
  6
CONTINUOUS
 62
     7
 10
1881.464597262419
 20
2859.734221468494
 30
0.0
  0
VERTEX
  5
638
  8
0
  6
CONTINUOUS
 62
     7
 10
1881.419032502837
 20
2859.751459028376
 30
0.0
  0
VERTEX
  5
639
  8
0
  6
CONTINUOUS
 62
     7
 10
1881.373009728347
 20
2859.767209128798
 30
0.0
  0
VERTEX
  5
63A
  8
0
  6
CONTINUOUS
 62
     7
 10
1881.326559128305
 20
2859.781562633563
 30
0.0
  0
VERTEX
  5
63B
  8
0
  6
CONTINUOUS
 62
     7
 10
1881.279711261681
 20
2859.794619299505
 30
0.0
  0
VERTEX
  5
63C
  8
0
  6
CONTINUOUS
 62
     7
 10
1881.232496687441
 20
2859.806478883455
 30
0.0
  0
VERTEX
  5
63D
  8
0
  6
CONTINUOUS
 62
     7
 10
1881.184945964554
 20
2859.817241142247
 30
0.0
  0
VERTEX
  5
63E
  8
0
  6
CONTINUOUS
 62
     7
 10
1881.137089651987
 20
2859.827005832714
 30
0.0
  0
VERTEX
  5
63F
  8
0
  6
CONTINUOUS
 62
     7
 10
1881.088958308709
 20
2859.835872711687
 30
0.0
  0
VERTEX
  5
640
  8
0
  6
CONTINUOUS
 62
     7
 10
1881.040582493688
 20
2859.843941536
 30
0.0
  0
VERTEX
  5
641
  8
0
  6
CONTINUOUS
 62
     7
 10
1880.991992765891
 20
2859.851312062484
 30
0.0
  0
VERTEX
  5
642
  8
0
  6
CONTINUOUS
 62
     7
 10
1880.943219684287
 20
2859.858084047974
 30
0.0
  0
VERTEX
  5
643
  8
0
  6
CONTINUOUS
 62
     7
 10
1880.894293807843
 20
2859.864357249299
 30
0.0
  0
VERTEX
  5
644
  8
0
  6
CONTINUOUS
 62
     7
 10
1880.845245695527
 20
2859.870231423295
 30
0.0
  0
VERTEX
  5
645
  8
0
  6
CONTINUOUS
 62
     7
 10
1880.796105906307
 20
2859.875806326793
 30
0.0
  0
VERTEX
  5
646
  8
0
  6
CONTINUOUS
 62
     7
 10
1880.746904999151
 20
2859.881181716626
 30
0.0
  0
VERTEX
  5
647
  8
0
  6
CONTINUOUS
 62
     7
 10
1880.697673533028
 20
2859.886457349626
 30
0.0
  0
SEQEND
  5
6DB
  8
0
  6
CONTINUOUS
 62
     7
  0
LINE
  5
19E
  8
0
  6
CONTINUOUS
 62
     7
 10
1861.697673533027
 20
2857.68645734963
 30
0.0
 11
1861.697673533027
 21
2857.88645734963
 31
0.0
  0
LINE
  5
19F
  8
0
  6
CONTINUOUS
 62
     7
 10
1861.697673533027
 20
2857.88645734963
 30
0.0
 11
1862.697673533027
 21
2857.886457349633
 31
0.0
  0
LINE
  5
1A0
  8
0
  6
CONTINUOUS
 62
     7
 10
1883.697673533029
 20
2857.686457349625
 30
0.0
 11
1883.697673533028
 21
2857.886457349625
 31
0.0
  0
LINE
  5
1A1
  8
0
  6
CONTINUOUS
 62
     7
 10
1882.697673533028
 20
2857.886457349615
 30
0.0
 11
1883.697673533028
 21
2857.886457349625
 31
0.0
  0
ARC
  5
1A2
  8
0
  6
CONTINUOUS
 62
     7
 10
1864.697673533027
 20
2857.886457349614
 30
0.0
 40
2.999999999999917
 50
129.9445051895506
 51
179.9999999996871
  0
ARC
  5
1A3
  8
0
  6
CONTINUOUS
 62
     7
 10
1880.697673533029
 20
2857.886457349623
 30
0.0
 40
3.000000000000332
 50
0.000000000036088
 51
50.05549481015589
  0
LINE
  5
1A4
  8
0
  6
CONTINUOUS
 62
     7
 10
1861.697673533027
 20
2858.18645734963
 30
0.0
 11
1847.509998779235
 21
2858.186457349634
 31
0.0
  0
LINE
  5
1A5
  8
0
  6
CONTINUOUS
 62
     7
 10
1861.697673533027
 20
2857.88645734963
 30
0.0
 11
1861.697673533027
 21
2858.18645734963
 31
0.0
  0
LINE
  5
1A6
  8
0
  6
CONTINUOUS
 62
     7
 10
1847.509998779235
 20
2858.186457349634
 30
0.0
 11
1847.509998779234
 21
2857.686457349623
 31
0.0
  0
LINE
  5
1A7
  8
0
  6
CONTINUOUS
 62
     7
 10
2717.197673524337
 20
2859.886457349594
 30
0.0
 11
2701.197673524339
 21
2859.8864573496
 31
0.0
  0
POLYLINE
  5
1A8
  8
0
  6
CONTINUOUS
 62
     7
 66
     1
 10
0.0
 20
0.0
 30
0.0
  0
VERTEX
  5
648
  8
0
  6
CONTINUOUS
 62
     7
 10
2719.197673524337
 20
2857.886457349602
 30
0.0
  0
VERTEX
  5
649
  8
0
  6
CONTINUOUS
 62
     7
 10
2719.19239829494
 20
2857.935689003417
 30
0.0
  0
VERTEX
  5
64A
  8
0
  6
CONTINUOUS
 62
     7
 10
2719.187023298354
 20
2857.984890093448
 30
0.0
  0
VERTEX
  5
64B
  8
0
  6
CONTINUOUS
 62
     7
 10
2719.181448767391
 20
2858.034030055911
 30
0.0
  0
VERTEX
  5
64C
  8
0
  6
CONTINUOUS
 62
     7
 10
2719.175574934862
 20
2858.083078327022
 30
0.0
  0
VERTEX
  5
64D
  8
0
  6
CONTINUOUS
 62
     7
 10
2719.169302033578
 20
2858.132004342998
 30
0.0
  0
VERTEX
  5
64E
  8
0
  6
CONTINUOUS
 62
     7
 10
2719.162530296352
 20
2858.180777540054
 30
0.0
  0
VERTEX
  5
64F
  8
0
  6
CONTINUOUS
 62
     7
 10
2719.155159955993
 20
2858.229367354407
 30
0.0
  0
VERTEX
  5
650
  8
0
  6
CONTINUOUS
 62
     7
 10
2719.147091245314
 20
2858.277743222272
 30
0.0
  0
VERTEX
  5
651
  8
0
  6
CONTINUOUS
 62
     7
 10
2719.138224397125
 20
2858.325874579866
 30
0.0
  0
VERTEX
  5
652
  8
0
  6
CONTINUOUS
 62
     7
 10
2719.128459644239
 20
2858.373730863404
 30
0.0
  0
VERTEX
  5
653
  8
0
  6
CONTINUOUS
 62
     7
 10
2719.117697219466
 20
2858.421281509104
 30
0.0
  0
VERTEX
  5
654
  8
0
  6
CONTINUOUS
 62
     7
 10
2719.105837355619
 20
2858.468495953181
 30
0.0
  0
VERTEX
  5
655
  8
0
  6
CONTINUOUS
 62
     7
 10
2719.092780285507
 20
2858.51534363185
 30
0.0
  0
VERTEX
  5
656
  8
0
  6
CONTINUOUS
 62
     7
 10
2719.078426241943
 20
2858.561793981329
 30
0.0
  0
VERTEX
  5
657
  8
0
  6
CONTINUOUS
 62
     7
 10
2719.062675457739
 20
2858.607816437833
 30
0.0
  0
VERTEX
  5
658
  8
0
  6
CONTINUOUS
 62
     7
 10
2719.045437063643
 20
2858.653380808941
 30
0.0
  0
VERTEX
  5
659
  8
0
  6
CONTINUOUS
 62
     7
 10
2719.026720327567
 20
2858.698461081538
 30
0.0
  0
VERTEX
  5
65A
  8
0
  6
CONTINUOUS
 62
     7
 10
2719.006597588192
 20
2858.743033874816
 30
0.0
  0
VERTEX
  5
65B
  8
0
  6
CONTINUOUS
 62
     7
 10
2718.985142168571
 20
2858.787075849055
 30
0.0
  0
VERTEX
  5
65C
  8
0
  6
CONTINUOUS
 62
     7
 10
2718.962427391754
 20
2858.83056366453
 30
0.0
  0
VERTEX
  5
65D
  8
0
  6
CONTINUOUS
 62
     7
 10
2718.938526580793
 20
2858.873473981522
 30
0.0
  0
VERTEX
  5
65E
  8
0
  6
CONTINUOUS
 62
     7
 10
2718.913513058739
 20
2858.915783460304
 30
0.0
  0
VERTEX
  5
65F
  8
0
  6
CONTINUOUS
 62
     7
 10
2718.887460148644
 20
2858.957468761158
 30
0.0
  0
VERTEX
  5
660
  8
0
  6
CONTINUOUS
 62
     7
 10
2718.860440726095
 20
2858.998506542525
 30
0.0
  0
VERTEX
  5
661
  8
0
  6
CONTINUOUS
 62
     7
 10
2718.832502650053
 20
2859.038873360313
 30
0.0
  0
VERTEX
  5
662
  8
0
  6
CONTINUOUS
 62
     7
 10
2718.803656021493
 20
2859.078545615676
 30
0.0
  0
VERTEX
  5
663
  8
0
  6
CONTINUOUS
 62
     7
 10
2718.773907809503
 20
2859.117499696928
 30
0.0
  0
VERTEX
  5
664
  8
0
  6
CONTINUOUS
 62
     7
 10
2718.743264983169
 20
2859.155711992385
 30
0.0
  0
VERTEX
  5
665
  8
0
  6
CONTINUOUS
 62
     7
 10
2718.711734511577
 20
2859.193158890362
 30
0.0
  0
VERTEX
  5
666
  8
0
  6
CONTINUOUS
 62
     7
 10
2718.679323363816
 20
2859.229816779175
 30
0.0
  0
VERTEX
  5
667
  8
0
  6
CONTINUOUS
 62
     7
 10
2718.646038508971
 20
2859.265662047138
 30
0.0
  0
VERTEX
  5
668
  8
0
  6
CONTINUOUS
 62
     7
 10
2718.611886916131
 20
2859.300671082567
 30
0.0
  0
VERTEX
  5
669
  8
0
  6
CONTINUOUS
 62
     7
 10
2718.576878323331
 20
2859.334823052593
 30
0.0
  0
VERTEX
  5
66A
  8
0
  6
CONTINUOUS
 62
     7
 10
2718.541033544242
 20
2859.368108239447
 30
0.0
  0
VERTEX
  5
66B
  8
0
  6
CONTINUOUS
 62
     7
 10
2718.504376161401
 20
2859.400519704091
 30
0.0
  0
VERTEX
  5
66C
  8
0
  6
CONTINUOUS
 62
     7
 10
2718.466929757346
 20
2859.432050507488
 30
0.0
  0
VERTEX
  5
66D
  8
0
  6
CONTINUOUS
 62
     7
 10
2718.428717914617
 20
2859.462693710603
 30
0.0
  0
VERTEX
  5
66E
  8
0
  6
CONTINUOUS
 62
     7
 10
2718.38976421575
 20
2859.492442374399
 30
0.0
  0
VERTEX
  5
66F
  8
0
  6
CONTINUOUS
 62
     7
 10
2718.350092243283
 20
2859.521289559838
 30
0.0
  0
VERTEX
  5
670
  8
0
  6
CONTINUOUS
 62
     7
 10
2718.309725579754
 20
2859.549228327886
 30
0.0
  0
VERTEX
  5
671
  8
0
  6
CONTINUOUS
 62
     7
 10
2718.26868779711
 20
2859.576248450922
 30
0.0
  0
VERTEX
  5
672
  8
0
  6
CONTINUOUS
 62
     7
 10
2718.227002344602
 20
2859.602301608199
 30
0.0
  0
VERTEX
  5
673
  8
0
  6
CONTINUOUS
 62
     7
 10
2718.184692592535
 20
2859.627314967474
 30
0.0
  0
VERTEX
  5
674
  8
0
  6
CONTINUOUS
 62
     7
 10
2718.141781909907
 20
2859.651215290881
 30
0.0
  0
VERTEX
  5
675
  8
0
  6
CONTINUOUS
 62
     7
 10
2718.098293665714
 20
2859.673929340552
 30
0.0
  0
VERTEX
  5
676
  8
0
  6
CONTINUOUS
 62
     7
 10
2718.054251228956
 20
2859.695383878621
 30
0.0
  0
VERTEX
  5
677
  8
0
  6
CONTINUOUS
 62
     7
 10
2718.009677968629
 20
2859.71550566722
 30
0.0
  0
VERTEX
  5
678
  8
0
  6
CONTINUOUS
 62
     7
 10
2717.964597253731
 20
2859.734221468481
 30
0.0
  0
VERTEX
  5
679
  8
0
  6
CONTINUOUS
 62
     7
 10
2717.919032494149
 20
2859.751459028363
 30
0.0
  0
VERTEX
  5
67A
  8
0
  6
CONTINUOUS
 62
     7
 10
2717.873009719659
 20
2859.767209128784
 30
0.0
  0
VERTEX
  5
67B
  8
0
  6
CONTINUOUS
 62
     7
 10
2717.826559119617
 20
2859.781562633549
 30
0.0
  0
VERTEX
  5
67C
  8
0
  6
CONTINUOUS
 62
     7
 10
2717.779711252992
 20
2859.794619299489
 30
0.0
  0
VERTEX
  5
67D
  8
0
  6
CONTINUOUS
 62
     7
 10
2717.732496678752
 20
2859.806478883439
 30
0.0
  0
VERTEX
  5
67E
  8
0
  6
CONTINUOUS
 62
     7
 10
2717.684945955865
 20
2859.817241142231
 30
0.0
  0
VERTEX
  5
67F
  8
0
  6
CONTINUOUS
 62
     7
 10
2717.637089643299
 20
2859.827005832696
 30
0.0
  0
VERTEX
  5
680
  8
0
  6
CONTINUOUS
 62
     7
 10
2717.58895830002
 20
2859.835872711668
 30
0.0
  0
VERTEX
  5
681
  8
0
  6
CONTINUOUS
 62
     7
 10
2717.540582484999
 20
2859.843941535979
 30
0.0
  0
VERTEX
  5
682
  8
0
  6
CONTINUOUS
 62
     7
 10
2717.491992757202
 20
2859.851312062462
 30
0.0
  0
VERTEX
  5
683
  8
0
  6
CONTINUOUS
 62
     7
 10
2717.443219675597
 20
2859.85808404795
 30
0.0
  0
VERTEX
  5
684
  8
0
  6
CONTINUOUS
 62
     7
 10
2717.394293799153
 20
2859.864357249274
 30
0.0
  0
VERTEX
  5
685
  8
0
  6
CONTINUOUS
 62
     7
 10
2717.345245686837
 20
2859.870231423269
 30
0.0
  0
VERTEX
  5
686
  8
0
  6
CONTINUOUS
 62
     7
 10
2717.296105897617
 20
2859.875806326765
 30
0.0
  0
VERTEX
  5
687
  8
0
  6
CONTINUOUS
 62
     7
 10
2717.246904990461
 20
2859.881181716596
 30
0.0
  0
VERTEX
  5
688
  8
0
  6
CONTINUOUS
 62
     7
 10
2717.197673524337
 20
2859.886457349594
 30
0.0
  0
SEQEND
  5
6DC
  8
0
  6
CONTINUOUS
 62
     7
  0
LINE
  5
1A9
  8
0
  6
CONTINUOUS
 62
     7
 10
2719.197673524338
 20
2857.686457349602
 30
0.0
 11
2719.197673524337
 21
2857.886457349602
 31
0.0
  0
LINE
  5
1AA
  8
0
  6
CONTINUOUS
 62
     7
 10
2699.197673524337
 20
2857.686457349617
 30
0.0
 11
2699.197673524338
 21
2857.886457349618
 31
0.0
  0
POLYLINE
  5
1AB
  8
0
  6
CONTINUOUS
 62
     7
 66
     1
 10
0.0
 20
0.0
 30
0.0
  0
VERTEX
  5
689
  8
0
  6
CONTINUOUS
 62
     7
 10
2701.197673524339
 20
2859.8864573496
 30
0.0
  0
VERTEX
  5
68A
  8
0
  6
CONTINUOUS
 62
     7
 10
2701.148441870524
 20
2859.881182120204
 30
0.0
  0
VERTEX
  5
68B
  8
0
  6
CONTINUOUS
 62
     7
 10
2701.099240780493
 20
2859.875807123619
 30
0.0
  0
VERTEX
  5
68C
  8
0
  6
CONTINUOUS
 62
     7
 10
2701.05010081803
 20
2859.870232592657
 30
0.0
  0
VERTEX
  5
68D
  8
0
  6
CONTINUOUS
 62
     7
 10
2701.001052546919
 20
2859.864358760129
 30
0.0
  0
VERTEX
  5
68E
  8
0
  6
CONTINUOUS
 62
     7
 10
2700.952126530944
 20
2859.858085858846
 30
0.0
  0
VERTEX
  5
68F
  8
0
  6
CONTINUOUS
 62
     7
 10
2700.903353333887
 20
2859.851314121619
 30
0.0
  0
VERTEX
  5
690
  8
0
  6
CONTINUOUS
 62
     7
 10
2700.854763519535
 20
2859.843943781262
 30
0.0
  0
VERTEX
  5
691
  8
0
  6
CONTINUOUS
 62
     7
 10
2700.80638765167
 20
2859.835875070583
 30
0.0
  0
VERTEX
  5
692
  8
0
  6
CONTINUOUS
 62
     7
 10
2700.758256294077
 20
2859.827008222396
 30
0.0
  0
VERTEX
  5
693
  8
0
  6
CONTINUOUS
 62
     7
 10
2700.710400010538
 20
2859.81724346951
 30
0.0
  0
VERTEX
  5
694
  8
0
  6
CONTINUOUS
 62
     7
 10
2700.662849364839
 20
2859.806481044738
 30
0.0
  0
VERTEX
  5
695
  8
0
  6
CONTINUOUS
 62
     7
 10
2700.615634920762
 20
2859.794621180891
 30
0.0
  0
VERTEX
  5
696
  8
0
  6
CONTINUOUS
 62
     7
 10
2700.568787242092
 20
2859.78156411078
 30
0.0
  0
VERTEX
  5
697
  8
0
  6
CONTINUOUS
 62
     7
 10
2700.522336892614
 20
2859.767210067217
 30
0.0
  0
VERTEX
  5
698
  8
0
  6
CONTINUOUS
 62
     7
 10
2700.47631443611
 20
2859.751459283012
 30
0.0
  0
VERTEX
  5
699
  8
0
  6
CONTINUOUS
 62
     7
 10
2700.430750065002
 20
2859.734220888917
 30
0.0
  0
VERTEX
  5
69A
  8
0
  6
CONTINUOUS
 62
     7
 10
2700.385669792406
 20
2859.715504152839
 30
0.0
  0
VERTEX
  5
69B
  8
0
  6
CONTINUOUS
 62
     7
 10
2700.341096999127
 20
2859.695381413465
 30
0.0
  0
VERTEX
  5
69C
  8
0
  6
CONTINUOUS
 62
     7
 10
2700.297055024889
 20
2859.673925993844
 30
0.0
  0
VERTEX
  5
69D
  8
0
  6
CONTINUOUS
 62
     7
 10
2700.253567209413
 20
2859.651211217027
 30
0.0
  0
VERTEX
  5
69E
  8
0
  6
CONTINUOUS
 62
     7
 10
2700.210656892423
 20
2859.627310406065
 30
0.0
  0
VERTEX
  5
69F
  8
0
  6
CONTINUOUS
 62
     7
 10
2700.16834741364
 20
2859.602296884012
 30
0.0
  0
VERTEX
  5
6A0
  8
0
  6
CONTINUOUS
 62
     7
 10
2700.126662112787
 20
2859.576243973916
 30
0.0
  0
VERTEX
  5
6A1
  8
0
  6
CONTINUOUS
 62
     7
 10
2700.085624331421
 20
2859.549224551366
 30
0.0
  0
VERTEX
  5
6A2
  8
0
  6
CONTINUOUS
 62
     7
 10
2700.045257513633
 20
2859.521286475325
 30
0.0
  0
VERTEX
  5
6A3
  8
0
  6
CONTINUOUS
 62
     7
 10
2700.00558525827
 20
2859.492439846766
 30
0.0
  0
VERTEX
  5
6A4
  8
0
  6
CONTINUOUS
 62
     7
 10
2699.966631177018
 20
2859.462691634775
 30
0.0
  0
VERTEX
  5
6A5
  8
0
  6
CONTINUOUS
 62
     7
 10
2699.928418881561
 20
2859.432048808441
 30
0.0
  0
VERTEX
  5
6A6
  8
0
  6
CONTINUOUS
 62
     7
 10
2699.890971983584
 20
2859.40051833685
 30
0.0
  0
VERTEX
  5
6A7
  8
0
  6
CONTINUOUS
 62
     7
 10
2699.854314094772
 20
2859.368107189088
 30
0.0
  0
VERTEX
  5
6A8
  8
0
  6
CONTINUOUS
 62
     7
 10
2699.818468826809
 20
2859.334822334244
 30
0.0
  0
VERTEX
  5
6A9
  8
0
  6
CONTINUOUS
 62
     7
 10
2699.783459791381
 20
2859.300670741403
 30
0.0
  0
VERTEX
  5
6AA
  8
0
  6
CONTINUOUS
 62
     7
 10
2699.749307821355
 20
2859.265662148603
 30
0.0
  0
VERTEX
  5
6AB
  8
0
  6
CONTINUOUS
 62
     7
 10
2699.716022634501
 20
2859.229817369514
 30
0.0
  0
VERTEX
  5
6AC
  8
0
  6
CONTINUOUS
 62
     7
 10
2699.683611169858
 20
2859.193159986673
 30
0.0
  0
VERTEX
  5
6AD
  8
0
  6
CONTINUOUS
 62
     7
 10
2699.652080366461
 20
2859.155713582619
 30
0.0
  0
VERTEX
  5
6AE
  8
0
  6
CONTINUOUS
 62
     7
 10
2699.621437163346
 20
2859.117501739889
 30
0.0
  0
VERTEX
  5
6AF
  8
0
  6
CONTINUOUS
 62
     7
 10
2699.591688499551
 20
2859.078548041022
 30
0.0
  0
VERTEX
  5
6B0
  8
0
  6
CONTINUOUS
 62
     7
 10
2699.562841314111
 20
2859.038876068555
 30
0.0
  0
VERTEX
  5
6B1
  8
0
  6
CONTINUOUS
 62
     7
 10
2699.534902546065
 20
2858.998509405026
 30
0.0
  0
VERTEX
  5
6B2
  8
0
  6
CONTINUOUS
 62
     7
 10
2699.507882423028
 20
2858.957471622382
 30
0.0
  0
VERTEX
  5
6B3
  8
0
  6
CONTINUOUS
 62
     7
 10
2699.481829265751
 20
2858.915786169874
 30
0.0
  0
VERTEX
  5
6B4
  8
0
  6
CONTINUOUS
 62
     7
 10
2699.456815906477
 20
2858.873476417808
 30
0.0
  0
VERTEX
  5
6B5
  8
0
  6
CONTINUOUS
 62
     7
 10
2699.43291558307
 20
2858.830565735179
 30
0.0
  0
VERTEX
  5
6B6
  8
0
  6
CONTINUOUS
 62
     7
 10
2699.410201533399
 20
2858.787077490987
 30
0.0
  0
VERTEX
  5
6B7
  8
0
  6
CONTINUOUS
 62
     7
 10
2699.388746995331
 20
2858.743035054229
 30
0.0
  0
VERTEX
  5
6B8
  8
0
  6
CONTINUOUS
 62
     7
 10
2699.368625206732
 20
2858.698461793902
 30
0.0
  0
VERTEX
  5
6B9
  8
0
  6
CONTINUOUS
 62
     7
 10
2699.34990940547
 20
2858.653381079005
 30
0.0
  0
VERTEX
  5
6BA
  8
0
  6
CONTINUOUS
 62
     7
 10
2699.332671845587
 20
2858.607816319423
 30
0.0
  0
VERTEX
  5
6BB
  8
0
  6
CONTINUOUS
 62
     7
 10
2699.316921745165
 20
2858.561793544933
 30
0.0
  0
VERTEX
  5
6BC
  8
0
  6
CONTINUOUS
 62
     7
 10
2699.3025682404
 20
2858.515342944892
 30
0.0
  0
VERTEX
  5
6BD
  8
0
  6
CONTINUOUS
 62
     7
 10
2699.289511574459
 20
2858.468495078268
 30
0.0
  0
VERTEX
  5
6BE
  8
0
  6
CONTINUOUS
 62
     7
 10
2699.277651990508
 20
2858.421280504028
 30
0.0
  0
VERTEX
  5
6BF
  8
0
  6
CONTINUOUS
 62
     7
 10
2699.266889731715
 20
2858.373729781141
 30
0.0
  0
VERTEX
  5
6C0
  8
0
  6
CONTINUOUS
 62
     7
 10
2699.257125041249
 20
2858.325873468575
 30
0.0
  0
VERTEX
  5
6C1
  8
0
  6
CONTINUOUS
 62
     7
 10
2699.248258162276
 20
2858.277742125298
 30
0.0
  0
VERTEX
  5
6C2
  8
0
  6
CONTINUOUS
 62
     7
 10
2699.240189337963
 20
2858.229366310276
 30
0.0
  0
VERTEX
  5
6C3
  8
0
  6
CONTINUOUS
 62
     7
 10
2699.232818811479
 20
2858.180776582479
 30
0.0
  0
VERTEX
  5
6C4
  8
0
  6
CONTINUOUS
 62
     7
 10
2699.22604682599
 20
2858.132003500876
 30
0.0
  0
VERTEX
  5
6C5
  8
0
  6
CONTINUOUS
 62
     7
 10
2699.219773624664
 20
2858.083077624432
 30
0.0
  0
VERTEX
  5
6C6
  8
0
  6
CONTINUOUS
 62
     7
 10
2699.213899450669
 20
2858.034029512116
 30
0.0
  0
VERTEX
  5
6C7
  8
0
  6
CONTINUOUS
 62
     7
 10
2699.208324547171
 20
2857.984889722896
 30
0.0
  0
VERTEX
  5
6C8
  8
0
  6
CONTINUOUS
 62
     7
 10
2699.202949157338
 20
2857.935688815741
 30
0.0
  0
VERTEX
  5
6C9
  8
0
  6
CONTINUOUS
 62
     7
 10
2699.197673524338
 20
2857.886457349618
 30
0.0
  0
SEQEND
  5
6DD
  8
0
  6
CONTINUOUS
 62
     7
  0
LINE
  5
1AC
  8
0
  6
CONTINUOUS
 62
     7
 10
2698.197673524336
 20
2857.686457349613
 30
0.0
 11
2698.197673524337
 21
2857.886457349613
 31
0.0
  0
LINE
  5
1AD
  8
0
  6
CONTINUOUS
 62
     7
 10
2698.197673524337
 20
2857.886457349613
 30
0.0
 11
2699.197673524338
 21
2857.886457349618
 31
0.0
  0
LINE
  5
1AE
  8
0
  6
CONTINUOUS
 62
     7
 10
2720.197673524337
 20
2857.886457349614
 30
0.0
 11
2719.197673524337
 21
2857.886457349602
 31
0.0
  0
LINE
  5
1AF
  8
0
  6
CONTINUOUS
 62
     7
 10
2720.197673524338
 20
2857.686457349615
 30
0.0
 11
2720.197673524337
 21
2857.886457349614
 31
0.0
  0
ARC
  5
1B0
  8
0
  6
CONTINUOUS
 62
     7
 10
2701.197673524338
 20
2857.886457349601
 30
0.0
 40
3.000000000000455
 50
129.9445051891658
 51
179.9999999997646
  0
ARC
  5
1B1
  8
0
  6
CONTINUOUS
 62
     7
 10
2717.197673524338
 20
2857.886457349594
 30
0.0
 40
3.00000000000022
 50
0.0000000003911886
 51
50.05549481103772
  0
LINE
  5
1B2
  8
0
  6
CONTINUOUS
 62
     7
 10
2720.19767352434
 20
2858.186457349617
 30
0.0
 11
2720.197673524339
 21
2857.886457349617
 31
0.0
  0
LINE
  5
1B3
  8
0
  6
CONTINUOUS
 62
     7
 10
2734.385348278131
 20
2858.18645734962
 30
0.0
 11
2720.19767352434
 21
2858.186457349617
 31
0.0
  0
LINE
  5
1B4
  8
0
  6
CONTINUOUS
 62
     7
 10
2734.385348278132
 20
2857.686457349631
 30
0.0
 11
2734.385348278131
 21
2858.18645734962
 31
0.0
  0
LINE
  5
1B5
  8
0
  6
CONTINUOUS
 62
     7
 10
2722.280273836914
 20
2858.186457349618
 30
0.0
 11
2722.234169124947
 21
2860.186457349622
 31
0.0
  0
LINE
  5
1B6
  8
0
  6
CONTINUOUS
 62
     7
 10
2720.933823753598
 20
2860.186457349622
 30
0.0
 11
2720.979928465567
 21
2858.186457349617
 31
0.0
  0
LINE
  5
1B7
  8
0
  6
CONTINUOUS
 62
     7
 10
1859.661177932421
 20
2860.186457349622
 30
0.0
 11
1859.615073220453
 21
2858.186457349624
 31
0.0
  0
LINE
  5
1B8
  8
0
  6
CONTINUOUS
 62
     7
 10
1860.915418591801
 20
2858.186457349623
 30
0.0
 11
1860.961523303769
 21
2860.186457349622
 31
0.0
  0
LINE
  5
1B9
  8
0
  6
CONTINUOUS
 62
     7
 10
2439.197673528688
 20
2842.68645734962
 30
0.0
 11
2388.697673528688
 21
2842.68645734962
 31
0.0
  0
LINE
  5
1BA
  8
0
  6
CONTINUOUS
 62
     7
 10
2439.197673528688
 20
2857.68645734962
 30
0.0
 11
2388.697673528688
 21
2857.68645734962
 31
0.0
  0
LINE
  5
1BB
  8
0
  6
CONTINUOUS
 62
     7
 10
2439.197673528688
 20
2842.68645734962
 30
0.0
 11
2439.197673528688
 21
2857.68645734962
 31
0.0
  0
LINE
  5
1BE
  8
0
  6
CONTINUOUS
 62
     7
 10
1843.197673528688
 20
2842.68645734962
 30
0.0
 11
1843.197673528688
 21
2857.68645734962
 31
0.0
  0
LINE
  5
1BF
  8
0
  6
CONTINUOUS
 62
     7
 10
1893.697673528688
 20
2842.68645734962
 30
0.0
 11
1843.197673528688
 21
2842.68645734962
 31
0.0
  0
LINE
  5
1C0
  8
0
  6
CONTINUOUS
 62
     7
 10
1893.697673528688
 20
2857.68645734962
 30
0.0
 11
1843.197673528688
 21
2857.68645734962
 31
0.0
  0
LINE
  5
1C1
  8
0
  6
CONTINUOUS
 62
     7
 10
2388.697673528688
 20
2857.68645734962
 30
0.0
 11
1893.697673528688
 21
2857.686457349618
 31
0.0
  0
LINE
  5
1C2
  8
0
  6
CONTINUOUS
 62
     7
 10
2388.697673528688
 20
2842.68645734962
 30
0.0
 11
1893.697673528688
 21
2842.686457349618
 31
0.0
  0
LINE
  5
1C3
  8
0
  6
CONTINUOUS
 62
     7
 10
2688.197673528688
 20
2842.686457349631
 30
0.0
 11
2493.197673528688
 21
2842.68645734963
 31
0.0
  0
LINE
  5
1C4
  8
0
  6
CONTINUOUS
 62
     7
 10
2688.197673528688
 20
2857.686457349631
 30
0.0
 11
2493.197673528688
 21
2857.68645734963
 31
0.0
  0
LINE
  5
1C5
  8
0
  6
CONTINUOUS
 62
     7
 10
2740.197673528688
 20
2859.686457349632
 30
0.0
 11
2740.197673528688
 21
3007.686457349632
 31
0.0
  0
LINE
  5
1C6
  8
0
  6
CONTINUOUS
 62
     7
 10
2740.197673528688
 20
2859.686457349632
 30
0.0
 11
2722.697673528688
 21
2859.686457349632
 31
0.0
  0
LINE
  5
1C7
  8
0
  6
CONTINUOUS
 62
     7
 10
2722.697673528688
 20
2859.686457349632
 30
0.0
 11
2722.697673528688
 21
3007.686457349632
 31
0.0
  0
LINE
  5
1C8
  8
0
  6
CONTINUOUS
 62
     7
 10
2740.197673528688
 20
3007.686457349632
 30
0.0
 11
2722.697673528688
 21
3007.686457349632
 31
0.0
  0
LINE
  5
1C9
  8
0
  6
CONTINUOUS
 62
     7
 10
1859.197673528688
 20
2859.686457349617
 30
0.0
 11
1859.197673528688
 21
3007.686457349617
 31
0.0
  0
LINE
  5
1CA
  8
0
  6
CONTINUOUS
 62
     7
 10
1859.197673528688
 20
2859.686457349617
 30
0.0
 11
1841.697673528688
 21
2859.686457349617
 31
0.0
  0
LINE
  5
1CB
  8
0
  6
CONTINUOUS
 62
     7
 10
1841.697673528688
 20
2859.686457349617
 30
0.0
 11
1841.697673528688
 21
3007.686457349617
 31
0.0
  0
LINE
  5
1CC
  8
0
  6
CONTINUOUS
 62
     7
 10
1859.197673528688
 20
3007.686457349617
 30
0.0
 11
1841.697673528688
 21
3007.686457349617
 31
0.0
  0
LINE
  5
1CD
  8
0
  6
CONTINUOUS
 62
     8
 10
1880.697673533028
 20
2859.886457349626
 30
0.0
 11
1880.697673533028
 21
2860.186457349631
 31
0.0
  0
LINE
  5
1CE
  8
0
  6
CONTINUOUS
 62
     8
 10
1864.697673533027
 20
2860.186457349631
 30
0.0
 11
1864.697673533027
 21
2859.886457349613
 31
0.0
  0
LINE
  5
1CF
  8
0
  6
CONTINUOUS
 62
     8
 10
2701.197673524339
 20
2859.8864573496
 30
0.0
 11
2701.197673524338
 21
2860.186457349631
 31
0.0
  0
LINE
  5
1D0
  8
0
  6
CONTINUOUS
 62
     8
 10
2717.197673524337
 20
2859.886457349594
 30
0.0
 11
2717.197673524337
 21
2860.186457349631
 31
0.0
  0
LINE
  5
1D1
  8
0
  6
CONTINUOUS
 62
     7
 10
1865.058209561818
 20
1014.731230678282
 30
0.0
 11
2723.058209561818
 21
1014.731230678282
 31
0.0
  0
LINE
  5
1D2
  8
0
  6
CONTINUOUS
 62
     7
 10
2722.808209561818
 20
777.3312306782885
 30
0.0
 11
2723.058209561818
 21
777.3312306782885
 31
0.0
  0
LINE
  5
1D3
  8
0
  6
CONTINUOUS
 62
     7
 10
2723.058209561818
 20
785.1312306782884
 30
0.0
 11
2722.808209561818
 21
785.1312306782884
 31
0.0
  0
LINE
  5
1D4
  8
0
  6
CONTINUOUS
 62
     7
 10
1859.808209561818
 20
785.1312306782885
 30
0.0
 11
1859.558209561818
 21
785.1312306782885
 31
0.0
  0
LINE
  5
1D5
  8
0
  6
CONTINUOUS
 62
     7
 10
1859.558209561818
 20
777.3312306782886
 30
0.0
 11
1859.808209561818
 21
777.3312306782886
 31
0.0
  0
LINE
  5
1D6
  8
0
  6
CONTINUOUS
 62
     7
 10
1859.808209561818
 20
1105.131230678289
 30
0.0
 11
1859.558209561818
 21
1105.131230678289
 31
0.0
  0
LINE
  5
1D7
  8
0
  6
CONTINUOUS
 62
     7
 10
1859.558209561818
 20
1097.331230678288
 30
0.0
 11
1859.808209561818
 21
1097.331230678288
 31
0.0
  0
LINE
  5
1D8
  8
0
  6
CONTINUOUS
 62
     7
 10
1859.808209561818
 20
625.1312306782885
 30
0.0
 11
1859.558209561818
 21
625.1312306782885
 31
0.0
  0
LINE
  5
1D9
  8
0
  6
CONTINUOUS
 62
     7
 10
1859.558209561818
 20
617.3312306782886
 30
0.0
 11
1859.808209561818
 21
617.3312306782886
 31
0.0
  0
LINE
  5
1DA
  8
0
  6
CONTINUOUS
 62
     7
 10
1859.808209561818
 20
945.1312306782884
 30
0.0
 11
1859.558209561818
 21
945.1312306782884
 31
0.0
  0
LINE
  5
1DB
  8
0
  6
CONTINUOUS
 62
     7
 10
1859.558209561818
 20
937.3312306782886
 30
0.0
 11
1859.808209561818
 21
937.3312306782886
 31
0.0
  0
LINE
  5
1DC
  8
0
  6
CONTINUOUS
 62
     7
 10
1865.058209561818
 20
902.2459493040441
 30
0.0
 11
2723.058209561818
 21
902.2459493040441
 31
0.0
  0
LINE
  5
1DD
  8
0
  6
CONTINUOUS
 62
     7
 10
1865.058209561818
 20
902.2459493040441
 30
0.0
 11
1865.058209561818
 21
1010.488589991163
 31
0.0
  0
LINE
  5
1DE
  8
0
  6
CONTINUOUS
 62
     7
 10
1865.058209561818
 20
1010.488589991163
 30
0.0
 11
2723.058209561818
 21
1010.488589991163
 31
0.0
  0
LINE
  5
1DF
  8
0
  6
CONTINUOUS
 62
     7
 10
1865.058209561818
 20
1014.731230678282
 30
0.0
 11
1865.058209561818
 21
1010.488589991163
 31
0.0
  0
LINE
  5
1E0
  8
0
  6
CONTINUOUS
 62
     7
 10
1865.058209561818
 20
1017.731230678283
 30
0.0
 11
1865.058209561818
 21
1014.731230678282
 31
0.0
  0
LINE
  5
1E1
  8
0
  6
CONTINUOUS
 62
     7
 10
1865.058209561818
 20
1017.731230678283
 30
0.0
 11
2723.058209561818
 21
1017.731230678283
 31
0.0
  0
LINE
  5
1E2
  8
0
  6
CONTINUOUS
 62
     7
 10
1865.058209561818
 20
1133.731230678283
 30
0.0
 11
1865.058209561818
 21
1017.731230678283
 31
0.0
  0
LINE
  5
1E3
  8
0
  6
CONTINUOUS
 62
     7
 10
1865.058209561818
 20
1133.731230678283
 30
0.0
 11
2723.058209561818
 21
1133.731230678283
 31
0.0
  0
CIRCLE
  5
1E4
  8
0
  6
CONTINUOUS
 62
     7
 10
1964.058209561818
 20
1076.731230678283
 30
0.0
 40
5.0
  0
CIRCLE
  5
1E5
  8
0
  6
CONTINUOUS
 62
     7
 10
2294.058209561818
 20
1076.731230678283
 30
0.0
 40
5.000000000000455
  0
CIRCLE
  5
1E6
  8
0
  6
CONTINUOUS
 62
     7
 10
2624.058209561818
 20
1076.731230678283
 30
0.0
 40
5.0
  0
LINE
  5
1E7
  8
0
  6
CONTINUOUS
 62
     7
 10
1865.058209561818
 20
1136.731230678283
 30
0.0
 11
1865.058209561818
 21
1133.731230678283
 31
0.0
  0
CIRCLE
  5
1E8
  8
0
  6
CONTINUOUS
 62
     7
 10
2624.058209561818
 20
1076.731230678283
 30
0.0
 40
1.499999999999545
  0
CIRCLE
  5
1E9
  8
0
  6
CONTINUOUS
 62
     7
 10
2294.058209561818
 20
1076.731230678283
 30
0.0
 40
1.5
  0
CIRCLE
  5
1EA
  8
0
  6
CONTINUOUS
 62
     7
 10
1964.058209561818
 20
1076.731230678283
 30
0.0
 40
1.5
  0
LINE
  5
1EB
  8
0
  6
CONTINUOUS
 62
     7
 10
1859.558209561818
 20
568.2312306782886
 30
0.0
 11
1859.558209561818
 21
585.7312306782885
 31
0.0
  0
LINE
  5
1EC
  8
0
  6
CONTINUOUS
 62
     7
 10
1859.558209561818
 20
585.7312306782885
 30
0.0
 11
2723.058209561818
 21
585.7312306782885
 31
0.0
  0
LINE
  5
1ED
  8
0
  6
CONTINUOUS
 62
     7
 10
1859.558209561818
 20
568.2312306782886
 30
0.0
 11
2723.058209561818
 21
568.2312306782886
 31
0.0
  0
LINE
  5
1EE
  8
0
  6
CONTINUOUS
 62
     7
 10
2723.058209561818
 20
568.2312306782886
 30
0.0
 11
2723.058209561818
 21
585.7312306782885
 31
0.0
  0
LINE
  5
1EF
  8
0
  6
CONTINUOUS
 62
     7
 10
1859.558209561818
 20
1136.731230678285
 30
0.0
 11
1859.558209561818
 21
1154.231230678285
 31
0.0
  0
LINE
  5
1F0
  8
0
  6
CONTINUOUS
 62
     7
 10
1859.558209561818
 20
1136.731230678285
 30
0.0
 11
2723.058209561818
 21
1136.731230678285
 31
0.0
  0
LINE
  5
1F1
  8
0
  6
CONTINUOUS
 62
     7
 10
1859.558209561818
 20
1154.231230678285
 30
0.0
 11
2723.058209561818
 21
1154.231230678285
 31
0.0
  0
LINE
  5
1F2
  8
0
  6
CONTINUOUS
 62
     7
 10
2723.058209561818
 20
1136.731230678285
 30
0.0
 11
2723.058209561818
 21
1154.231230678285
 31
0.0
  0
LINE
  5
1F3
  8
0
  6
CONTINUOUS
 62
     7
 10
1859.558209561818
 20
788.7312306782843
 30
0.0
 11
1859.808209561818
 21
788.7312306782843
 31
0.0
  0
LINE
  5
1F4
  8
0
  6
CONTINUOUS
 62
     7
 10
1859.808209561818
 20
771.7312306782844
 30
0.0
 11
1859.558209561818
 21
771.7312306782844
 31
0.0
  0
LINE
  5
1F5
  8
0
  6
CONTINUOUS
 62
     7
 10
1859.558209561818
 20
968.7312306782851
 30
0.0
 11
1859.808209561818
 21
968.7312306782851
 31
0.0
  0
LINE
  5
1F6
  8
0
  6
CONTINUOUS
 62
     7
 10
1859.808209561818
 20
951.731230678285
 30
0.0
 11
1859.558209561818
 21
951.731230678285
 31
0.0
  0
LINE
  5
1F7
  8
0
  6
CONTINUOUS
 62
     7
 10
2139.558209561818
 20
562.2312306782849
 30
0.0
 11
2089.058209561818
 21
562.2312306782849
 31
0.0
  0
LINE
  5
1FA
  8
0
  6
CONTINUOUS
 62
     7
 10
2089.058209561818
 20
1160.231230678285
 30
0.0
 11
2139.558209561818
 21
1160.231230678285
 31
0.0
  0
LINE
  5
1FB
  8
0
  6
CONTINUOUS
 62
     7
 10
2139.558209561818
 20
1160.231230678285
 30
0.0
 11
2139.558209561818
 21
1154.231230678285
 31
0.0
  0
LINE
  5
1FC
  8
0
  6
CONTINUOUS
 62
     7
 10
2139.558209561818
 20
568.2312306782886
 30
0.0
 11
2139.558209561818
 21
562.2312306782849
 31
0.0
  0
LINE
  5
1FD
  8
0
  6
CONTINUOUS
 62
     7
 10
1843.558209561818
 20
562.2312306782849
 30
0.0
 11
1843.558209561818
 21
567.231230678285
 31
0.0
  0
LINE
  5
1FE
  8
0
  6
CONTINUOUS
 62
     7
 10
1843.558209561818
 20
1155.231230678285
 30
0.0
 11
1843.558209561818
 21
1160.231230678285
 31
0.0
  0
LINE
  5
1FF
  8
0
  6
CONTINUOUS
 62
     7
 10
1843.558209561818
 20
1160.231230678285
 30
0.0
 11
1894.058209561818
 21
1160.231230678285
 31
0.0
  0
LINE
  5
202
  8
0
  6
CONTINUOUS
 62
     7
 10
1894.058209561818
 20
562.2312306782849
 30
0.0
 11
1843.558209561818
 21
562.2312306782849
 31
0.0
  0
LINE
  5
203
  8
0
  6
CONTINUOUS
 62
     7
 10
1860.058209561818
 20
585.7312306782885
 30
0.0
 11
1860.058209561818
 21
635.7312306782885
 31
0.0
  0
LINE
  5
204
  8
0
  6
CONTINUOUS
 62
     7
 10
1860.058209561818
 20
635.7312306782885
 30
0.0
 11
2723.058209561818
 21
635.7312306782885
 31
0.0
  0
LINE
  5
205
  8
0
  6
CONTINUOUS
 62
     7
 10
2723.058209561818
 20
636.7312306782793
 30
0.0
 11
2722.808209561817
 21
636.7312306782795
 31
0.0
  0
LINE
  5
206
  8
0
  6
CONTINUOUS
 62
     7
 10
2723.058209561818
 20
639.4812306782788
 30
0.0
 11
2722.808209561817
 21
639.4812306782788
 31
0.0
  0
LINE
  5
207
  8
0
  6
CONTINUOUS
 62
     7
 10
2722.808209561817
 20
644.9812306782813
 30
0.0
 11
2723.058209561818
 21
644.9812306782809
 31
0.0
  0
LINE
  5
208
  8
0
  6
CONTINUOUS
 62
     7
 10
2723.058209561818
 20
647.7312306782811
 30
0.0
 11
2722.808209561817
 21
647.7312306782815
 31
0.0
  0
LINE
  5
209
  8
0
  6
CONTINUOUS
 62
     7
 10
2722.808209561817
 20
670.3812306782735
 30
0.0
 11
2723.058209561817
 21
670.3812306782733
 31
0.0
  0
LINE
  5
20A
  8
0
  6
CONTINUOUS
 62
     7
 10
2722.808209561817
 20
650.73123067828
 30
0.0
 11
2723.058209561817
 21
650.73123067828
 31
0.0
  0
LINE
  5
20B
  8
0
  6
CONTINUOUS
 62
     7
 10
1859.558209561817
 20
1085.731230678295
 30
0.0
 11
1859.808209561817
 21
1085.731230678295
 31
0.0
  0
LINE
  5
20C
  8
0
  6
CONTINUOUS
 62
     7
 10
1859.558209561817
 20
1082.981230678296
 30
0.0
 11
1859.808209561817
 21
1082.981230678295
 31
0.0
  0
LINE
  5
20D
  8
0
  6
CONTINUOUS
 62
     7
 10
1859.558209561817
 20
1074.731230678293
 30
0.0
 11
1859.808209561817
 21
1074.731230678293
 31
0.0
  0
LINE
  5
20E
  8
0
  6
CONTINUOUS
 62
     7
 10
1859.808209561817
 20
1077.481230678293
 30
0.0
 11
1859.558209561817
 21
1077.481230678294
 31
0.0
  0
LINE
  5
20F
  8
0
  6
CONTINUOUS
 62
     7
 10
1859.558209561817
 20
1088.731230678295
 30
0.0
 11
1859.808209561817
 21
1088.731230678295
 31
0.0
  0
LINE
  5
210
  8
0
  6
CONTINUOUS
 62
     7
 10
1859.808209561817
 20
1108.381230678302
 30
0.0
 11
1859.558209561817
 21
1108.381230678301
 31
0.0
  0
LINE
  5
211
  8
0
  6
CONTINUOUS
 62
     7
 10
1859.808209561817
 20
1052.081230678301
 30
0.0
 11
1859.558209561817
 21
1052.081230678301
 31
0.0
  0
LINE
  5
212
  8
0
  6
CONTINUOUS
 62
     7
 10
1859.808209561817
 20
1071.731230678294
 30
0.0
 11
1859.558209561817
 21
1071.731230678294
 31
0.0
  0
LINE
  5
213
  8
0
  6
CONTINUOUS
 62
     7
 10
1859.558209561817
 20
647.731230678295
 30
0.0
 11
1859.808209561817
 21
647.7312306782948
 31
0.0
  0
LINE
  5
214
  8
0
  6
CONTINUOUS
 62
     7
 10
1859.558209561817
 20
644.9812306782953
 30
0.0
 11
1859.808209561817
 21
644.9812306782953
 31
0.0
  0
LINE
  5
215
  8
0
  6
CONTINUOUS
 62
     7
 10
1859.558209561817
 20
636.7312306782932
 30
0.0
 11
1859.808209561817
 21
636.7312306782928
 31
0.0
  0
LINE
  5
216
  8
0
  6
CONTINUOUS
 62
     7
 10
1859.808209561817
 20
639.4812306782928
 30
0.0
 11
1859.558209561817
 21
639.4812306782933
 31
0.0
  0
LINE
  5
217
  8
0
  6
CONTINUOUS
 62
     7
 10
1859.558209561817
 20
650.7312306782949
 30
0.0
 11
1859.808209561817
 21
650.7312306782949
 31
0.0
  0
LINE
  5
218
  8
0
  6
CONTINUOUS
 62
     7
 10
1859.808209561817
 20
670.3812306783019
 30
0.0
 11
1859.558209561817
 21
670.3812306783012
 31
0.0
  0
LINE
  5
219
  8
0
  6
CONTINUOUS
 62
     7
 10
1859.808209561817
 20
614.0812306783008
 30
0.0
 11
1859.558209561817
 21
614.081230678301
 31
0.0
  0
LINE
  5
21A
  8
0
  6
CONTINUOUS
 62
     7
 10
1859.808209561817
 20
633.7312306782943
 30
0.0
 11
1859.558209561817
 21
633.7312306782943
 31
0.0
  0
LINE
  5
21B
  8
0
  6
CONTINUOUS
 62
     7
 10
2143.058209561818
 20
562.2312306782889
 30
0.0
 11
2143.058209561818
 21
568.2312306782886
 31
0.0
  0
LINE
  5
21C
  8
0
  6
CONTINUOUS
 62
     7
 10
2143.058209561818
 20
1154.231230678285
 30
0.0
 11
2143.058209561818
 21
1160.231230678289
 31
0.0
  0
LINE
  5
21F
  8
0
  6
CONTINUOUS
 62
     7
 10
2143.058209561818
 20
1160.231230678289
 30
0.0
 11
2193.558209561818
 21
1160.231230678289
 31
0.0
  0
LINE
  5
220
  8
0
  6
CONTINUOUS
 62
     7
 10
2193.558209561818
 20
562.2312306782889
 30
0.0
 11
2143.058209561818
 21
562.2312306782889
 31
0.0
  0
LINE
  5
223
  8
0
  6
CONTINUOUS
 62
     7
 10
2739.058209561818
 20
1160.231230678289
 30
0.0
 11
2739.058209561818
 21
1155.231230678289
 31
0.0
  0
LINE
  5
224
  8
0
  6
CONTINUOUS
 62
     7
 10
2739.058209561818
 20
567.2312306782885
 30
0.0
 11
2739.058209561818
 21
562.2312306782889
 31
0.0
  0
LINE
  5
225
  8
0
  6
CONTINUOUS
 62
     7
 10
2688.558209561818
 20
1160.231230678289
 30
0.0
 11
2739.058209561818
 21
1160.231230678289
 31
0.0
  0
LINE
  5
226
  8
0
  6
CONTINUOUS
 62
     7
 10
2739.058209561818
 20
562.2312306782889
 30
0.0
 11
2688.558209561818
 21
562.2312306782889
 31
0.0
  0
LINE
  5
227
  8
0
  6
CONTINUOUS
 62
     7
 10
2688.558209561818
 20
562.2312306782889
 30
0.0
 11
2193.558209561818
 21
562.2312306782889
 31
0.0
  0
LINE
  5
228
  8
0
  6
CONTINUOUS
 62
     7
 10
2193.558209561818
 20
1160.231230678289
 30
0.0
 11
2688.558209561818
 21
1160.231230678289
 31
0.0
  0
LINE
  5
229
  8
0
  6
CONTINUOUS
 62
     7
 10
2089.058209561818
 20
562.2312306782849
 30
0.0
 11
1894.058209561818
 21
562.2312306782849
 31
0.0
  0
LINE
  5
22A
  8
0
  6
CONTINUOUS
 62
     7
 10
1894.058209561818
 20
1160.231230678285
 30
0.0
 11
2089.058209561818
 21
1160.231230678285
 31
0.0
  0
LINE
  5
22B
  8
0
  6
CONTINUOUS
 62
     7
 10
1859.808209561818
 20
1136.481230678289
 30
0.0
 11
1859.808209561818
 21
585.9812306782885
 31
0.0
  0
LINE
  5
22C
  8
0
  6
CONTINUOUS
 62
     7
 10
2722.808209561818
 20
902.2459493040442
 30
0.0
 11
2722.808209561818
 21
635.7312306782885
 31
0.0
  0
LINE
  5
22E
  8
0
  6
CONTINUOUS
 62
     7
 10
1859.808209561818
 20
585.9812306782885
 30
0.0
 11
1860.058209561818
 21
585.9812306782885
 31
0.0
  0
LINE
  5
22F
  8
0
  6
CONTINUOUS
 62
     7
 10
1859.808209561818
 20
1136.481230678289
 30
0.0
 11
1865.058209561818
 21
1136.481230678289
 31
0.0
  0
LINE
  5
230
  8
0
  6
CONTINUOUS
 62
     7
 10
1842.058209561818
 20
567.231230678285
 30
0.0
 11
1842.058209561818
 21
1155.231230678285
 31
0.0
  0
LINE
  5
231
  8
0
  6
CONTINUOUS
 62
     7
 10
1859.558209561818
 20
567.231230678285
 30
0.0
 11
1842.058209561818
 21
567.231230678285
 31
0.0
  0
LINE
  5
232
  8
0
  6
CONTINUOUS
 62
     7
 10
1859.558209561818
 20
1155.231230678285
 30
0.0
 11
1859.558209561818
 21
567.231230678285
 31
0.0
  0
LINE
  5
233
  8
0
  6
CONTINUOUS
 62
     7
 10
1842.058209561818
 20
1155.231230678285
 30
0.0
 11
1859.558209561818
 21
1155.231230678285
 31
0.0
  0
LINE
  5
234
  8
0
  6
CONTINUOUS
 62
     7
 10
2723.058209561818
 20
567.2312306782885
 30
0.0
 11
2723.058209561818
 21
1155.231230678289
 31
0.0
  0
LINE
  5
235
  8
0
  6
CONTINUOUS
 62
     7
 10
2740.558209561818
 20
567.2312306782885
 30
0.0
 11
2723.058209561818
 21
567.2312306782885
 31
0.0
  0
LINE
  5
236
  8
0
  6
CONTINUOUS
 62
     7
 10
2740.558209561818
 20
1155.231230678289
 30
0.0
 11
2740.558209561818
 21
567.2312306782885
 31
0.0
  0
LINE
  5
237
  8
0
  6
CONTINUOUS
 62
     7
 10
2723.058209561818
 20
1155.231230678289
 30
0.0
 11
2740.558209561818
 21
1155.231230678289
 31
0.0
  0
LINE
  5
238
  8
0
  6
CONTINUOUS
 62
     8
 10
2722.808209561817
 20
665.1312306782817
 30
0.0
 11
2723.058209561817
 21
665.131230678281
 31
0.0
  0
LINE
  5
239
  8
0
  6
CONTINUOUS
 62
     8
 10
1859.808209561817
 20
1057.331230678293
 30
0.0
 11
1859.558209561817
 21
1057.331230678293
 31
0.0
  0
LINE
  5
23A
  8
0
  6
CONTINUOUS
 62
     8
 10
1859.808209561817
 20
665.1312306782936
 30
0.0
 11
1859.558209561817
 21
665.1312306782942
 31
0.0
  0
LINE
  5
23B
  8
0
  6
CONTINUOUS
 62
     8
 10
1859.583335832013
 20
644.9812306782953
 30
0.0
 11
1859.583335832012
 21
639.4812306782932
 31
0.0
  0
LINE
  5
23C
  8
0
  6
CONTINUOUS
 62
     8
 10
2723.033083291628
 20
639.4812306782788
 30
0.0
 11
2723.033083291628
 21
644.981230678281
 31
0.0
  0
LINE
  5
23D
  8
0
  6
CONTINUOUS
 62
     8
 10
1859.583335832017
 20
1082.981230678295
 30
0.0
 11
1859.583335832017
 21
1077.481230678293
 31
0.0
  0
ENDSEC
  0
EOF
