  0
SECTION
  2
HEADER
  9
$ACADVER
  1
AC1006
  9
$DWGCODEPAGE
  3
ansi_932
  9
$INSBASE
 10
0.0
 20
0.0
 30
0.0
  9
$EXTMIN
 10
360.9983621755568
 20
165.7088516276313
  9
$EXTMAX
 10
4839.484712179223
 20
3446.568231615399
  9
$LIMMIN
 10
0.0
 20
0.0
  9
$LIMMAX
 10
5000.0
 20
3500.0
  9
$ORTHOMODE
 70
     0
  9
$REGENMODE
 70
     1
  9
$FILLMODE
 70
     1
  9
$QTEXTMODE
 70
     0
  9
$MIRRTEXT
 70
     1
  9
$DRAGMODE
 70
     2
  9
$LTSCALE
 40
1.0
  9
$OSMODE
 70
    37
  9
$ATTMODE
 70
     1
  9
$TEXTSIZE
 40
3.5
  9
$TRACEWID
 40
1.0
  9
$TEXTSTYLE
  7
STANDARD
  9
$CLAYER
  8
0
  9
$CELTYPE
  6
BYLAYER
  9
$CECOLOR
 62
   256
  9
$DIMSCALE
 40
1.0
  9
$DIMASZ
 40
3.302
  9
$DIMEXO
 40
1.0
  9
$DIMDLI
 40
3.75
  9
$DIMRND
 40
0.0
  9
$DIMDLE
 40
0.0
  9
$DIMEXE
 40
1.0
  9
$DIMTP
 40
0.0
  9
$DIMTM
 40
0.0
  9
$DIMTXT
 40
3.5
  9
$DIMCEN
 40
2.5
  9
$DIMTSZ
 40
0.0
  9
$DIMTOL
 70
     0
  9
$DIMLIM
 70
     0
  9
$DIMTIH
 70
     1
  9
$DIMTOH
 70
     1
  9
$DIMSE1
 70
     0
  9
$DIMSE2
 70
     0
  9
$DIMTAD
 70
     1
  9
$DIMZIN
 70
     0
  9
$DIMBLK
  1

  9
$DIMASO
 70
     1
  9
$DIMSHO
 70
     1
  9
$DIMPOST
  1

  9
$DIMAPOST
  1

  9
$DIMALT
 70
     0
  9
$DIMALTD
 70
     3
  9
$DIMALTF
 40
0.0393700787401575
  9
$DIMLFAC
 40
1.0
  9
$DIMTOFL
 70
     1
  9
$DIMTVP
 40
0.0
  9
$DIMTIX
 70
     0
  9
$DIMSOXD
 70
     0
  9
$DIMSAH
 70
     0
  9
$DIMBLK1
  1

  9
$DIMBLK2
  1

  9
$LUNITS
 70
     2
  9
$LUPREC
 70
     3
  9
$SKETCHINC
 40
1.0
  9
$FILLETRAD
 40
10.0
  9
$AUNITS
 70
     0
  9
$AUPREC
 70
     2
  9
$MENU
  1
.
  9
$ELEVATION
 40
0.0
  9
$THICKNESS
 40
0.0
  9
$LIMCHECK
 70
     0
  9
$CHAMFERA
 40
0.0
  9
$CHAMFERB
 40
0.0
  9
$SKPOLY
 70
     0
  9
$TDCREATE
 40
2459867.551515996
  9
$TDUPDATE
 40
2460140.102387743
  9
$TDINDWG
 40
0.0003230324
  9
$TDUSRTIMER
 40
0.0003230324
  9
$USRTIMER
 70
     1
  9
$ANGBASE
 50
0.0
  9
$ANGDIR
 70
     0
  9
$PDMODE
 70
     0
  9
$PDSIZE
 40
-1.0
  9
$PLINEWID
 40
0.0
  9
$COORDS
 70
     1
  9
$SPLFRAME
 70
     0
  9
$SPLINETYPE
 70
     6
  9
$SPLINESEGS
 70
     8
  9
$ATTDIA
 70
     0
  9
$ATTREQ
 70
     1
  9
$HANDLING
 70
     1
  9
$HANDSEED
  5
72D
  9
$SURFTAB1
 70
     6
  9
$SURFTAB2
 70
     6
  9
$SURFTYPE
 70
     6
  9
$SURFU
 70
     6
  9
$SURFV
 70
     6
  9
$UCSNAME
  2

  9
$UCSORG
 10
0.0
 20
0.0
 30
0.0
  9
$UCSXDIR
 10
1.0
 20
0.0
 30
0.0
  9
$UCSYDIR
 10
0.0
 20
1.0
 30
0.0
  9
$USERI1
 70
     0
  9
$USERI2
 70
     0
  9
$USERI3
 70
     0
  9
$USERI4
 70
     0
  9
$USERI5
 70
     0
  9
$USERR1
 40
0.0
  9
$USERR2
 40
0.0
  9
$USERR3
 40
0.0
  9
$USERR4
 40
0.0
  9
$USERR5
 40
0.0
  9
$WORLDVIEW
 70
     1
  0
ENDSEC
  0
SECTION
  2
TABLES
  0
TABLE
  2
VPORT
 70
     1
  0
VPORT
  2
*ACTIVE
 70
     0
 10
0.0
 20
0.0
 11
1.0
 21
1.0
 12
3103.041045404289
 22
2079.222836023405
 13
0.0
 23
0.0
 14
10.0
 24
10.0
 15
10.0
 25
10.0
 16
0.0
 26
0.0
 36
1.0
 17
0.0
 27
0.0
 37
0.0
 40
4577.665091098921
 41
2.235364396654719
 42
50.0
 43
0.0
 44
0.0
 50
0.0
 51
0.0
 71
     0
 72
  2000
 73
     1
 74
     3
 75
     0
 76
     0
 77
     0
 78
     0
  0
ENDTAB
  0
TABLE
  2
LTYPE
 70
     6
  0
LTYPE
  2
CONTINUOUS
 70
     0
  3
Solid line
 72
    65
 73
     0
 40
0.0
  0
LTYPE
  2
HIDDEN
 70
     0
  3
Hidden __ __ __ __ __ __ __ __ __ __ __ __ __ __
 72
    65
 73
     2
 40
1.905
 49
1.27
 49
-0.635
  0
LTYPE
  2
PHANTOM
 70
     0
  3
Phantom ______  __  __  ______  __  __  ______
 72
    65
 73
     6
 40
12.7
 49
6.35
 49
-1.27
 49
1.27
 49
-1.27
 49
1.27
 49
-1.27
  0
LTYPE
  2
CENTER
 70
     0
  3
Center ____ _ ____ _ ____ _ ____ _ ____ _ ____
 72
    65
 73
     4
 40
10.16
 49
6.35
 49
-1.27
 49
1.27
 49
-1.27
  0
LTYPE
  2
CENTERX2
 70
     0
  3
Center (2x) ________  __  ________  __  _____
 72
    65
 73
     4
 40
20.32
 49
12.7
 49
-2.54
 49
2.54
 49
-2.54
  0
LTYPE
  2
DOT2
 70
     0
  3
Dot (.5x) ........................................
 72
    65
 73
     2
 40
0.635
 49
0.0
 49
-0.635
  0
ENDTAB
  0
TABLE
  2
LAYER
 70
     3
  0
LAYER
  2
0
 70
     0
 62
     7
  6
CONTINUOUS
  0
LAYER
  2
SLD-0
 70
     0
 62
   179
  6
CONTINUOUS
  0
LAYER
  2
寸法
 70
     0
 62
   179
  6
CONTINUOUS
  0
ENDTAB
  0
TABLE
  2
STYLE
 70
     2
  0
STYLE
  2
STANDARD
 70
     0
 40
0.0
 41
1.0
 50
0.0
 71
     0
 42
3.5
  3
txt
  4
bigfont
  0
STYLE
  2
SLDTEXTSTYLE0
 70
     0
 40
0.0
 41
0.75
 50
0.0
 71
     0
 42
3.5
  3
TXT
  4
bigfont
  0
ENDTAB
  0
TABLE
  2
VIEW
 70
     0
  0
ENDTAB
  0
TABLE
  2
UCS
 70
     0
  0
ENDTAB
  0
ENDSEC
  0
SECTION
  2
BLOCKS
  0
ENDSEC
  0
SECTION
  2
ENTITIES
  0
LINE
  5
75
  8
0
  6
CONTINUOUS
 62
     7
 10
4839.484712179223
 20
284.470902007842
 30
0.0
 11
3312.374599790194
 21
284.4709020078419
 31
0.0
  0
TEXT
  5
77
  8
0
  6
CONTINUOUS
 62
     7
 10
1589.361942129567
 20
3393.651564948732
 30
0.0
 40
52.91666666666666
  1
＜上面＞
 41
0.75
  7
SLDTEXTSTYLE0
  0
TEXT
  5
78
  8
0
  6
CONTINUOUS
 62
     7
 10
448.9835812991267
 20
2229.551765300122
 30
0.0
 40
52.91666666666666
  1
＜左側面＞
 41
0.75
  7
SLDTEXTSTYLE0
  0
TEXT
  5
79
  8
0
  6
CONTINUOUS
 62
     7
 10
1558.899532574738
 20
2234.241752087087
 30
0.0
 40
52.91666666666666
  1
＜正面＞
 41
0.75
  7
SLDTEXTSTYLE0
  0
TEXT
  5
7A
  8
0
  6
CONTINUOUS
 62
     7
 10
3377.814243189123
 20
326.489054196763
 30
0.0
 40
52.91666666666666
  1
品名：
 41
0.75
  7
SLDTEXTSTYLE0
  0
TEXT
  5
7B
  8
0
  6
CONTINUOUS
 62
     7
 10
4446.663437481703
 20
332.3177187478654
 30
0.0
 40
52.91666666666666
  1
Pamouna
 41
0.75
  7
SLDTEXTSTYLE0
  0
TEXT
  5
7C
  8
寸法
  6
CONTINUOUS
 62
     7
 10
4688.007304885427
 20
165.7088516276312
 30
0.0
 40
52.91666666666666
  1
1/1
 41
0.75
  7
SLDTEXTSTYLE0
  0
TEXT
  5
7D
  8
寸法
  6
CONTINUOUS
 62
     7
 10
3611.283129349216
 20
332.2465883182592
 30
0.0
 40
66.14583333333331
  1
MA-WL1500
 41
0.75
  7
SLDTEXTSTYLE0
  0
TEXT
  5
7E
  8
寸法
  6
CONTINUOUS
 62
     7
 10
3805.952630829561
 20
2229.55176530012
 30
0.0
 40
52.91666666666666
  1
＜右側面＞
 41
0.75
  7
SLDTEXTSTYLE0
  0
TEXT
  5
7F
  8
寸法
  6
CONTINUOUS
 62
     7
 10
4198.79693921183
 20
165.7088544215994
 30
0.0
 40
52.91666666666666
  1
2022/10/14
 41
0.75
  7
SLDTEXTSTYLE0
  0
TEXT
  5
80
  8
寸法
  6
CONTINUOUS
 62
     7
 10
1570.865530629479
 20
1157.767594469445
 30
0.0
 40
52.91666666666666
  1
＜背面＞
 41
0.75
  7
SLDTEXTSTYLE0
  0
ARC
  5
81
  8
0
  6
CONTINUOUS
 62
     7
 10
2553.934126799259
 20
2018.57683187571
 30
0.0
 40
0.2000000000000455
 50
0.0
 51
90.0
  0
LINE
  5
82
  8
0
  6
CONTINUOUS
 62
     7
 10
2553.934126799259
 20
2018.776831875711
 30
0.0
 11
2553.134126799259
 21
2018.776831875711
 31
0.0
  0
LINE
  5
83
  8
0
  6
CONTINUOUS
 62
     7
 10
3302.18412679926
 20
2018.77683187571
 30
0.0
 11
3301.38412679926
 21
2018.77683187571
 31
0.0
  0
ARC
  5
84
  8
0
  6
CONTINUOUS
 62
     7
 10
3302.18412679926
 20
2018.57683187571
 30
0.0
 40
0.1999999999995907
 50
0.0
 51
90.0
  0
LINE
  5
85
  8
0
  6
CONTINUOUS
 62
     7
 10
3301.38412679926
 20
2018.77683187571
 30
0.0
 11
2556.884126799258
 21
2018.77683187571
 31
0.0
  0
LINE
  5
86
  8
0
  6
CONTINUOUS
 62
     7
 10
2553.134126799259
 20
2018.776831875711
 30
0.0
 11
1808.634126799258
 21
2018.77683187571
 31
0.0
  0
ARC
  5
87
  8
0
  6
CONTINUOUS
 62
     7
 10
1807.834126799258
 20
2018.57683187571
 30
0.0
 40
0.2000000000000455
 50
90.0
 51
180.0
  0
LINE
  5
88
  8
0
  6
CONTINUOUS
 62
     7
 10
1808.634126799258
 20
2018.77683187571
 30
0.0
 11
1807.834126799258
 21
2018.77683187571
 31
0.0
  0
ARC
  5
89
  8
0
  6
CONTINUOUS
 62
     7
 10
2556.084126799258
 20
2018.57683187571
 30
0.0
 40
0.2000000000000455
 50
90.0
 51
180.0
  0
LINE
  5
8A
  8
0
  6
CONTINUOUS
 62
     7
 10
2556.884126799258
 20
2018.77683187571
 30
0.0
 11
2556.084126799258
 21
2018.77683187571
 31
0.0
  0
LINE
  5
8D
  8
0
  6
CONTINUOUS
 62
     7
 10
2556.134126799257
 20
2018.276831875711
 30
0.0
 11
2556.134126799256
 21
1642.27683187571
 31
0.0
  0
LINE
  5
8E
  8
0
  6
CONTINUOUS
 62
     7
 10
3302.134126799258
 20
1642.27683187571
 30
0.0
 11
3302.134126799258
 21
2018.27683187571
 31
0.0
  0
LINE
  5
8F
  8
0
  6
CONTINUOUS
 62
     7
 10
2556.134126799256
 20
1642.27683187571
 30
0.0
 11
3302.134126799258
 21
1642.27683187571
 31
0.0
  0
LINE
  5
90
  8
0
  6
CONTINUOUS
 62
     7
 10
3302.134126799258
 20
2018.27683187571
 30
0.0
 11
2556.134126799257
 21
2018.276831875711
 31
0.0
  0
LINE
  5
91
  8
0
  6
CONTINUOUS
 62
     7
 10
2554.134126799259
 20
2018.565683153963
 30
0.0
 11
2554.134126799259
 21
2018.47683187571
 31
0.0
  0
POLYLINE
  5
92
  8
0
  6
CONTINUOUS
 62
     7
 66
     1
 10
0.0
 20
0.0
 30
0.0
  0
VERTEX
  5
491
  8
0
  6
CONTINUOUS
 62
     7
 10
2554.134126799259
 20
2018.47683187571
 30
0.0
  0
VERTEX
  5
492
  8
0
  6
CONTINUOUS
 62
     7
 10
2554.134109362496
 20
2018.474073943533
 30
0.0
  0
VERTEX
  5
493
  8
0
  6
CONTINUOUS
 62
     7
 10
2554.134053564732
 20
2018.471247503785
 30
0.0
  0
VERTEX
  5
494
  8
0
  6
CONTINUOUS
 62
     7
 10
2554.133954963143
 20
2018.468351716622
 30
0.0
  0
VERTEX
  5
495
  8
0
  6
CONTINUOUS
 62
     7
 10
2554.133810526933
 20
2018.465388559238
 30
0.0
  0
VERTEX
  5
496
  8
0
  6
CONTINUOUS
 62
     7
 10
2554.13361722531
 20
2018.462360008829
 30
0.0
  0
VERTEX
  5
497
  8
0
  6
CONTINUOUS
 62
     7
 10
2554.13337202748
 20
2018.45926804259
 30
0.0
  0
VERTEX
  5
498
  8
0
  6
CONTINUOUS
 62
     7
 10
2554.133071902649
 20
2018.456114637715
 30
0.0
  0
VERTEX
  5
499
  8
0
  6
CONTINUOUS
 62
     7
 10
2554.132713820022
 20
2018.4529017714
 30
0.0
  0
VERTEX
  5
49A
  8
0
  6
CONTINUOUS
 62
     7
 10
2554.132294748807
 20
2018.44963142084
 30
0.0
  0
VERTEX
  5
49B
  8
0
  6
CONTINUOUS
 62
     7
 10
2554.13181165821
 20
2018.446305563228
 30
0.0
  0
VERTEX
  5
49C
  8
0
  6
CONTINUOUS
 62
     7
 10
2554.131261517436
 20
2018.442926175761
 30
0.0
  0
VERTEX
  5
49D
  8
0
  6
CONTINUOUS
 62
     7
 10
2554.130641295692
 20
2018.439495235633
 30
0.0
  0
VERTEX
  5
49E
  8
0
  6
CONTINUOUS
 62
     7
 10
2554.129947962185
 20
2018.43601472004
 30
0.0
  0
VERTEX
  5
49F
  8
0
  6
CONTINUOUS
 62
     7
 10
2554.129178486119
 20
2018.432486606175
 30
0.0
  0
VERTEX
  5
4A0
  8
0
  6
CONTINUOUS
 62
     7
 10
2554.128329836703
 20
2018.428912871235
 30
0.0
  0
VERTEX
  5
4A1
  8
0
  6
CONTINUOUS
 62
     7
 10
2554.127398983139
 20
2018.425295492413
 30
0.0
  0
VERTEX
  5
4A2
  8
0
  6
CONTINUOUS
 62
     7
 10
2554.126382894638
 20
2018.421636446906
 30
0.0
  0
VERTEX
  5
4A3
  8
0
  6
CONTINUOUS
 62
     7
 10
2554.125278540404
 20
2018.417937711907
 30
0.0
  0
VERTEX
  5
4A4
  8
0
  6
CONTINUOUS
 62
     7
 10
2554.124082889642
 20
2018.414201264613
 30
0.0
  0
VERTEX
  5
4A5
  8
0
  6
CONTINUOUS
 62
     7
 10
2554.122792911559
 20
2018.410429082217
 30
0.0
  0
VERTEX
  5
4A6
  8
0
  6
CONTINUOUS
 62
     7
 10
2554.121405575363
 20
2018.406623141914
 30
0.0
  0
VERTEX
  5
4A7
  8
0
  6
CONTINUOUS
 62
     7
 10
2554.119917850258
 20
2018.402785420901
 30
0.0
  0
VERTEX
  5
4A8
  8
0
  6
CONTINUOUS
 62
     7
 10
2554.118326705451
 20
2018.39891789637
 30
0.0
  0
VERTEX
  5
4A9
  8
0
  6
CONTINUOUS
 62
     7
 10
2554.116629110148
 20
2018.395022545519
 30
0.0
  0
VERTEX
  5
4AA
  8
0
  6
CONTINUOUS
 62
     7
 10
2554.114822020998
 20
2018.391101423363
 30
0.0
  0
VERTEX
  5
4AB
  8
0
  6
CONTINUOUS
 62
     7
 10
2554.112902172091
 20
2018.387157964325
 30
0.0
  0
VERTEX
  5
4AC
  8
0
  6
CONTINUOUS
 62
     7
 10
2554.11086610651
 20
2018.383196786617
 30
0.0
  0
VERTEX
  5
4AD
  8
0
  6
CONTINUOUS
 62
     7
 10
2554.108710361144
 20
2018.379222546872
 30
0.0
  0
VERTEX
  5
4AE
  8
0
  6
CONTINUOUS
 62
     7
 10
2554.10643147288
 20
2018.375239901719
 30
0.0
  0
VERTEX
  5
4AF
  8
0
  6
CONTINUOUS
 62
     7
 10
2554.104025978607
 20
2018.371253507788
 30
0.0
  0
VERTEX
  5
4B0
  8
0
  6
CONTINUOUS
 62
     7
 10
2554.101490415212
 20
2018.36726802171
 30
0.0
  0
VERTEX
  5
4B1
  8
0
  6
CONTINUOUS
 62
     7
 10
2554.098821319582
 20
2018.363288100114
 30
0.0
  0
VERTEX
  5
4B2
  8
0
  6
CONTINUOUS
 62
     7
 10
2554.096015228605
 20
2018.359318399632
 30
0.0
  0
VERTEX
  5
4B3
  8
0
  6
CONTINUOUS
 62
     7
 10
2554.09306867917
 20
2018.355363576892
 30
0.0
  0
VERTEX
  5
4B4
  8
0
  6
CONTINUOUS
 62
     7
 10
2554.089978208163
 20
2018.351428288526
 30
0.0
  0
VERTEX
  5
4B5
  8
0
  6
CONTINUOUS
 62
     7
 10
2554.086740352473
 20
2018.347517191164
 30
0.0
  0
VERTEX
  5
4B6
  8
0
  6
CONTINUOUS
 62
     7
 10
2554.083351648987
 20
2018.343634941436
 30
0.0
  0
VERTEX
  5
4B7
  8
0
  6
CONTINUOUS
 62
     7
 10
2554.079808634593
 20
2018.339786195971
 30
0.0
  0
VERTEX
  5
4B8
  8
0
  6
CONTINUOUS
 62
     7
 10
2554.076107847785
 20
2018.335975612714
 30
0.0
  0
VERTEX
  5
4B9
  8
0
  6
CONTINUOUS
 62
     7
 10
2554.072246521915
 20
2018.332208416894
 30
0.0
  0
VERTEX
  5
4BA
  8
0
  6
CONTINUOUS
 62
     7
 10
2554.068223667055
 20
2018.328491284284
 30
0.0
  0
VERTEX
  5
4BB
  8
0
  6
CONTINUOUS
 62
     7
 10
2554.064038573206
 20
2018.324831119193
 30
0.0
  0
VERTEX
  5
4BC
  8
0
  6
CONTINUOUS
 62
     7
 10
2554.059690530373
 20
2018.321234825931
 30
0.0
  0
VERTEX
  5
4BD
  8
0
  6
CONTINUOUS
 62
     7
 10
2554.055178828557
 20
2018.317709308809
 30
0.0
  0
VERTEX
  5
4BE
  8
0
  6
CONTINUOUS
 62
     7
 10
2554.050502757759
 20
2018.314261472135
 30
0.0
  0
VERTEX
  5
4BF
  8
0
  6
CONTINUOUS
 62
     7
 10
2554.045661607984
 20
2018.310898220218
 30
0.0
  0
VERTEX
  5
4C0
  8
0
  6
CONTINUOUS
 62
     7
 10
2554.040654669232
 20
2018.307626457371
 30
0.0
  0
VERTEX
  5
4C1
  8
0
  6
CONTINUOUS
 62
     7
 10
2554.035481231506
 20
2018.304453087899
 30
0.0
  0
VERTEX
  5
4C2
  8
0
  6
CONTINUOUS
 62
     7
 10
2554.030140584813
 20
2018.301385016126
 30
0.0
  0
VERTEX
  5
4C3
  8
0
  6
CONTINUOUS
 62
     7
 10
2554.024633242664
 20
2018.298431697966
 30
0.0
  0
VERTEX
  5
4C4
  8
0
  6
CONTINUOUS
 62
     7
 10
2554.018964385007
 20
2018.295612321108
 30
0.0
  0
VERTEX
  5
4C5
  8
0
  6
CONTINUOUS
 62
     7
 10
2554.013140304122
 20
2018.29294839299
 30
0.0
  0
VERTEX
  5
4C6
  8
0
  6
CONTINUOUS
 62
     7
 10
2554.00716729229
 20
2018.290461421049
 30
0.0
  0
VERTEX
  5
4C7
  8
0
  6
CONTINUOUS
 62
     7
 10
2554.00105164179
 20
2018.288172912725
 30
0.0
  0
VERTEX
  5
4C8
  8
0
  6
CONTINUOUS
 62
     7
 10
2553.994799644904
 20
2018.286104375458
 30
0.0
  0
VERTEX
  5
4C9
  8
0
  6
CONTINUOUS
 62
     7
 10
2553.988417593912
 20
2018.284277316684
 30
0.0
  0
VERTEX
  5
4CA
  8
0
  6
CONTINUOUS
 62
     7
 10
2553.98191201318
 20
2018.282711868703
 30
0.0
  0
VERTEX
  5
4CB
  8
0
  6
CONTINUOUS
 62
     7
 10
2553.975294240109
 20
2018.281399645876
 30
0.0
  0
VERTEX
  5
4CC
  8
0
  6
CONTINUOUS
 62
     7
 10
2553.968580150394
 20
2018.280305372508
 30
0.0
  0
VERTEX
  5
4CD
  8
0
  6
CONTINUOUS
 62
     7
 10
2553.961785796811
 20
2018.27939272369
 30
0.0
  0
VERTEX
  5
4CE
  8
0
  6
CONTINUOUS
 62
     7
 10
2553.954927232131
 20
2018.27862537451
 30
0.0
  0
VERTEX
  5
4CF
  8
0
  6
CONTINUOUS
 62
     7
 10
2553.94802050913
 20
2018.27796700006
 30
0.0
  0
VERTEX
  5
4D0
  8
0
  6
CONTINUOUS
 62
     7
 10
2553.941081680582
 20
2018.277381275431
 30
0.0
  0
VERTEX
  5
4D1
  8
0
  6
CONTINUOUS
 62
     7
 10
2553.934126799259
 20
2018.27683187571
 30
0.0
  0
SEQEND
  5
721
  8
0
  6
CONTINUOUS
 62
     7
  0
LINE
  5
93
  8
0
  6
CONTINUOUS
 62
     7
 10
2553.934126799259
 20
2018.27683187571
 30
0.0
 11
2553.934126799259
 21
2018.762895973527
 31
0.0
  0
ARC
  5
94
  8
0
  6
CONTINUOUS
 62
     7
 10
2553.935510679009
 20
2018.56427971604
 30
0.0
 40
0.1986210785926311
 50
0.4048499762022442
 51
90.3992079345418
  0
LINE
  5
95
  8
0
  6
CONTINUOUS
 62
     7
 10
2553.934126799259
 20
2018.762895973527
 30
0.0
 11
2553.134126799259
 21
2018.762895973527
 31
0.0
  0
LINE
  5
96
  8
0
  6
CONTINUOUS
 62
     7
 10
2553.934126799259
 20
2018.27683187571
 30
0.0
 11
2553.634126799258
 21
2018.27683187571
 31
0.0
  0
LINE
  5
97
  8
0
  6
CONTINUOUS
 62
     7
 10
2553.134126799259
 20
2018.762895973527
 30
0.0
 11
2553.134126799259
 21
2018.27683187571
 31
0.0
  0
LINE
  5
98
  8
0
  6
CONTINUOUS
 62
     7
 10
2554.134126799259
 20
2018.57683187571
 30
0.0
 11
2554.134126799259
 21
2018.565683153963
 31
0.0
  0
LINE
  5
99
  8
0
  6
CONTINUOUS
 62
     7
 10
2553.134126799259
 20
2018.776831875711
 30
0.0
 11
2553.134126799259
 21
2018.762895973527
 31
0.0
  0
ARC
  5
9A
  8
0
  6
CONTINUOUS
 62
     7
 10
2553.934126799259
 20
2005.47683187571
 30
0.0
 40
0.2000000000000455
 50
270.0000000000008
 51
0.0
  0
LINE
  5
9B
  8
0
  6
CONTINUOUS
 62
     7
 10
2553.934126799259
 20
2005.27683187571
 30
0.0
 11
2553.934126799259
 21
2018.27683187571
 31
0.0
  0
LINE
  5
9C
  8
0
  6
CONTINUOUS
 62
     7
 10
2554.134126799259
 20
2018.47683187571
 30
0.0
 11
2554.134126799259
 21
2005.47683187571
 31
0.0
  0
LINE
  5
9D
  8
0
  6
CONTINUOUS
 62
     7
 10
2553.934126799259
 20
2005.27683187571
 30
0.0
 11
2553.634126799258
 21
2005.27683187571
 31
0.0
  0
ARC
  5
9E
  8
0
  6
CONTINUOUS
 62
     7
 10
2553.934126799259
 20
1985.47683187571
 30
0.0
 40
0.2000000000002728
 50
270.0000000000008
 51
0.0
  0
LINE
  5
9F
  8
0
  6
CONTINUOUS
 62
     7
 10
2553.934126799259
 20
1985.27683187571
 30
0.0
 11
2553.934126799259
 21
2005.27683187571
 31
0.0
  0
LINE
  5
A0
  8
0
  6
CONTINUOUS
 62
     7
 10
2554.134126799259
 20
2005.47683187571
 30
0.0
 11
2554.134126799259
 21
1985.47683187571
 31
0.0
  0
LINE
  5
A1
  8
0
  6
CONTINUOUS
 62
     7
 10
2553.934126799259
 20
1985.27683187571
 30
0.0
 11
2553.634126799258
 21
1985.27683187571
 31
0.0
  0
LINE
  5
A2
  8
0
  6
CONTINUOUS
 62
     7
 10
3302.384126799259
 20
2018.565683153963
 30
0.0
 11
3302.384126799259
 21
2018.47683187571
 31
0.0
  0
POLYLINE
  5
A3
  8
0
  6
CONTINUOUS
 62
     7
 66
     1
 10
0.0
 20
0.0
 30
0.0
  0
VERTEX
  5
4D2
  8
0
  6
CONTINUOUS
 62
     7
 10
3302.384126799259
 20
2018.47683187571
 30
0.0
  0
VERTEX
  5
4D3
  8
0
  6
CONTINUOUS
 62
     7
 10
3302.384109362496
 20
2018.474073943532
 30
0.0
  0
VERTEX
  5
4D4
  8
0
  6
CONTINUOUS
 62
     7
 10
3302.384053564732
 20
2018.471247503784
 30
0.0
  0
VERTEX
  5
4D5
  8
0
  6
CONTINUOUS
 62
     7
 10
3302.383954963143
 20
2018.468351716621
 30
0.0
  0
VERTEX
  5
4D6
  8
0
  6
CONTINUOUS
 62
     7
 10
3302.383810526933
 20
2018.465388559237
 30
0.0
  0
VERTEX
  5
4D7
  8
0
  6
CONTINUOUS
 62
     7
 10
3302.38361722531
 20
2018.462360008829
 30
0.0
  0
VERTEX
  5
4D8
  8
0
  6
CONTINUOUS
 62
     7
 10
3302.38337202748
 20
2018.459268042589
 30
0.0
  0
VERTEX
  5
4D9
  8
0
  6
CONTINUOUS
 62
     7
 10
3302.383071902649
 20
2018.456114637715
 30
0.0
  0
VERTEX
  5
4DA
  8
0
  6
CONTINUOUS
 62
     7
 10
3302.382713820023
 20
2018.4529017714
 30
0.0
  0
VERTEX
  5
4DB
  8
0
  6
CONTINUOUS
 62
     7
 10
3302.382294748808
 20
2018.449631420839
 30
0.0
  0
VERTEX
  5
4DC
  8
0
  6
CONTINUOUS
 62
     7
 10
3302.381811658211
 20
2018.446305563228
 30
0.0
  0
VERTEX
  5
4DD
  8
0
  6
CONTINUOUS
 62
     7
 10
3302.381261517437
 20
2018.442926175761
 30
0.0
  0
VERTEX
  5
4DE
  8
0
  6
CONTINUOUS
 62
     7
 10
3302.380641295692
 20
2018.439495235633
 30
0.0
  0
VERTEX
  5
4DF
  8
0
  6
CONTINUOUS
 62
     7
 10
3302.379947962186
 20
2018.43601472004
 30
0.0
  0
VERTEX
  5
4E0
  8
0
  6
CONTINUOUS
 62
     7
 10
3302.37917848612
 20
2018.432486606175
 30
0.0
  0
VERTEX
  5
4E1
  8
0
  6
CONTINUOUS
 62
     7
 10
3302.378329836703
 20
2018.428912871234
 30
0.0
  0
VERTEX
  5
4E2
  8
0
  6
CONTINUOUS
 62
     7
 10
3302.37739898314
 20
2018.425295492413
 30
0.0
  0
VERTEX
  5
4E3
  8
0
  6
CONTINUOUS
 62
     7
 10
3302.376382894638
 20
2018.421636446906
 30
0.0
  0
VERTEX
  5
4E4
  8
0
  6
CONTINUOUS
 62
     7
 10
3302.375278540404
 20
2018.417937711907
 30
0.0
  0
VERTEX
  5
4E5
  8
0
  6
CONTINUOUS
 62
     7
 10
3302.374082889642
 20
2018.414201264612
 30
0.0
  0
VERTEX
  5
4E6
  8
0
  6
CONTINUOUS
 62
     7
 10
3302.37279291156
 20
2018.410429082216
 30
0.0
  0
VERTEX
  5
4E7
  8
0
  6
CONTINUOUS
 62
     7
 10
3302.371405575363
 20
2018.406623141914
 30
0.0
  0
VERTEX
  5
4E8
  8
0
  6
CONTINUOUS
 62
     7
 10
3302.369917850259
 20
2018.4027854209
 30
0.0
  0
VERTEX
  5
4E9
  8
0
  6
CONTINUOUS
 62
     7
 10
3302.368326705452
 20
2018.39891789637
 30
0.0
  0
VERTEX
  5
4EA
  8
0
  6
CONTINUOUS
 62
     7
 10
3302.366629110149
 20
2018.395022545518
 30
0.0
  0
VERTEX
  5
4EB
  8
0
  6
CONTINUOUS
 62
     7
 10
3302.364822020998
 20
2018.391101423363
 30
0.0
  0
VERTEX
  5
4EC
  8
0
  6
CONTINUOUS
 62
     7
 10
3302.362902172091
 20
2018.387157964324
 30
0.0
  0
VERTEX
  5
4ED
  8
0
  6
CONTINUOUS
 62
     7
 10
3302.360866106511
 20
2018.383196786617
 30
0.0
  0
VERTEX
  5
4EE
  8
0
  6
CONTINUOUS
 62
     7
 10
3302.358710361144
 20
2018.379222546871
 30
0.0
  0
VERTEX
  5
4EF
  8
0
  6
CONTINUOUS
 62
     7
 10
3302.356431472881
 20
2018.375239901718
 30
0.0
  0
VERTEX
  5
4F0
  8
0
  6
CONTINUOUS
 62
     7
 10
3302.354025978608
 20
2018.371253507787
 30
0.0
  0
VERTEX
  5
4F1
  8
0
  6
CONTINUOUS
 62
     7
 10
3302.351490415213
 20
2018.367268021709
 30
0.0
  0
VERTEX
  5
4F2
  8
0
  6
CONTINUOUS
 62
     7
 10
3302.348821319583
 20
2018.363288100114
 30
0.0
  0
VERTEX
  5
4F3
  8
0
  6
CONTINUOUS
 62
     7
 10
3302.346015228606
 20
2018.359318399631
 30
0.0
  0
VERTEX
  5
4F4
  8
0
  6
CONTINUOUS
 62
     7
 10
3302.34306867917
 20
2018.355363576891
 30
0.0
  0
VERTEX
  5
4F5
  8
0
  6
CONTINUOUS
 62
     7
 10
3302.339978208163
 20
2018.351428288525
 30
0.0
  0
VERTEX
  5
4F6
  8
0
  6
CONTINUOUS
 62
     7
 10
3302.336740352473
 20
2018.347517191163
 30
0.0
  0
VERTEX
  5
4F7
  8
0
  6
CONTINUOUS
 62
     7
 10
3302.333351648988
 20
2018.343634941435
 30
0.0
  0
VERTEX
  5
4F8
  8
0
  6
CONTINUOUS
 62
     7
 10
3302.329808634593
 20
2018.339786195971
 30
0.0
  0
VERTEX
  5
4F9
  8
0
  6
CONTINUOUS
 62
     7
 10
3302.326107847786
 20
2018.335975612713
 30
0.0
  0
VERTEX
  5
4FA
  8
0
  6
CONTINUOUS
 62
     7
 10
3302.322246521916
 20
2018.332208416894
 30
0.0
  0
VERTEX
  5
4FB
  8
0
  6
CONTINUOUS
 62
     7
 10
3302.318223667055
 20
2018.328491284283
 30
0.0
  0
VERTEX
  5
4FC
  8
0
  6
CONTINUOUS
 62
     7
 10
3302.314038573206
 20
2018.324831119192
 30
0.0
  0
VERTEX
  5
4FD
  8
0
  6
CONTINUOUS
 62
     7
 10
3302.309690530373
 20
2018.32123482593
 30
0.0
  0
VERTEX
  5
4FE
  8
0
  6
CONTINUOUS
 62
     7
 10
3302.305178828557
 20
2018.317709308808
 30
0.0
  0
VERTEX
  5
4FF
  8
0
  6
CONTINUOUS
 62
     7
 10
3302.30050275776
 20
2018.314261472134
 30
0.0
  0
VERTEX
  5
500
  8
0
  6
CONTINUOUS
 62
     7
 10
3302.295661607984
 20
2018.310898220217
 30
0.0
  0
VERTEX
  5
501
  8
0
  6
CONTINUOUS
 62
     7
 10
3302.290654669233
 20
2018.30762645737
 30
0.0
  0
VERTEX
  5
502
  8
0
  6
CONTINUOUS
 62
     7
 10
3302.285481231506
 20
2018.304453087899
 30
0.0
  0
VERTEX
  5
503
  8
0
  6
CONTINUOUS
 62
     7
 10
3302.280140584814
 20
2018.301385016125
 30
0.0
  0
VERTEX
  5
504
  8
0
  6
CONTINUOUS
 62
     7
 10
3302.274633242665
 20
2018.298431697966
 30
0.0
  0
VERTEX
  5
505
  8
0
  6
CONTINUOUS
 62
     7
 10
3302.268964385009
 20
2018.295612321107
 30
0.0
  0
VERTEX
  5
506
  8
0
  6
CONTINUOUS
 62
     7
 10
3302.263140304123
 20
2018.292948392989
 30
0.0
  0
VERTEX
  5
507
  8
0
  6
CONTINUOUS
 62
     7
 10
3302.25716729229
 20
2018.290461421048
 30
0.0
  0
VERTEX
  5
508
  8
0
  6
CONTINUOUS
 62
     7
 10
3302.25105164179
 20
2018.288172912725
 30
0.0
  0
VERTEX
  5
509
  8
0
  6
CONTINUOUS
 62
     7
 10
3302.244799644905
 20
2018.286104375457
 30
0.0
  0
VERTEX
  5
50A
  8
0
  6
CONTINUOUS
 62
     7
 10
3302.238417593912
 20
2018.284277316684
 30
0.0
  0
VERTEX
  5
50B
  8
0
  6
CONTINUOUS
 62
     7
 10
3302.23191201318
 20
2018.282711868702
 30
0.0
  0
VERTEX
  5
50C
  8
0
  6
CONTINUOUS
 62
     7
 10
3302.22529424011
 20
2018.281399645875
 30
0.0
  0
VERTEX
  5
50D
  8
0
  6
CONTINUOUS
 62
     7
 10
3302.218580150395
 20
2018.280305372507
 30
0.0
  0
VERTEX
  5
50E
  8
0
  6
CONTINUOUS
 62
     7
 10
3302.211785796811
 20
2018.279392723689
 30
0.0
  0
VERTEX
  5
50F
  8
0
  6
CONTINUOUS
 62
     7
 10
3302.204927232131
 20
2018.278625374509
 30
0.0
  0
VERTEX
  5
510
  8
0
  6
CONTINUOUS
 62
     7
 10
3302.19802050913
 20
2018.27796700006
 30
0.0
  0
VERTEX
  5
511
  8
0
  6
CONTINUOUS
 62
     7
 10
3302.191081680582
 20
2018.27738127543
 30
0.0
  0
VERTEX
  5
512
  8
0
  6
CONTINUOUS
 62
     7
 10
3302.18412679926
 20
2018.27683187571
 30
0.0
  0
SEQEND
  5
722
  8
0
  6
CONTINUOUS
 62
     7
  0
LINE
  5
A4
  8
0
  6
CONTINUOUS
 62
     7
 10
3302.18412679926
 20
2018.27683187571
 30
0.0
 11
3302.18412679926
 21
2018.762895973526
 31
0.0
  0
ARC
  5
A5
  8
0
  6
CONTINUOUS
 62
     7
 10
3302.18551067901
 20
2018.56427971604
 30
0.0
 40
0.1986210785912637
 50
0.4048499760738483
 51
90.39920793480599
  0
LINE
  5
A6
  8
0
  6
CONTINUOUS
 62
     7
 10
3302.18412679926
 20
2018.762895973526
 30
0.0
 11
3301.38412679926
 21
2018.762895973526
 31
0.0
  0
LINE
  5
A7
  8
0
  6
CONTINUOUS
 62
     7
 10
3302.18412679926
 20
2018.27683187571
 30
0.0
 11
3302.134126799258
 21
2018.27683187571
 31
0.0
  0
LINE
  5
A8
  8
0
  6
CONTINUOUS
 62
     7
 10
3301.38412679926
 20
2018.762895973526
 30
0.0
 11
3301.38412679926
 21
2018.27683187571
 31
0.0
  0
LINE
  5
A9
  8
0
  6
CONTINUOUS
 62
     7
 10
3301.38412679926
 20
2018.77683187571
 30
0.0
 11
3301.38412679926
 21
2018.762895973526
 31
0.0
  0
LINE
  5
AA
  8
0
  6
CONTINUOUS
 62
     7
 10
3302.384126799259
 20
2018.57683187571
 30
0.0
 11
3302.384126799259
 21
2018.565683153963
 31
0.0
  0
LINE
  5
AB
  8
0
  6
CONTINUOUS
 62
     7
 10
3302.18412679926
 20
2005.27683187571
 30
0.0
 11
3302.18412679926
 21
2018.27683187571
 31
0.0
  0
LINE
  5
AC
  8
0
  6
CONTINUOUS
 62
     7
 10
3302.18412679926
 20
2005.27683187571
 30
0.0
 11
3302.134126799258
 21
2005.27683187571
 31
0.0
  0
ARC
  5
AD
  8
0
  6
CONTINUOUS
 62
     7
 10
3302.18412679926
 20
2005.47683187571
 30
0.0
 40
0.2000000000000455
 50
270.0000000000008
 51
0.0
  0
LINE
  5
AE
  8
0
  6
CONTINUOUS
 62
     7
 10
3302.384126799259
 20
2018.47683187571
 30
0.0
 11
3302.384126799259
 21
2005.47683187571
 31
0.0
  0
LINE
  5
AF
  8
0
  6
CONTINUOUS
 62
     7
 10
3302.18412679926
 20
1985.276831875709
 30
0.0
 11
3302.18412679926
 21
2005.276831875709
 31
0.0
  0
ARC
  5
B0
  8
0
  6
CONTINUOUS
 62
     7
 10
3302.18412679926
 20
1985.476831875709
 30
0.0
 40
0.2000000000000455
 50
270.0000000000008
 51
0.0
  0
LINE
  5
B1
  8
0
  6
CONTINUOUS
 62
     7
 10
3302.384126799259
 20
2005.476831875709
 30
0.0
 11
3302.384126799259
 21
1985.476831875709
 31
0.0
  0
LINE
  5
B2
  8
0
  6
CONTINUOUS
 62
     7
 10
3302.18412679926
 20
1985.276831875709
 30
0.0
 11
3302.134126799258
 21
1985.276831875709
 31
0.0
  0
LINE
  5
B3
  8
0
  6
CONTINUOUS
 62
     7
 10
3301.38412679926
 20
2018.762895973526
 30
0.0
 11
2556.884126799258
 21
2018.762895973526
 31
0.0
  0
LINE
  5
B4
  8
0
  6
CONTINUOUS
 62
     7
 10
2556.884126799258
 20
2018.27683187571
 30
0.0
 11
2556.884126799258
 21
2018.762895973526
 31
0.0
  0
LINE
  5
B5
  8
0
  6
CONTINUOUS
 62
     7
 10
2556.884126799258
 20
2018.762895973526
 30
0.0
 11
2556.884126799258
 21
2018.77683187571
 31
0.0
  0
LINE
  5
B6
  8
0
  6
CONTINUOUS
 62
     7
 10
2553.134126799259
 20
2018.762895973527
 30
0.0
 11
1808.634126799258
 21
2018.762895973526
 31
0.0
  0
LINE
  5
B7
  8
0
  6
CONTINUOUS
 62
     7
 10
1808.634126799258
 20
2018.27683187571
 30
0.0
 11
1808.634126799258
 21
2018.762895973526
 31
0.0
  0
LINE
  5
B8
  8
0
  6
CONTINUOUS
 62
     7
 10
1808.634126799258
 20
2018.762895973526
 30
0.0
 11
1808.634126799258
 21
2018.77683187571
 31
0.0
  0
LINE
  5
B9
  8
0
  6
CONTINUOUS
 62
     7
 10
1807.634126799258
 20
2018.47683187571
 30
0.0
 11
1807.634126799258
 21
2018.565683153963
 31
0.0
  0
ARC
  5
BA
  8
0
  6
CONTINUOUS
 62
     7
 10
1807.832742919508
 20
2018.56427971604
 30
0.0
 40
0.1986210785921796
 50
89.60079206519585
 51
179.5951500236657
  0
LINE
  5
BB
  8
0
  6
CONTINUOUS
 62
     7
 10
1807.834126799258
 20
2018.762895973526
 30
0.0
 11
1807.834126799258
 21
2018.27683187571
 31
0.0
  0
POLYLINE
  5
BC
  8
0
  6
CONTINUOUS
 62
     7
 66
     1
 10
0.0
 20
0.0
 30
0.0
  0
VERTEX
  5
513
  8
0
  6
CONTINUOUS
 62
     7
 10
1807.634126799258
 20
2018.47683187571
 30
0.0
  0
VERTEX
  5
514
  8
0
  6
CONTINUOUS
 62
     7
 10
1807.63414423602
 20
2018.474073943533
 30
0.0
  0
VERTEX
  5
515
  8
0
  6
CONTINUOUS
 62
     7
 10
1807.634200033784
 20
2018.471247503785
 30
0.0
  0
VERTEX
  5
516
  8
0
  6
CONTINUOUS
 62
     7
 10
1807.634298635374
 20
2018.468351716622
 30
0.0
  0
VERTEX
  5
517
  8
0
  6
CONTINUOUS
 62
     7
 10
1807.634443071584
 20
2018.465388559239
 30
0.0
  0
VERTEX
  5
518
  8
0
  6
CONTINUOUS
 62
     7
 10
1807.634636373206
 20
2018.46236000883
 30
0.0
  0
VERTEX
  5
519
  8
0
  6
CONTINUOUS
 62
     7
 10
1807.634881571036
 20
2018.45926804259
 30
0.0
  0
VERTEX
  5
51A
  8
0
  6
CONTINUOUS
 62
     7
 10
1807.635181695868
 20
2018.456114637716
 30
0.0
  0
VERTEX
  5
51B
  8
0
  6
CONTINUOUS
 62
     7
 10
1807.635539778493
 20
2018.4529017714
 30
0.0
  0
VERTEX
  5
51C
  8
0
  6
CONTINUOUS
 62
     7
 10
1807.635958849708
 20
2018.44963142084
 30
0.0
  0
VERTEX
  5
51D
  8
0
  6
CONTINUOUS
 62
     7
 10
1807.636441940306
 20
2018.446305563228
 30
0.0
  0
VERTEX
  5
51E
  8
0
  6
CONTINUOUS
 62
     7
 10
1807.636992081079
 20
2018.442926175761
 30
0.0
  0
VERTEX
  5
51F
  8
0
  6
CONTINUOUS
 62
     7
 10
1807.637612302823
 20
2018.439495235634
 30
0.0
  0
VERTEX
  5
520
  8
0
  6
CONTINUOUS
 62
     7
 10
1807.638305636331
 20
2018.43601472004
 30
0.0
  0
VERTEX
  5
521
  8
0
  6
CONTINUOUS
 62
     7
 10
1807.639075112397
 20
2018.432486606176
 30
0.0
  0
VERTEX
  5
522
  8
0
  6
CONTINUOUS
 62
     7
 10
1807.639923761814
 20
2018.428912871235
 30
0.0
  0
VERTEX
  5
523
  8
0
  6
CONTINUOUS
 62
     7
 10
1807.640854615376
 20
2018.425295492413
 30
0.0
  0
VERTEX
  5
524
  8
0
  6
CONTINUOUS
 62
     7
 10
1807.641870703878
 20
2018.421636446906
 30
0.0
  0
VERTEX
  5
525
  8
0
  6
CONTINUOUS
 62
     7
 10
1807.642975058113
 20
2018.417937711907
 30
0.0
  0
VERTEX
  5
526
  8
0
  6
CONTINUOUS
 62
     7
 10
1807.644170708875
 20
2018.414201264612
 30
0.0
  0
VERTEX
  5
527
  8
0
  6
CONTINUOUS
 62
     7
 10
1807.645460686957
 20
2018.410429082216
 30
0.0
  0
VERTEX
  5
528
  8
0
  6
CONTINUOUS
 62
     7
 10
1807.646848023154
 20
2018.406623141914
 30
0.0
  0
VERTEX
  5
529
  8
0
  6
CONTINUOUS
 62
     7
 10
1807.64833574826
 20
2018.4027854209
 30
0.0
  0
VERTEX
  5
52A
  8
0
  6
CONTINUOUS
 62
     7
 10
1807.649926893067
 20
2018.39891789637
 30
0.0
  0
VERTEX
  5
52B
  8
0
  6
CONTINUOUS
 62
     7
 10
1807.65162448837
 20
2018.395022545518
 30
0.0
  0
VERTEX
  5
52C
  8
0
  6
CONTINUOUS
 62
     7
 10
1807.653431577519
 20
2018.391101423363
 30
0.0
  0
VERTEX
  5
52D
  8
0
  6
CONTINUOUS
 62
     7
 10
1807.655351426427
 20
2018.387157964324
 30
0.0
  0
VERTEX
  5
52E
  8
0
  6
CONTINUOUS
 62
     7
 10
1807.657387492008
 20
2018.383196786617
 30
0.0
  0
VERTEX
  5
52F
  8
0
  6
CONTINUOUS
 62
     7
 10
1807.659543237374
 20
2018.379222546871
 30
0.0
  0
VERTEX
  5
530
  8
0
  6
CONTINUOUS
 62
     7
 10
1807.661822125638
 20
2018.375239901718
 30
0.0
  0
VERTEX
  5
531
  8
0
  6
CONTINUOUS
 62
     7
 10
1807.664227619911
 20
2018.371253507787
 30
0.0
  0
VERTEX
  5
532
  8
0
  6
CONTINUOUS
 62
     7
 10
1807.666763183306
 20
2018.367268021709
 30
0.0
  0
VERTEX
  5
533
  8
0
  6
CONTINUOUS
 62
     7
 10
1807.669432278936
 20
2018.363288100114
 30
0.0
  0
VERTEX
  5
534
  8
0
  6
CONTINUOUS
 62
     7
 10
1807.672238369913
 20
2018.359318399631
 30
0.0
  0
VERTEX
  5
535
  8
0
  6
CONTINUOUS
 62
     7
 10
1807.675184919348
 20
2018.355363576892
 30
0.0
  0
VERTEX
  5
536
  8
0
  6
CONTINUOUS
 62
     7
 10
1807.678275390354
 20
2018.351428288526
 30
0.0
  0
VERTEX
  5
537
  8
0
  6
CONTINUOUS
 62
     7
 10
1807.681513246044
 20
2018.347517191164
 30
0.0
  0
VERTEX
  5
538
  8
0
  6
CONTINUOUS
 62
     7
 10
1807.684901949531
 20
2018.343634941435
 30
0.0
  0
VERTEX
  5
539
  8
0
  6
CONTINUOUS
 62
     7
 10
1807.688444963924
 20
2018.339786195971
 30
0.0
  0
VERTEX
  5
53A
  8
0
  6
CONTINUOUS
 62
     7
 10
1807.692145750731
 20
2018.335975612714
 30
0.0
  0
VERTEX
  5
53B
  8
0
  6
CONTINUOUS
 62
     7
 10
1807.696007076603
 20
2018.332208416894
 30
0.0
  0
VERTEX
  5
53C
  8
0
  6
CONTINUOUS
 62
     7
 10
1807.700029931463
 20
2018.328491284283
 30
0.0
  0
VERTEX
  5
53D
  8
0
  6
CONTINUOUS
 62
     7
 10
1807.704215025311
 20
2018.324831119193
 30
0.0
  0
VERTEX
  5
53E
  8
0
  6
CONTINUOUS
 62
     7
 10
1807.708563068144
 20
2018.321234825931
 30
0.0
  0
VERTEX
  5
53F
  8
0
  6
CONTINUOUS
 62
     7
 10
1807.713074769961
 20
2018.317709308808
 30
0.0
  0
VERTEX
  5
540
  8
0
  6
CONTINUOUS
 62
     7
 10
1807.717750840758
 20
2018.314261472134
 30
0.0
  0
VERTEX
  5
541
  8
0
  6
CONTINUOUS
 62
     7
 10
1807.722591990534
 20
2018.310898220218
 30
0.0
  0
VERTEX
  5
542
  8
0
  6
CONTINUOUS
 62
     7
 10
1807.727598929286
 20
2018.30762645737
 30
0.0
  0
VERTEX
  5
543
  8
0
  6
CONTINUOUS
 62
     7
 10
1807.732772367012
 20
2018.304453087899
 30
0.0
  0
VERTEX
  5
544
  8
0
  6
CONTINUOUS
 62
     7
 10
1807.738113013705
 20
2018.301385016125
 30
0.0
  0
VERTEX
  5
545
  8
0
  6
CONTINUOUS
 62
     7
 10
1807.743620355854
 20
2018.298431697966
 30
0.0
  0
VERTEX
  5
546
  8
0
  6
CONTINUOUS
 62
     7
 10
1807.74928921351
 20
2018.295612321108
 30
0.0
  0
VERTEX
  5
547
  8
0
  6
CONTINUOUS
 62
     7
 10
1807.755113294395
 20
2018.292948392989
 30
0.0
  0
VERTEX
  5
548
  8
0
  6
CONTINUOUS
 62
     7
 10
1807.761086306228
 20
2018.290461421049
 30
0.0
  0
VERTEX
  5
549
  8
0
  6
CONTINUOUS
 62
     7
 10
1807.767201956727
 20
2018.288172912725
 30
0.0
  0
VERTEX
  5
54A
  8
0
  6
CONTINUOUS
 62
     7
 10
1807.773453953613
 20
2018.286104375457
 30
0.0
  0
VERTEX
  5
54B
  8
0
  6
CONTINUOUS
 62
     7
 10
1807.779836004606
 20
2018.284277316684
 30
0.0
  0
VERTEX
  5
54C
  8
0
  6
CONTINUOUS
 62
     7
 10
1807.786341585338
 20
2018.282711868703
 30
0.0
  0
VERTEX
  5
54D
  8
0
  6
CONTINUOUS
 62
     7
 10
1807.792959358409
 20
2018.281399645876
 30
0.0
  0
VERTEX
  5
54E
  8
0
  6
CONTINUOUS
 62
     7
 10
1807.799673448123
 20
2018.280305372507
 30
0.0
  0
VERTEX
  5
54F
  8
0
  6
CONTINUOUS
 62
     7
 10
1807.806467801707
 20
2018.279392723689
 30
0.0
  0
VERTEX
  5
550
  8
0
  6
CONTINUOUS
 62
     7
 10
1807.813326366386
 20
2018.27862537451
 30
0.0
  0
VERTEX
  5
551
  8
0
  6
CONTINUOUS
 62
     7
 10
1807.820233089387
 20
2018.27796700006
 30
0.0
  0
VERTEX
  5
552
  8
0
  6
CONTINUOUS
 62
     7
 10
1807.827171917935
 20
2018.27738127543
 30
0.0
  0
VERTEX
  5
553
  8
0
  6
CONTINUOUS
 62
     7
 10
1807.834126799258
 20
2018.27683187571
 30
0.0
  0
SEQEND
  5
723
  8
0
  6
CONTINUOUS
 62
     7
  0
LINE
  5
BD
  8
0
  6
CONTINUOUS
 62
     7
 10
1808.634126799258
 20
2018.762895973526
 30
0.0
 11
1807.834126799258
 21
2018.762895973526
 31
0.0
  0
LINE
  5
BE
  8
0
  6
CONTINUOUS
 62
     7
 10
1807.634126799258
 20
2018.565683153963
 30
0.0
 11
1807.634126799258
 21
2018.57683187571
 31
0.0
  0
LINE
  5
BF
  8
0
  6
CONTINUOUS
 62
     7
 10
1807.634126799258
 20
2018.27683187571
 30
0.0
 11
1807.634126799258
 21
2018.47683187571
 31
0.0
  0
LINE
  5
C0
  8
0
  6
CONTINUOUS
 62
     7
 10
2555.884126799258
 20
2018.47683187571
 30
0.0
 11
2555.884126799258
 21
2018.565683153963
 31
0.0
  0
ARC
  5
C1
  8
0
  6
CONTINUOUS
 62
     7
 10
2556.08274291951
 20
2018.564279716039
 30
0.0
 40
0.1986210785935471
 50
89.60079206572239
 51
179.5951500235373
  0
LINE
  5
C2
  8
0
  6
CONTINUOUS
 62
     7
 10
2556.084126799258
 20
2018.762895973526
 30
0.0
 11
2556.084126799258
 21
2018.27683187571
 31
0.0
  0
POLYLINE
  5
C3
  8
0
  6
CONTINUOUS
 62
     7
 66
     1
 10
0.0
 20
0.0
 30
0.0
  0
VERTEX
  5
554
  8
0
  6
CONTINUOUS
 62
     7
 10
2555.884126799258
 20
2018.47683187571
 30
0.0
  0
VERTEX
  5
555
  8
0
  6
CONTINUOUS
 62
     7
 10
2555.884144236021
 20
2018.474073943533
 30
0.0
  0
VERTEX
  5
556
  8
0
  6
CONTINUOUS
 62
     7
 10
2555.884200033785
 20
2018.471247503785
 30
0.0
  0
VERTEX
  5
557
  8
0
  6
CONTINUOUS
 62
     7
 10
2555.884298635375
 20
2018.468351716622
 30
0.0
  0
VERTEX
  5
558
  8
0
  6
CONTINUOUS
 62
     7
 10
2555.884443071584
 20
2018.465388559238
 30
0.0
  0
VERTEX
  5
559
  8
0
  6
CONTINUOUS
 62
     7
 10
2555.884636373207
 20
2018.462360008829
 30
0.0
  0
VERTEX
  5
55A
  8
0
  6
CONTINUOUS
 62
     7
 10
2555.884881571037
 20
2018.45926804259
 30
0.0
  0
VERTEX
  5
55B
  8
0
  6
CONTINUOUS
 62
     7
 10
2555.885181695869
 20
2018.456114637716
 30
0.0
  0
VERTEX
  5
55C
  8
0
  6
CONTINUOUS
 62
     7
 10
2555.885539778494
 20
2018.4529017714
 30
0.0
  0
VERTEX
  5
55D
  8
0
  6
CONTINUOUS
 62
     7
 10
2555.885958849708
 20
2018.449631420839
 30
0.0
  0
VERTEX
  5
55E
  8
0
  6
CONTINUOUS
 62
     7
 10
2555.886441940306
 20
2018.446305563228
 30
0.0
  0
VERTEX
  5
55F
  8
0
  6
CONTINUOUS
 62
     7
 10
2555.88699208108
 20
2018.442926175761
 30
0.0
  0
VERTEX
  5
560
  8
0
  6
CONTINUOUS
 62
     7
 10
2555.887612302824
 20
2018.439495235633
 30
0.0
  0
VERTEX
  5
561
  8
0
  6
CONTINUOUS
 62
     7
 10
2555.888305636332
 20
2018.43601472004
 30
0.0
  0
VERTEX
  5
562
  8
0
  6
CONTINUOUS
 62
     7
 10
2555.889075112398
 20
2018.432486606175
 30
0.0
  0
VERTEX
  5
563
  8
0
  6
CONTINUOUS
 62
     7
 10
2555.889923761814
 20
2018.428912871235
 30
0.0
  0
VERTEX
  5
564
  8
0
  6
CONTINUOUS
 62
     7
 10
2555.890854615377
 20
2018.425295492413
 30
0.0
  0
VERTEX
  5
565
  8
0
  6
CONTINUOUS
 62
     7
 10
2555.891870703879
 20
2018.421636446906
 30
0.0
  0
VERTEX
  5
566
  8
0
  6
CONTINUOUS
 62
     7
 10
2555.892975058114
 20
2018.417937711907
 30
0.0
  0
VERTEX
  5
567
  8
0
  6
CONTINUOUS
 62
     7
 10
2555.894170708875
 20
2018.414201264612
 30
0.0
  0
VERTEX
  5
568
  8
0
  6
CONTINUOUS
 62
     7
 10
2555.895460686957
 20
2018.410429082216
 30
0.0
  0
VERTEX
  5
569
  8
0
  6
CONTINUOUS
 62
     7
 10
2555.896848023154
 20
2018.406623141914
 30
0.0
  0
VERTEX
  5
56A
  8
0
  6
CONTINUOUS
 62
     7
 10
2555.89833574826
 20
2018.4027854209
 30
0.0
  0
VERTEX
  5
56B
  8
0
  6
CONTINUOUS
 62
     7
 10
2555.899926893067
 20
2018.39891789637
 30
0.0
  0
VERTEX
  5
56C
  8
0
  6
CONTINUOUS
 62
     7
 10
2555.901624488371
 20
2018.395022545518
 30
0.0
  0
VERTEX
  5
56D
  8
0
  6
CONTINUOUS
 62
     7
 10
2555.903431577519
 20
2018.391101423362
 30
0.0
  0
VERTEX
  5
56E
  8
0
  6
CONTINUOUS
 62
     7
 10
2555.905351426427
 20
2018.387157964323
 30
0.0
  0
VERTEX
  5
56F
  8
0
  6
CONTINUOUS
 62
     7
 10
2555.907387492009
 20
2018.383196786617
 30
0.0
  0
VERTEX
  5
570
  8
0
  6
CONTINUOUS
 62
     7
 10
2555.909543237375
 20
2018.379222546871
 30
0.0
  0
VERTEX
  5
571
  8
0
  6
CONTINUOUS
 62
     7
 10
2555.911822125638
 20
2018.375239901718
 30
0.0
  0
VERTEX
  5
572
  8
0
  6
CONTINUOUS
 62
     7
 10
2555.914227619911
 20
2018.371253507787
 30
0.0
  0
VERTEX
  5
573
  8
0
  6
CONTINUOUS
 62
     7
 10
2555.916763183306
 20
2018.367268021708
 30
0.0
  0
VERTEX
  5
574
  8
0
  6
CONTINUOUS
 62
     7
 10
2555.919432278936
 20
2018.363288100113
 30
0.0
  0
VERTEX
  5
575
  8
0
  6
CONTINUOUS
 62
     7
 10
2555.922238369913
 20
2018.359318399631
 30
0.0
  0
VERTEX
  5
576
  8
0
  6
CONTINUOUS
 62
     7
 10
2555.925184919349
 20
2018.355363576891
 30
0.0
  0
VERTEX
  5
577
  8
0
  6
CONTINUOUS
 62
     7
 10
2555.928275390355
 20
2018.351428288526
 30
0.0
  0
VERTEX
  5
578
  8
0
  6
CONTINUOUS
 62
     7
 10
2555.931513246045
 20
2018.347517191163
 30
0.0
  0
VERTEX
  5
579
  8
0
  6
CONTINUOUS
 62
     7
 10
2555.934901949531
 20
2018.343634941435
 30
0.0
  0
VERTEX
  5
57A
  8
0
  6
CONTINUOUS
 62
     7
 10
2555.938444963925
 20
2018.339786195971
 30
0.0
  0
VERTEX
  5
57B
  8
0
  6
CONTINUOUS
 62
     7
 10
2555.942145750731
 20
2018.335975612713
 30
0.0
  0
VERTEX
  5
57C
  8
0
  6
CONTINUOUS
 62
     7
 10
2555.946007076603
 20
2018.332208416894
 30
0.0
  0
VERTEX
  5
57D
  8
0
  6
CONTINUOUS
 62
     7
 10
2555.950029931464
 20
2018.328491284283
 30
0.0
  0
VERTEX
  5
57E
  8
0
  6
CONTINUOUS
 62
     7
 10
2555.954215025312
 20
2018.324831119192
 30
0.0
  0
VERTEX
  5
57F
  8
0
  6
CONTINUOUS
 62
     7
 10
2555.958563068145
 20
2018.321234825931
 30
0.0
  0
VERTEX
  5
580
  8
0
  6
CONTINUOUS
 62
     7
 10
2555.963074769961
 20
2018.317709308808
 30
0.0
  0
VERTEX
  5
581
  8
0
  6
CONTINUOUS
 62
     7
 10
2555.967750840758
 20
2018.314261472134
 30
0.0
  0
VERTEX
  5
582
  8
0
  6
CONTINUOUS
 62
     7
 10
2555.972591990534
 20
2018.310898220218
 30
0.0
  0
VERTEX
  5
583
  8
0
  6
CONTINUOUS
 62
     7
 10
2555.977598929286
 20
2018.30762645737
 30
0.0
  0
VERTEX
  5
584
  8
0
  6
CONTINUOUS
 62
     7
 10
2555.982772367012
 20
2018.304453087899
 30
0.0
  0
VERTEX
  5
585
  8
0
  6
CONTINUOUS
 62
     7
 10
2555.988113013706
 20
2018.301385016125
 30
0.0
  0
VERTEX
  5
586
  8
0
  6
CONTINUOUS
 62
     7
 10
2555.993620355854
 20
2018.298431697966
 30
0.0
  0
VERTEX
  5
587
  8
0
  6
CONTINUOUS
 62
     7
 10
2555.999289213511
 20
2018.295612321107
 30
0.0
  0
VERTEX
  5
588
  8
0
  6
CONTINUOUS
 62
     7
 10
2556.005113294395
 20
2018.292948392989
 30
0.0
  0
VERTEX
  5
589
  8
0
  6
CONTINUOUS
 62
     7
 10
2556.011086306228
 20
2018.290461421048
 30
0.0
  0
VERTEX
  5
58A
  8
0
  6
CONTINUOUS
 62
     7
 10
2556.017201956728
 20
2018.288172912725
 30
0.0
  0
VERTEX
  5
58B
  8
0
  6
CONTINUOUS
 62
     7
 10
2556.023453953614
 20
2018.286104375457
 30
0.0
  0
VERTEX
  5
58C
  8
0
  6
CONTINUOUS
 62
     7
 10
2556.029836004606
 20
2018.284277316684
 30
0.0
  0
VERTEX
  5
58D
  8
0
  6
CONTINUOUS
 62
     7
 10
2556.036341585339
 20
2018.282711868703
 30
0.0
  0
VERTEX
  5
58E
  8
0
  6
CONTINUOUS
 62
     7
 10
2556.042959358409
 20
2018.281399645875
 30
0.0
  0
VERTEX
  5
58F
  8
0
  6
CONTINUOUS
 62
     7
 10
2556.049673448123
 20
2018.280305372507
 30
0.0
  0
VERTEX
  5
590
  8
0
  6
CONTINUOUS
 62
     7
 10
2556.056467801708
 20
2018.279392723689
 30
0.0
  0
VERTEX
  5
591
  8
0
  6
CONTINUOUS
 62
     7
 10
2556.063326366386
 20
2018.278625374509
 30
0.0
  0
VERTEX
  5
592
  8
0
  6
CONTINUOUS
 62
     7
 10
2556.070233089387
 20
2018.27796700006
 30
0.0
  0
VERTEX
  5
593
  8
0
  6
CONTINUOUS
 62
     7
 10
2556.077171917936
 20
2018.27738127543
 30
0.0
  0
VERTEX
  5
594
  8
0
  6
CONTINUOUS
 62
     7
 10
2556.084126799258
 20
2018.27683187571
 30
0.0
  0
SEQEND
  5
724
  8
0
  6
CONTINUOUS
 62
     7
  0
LINE
  5
C4
  8
0
  6
CONTINUOUS
 62
     7
 10
2556.884126799258
 20
2018.762895973526
 30
0.0
 11
2556.084126799258
 21
2018.762895973526
 31
0.0
  0
LINE
  5
C5
  8
0
  6
CONTINUOUS
 62
     7
 10
2556.134126799257
 20
2018.27683187571
 30
0.0
 11
2556.084126799258
 21
2018.27683187571
 31
0.0
  0
LINE
  5
C6
  8
0
  6
CONTINUOUS
 62
     7
 10
2555.884126799258
 20
2018.565683153963
 30
0.0
 11
2555.884126799258
 21
2018.57683187571
 31
0.0
  0
LINE
  5
C7
  8
0
  6
CONTINUOUS
 62
     7
 10
2556.134126799257
 20
2005.27683187571
 30
0.0
 11
2556.084126799258
 21
2005.27683187571
 31
0.0
  0
LINE
  5
C8
  8
0
  6
CONTINUOUS
 62
     7
 10
2556.084126799258
 20
2018.27683187571
 30
0.0
 11
2556.084126799258
 21
2005.27683187571
 31
0.0
  0
ARC
  5
C9
  8
0
  6
CONTINUOUS
 62
     7
 10
2556.084126799258
 20
2005.47683187571
 30
0.0
 40
0.2000000000000455
 50
180.0
 51
270.0000000000008
  0
LINE
  5
CA
  8
0
  6
CONTINUOUS
 62
     7
 10
2555.884126799258
 20
2005.47683187571
 30
0.0
 11
2555.884126799258
 21
2018.47683187571
 31
0.0
  0
LINE
  5
CB
  8
0
  6
CONTINUOUS
 62
     7
 10
2556.084126799258
 20
2005.27683187571
 30
0.0
 11
2556.084126799258
 21
1985.27683187571
 31
0.0
  0
ARC
  5
CC
  8
0
  6
CONTINUOUS
 62
     7
 10
2556.084126799258
 20
1985.47683187571
 30
0.0
 40
0.2000000000000455
 50
180.0
 51
270.0000000000008
  0
LINE
  5
CD
  8
0
  6
CONTINUOUS
 62
     7
 10
2555.884126799258
 20
1985.47683187571
 30
0.0
 11
2555.884126799258
 21
2005.47683187571
 31
0.0
  0
LINE
  5
CE
  8
0
  6
CONTINUOUS
 62
     7
 10
2556.134126799257
 20
1985.27683187571
 30
0.0
 11
2556.084126799258
 21
1985.27683187571
 31
0.0
  0
LINE
  5
CF
  8
0
  6
CONTINUOUS
 62
     7
 10
2553.634126799258
 20
1658.77683187571
 30
0.0
 11
2556.134126799256
 21
1658.77683187571
 31
0.0
  0
LINE
  5
D0
  8
0
  6
CONTINUOUS
 62
     7
 10
1807.634126799258
 20
2018.27683187571
 30
0.0
 11
1807.634126799258
 21
1642.27683187571
 31
0.0
  0
LINE
  5
D1
  8
0
  6
CONTINUOUS
 62
     7
 10
2553.634126799258
 20
1642.27683187571
 30
0.0
 11
2553.634126799258
 21
2018.27683187571
 31
0.0
  0
LINE
  5
D2
  8
0
  6
CONTINUOUS
 62
     7
 10
1807.634126799258
 20
1642.27683187571
 30
0.0
 11
2553.634126799258
 21
1642.27683187571
 31
0.0
  0
LINE
  5
D3
  8
0
  6
CONTINUOUS
 62
     7
 10
2553.634126799258
 20
2018.27683187571
 30
0.0
 11
1807.634126799258
 21
2018.27683187571
 31
0.0
  0
LINE
  5
D4
  8
0
  6
CONTINUOUS
 62
     7
 10
3288.634126799258
 20
1641.27683187571
 30
0.0
 11
1821.134126799258
 21
1641.27683187571
 31
0.0
  0
LINE
  5
D5
  8
0
  6
CONTINUOUS
 62
     7
 10
3307.384126799258
 20
2001.77683187571
 30
0.0
 11
3302.384126799259
 21
2001.77683187571
 31
0.0
  0
LINE
  5
D6
  8
0
  6
CONTINUOUS
 62
     7
 10
2555.884126799258
 20
2001.77683187571
 30
0.0
 11
2554.134126799259
 21
2001.77683187571
 31
0.0
  0
LINE
  5
D7
  8
0
  6
CONTINUOUS
 62
     7
 10
1807.634126799258
 20
2001.77683187571
 30
0.0
 11
1802.384126799258
 21
2001.77683187571
 31
0.0
  0
LINE
  5
D8
  8
0
  6
CONTINUOUS
 62
     7
 10
3307.384126799258
 20
2040.27683187571
 30
0.0
 11
3307.384126799258
 21
2001.77683187571
 31
0.0
  0
LINE
  5
D9
  8
0
  6
CONTINUOUS
 62
     7
 10
3307.384126799258
 20
2040.27683187571
 30
0.0
 11
1802.384126799258
 21
2040.27683187571
 31
0.0
  0
LINE
  5
DA
  8
0
  6
CONTINUOUS
 62
     7
 10
1802.384126799258
 20
2040.27683187571
 30
0.0
 11
1802.384126799258
 21
2001.77683187571
 31
0.0
  0
LINE
  5
DC
  8
0
  6
CONTINUOUS
 62
     7
 10
3306.134126799258
 20
1640.27683187571
 30
0.0
 11
3306.134126799258
 21
2001.77683187571
 31
0.0
  0
LINE
  5
DD
  8
0
  6
CONTINUOUS
 62
     7
 10
3288.634126799258
 20
1640.27683187571
 30
0.0
 11
3306.134126799258
 21
1640.27683187571
 31
0.0
  0
LINE
  5
DE
  8
0
  6
CONTINUOUS
 62
     7
 10
3288.634126799258
 20
1642.27683187571
 30
0.0
 11
3288.634126799258
 21
1640.27683187571
 31
0.0
  0
LINE
  5
DF
  8
0
  6
CONTINUOUS
 62
     7
 10
1803.634126799258
 20
1640.27683187571
 30
0.0
 11
1821.134126799258
 21
1640.27683187571
 31
0.0
  0
LINE
  5
E0
  8
0
  6
CONTINUOUS
 62
     7
 10
1803.634126799258
 20
2001.77683187571
 30
0.0
 11
1803.634126799258
 21
1640.27683187571
 31
0.0
  0
LINE
  5
E1
  8
0
  6
CONTINUOUS
 62
     7
 10
1821.134126799258
 20
1640.27683187571
 30
0.0
 11
1821.134126799258
 21
1642.27683187571
 31
0.0
  0
LINE
  5
E2
  8
0
  6
CONTINUOUS
 62
     8
 10
2553.934126799259
 20
2018.762895973527
 30
0.0
 11
2553.934126799259
 21
2018.776831875711
 31
0.0
  0
LINE
  5
E3
  8
0
  6
CONTINUOUS
 62
     8
 10
3302.18412679926
 20
2018.762895973526
 30
0.0
 11
3302.18412679926
 21
2018.77683187571
 31
0.0
  0
LINE
  5
E4
  8
0
  6
CONTINUOUS
 62
     8
 10
1807.834126799258
 20
2018.77683187571
 30
0.0
 11
1807.834126799258
 21
2018.762895973526
 31
0.0
  0
LINE
  5
E5
  8
0
  6
CONTINUOUS
 62
     8
 10
2556.084126799258
 20
2018.77683187571
 30
0.0
 11
2556.084126799258
 21
2018.762895973526
 31
0.0
  0
LINE
  5
E6
  8
0
  6
CONTINUOUS
 62
     7
 10
941.1983621755569
 20
1985.47683187571
 30
0.0
 11
941.1983621755569
 21
2001.77683187571
 31
0.0
  0
LINE
  5
E7
  8
0
  6
CONTINUOUS
 62
     7
 10
941.1983621755569
 20
1985.47683187571
 30
0.0
 11
941.3983621755568
 21
1985.47683187571
 31
0.0
  0
ARC
  5
E8
  8
0
  6
CONTINUOUS
 62
     7
 10
942.1983621755569
 20
2006.27683187571
 30
0.0
 40
1.000000000000002
 50
90.0
 51
134.4270040008092
  0
LINE
  5
E9
  8
0
  6
CONTINUOUS
 62
     7
 10
942.1983621755569
 20
2007.07683187571
 30
0.0
 11
942.1983621755569
 21
2007.27683187571
 31
0.0
  0
LINE
  5
EA
  8
0
  6
CONTINUOUS
 62
     7
 10
952.5815484055763
 20
2007.07683187571
 30
0.0
 11
942.1983621755569
 21
2007.07683187571
 31
0.0
  0
LINE
  5
EB
  8
0
  6
CONTINUOUS
 62
     7
 10
942.1983621755569
 20
2007.27683187571
 30
0.0
 11
952.5815484055763
 21
2007.27683187571
 31
0.0
  0
LINE
  5
EC
  8
0
  6
CONTINUOUS
 62
     7
 10
952.5815484055763
 20
2007.07683187571
 30
0.0
 11
952.5815484055763
 21
2007.27683187571
 31
0.0
  0
LINE
  5
ED
  8
0
  6
CONTINUOUS
 62
     7
 10
942.9983621755567
 20
2005.27683187571
 30
0.0
 11
942.7983621755568
 21
2005.47683187571
 31
0.0
  0
LINE
  5
EE
  8
0
  6
CONTINUOUS
 62
     7
 10
942.7983621755568
 20
2005.47683187571
 30
0.0
 11
955.2983621755568
 21
2005.47683187571
 31
0.0
  0
LINE
  5
EF
  8
0
  6
CONTINUOUS
 62
     7
 10
955.4983621755568
 20
2005.27683187571
 30
0.0
 11
955.2983621755568
 21
2005.47683187571
 31
0.0
  0
LINE
  5
F0
  8
0
  6
CONTINUOUS
 62
     7
 10
942.9983621755567
 20
1985.27683187571
 30
0.0
 11
942.7983621755568
 21
1985.47683187571
 31
0.0
  0
LINE
  5
F1
  8
0
  6
CONTINUOUS
 62
     7
 10
942.7983621755568
 20
1985.47683187571
 30
0.0
 11
942.7983621755568
 21
2005.47683187571
 31
0.0
  0
LINE
  5
F2
  8
0
  6
CONTINUOUS
 62
     7
 10
941.3983621755568
 20
1985.27683187571
 30
0.0
 11
941.3983621755568
 21
1985.47683187571
 31
0.0
  0
ARC
  5
F3
  8
0
  6
CONTINUOUS
 62
     7
 10
941.3983621755568
 20
1985.47683187571
 30
0.0
 40
0.2000000000000455
 50
180.0
 51
270.0000000000008
  0
LINE
  5
F4
  8
0
  6
CONTINUOUS
 62
     7
 10
942.9983621755567
 20
1985.27683187571
 30
0.0
 11
941.3983621755568
 21
1985.27683187571
 31
0.0
  0
LINE
  5
F5
  8
0
  6
CONTINUOUS
 62
     7
 10
941.3983621755568
 20
1985.47683187571
 30
0.0
 11
942.7983621755568
 21
1985.47683187571
 31
0.0
  0
ARC
  5
F6
  8
0
  6
CONTINUOUS
 62
     7
 10
952.5815484055763
 20
2008.27683187571
 30
0.0
 40
1.199999999999941
 50
270.0000000000008
 51
355.0300534053223
  0
LINE
  5
F7
  8
0
  6
CONTINUOUS
 62
     7
 10
954.6182253565204
 20
2017.846138432435
 30
0.0
 11
953.777036737886
 21
2008.172872040623
 31
0.0
  0
ARC
  5
F8
  8
0
  6
CONTINUOUS
 62
     7
 10
955.4152175780603
 20
2017.77683187571
 30
0.0
 40
0.800000000000373
 50
80.42341151894908
 51
175.0300534053222
  0
ARC
  5
F9
  8
0
  6
CONTINUOUS
 62
     7
 10
955.4984005014851
 20
2018.269863924618
 30
0.0
 40
0.3000000000002915
 50
43.62165296730249
 51
80.42341151897323
  0
LINE
  5
FA
  8
0
  6
CONTINUOUS
 62
     7
 10
955.2983621755568
 20
2018.47683187571
 30
0.0
 11
955.715573859015
 21
2018.47683187571
 31
0.0
  0
LINE
  5
FB
  8
0
  6
CONTINUOUS
 62
     7
 10
955.2983621755568
 20
2005.47683187571
 30
0.0
 11
955.2983621755568
 21
2018.47683187571
 31
0.0
  0
LINE
  5
FC
  8
0
  6
CONTINUOUS
 62
     7
 10
953.777036737886
 20
2008.172872040623
 30
0.0
 11
953.577788682501
 21
2008.190198679804
 31
0.0
  0
LINE
  5
FD
  8
0
  6
CONTINUOUS
 62
     7
 10
953.577788682501
 20
2008.190198679804
 30
0.0
 11
954.4189773011354
 21
2017.863465071616
 31
0.0
  0
LINE
  5
FE
  8
0
  6
CONTINUOUS
 62
     7
 10
954.6182253565204
 20
2017.846138432435
 30
0.0
 11
954.4189773011354
 21
2017.863465071616
 31
0.0
  0
ARC
  5
FF
  8
0
  6
CONTINUOUS
 62
     7
 10
952.5815484055763
 20
2008.27683187571
 30
0.0
 40
1.0
 50
270.0000000000008
 51
355.0300534053223
  0
ARC
  5
100
  8
0
  6
CONTINUOUS
 62
     7
 10
955.4152175780603
 20
2017.77683187571
 30
0.0
 40
1.000000000000064
 50
80.42341151894527
 51
175.0300534053221
  0
LINE
  5
101
  8
0
  6
CONTINUOUS
 62
     7
 10
955.5483102555398
 20
2018.565683153963
 30
0.0
 11
955.5815834249097
 21
2018.762895973526
 31
0.0
  0
LINE
  5
102
  8
0
  6
CONTINUOUS
 62
     7
 10
955.4983621755568
 20
2018.27683187571
 30
0.0
 11
955.2983621755568
 21
2018.47683187571
 31
0.0
  0
POLYLINE
  5
103
  8
0
  6
CONTINUOUS
 62
     7
 66
     1
 10
0.0
 20
0.0
 30
0.0
  0
VERTEX
  5
595
  8
0
  6
CONTINUOUS
 62
     7
 10
955.715573859015
 20
2018.47683187571
 30
0.0
  0
VERTEX
  5
596
  8
0
  6
CONTINUOUS
 62
     7
 10
955.7219253189289
 20
2018.474073943533
 30
0.0
  0
VERTEX
  5
597
  8
0
  6
CONTINUOUS
 62
     7
 10
955.7282533802543
 20
2018.471247503785
 30
0.0
  0
VERTEX
  5
598
  8
0
  6
CONTINUOUS
 62
     7
 10
955.734556058823
 20
2018.468351716622
 30
0.0
  0
VERTEX
  5
599
  8
0
  6
CONTINUOUS
 62
     7
 10
955.7408322619576
 20
2018.465388559238
 30
0.0
  0
VERTEX
  5
59A
  8
0
  6
CONTINUOUS
 62
     7
 10
955.7470808969827
 20
2018.46236000883
 30
0.0
  0
VERTEX
  5
59B
  8
0
  6
CONTINUOUS
 62
     7
 10
955.7533008712206
 20
2018.45926804259
 30
0.0
  0
VERTEX
  5
59C
  8
0
  6
CONTINUOUS
 62
     7
 10
955.7594910919958
 20
2018.456114637715
 30
0.0
  0
VERTEX
  5
59D
  8
0
  6
CONTINUOUS
 62
     7
 10
955.7656504666315
 20
2018.4529017714
 30
0.0
  0
VERTEX
  5
59E
  8
0
  6
CONTINUOUS
 62
     7
 10
955.7717779024513
 20
2018.44963142084
 30
0.0
  0
VERTEX
  5
59F
  8
0
  6
CONTINUOUS
 62
     7
 10
955.7778723067786
 20
2018.446305563228
 30
0.0
  0
VERTEX
  5
5A0
  8
0
  6
CONTINUOUS
 62
     7
 10
955.7839325869371
 20
2018.442926175761
 30
0.0
  0
VERTEX
  5
5A1
  8
0
  6
CONTINUOUS
 62
     7
 10
955.7899576502505
 20
2018.439495235634
 30
0.0
  0
VERTEX
  5
5A2
  8
0
  6
CONTINUOUS
 62
     7
 10
955.7959464040417
 20
2018.43601472004
 30
0.0
  0
VERTEX
  5
5A3
  8
0
  6
CONTINUOUS
 62
     7
 10
955.8018977556351
 20
2018.432486606175
 30
0.0
  0
VERTEX
  5
5A4
  8
0
  6
CONTINUOUS
 62
     7
 10
955.8078106123536
 20
2018.428912871235
 30
0.0
  0
VERTEX
  5
5A5
  8
0
  6
CONTINUOUS
 62
     7
 10
955.813683881521
 20
2018.425295492413
 30
0.0
  0
VERTEX
  5
5A6
  8
0
  6
CONTINUOUS
 62
     7
 10
955.8195164704607
 20
2018.421636446906
 30
0.0
  0
VERTEX
  5
5A7
  8
0
  6
CONTINUOUS
 62
     7
 10
955.8253072864964
 20
2018.417937711907
 30
0.0
  0
VERTEX
  5
5A8
  8
0
  6
CONTINUOUS
 62
     7
 10
955.8310552369514
 20
2018.414201264612
 30
0.0
  0
VERTEX
  5
5A9
  8
0
  6
CONTINUOUS
 62
     7
 10
955.8367592291497
 20
2018.410429082217
 30
0.0
  0
VERTEX
  5
5AA
  8
0
  6
CONTINUOUS
 62
     7
 10
955.8424181704142
 20
2018.406623141914
 30
0.0
  0
VERTEX
  5
5AB
  8
0
  6
CONTINUOUS
 62
     7
 10
955.8480309680691
 20
2018.4027854209
 30
0.0
  0
VERTEX
  5
5AC
  8
0
  6
CONTINUOUS
 62
     7
 10
955.8535965294377
 20
2018.39891789637
 30
0.0
  0
VERTEX
  5
5AD
  8
0
  6
CONTINUOUS
 62
     7
 10
955.8591137618432
 20
2018.395022545518
 30
0.0
  0
VERTEX
  5
5AE
  8
0
  6
CONTINUOUS
 62
     7
 10
955.8645815128624
 20
2018.391101423363
 30
0.0
  0
VERTEX
  5
5AF
  8
0
  6
CONTINUOUS
 62
     7
 10
955.8699975710621
 20
2018.387157964324
 30
0.0
  0
VERTEX
  5
5B0
  8
0
  6
CONTINUOUS
 62
     7
 10
955.8753588161721
 20
2018.383196786617
 30
0.0
  0
VERTEX
  5
5B1
  8
0
  6
CONTINUOUS
 62
     7
 10
955.8806620984308
 20
2018.379222546872
 30
0.0
  0
VERTEX
  5
5B2
  8
0
  6
CONTINUOUS
 62
     7
 10
955.8859042680758
 20
2018.375239901718
 30
0.0
  0
VERTEX
  5
5B3
  8
0
  6
CONTINUOUS
 62
     7
 10
955.8910821753454
 20
2018.371253507787
 30
0.0
  0
VERTEX
  5
5B4
  8
0
  6
CONTINUOUS
 62
     7
 10
955.8961926704776
 20
2018.367268021709
 30
0.0
  0
VERTEX
  5
5B5
  8
0
  6
CONTINUOUS
 62
     7
 10
955.9012326037101
 20
2018.363288100114
 30
0.0
  0
VERTEX
  5
5B6
  8
0
  6
CONTINUOUS
 62
     7
 10
955.9061988252809
 20
2018.359318399631
 30
0.0
  0
VERTEX
  5
5B7
  8
0
  6
CONTINUOUS
 62
     7
 10
955.911088185428
 20
2018.355363576892
 30
0.0
  0
VERTEX
  5
5B8
  8
0
  6
CONTINUOUS
 62
     7
 10
955.9158975343893
 20
2018.351428288526
 30
0.0
  0
VERTEX
  5
5B9
  8
0
  6
CONTINUOUS
 62
     7
 10
955.9206237224029
 20
2018.347517191164
 30
0.0
  0
VERTEX
  5
5BA
  8
0
  6
CONTINUOUS
 62
     7
 10
955.9252635997066
 20
2018.343634941436
 30
0.0
  0
VERTEX
  5
5BB
  8
0
  6
CONTINUOUS
 62
     7
 10
955.9298140165383
 20
2018.339786195971
 30
0.0
  0
VERTEX
  5
5BC
  8
0
  6
CONTINUOUS
 62
     7
 10
955.9342718222589
 20
2018.335975612713
 30
0.0
  0
VERTEX
  5
5BD
  8
0
  6
CONTINUOUS
 62
     7
 10
955.9386334868847
 20
2018.332208416893
 30
0.0
  0
VERTEX
  5
5BE
  8
0
  6
CONTINUOUS
 62
     7
 10
955.9428945104604
 20
2018.328491284283
 30
0.0
  0
VERTEX
  5
5BF
  8
0
  6
CONTINUOUS
 62
     7
 10
955.9470502402083
 20
2018.324831119193
 30
0.0
  0
VERTEX
  5
5C0
  8
0
  6
CONTINUOUS
 62
     7
 10
955.9510960233508
 20
2018.321234825931
 30
0.0
  0
VERTEX
  5
5C1
  8
0
  6
CONTINUOUS
 62
     7
 10
955.9550272071101
 20
2018.317709308808
 30
0.0
  0
VERTEX
  5
5C2
  8
0
  6
CONTINUOUS
 62
     7
 10
955.958839138709
 20
2018.314261472134
 30
0.0
  0
VERTEX
  5
5C3
  8
0
  6
CONTINUOUS
 62
     7
 10
955.96252716537
 20
2018.310898220218
 30
0.0
  0
VERTEX
  5
5C4
  8
0
  6
CONTINUOUS
 62
     7
 10
955.9660866343154
 20
2018.30762645737
 30
0.0
  0
VERTEX
  5
5C5
  8
0
  6
CONTINUOUS
 62
     7
 10
955.9695128927675
 20
2018.304453087899
 30
0.0
  0
VERTEX
  5
5C6
  8
0
  6
CONTINUOUS
 62
     7
 10
955.9728012879395
 20
2018.301385016125
 30
0.0
  0
VERTEX
  5
5C7
  8
0
  6
CONTINUOUS
 62
     7
 10
955.9759446576604
 20
2018.298431697966
 30
0.0
  0
VERTEX
  5
5C8
  8
0
  6
CONTINUOUS
 62
     7
 10
955.9789262690011
 20
2018.295612321108
 30
0.0
  0
VERTEX
  5
5C9
  8
0
  6
CONTINUOUS
 62
     7
 10
955.9817271076602
 20
2018.292948392989
 30
0.0
  0
VERTEX
  5
5CA
  8
0
  6
CONTINUOUS
 62
     7
 10
955.9843281593345
 20
2018.290461421049
 30
0.0
  0
VERTEX
  5
5CB
  8
0
  6
CONTINUOUS
 62
     7
 10
955.9867104097221
 20
2018.288172912725
 30
0.0
  0
VERTEX
  5
5CC
  8
0
  6
CONTINUOUS
 62
     7
 10
955.9888548445205
 20
2018.286104375457
 30
0.0
  0
VERTEX
  5
5CD
  8
0
  6
CONTINUOUS
 62
     7
 10
955.9907424494277
 20
2018.284277316684
 30
0.0
  0
VERTEX
  5
5CE
  8
0
  6
CONTINUOUS
 62
     7
 10
955.9923555628814
 20
2018.282711868703
 30
0.0
  0
VERTEX
  5
5CF
  8
0
  6
CONTINUOUS
 62
     7
 10
955.9937045767015
 20
2018.281399645876
 30
0.0
  0
VERTEX
  5
5D0
  8
0
  6
CONTINUOUS
 62
     7
 10
955.9948263347299
 20
2018.280305372507
 30
0.0
  0
VERTEX
  5
5D1
  8
0
  6
CONTINUOUS
 62
     7
 10
955.9957587129325
 20
2018.279392723689
 30
0.0
  0
VERTEX
  5
5D2
  8
0
  6
CONTINUOUS
 62
     7
 10
955.9965395872738
 20
2018.27862537451
 30
0.0
  0
VERTEX
  5
5D3
  8
0
  6
CONTINUOUS
 62
     7
 10
955.9972068337195
 20
2018.27796700006
 30
0.0
  0
VERTEX
  5
5D4
  8
0
  6
CONTINUOUS
 62
     7
 10
955.9977983282349
 20
2018.27738127543
 30
0.0
  0
VERTEX
  5
5D5
  8
0
  6
CONTINUOUS
 62
     7
 10
955.9983519467851
 20
2018.27683187571
 30
0.0
  0
SEQEND
  5
725
  8
0
  6
CONTINUOUS
 62
     7
  0
ARC
  5
104
  8
0
  6
CONTINUOUS
 62
     7
 10
955.4984005014851
 20
2018.269863924618
 30
0.0
 40
0.499999999999965
 50
0.7984942261235838
 51
80.42341151895594
  0
LINE
  5
105
  8
0
  6
CONTINUOUS
 62
     7
 10
940.9983621755568
 20
1899.77683187571
 30
0.0
 11
941.4983621755566
 21
1899.77683187571
 31
0.0
  0
LINE
  5
106
  8
0
  6
CONTINUOUS
 62
     7
 10
940.9983621755568
 20
1679.77683187571
 30
0.0
 11
941.4983621755566
 21
1679.77683187571
 31
0.0
  0
LINE
  5
107
  8
0
  6
CONTINUOUS
 62
     7
 10
959.4983621755566
 20
2018.27683187571
 30
0.0
 11
959.4983621755566
 21
1642.27683187571
 31
0.0
  0
LINE
  5
108
  8
0
  6
CONTINUOUS
 62
     7
 10
959.4983621755566
 20
1642.27683187571
 30
0.0
 11
941.4983621755566
 21
1642.27683187571
 31
0.0
  0
LINE
  5
109
  8
0
  6
CONTINUOUS
 62
     7
 10
941.4983621755566
 20
1984.77683187571
 30
0.0
 11
941.4983621755566
 21
1642.27683187571
 31
0.0
  0
LINE
  5
10A
  8
0
  6
CONTINUOUS
 62
     7
 10
942.9983621755566
 20
1984.77683187571
 30
0.0
 11
941.4983621755566
 21
1984.77683187571
 31
0.0
  0
LINE
  5
10B
  8
0
  6
CONTINUOUS
 62
     7
 10
942.9983621755566
 20
2005.27683187571
 30
0.0
 11
942.9983621755566
 21
1984.77683187571
 31
0.0
  0
LINE
  5
10C
  8
0
  6
CONTINUOUS
 62
     7
 10
955.4983621755566
 20
2005.27683187571
 30
0.0
 11
942.9983621755566
 21
2005.27683187571
 31
0.0
  0
LINE
  5
10D
  8
0
  6
CONTINUOUS
 62
     7
 10
955.4983621755566
 20
2018.27683187571
 30
0.0
 11
955.4983621755566
 21
2005.27683187571
 31
0.0
  0
LINE
  5
10E
  8
0
  6
CONTINUOUS
 62
     7
 10
959.4983621755566
 20
2018.27683187571
 30
0.0
 11
955.4983621755566
 21
2018.27683187571
 31
0.0
  0
LINE
  5
10F
  8
0
  6
CONTINUOUS
 62
     7
 10
941.4983621755568
 20
2040.27683187571
 30
0.0
 11
941.4983621755568
 21
2001.77683187571
 31
0.0
  0
LINE
  5
110
  8
0
  6
CONTINUOUS
 62
     7
 10
941.4983621755568
 20
2001.77683187571
 30
0.0
 11
360.9983621755568
 21
2001.77683187571
 31
0.0
  0
LINE
  5
111
  8
0
  6
CONTINUOUS
 62
     7
 10
360.9983621755568
 20
2040.27683187571
 30
0.0
 11
941.4983621755568
 21
2040.27683187571
 31
0.0
  0
LINE
  5
112
  8
0
  6
CONTINUOUS
 62
     7
 10
360.9983621755568
 20
2001.77683187571
 30
0.0
 11
360.9983621755568
 21
2040.27683187571
 31
0.0
  0
LINE
  5
114
  8
0
  6
CONTINUOUS
 62
     7
 10
940.9983621755567
 20
2001.77683187571
 30
0.0
 11
940.9983621755567
 21
1640.27683187571
 31
0.0
  0
LINE
  5
115
  8
0
  6
CONTINUOUS
 62
     7
 10
940.9983621755567
 20
1640.27683187571
 30
0.0
 11
360.9983621755568
 21
1640.27683187571
 31
0.0
  0
LINE
  5
116
  8
0
  6
CONTINUOUS
 62
     7
 10
360.9983621755568
 20
2001.77683187571
 30
0.0
 11
360.9983621755568
 21
1640.27683187571
 31
0.0
  0
LINE
  5
117
  8
0
  6
CONTINUOUS
 62
     8
 10
941.3983621755568
 20
2001.77683187571
 30
0.0
 11
941.3983621755568
 21
1985.47683187571
 31
0.0
  0
ARC
  5
118
  8
0
  6
CONTINUOUS
 62
     8
 10
942.1983621755569
 20
2006.27683187571
 30
0.0
 40
0.8000000000001342
 50
90.0
 51
151.0449756281295
  0
LINE
  5
11B
  8
0
  6
CONTINUOUS
 62
     7
 10
3302.134126799258
 20
2698.825958466598
 30
0.0
 11
2556.134126799256
 21
2698.825958466598
 31
0.0
  0
LINE
  5
11C
  8
0
  6
CONTINUOUS
 62
     7
 10
2556.134126799256
 20
2698.825958466598
 30
0.0
 11
2556.134126799256
 21
2702.32596869537
 31
0.0
  0
LINE
  5
11D
  8
0
  6
CONTINUOUS
 62
     7
 10
3302.134126799258
 20
2698.825958466598
 30
0.0
 11
3302.134126799258
 21
2702.325968695369
 31
0.0
  0
LINE
  5
11E
  8
0
  6
CONTINUOUS
 62
     7
 10
2554.134126799259
 20
2703.706095285634
 30
0.0
 11
2554.134126799259
 21
2702.776010386615
 31
0.0
  0
ARC
  5
11F
  8
0
  6
CONTINUOUS
 62
     7
 10
2553.98274291951
 20
2703.068234549024
 30
0.0
 40
0.3291079460350899
 50
261.5051279079082
 51
297.3859751209848
  0
LINE
  5
120
  8
0
  6
CONTINUOUS
 62
     7
 10
2553.93412679926
 20
2702.742737217245
 30
0.0
 11
2553.93412679926
 21
2703.905343341019
 31
0.0
  0
ARC
  5
121
  8
0
  6
CONTINUOUS
 62
     7
 10
2553.934502064791
 20
2703.705718603884
 30
0.0
 40
0.1996250898575798
 50
0.1081141019828069
 51
90.10770762250633
  0
LINE
  5
122
  8
0
  6
CONTINUOUS
 62
     7
 10
2553.93412679926
 20
2703.905343341019
 30
0.0
 11
2553.13412679926
 21
2703.905343341019
 31
0.0
  0
LINE
  5
123
  8
0
  6
CONTINUOUS
 62
     7
 10
2553.93412679926
 20
2702.742737217245
 30
0.0
 11
2553.13412679926
 21
2702.742737217245
 31
0.0
  0
LINE
  5
124
  8
0
  6
CONTINUOUS
 62
     7
 10
2553.13412679926
 20
2703.905343341019
 30
0.0
 11
2553.13412679926
 21
2702.742737217245
 31
0.0
  0
LINE
  5
125
  8
0
  6
CONTINUOUS
 62
     7
 10
2554.134126799259
 20
2702.776010386615
 30
0.0
 11
2554.134126799259
 21
2702.608746783139
 31
0.0
  0
POLYLINE
  5
126
  8
0
  6
CONTINUOUS
 62
     7
 66
     1
 10
0.0
 20
0.0
 30
0.0
  0
VERTEX
  5
5D6
  8
0
  6
CONTINUOUS
 62
     7
 10
2554.134126799259
 20
2702.608746783139
 30
0.0
  0
VERTEX
  5
5D7
  8
0
  6
CONTINUOUS
 62
     7
 10
2554.134109362497
 20
2702.602395323226
 30
0.0
  0
VERTEX
  5
5D8
  8
0
  6
CONTINUOUS
 62
     7
 10
2554.134053564733
 20
2702.5960672619
 30
0.0
  0
VERTEX
  5
5D9
  8
0
  6
CONTINUOUS
 62
     7
 10
2554.133954963144
 20
2702.589764583332
 30
0.0
  0
VERTEX
  5
5DA
  8
0
  6
CONTINUOUS
 62
     7
 10
2554.133810526934
 20
2702.583488380197
 30
0.0
  0
VERTEX
  5
5DB
  8
0
  6
CONTINUOUS
 62
     7
 10
2554.133617225312
 20
2702.577239745172
 30
0.0
  0
VERTEX
  5
5DC
  8
0
  6
CONTINUOUS
 62
     7
 10
2554.133372027482
 20
2702.571019770934
 30
0.0
  0
VERTEX
  5
5DD
  8
0
  6
CONTINUOUS
 62
     7
 10
2554.13307190265
 20
2702.564829550158
 30
0.0
  0
VERTEX
  5
5DE
  8
0
  6
CONTINUOUS
 62
     7
 10
2554.132713820024
 20
2702.558670175523
 30
0.0
  0
VERTEX
  5
5DF
  8
0
  6
CONTINUOUS
 62
     7
 10
2554.132294748809
 20
2702.552542739703
 30
0.0
  0
VERTEX
  5
5E0
  8
0
  6
CONTINUOUS
 62
     7
 10
2554.131811658212
 20
2702.546448335376
 30
0.0
  0
VERTEX
  5
5E1
  8
0
  6
CONTINUOUS
 62
     7
 10
2554.131261517438
 20
2702.540388055217
 30
0.0
  0
VERTEX
  5
5E2
  8
0
  6
CONTINUOUS
 62
     7
 10
2554.130641295695
 20
2702.534362991904
 30
0.0
  0
VERTEX
  5
5E3
  8
0
  6
CONTINUOUS
 62
     7
 10
2554.129947962187
 20
2702.528374238113
 30
0.0
  0
VERTEX
  5
5E4
  8
0
  6
CONTINUOUS
 62
     7
 10
2554.129178486121
 20
2702.52242288652
 30
0.0
  0
VERTEX
  5
5E5
  8
0
  6
CONTINUOUS
 62
     7
 10
2554.128329836704
 20
2702.516510029801
 30
0.0
  0
VERTEX
  5
5E6
  8
0
  6
CONTINUOUS
 62
     7
 10
2554.127398983141
 20
2702.510636760633
 30
0.0
  0
VERTEX
  5
5E7
  8
0
  6
CONTINUOUS
 62
     7
 10
2554.126382894639
 20
2702.504804171694
 30
0.0
  0
VERTEX
  5
5E8
  8
0
  6
CONTINUOUS
 62
     7
 10
2554.125278540405
 20
2702.499013355658
 30
0.0
  0
VERTEX
  5
5E9
  8
0
  6
CONTINUOUS
 62
     7
 10
2554.124082889643
 20
2702.493265405203
 30
0.0
  0
VERTEX
  5
5EA
  8
0
  6
CONTINUOUS
 62
     7
 10
2554.122792911561
 20
2702.487561413005
 30
0.0
  0
VERTEX
  5
5EB
  8
0
  6
CONTINUOUS
 62
     7
 10
2554.121405575364
 20
2702.48190247174
 30
0.0
  0
VERTEX
  5
5EC
  8
0
  6
CONTINUOUS
 62
     7
 10
2554.119917850259
 20
2702.476289674085
 30
0.0
  0
VERTEX
  5
5ED
  8
0
  6
CONTINUOUS
 62
     7
 10
2554.118326705452
 20
2702.470724112717
 30
0.0
  0
VERTEX
  5
5EE
  8
0
  6
CONTINUOUS
 62
     7
 10
2554.116629110149
 20
2702.465206880311
 30
0.0
  0
VERTEX
  5
5EF
  8
0
  6
CONTINUOUS
 62
     7
 10
2554.114822020999
 20
2702.459739129292
 30
0.0
  0
VERTEX
  5
5F0
  8
0
  6
CONTINUOUS
 62
     7
 10
2554.112902172092
 20
2702.454323071092
 30
0.0
  0
VERTEX
  5
5F1
  8
0
  6
CONTINUOUS
 62
     7
 10
2554.11086610651
 20
2702.448961825983
 30
0.0
  0
VERTEX
  5
5F2
  8
0
  6
CONTINUOUS
 62
     7
 10
2554.108710361144
 20
2702.443658543724
 30
0.0
  0
VERTEX
  5
5F3
  8
0
  6
CONTINUOUS
 62
     7
 10
2554.106431472881
 20
2702.438416374078
 30
0.0
  0
VERTEX
  5
5F4
  8
0
  6
CONTINUOUS
 62
     7
 10
2554.104025978608
 20
2702.433238466809
 30
0.0
  0
VERTEX
  5
5F5
  8
0
  6
CONTINUOUS
 62
     7
 10
2554.101490415213
 20
2702.428127971677
 30
0.0
  0
VERTEX
  5
5F6
  8
0
  6
CONTINUOUS
 62
     7
 10
2554.098821319582
 20
2702.423088038445
 30
0.0
  0
VERTEX
  5
5F7
  8
0
  6
CONTINUOUS
 62
     7
 10
2554.096015228606
 20
2702.418121816874
 30
0.0
  0
VERTEX
  5
5F8
  8
0
  6
CONTINUOUS
 62
     7
 10
2554.093068679171
 20
2702.413232456727
 30
0.0
  0
VERTEX
  5
5F9
  8
0
  6
CONTINUOUS
 62
     7
 10
2554.089978208164
 20
2702.408423107765
 30
0.0
  0
VERTEX
  5
5FA
  8
0
  6
CONTINUOUS
 62
     7
 10
2554.086740352473
 20
2702.403696919751
 30
0.0
  0
VERTEX
  5
5FB
  8
0
  6
CONTINUOUS
 62
     7
 10
2554.083351648988
 20
2702.399057042448
 30
0.0
  0
VERTEX
  5
5FC
  8
0
  6
CONTINUOUS
 62
     7
 10
2554.079808634593
 20
2702.394506625616
 30
0.0
  0
VERTEX
  5
5FD
  8
0
  6
CONTINUOUS
 62
     7
 10
2554.076107847786
 20
2702.390048819896
 30
0.0
  0
VERTEX
  5
5FE
  8
0
  6
CONTINUOUS
 62
     7
 10
2554.072246521916
 20
2702.38568715527
 30
0.0
  0
VERTEX
  5
5FF
  8
0
  6
CONTINUOUS
 62
     7
 10
2554.068223667055
 20
2702.381426131694
 30
0.0
  0
VERTEX
  5
600
  8
0
  6
CONTINUOUS
 62
     7
 10
2554.064038573206
 20
2702.377270401946
 30
0.0
  0
VERTEX
  5
601
  8
0
  6
CONTINUOUS
 62
     7
 10
2554.059690530374
 20
2702.373224618804
 30
0.0
  0
VERTEX
  5
602
  8
0
  6
CONTINUOUS
 62
     7
 10
2554.055178828557
 20
2702.369293435045
 30
0.0
  0
VERTEX
  5
603
  8
0
  6
CONTINUOUS
 62
     7
 10
2554.05050275776
 20
2702.365481503446
 30
0.0
  0
VERTEX
  5
604
  8
0
  6
CONTINUOUS
 62
     7
 10
2554.045661607984
 20
2702.361793476785
 30
0.0
  0
VERTEX
  5
605
  8
0
  6
CONTINUOUS
 62
     7
 10
2554.040654669233
 20
2702.35823400784
 30
0.0
  0
VERTEX
  5
606
  8
0
  6
CONTINUOUS
 62
     7
 10
2554.035481231506
 20
2702.354807749387
 30
0.0
  0
VERTEX
  5
607
  8
0
  6
CONTINUOUS
 62
     7
 10
2554.030140584813
 20
2702.351519354215
 30
0.0
  0
VERTEX
  5
608
  8
0
  6
CONTINUOUS
 62
     7
 10
2554.024633242665
 20
2702.348375984494
 30
0.0
  0
VERTEX
  5
609
  8
0
  6
CONTINUOUS
 62
     7
 10
2554.018964385008
 20
2702.345394373153
 30
0.0
  0
VERTEX
  5
60A
  8
0
  6
CONTINUOUS
 62
     7
 10
2554.013140304123
 20
2702.342593534494
 30
0.0
  0
VERTEX
  5
60B
  8
0
  6
CONTINUOUS
 62
     7
 10
2554.00716729229
 20
2702.33999248282
 30
0.0
  0
VERTEX
  5
60C
  8
0
  6
CONTINUOUS
 62
     7
 10
2554.001051641791
 20
2702.337610232432
 30
0.0
  0
VERTEX
  5
60D
  8
0
  6
CONTINUOUS
 62
     7
 10
2553.994799644905
 20
2702.335465797634
 30
0.0
  0
VERTEX
  5
60E
  8
0
  6
CONTINUOUS
 62
     7
 10
2553.988417593912
 20
2702.333578192728
 30
0.0
  0
VERTEX
  5
60F
  8
0
  6
CONTINUOUS
 62
     7
 10
2553.98191201318
 20
2702.331965079274
 30
0.0
  0
VERTEX
  5
610
  8
0
  6
CONTINUOUS
 62
     7
 10
2553.975294240109
 20
2702.330616065453
 30
0.0
  0
VERTEX
  5
611
  8
0
  6
CONTINUOUS
 62
     7
 10
2553.968580150395
 20
2702.329494307425
 30
0.0
  0
VERTEX
  5
612
  8
0
  6
CONTINUOUS
 62
     7
 10
2553.961785796811
 20
2702.328561929222
 30
0.0
  0
VERTEX
  5
613
  8
0
  6
CONTINUOUS
 62
     7
 10
2553.954927232131
 20
2702.327781054881
 30
0.0
  0
VERTEX
  5
614
  8
0
  6
CONTINUOUS
 62
     7
 10
2553.94802050913
 20
2702.327113808435
 30
0.0
  0
VERTEX
  5
615
  8
0
  6
CONTINUOUS
 62
     7
 10
2553.941081680582
 20
2702.32652231392
 30
0.0
  0
VERTEX
  5
616
  8
0
  6
CONTINUOUS
 62
     7
 10
2553.93412679926
 20
2702.325968695369
 30
0.0
  0
SEQEND
  5
726
  8
0
  6
CONTINUOUS
 62
     7
  0
LINE
  5
127
  8
0
  6
CONTINUOUS
 62
     7
 10
2553.93412679926
 20
2702.325968695369
 30
0.0
 11
2553.93412679926
 21
2702.742737217245
 31
0.0
  0
LINE
  5
128
  8
0
  6
CONTINUOUS
 62
     7
 10
2553.93412679926
 20
2702.325968695369
 30
0.0
 11
2553.13412679926
 21
2702.325968695369
 31
0.0
  0
LINE
  5
129
  8
0
  6
CONTINUOUS
 62
     7
 10
2553.13412679926
 20
2702.742737217245
 30
0.0
 11
2553.13412679926
 21
2702.325968695369
 31
0.0
  0
LINE
  5
12A
  8
0
  6
CONTINUOUS
 62
     7
 10
2553.93412679926
 20
2703.905343341019
 30
0.0
 11
2553.93412679926
 21
2704.746531959653
 31
0.0
  0
ARC
  5
12B
  8
0
  6
CONTINUOUS
 62
     7
 10
2553.934502064792
 20
2704.546907222519
 30
0.0
 40
0.1996250898566686
 50
0.1081141017222596
 51
90.10770762276786
  0
LINE
  5
12C
  8
0
  6
CONTINUOUS
 62
     7
 10
2554.134126799259
 20
2704.547283904268
 30
0.0
 11
2554.134126799259
 21
2703.706095285634
 31
0.0
  0
LINE
  5
12D
  8
0
  6
CONTINUOUS
 62
     7
 10
2553.93412679926
 20
2704.746531959653
 30
0.0
 11
2553.13412679926
 21
2704.746531959653
 31
0.0
  0
LINE
  5
12E
  8
0
  6
CONTINUOUS
 62
     7
 10
2553.13412679926
 20
2704.746531959653
 30
0.0
 11
2553.13412679926
 21
2703.905343341019
 31
0.0
  0
LINE
  5
12F
  8
0
  6
CONTINUOUS
 62
     7
 10
2553.93412679926
 20
2704.746531959653
 30
0.0
 11
2553.93412679926
 21
2705.742772236578
 31
0.0
  0
LINE
  5
130
  8
0
  6
CONTINUOUS
 62
     7
 10
2553.93412679926
 20
2705.742772236578
 30
0.0
 11
2554.134126799259
 21
2705.742772236578
 31
0.0
  0
LINE
  5
131
  8
0
  6
CONTINUOUS
 62
     7
 10
2554.134126799259
 20
2705.742772236578
 30
0.0
 11
2554.134126799259
 21
2704.547283904268
 31
0.0
  0
LINE
  5
132
  8
0
  6
CONTINUOUS
 62
     7
 10
2553.13412679926
 20
2705.742772236578
 30
0.0
 11
2553.93412679926
 21
2705.742772236578
 31
0.0
  0
LINE
  5
133
  8
0
  6
CONTINUOUS
 62
     7
 10
2553.13412679926
 20
2705.742772236578
 30
0.0
 11
2553.13412679926
 21
2704.746531959653
 31
0.0
  0
LINE
  5
134
  8
0
  6
CONTINUOUS
 62
     7
 10
2553.93412679926
 20
2705.742772236578
 30
0.0
 11
2553.93412679926
 21
2716.125958466598
 31
0.0
  0
LINE
  5
135
  8
0
  6
CONTINUOUS
 62
     7
 10
2553.93412679926
 20
2716.125958466598
 30
0.0
 11
2554.134126799259
 21
2716.125958466598
 31
0.0
  0
LINE
  5
136
  8
0
  6
CONTINUOUS
 62
     7
 10
2554.134126799259
 20
2716.125958466598
 30
0.0
 11
2554.134126799259
 21
2705.742772236578
 31
0.0
  0
LINE
  5
137
  8
0
  6
CONTINUOUS
 62
     7
 10
2553.93412679926
 20
2716.125958466598
 30
0.0
 11
2553.13412679926
 21
2716.125958466598
 31
0.0
  0
LINE
  5
138
  8
0
  6
CONTINUOUS
 62
     7
 10
2553.13412679926
 20
2716.125958466598
 30
0.0
 11
2553.13412679926
 21
2705.742772236578
 31
0.0
  0
LINE
  5
139
  8
0
  6
CONTINUOUS
 62
     7
 10
2554.134126799259
 20
2716.825958466598
 30
0.0
 11
2554.134126799259
 21
2716.125958466598
 31
0.0
  0
LINE
  5
13A
  8
0
  6
CONTINUOUS
 62
     7
 10
2553.13412679926
 20
2716.125958466598
 30
0.0
 11
2553.13412679926
 21
2716.825958466598
 31
0.0
  0
LINE
  5
13B
  8
0
  6
CONTINUOUS
 62
     7
 10
3302.18412679926
 20
2703.905343341019
 30
0.0
 11
3301.38412679926
 21
2703.905343341019
 31
0.0
  0
LINE
  5
13C
  8
0
  6
CONTINUOUS
 62
     7
 10
3302.18412679926
 20
2702.742737217245
 30
0.0
 11
3302.18412679926
 21
2703.905343341019
 31
0.0
  0
LINE
  5
13D
  8
0
  6
CONTINUOUS
 62
     7
 10
3302.18412679926
 20
2702.742737217245
 30
0.0
 11
3301.38412679926
 21
2702.742737217245
 31
0.0
  0
LINE
  5
13E
  8
0
  6
CONTINUOUS
 62
     7
 10
3301.38412679926
 20
2703.905343341019
 30
0.0
 11
3301.38412679926
 21
2702.742737217245
 31
0.0
  0
LINE
  5
13F
  8
0
  6
CONTINUOUS
 62
     7
 10
3302.38412679926
 20
2703.706095285634
 30
0.0
 11
3302.38412679926
 21
2702.776010386615
 31
0.0
  0
ARC
  5
140
  8
0
  6
CONTINUOUS
 62
     7
 10
3302.23274291951
 20
2703.068234549025
 30
0.0
 40
0.3291079460368282
 50
261.5051279080333
 51
297.3859751209094
  0
ARC
  5
141
  8
0
  6
CONTINUOUS
 62
     7
 10
3302.184502064792
 20
2703.705718603884
 30
0.0
 40
0.1996250898569106
 50
0.1081141018527795
 51
90.10770762276762
  0
LINE
  5
142
  8
0
  6
CONTINUOUS
 62
     7
 10
3302.38412679926
 20
2702.776010386615
 30
0.0
 11
3302.38412679926
 21
2702.608746783139
 31
0.0
  0
POLYLINE
  5
143
  8
0
  6
CONTINUOUS
 62
     7
 66
     1
 10
0.0
 20
0.0
 30
0.0
  0
VERTEX
  5
617
  8
0
  6
CONTINUOUS
 62
     7
 10
3302.38412679926
 20
2702.608746783139
 30
0.0
  0
VERTEX
  5
618
  8
0
  6
CONTINUOUS
 62
     7
 10
3302.384109362497
 20
2702.602395323226
 30
0.0
  0
VERTEX
  5
619
  8
0
  6
CONTINUOUS
 62
     7
 10
3302.384053564733
 20
2702.5960672619
 30
0.0
  0
VERTEX
  5
61A
  8
0
  6
CONTINUOUS
 62
     7
 10
3302.383954963144
 20
2702.589764583332
 30
0.0
  0
VERTEX
  5
61B
  8
0
  6
CONTINUOUS
 62
     7
 10
3302.383810526933
 20
2702.583488380197
 30
0.0
  0
VERTEX
  5
61C
  8
0
  6
CONTINUOUS
 62
     7
 10
3302.38361722531
 20
2702.577239745173
 30
0.0
  0
VERTEX
  5
61D
  8
0
  6
CONTINUOUS
 62
     7
 10
3302.38337202748
 20
2702.571019770935
 30
0.0
  0
VERTEX
  5
61E
  8
0
  6
CONTINUOUS
 62
     7
 10
3302.38307190265
 20
2702.564829550159
 30
0.0
  0
VERTEX
  5
61F
  8
0
  6
CONTINUOUS
 62
     7
 10
3302.382713820023
 20
2702.558670175524
 30
0.0
  0
VERTEX
  5
620
  8
0
  6
CONTINUOUS
 62
     7
 10
3302.382294748808
 20
2702.552542739704
 30
0.0
  0
VERTEX
  5
621
  8
0
  6
CONTINUOUS
 62
     7
 10
3302.381811658211
 20
2702.546448335377
 30
0.0
  0
VERTEX
  5
622
  8
0
  6
CONTINUOUS
 62
     7
 10
3302.381261517437
 20
2702.540388055218
 30
0.0
  0
VERTEX
  5
623
  8
0
  6
CONTINUOUS
 62
     7
 10
3302.380641295693
 20
2702.534362991905
 30
0.0
  0
VERTEX
  5
624
  8
0
  6
CONTINUOUS
 62
     7
 10
3302.379947962186
 20
2702.528374238113
 30
0.0
  0
VERTEX
  5
625
  8
0
  6
CONTINUOUS
 62
     7
 10
3302.379178486121
 20
2702.52242288652
 30
0.0
  0
VERTEX
  5
626
  8
0
  6
CONTINUOUS
 62
     7
 10
3302.378329836703
 20
2702.516510029801
 30
0.0
  0
VERTEX
  5
627
  8
0
  6
CONTINUOUS
 62
     7
 10
3302.37739898314
 20
2702.510636760634
 30
0.0
  0
VERTEX
  5
628
  8
0
  6
CONTINUOUS
 62
     7
 10
3302.376382894639
 20
2702.504804171695
 30
0.0
  0
VERTEX
  5
629
  8
0
  6
CONTINUOUS
 62
     7
 10
3302.375278540405
 20
2702.499013355658
 30
0.0
  0
VERTEX
  5
62A
  8
0
  6
CONTINUOUS
 62
     7
 10
3302.374082889643
 20
2702.493265405203
 30
0.0
  0
VERTEX
  5
62B
  8
0
  6
CONTINUOUS
 62
     7
 10
3302.37279291156
 20
2702.487561413005
 30
0.0
  0
VERTEX
  5
62C
  8
0
  6
CONTINUOUS
 62
     7
 10
3302.371405575364
 20
2702.48190247174
 30
0.0
  0
VERTEX
  5
62D
  8
0
  6
CONTINUOUS
 62
     7
 10
3302.369917850259
 20
2702.476289674086
 30
0.0
  0
VERTEX
  5
62E
  8
0
  6
CONTINUOUS
 62
     7
 10
3302.368326705453
 20
2702.470724112717
 30
0.0
  0
VERTEX
  5
62F
  8
0
  6
CONTINUOUS
 62
     7
 10
3302.366629110149
 20
2702.465206880311
 30
0.0
  0
VERTEX
  5
630
  8
0
  6
CONTINUOUS
 62
     7
 10
3302.364822021
 20
2702.459739129292
 30
0.0
  0
VERTEX
  5
631
  8
0
  6
CONTINUOUS
 62
     7
 10
3302.362902172092
 20
2702.454323071092
 30
0.0
  0
VERTEX
  5
632
  8
0
  6
CONTINUOUS
 62
     7
 10
3302.360866106512
 20
2702.448961825983
 30
0.0
  0
VERTEX
  5
633
  8
0
  6
CONTINUOUS
 62
     7
 10
3302.358710361145
 20
2702.443658543724
 30
0.0
  0
VERTEX
  5
634
  8
0
  6
CONTINUOUS
 62
     7
 10
3302.356431472882
 20
2702.438416374078
 30
0.0
  0
VERTEX
  5
635
  8
0
  6
CONTINUOUS
 62
     7
 10
3302.354025978608
 20
2702.433238466809
 30
0.0
  0
VERTEX
  5
636
  8
0
  6
CONTINUOUS
 62
     7
 10
3302.351490415213
 20
2702.428127971677
 30
0.0
  0
VERTEX
  5
637
  8
0
  6
CONTINUOUS
 62
     7
 10
3302.348821319584
 20
2702.423088038445
 30
0.0
  0
VERTEX
  5
638
  8
0
  6
CONTINUOUS
 62
     7
 10
3302.346015228607
 20
2702.418121816874
 30
0.0
  0
VERTEX
  5
639
  8
0
  6
CONTINUOUS
 62
     7
 10
3302.343068679171
 20
2702.413232456727
 30
0.0
  0
VERTEX
  5
63A
  8
0
  6
CONTINUOUS
 62
     7
 10
3302.339978208164
 20
2702.408423107765
 30
0.0
  0
VERTEX
  5
63B
  8
0
  6
CONTINUOUS
 62
     7
 10
3302.336740352474
 20
2702.403696919752
 30
0.0
  0
VERTEX
  5
63C
  8
0
  6
CONTINUOUS
 62
     7
 10
3302.333351648989
 20
2702.399057042449
 30
0.0
  0
VERTEX
  5
63D
  8
0
  6
CONTINUOUS
 62
     7
 10
3302.329808634594
 20
2702.394506625616
 30
0.0
  0
VERTEX
  5
63E
  8
0
  6
CONTINUOUS
 62
     7
 10
3302.326107847787
 20
2702.390048819896
 30
0.0
  0
VERTEX
  5
63F
  8
0
  6
CONTINUOUS
 62
     7
 10
3302.322246521916
 20
2702.385687155271
 30
0.0
  0
VERTEX
  5
640
  8
0
  6
CONTINUOUS
 62
     7
 10
3302.318223667055
 20
2702.381426131695
 30
0.0
  0
VERTEX
  5
641
  8
0
  6
CONTINUOUS
 62
     7
 10
3302.314038573206
 20
2702.377270401947
 30
0.0
  0
VERTEX
  5
642
  8
0
  6
CONTINUOUS
 62
     7
 10
3302.309690530373
 20
2702.373224618804
 30
0.0
  0
VERTEX
  5
643
  8
0
  6
CONTINUOUS
 62
     7
 10
3302.305178828558
 20
2702.369293435045
 30
0.0
  0
VERTEX
  5
644
  8
0
  6
CONTINUOUS
 62
     7
 10
3302.30050275776
 20
2702.365481503446
 30
0.0
  0
VERTEX
  5
645
  8
0
  6
CONTINUOUS
 62
     7
 10
3302.295661607985
 20
2702.361793476785
 30
0.0
  0
VERTEX
  5
646
  8
0
  6
CONTINUOUS
 62
     7
 10
3302.290654669234
 20
2702.35823400784
 30
0.0
  0
VERTEX
  5
647
  8
0
  6
CONTINUOUS
 62
     7
 10
3302.285481231507
 20
2702.354807749387
 30
0.0
  0
VERTEX
  5
648
  8
0
  6
CONTINUOUS
 62
     7
 10
3302.280140584814
 20
2702.351519354215
 30
0.0
  0
VERTEX
  5
649
  8
0
  6
CONTINUOUS
 62
     7
 10
3302.274633242666
 20
2702.348375984494
 30
0.0
  0
VERTEX
  5
64A
  8
0
  6
CONTINUOUS
 62
     7
 10
3302.268964385009
 20
2702.345394373153
 30
0.0
  0
VERTEX
  5
64B
  8
0
  6
CONTINUOUS
 62
     7
 10
3302.263140304124
 20
2702.342593534494
 30
0.0
  0
VERTEX
  5
64C
  8
0
  6
CONTINUOUS
 62
     7
 10
3302.257167292291
 20
2702.33999248282
 30
0.0
  0
VERTEX
  5
64D
  8
0
  6
CONTINUOUS
 62
     7
 10
3302.251051641791
 20
2702.337610232432
 30
0.0
  0
VERTEX
  5
64E
  8
0
  6
CONTINUOUS
 62
     7
 10
3302.244799644905
 20
2702.335465797634
 30
0.0
  0
VERTEX
  5
64F
  8
0
  6
CONTINUOUS
 62
     7
 10
3302.238417593913
 20
2702.333578192728
 30
0.0
  0
VERTEX
  5
650
  8
0
  6
CONTINUOUS
 62
     7
 10
3302.231912013181
 20
2702.331965079274
 30
0.0
  0
VERTEX
  5
651
  8
0
  6
CONTINUOUS
 62
     7
 10
3302.22529424011
 20
2702.330616065453
 30
0.0
  0
VERTEX
  5
652
  8
0
  6
CONTINUOUS
 62
     7
 10
3302.218580150396
 20
2702.329494307425
 30
0.0
  0
VERTEX
  5
653
  8
0
  6
CONTINUOUS
 62
     7
 10
3302.211785796812
 20
2702.328561929222
 30
0.0
  0
VERTEX
  5
654
  8
0
  6
CONTINUOUS
 62
     7
 10
3302.204927232132
 20
2702.327781054881
 30
0.0
  0
VERTEX
  5
655
  8
0
  6
CONTINUOUS
 62
     7
 10
3302.19802050913
 20
2702.327113808435
 30
0.0
  0
VERTEX
  5
656
  8
0
  6
CONTINUOUS
 62
     7
 10
3302.191081680583
 20
2702.32652231392
 30
0.0
  0
VERTEX
  5
657
  8
0
  6
CONTINUOUS
 62
     7
 10
3302.18412679926
 20
2702.325968695369
 30
0.0
  0
SEQEND
  5
727
  8
0
  6
CONTINUOUS
 62
     7
  0
LINE
  5
144
  8
0
  6
CONTINUOUS
 62
     7
 10
3302.18412679926
 20
2702.325968695369
 30
0.0
 11
3302.18412679926
 21
2702.742737217245
 31
0.0
  0
LINE
  5
145
  8
0
  6
CONTINUOUS
 62
     7
 10
3302.18412679926
 20
2702.325968695369
 30
0.0
 11
3301.38412679926
 21
2702.325968695369
 31
0.0
  0
LINE
  5
146
  8
0
  6
CONTINUOUS
 62
     7
 10
3301.38412679926
 20
2702.742737217245
 30
0.0
 11
3301.38412679926
 21
2702.325968695369
 31
0.0
  0
LINE
  5
147
  8
0
  6
CONTINUOUS
 62
     7
 10
3302.18412679926
 20
2703.905343341019
 30
0.0
 11
3302.18412679926
 21
2704.746531959654
 31
0.0
  0
ARC
  5
148
  8
0
  6
CONTINUOUS
 62
     7
 10
3302.184502064791
 20
2704.546907222518
 30
0.0
 40
0.1996250898580346
 50
0.1081141019825606
 51
90.10770762237581
  0
LINE
  5
149
  8
0
  6
CONTINUOUS
 62
     7
 10
3302.38412679926
 20
2704.547283904269
 30
0.0
 11
3302.38412679926
 21
2703.706095285634
 31
0.0
  0
LINE
  5
14A
  8
0
  6
CONTINUOUS
 62
     7
 10
3302.18412679926
 20
2704.746531959654
 30
0.0
 11
3301.38412679926
 21
2704.746531959654
 31
0.0
  0
LINE
  5
14B
  8
0
  6
CONTINUOUS
 62
     7
 10
3301.38412679926
 20
2704.746531959654
 30
0.0
 11
3301.38412679926
 21
2703.905343341019
 31
0.0
  0
LINE
  5
14C
  8
0
  6
CONTINUOUS
 62
     7
 10
3302.18412679926
 20
2704.746531959654
 30
0.0
 11
3302.18412679926
 21
2705.742772236578
 31
0.0
  0
LINE
  5
14D
  8
0
  6
CONTINUOUS
 62
     7
 10
3302.18412679926
 20
2705.742772236578
 30
0.0
 11
3302.38412679926
 21
2705.742772236578
 31
0.0
  0
LINE
  5
14E
  8
0
  6
CONTINUOUS
 62
     7
 10
3302.38412679926
 20
2705.742772236578
 30
0.0
 11
3302.38412679926
 21
2704.547283904269
 31
0.0
  0
LINE
  5
14F
  8
0
  6
CONTINUOUS
 62
     7
 10
3301.38412679926
 20
2705.742772236578
 30
0.0
 11
3302.18412679926
 21
2705.742772236578
 31
0.0
  0
LINE
  5
150
  8
0
  6
CONTINUOUS
 62
     7
 10
3301.38412679926
 20
2705.742772236578
 30
0.0
 11
3301.38412679926
 21
2704.746531959654
 31
0.0
  0
LINE
  5
151
  8
0
  6
CONTINUOUS
 62
     7
 10
3302.18412679926
 20
2705.742772236578
 30
0.0
 11
3302.18412679926
 21
2716.125958466598
 31
0.0
  0
LINE
  5
152
  8
0
  6
CONTINUOUS
 62
     7
 10
3302.18412679926
 20
2716.125958466598
 30
0.0
 11
3302.38412679926
 21
2716.125958466598
 31
0.0
  0
LINE
  5
153
  8
0
  6
CONTINUOUS
 62
     7
 10
3302.38412679926
 20
2716.125958466598
 30
0.0
 11
3302.38412679926
 21
2705.742772236578
 31
0.0
  0
LINE
  5
154
  8
0
  6
CONTINUOUS
 62
     7
 10
3302.18412679926
 20
2716.125958466598
 30
0.0
 11
3301.38412679926
 21
2716.125958466598
 31
0.0
  0
LINE
  5
155
  8
0
  6
CONTINUOUS
 62
     7
 10
3301.38412679926
 20
2716.125958466598
 30
0.0
 11
3301.38412679926
 21
2705.742772236578
 31
0.0
  0
LINE
  5
156
  8
0
  6
CONTINUOUS
 62
     7
 10
3302.38412679926
 20
2716.825958466598
 30
0.0
 11
3302.38412679926
 21
2716.125958466598
 31
0.0
  0
LINE
  5
157
  8
0
  6
CONTINUOUS
 62
     7
 10
3301.38412679926
 20
2716.125958466598
 30
0.0
 11
3301.38412679926
 21
2716.825958466598
 31
0.0
  0
LINE
  5
158
  8
0
  6
CONTINUOUS
 62
     7
 10
3301.38412679926
 20
2703.905343341019
 30
0.0
 11
2556.884126799258
 21
2703.905343341019
 31
0.0
  0
LINE
  5
159
  8
0
  6
CONTINUOUS
 62
     7
 10
3301.38412679926
 20
2702.742737217245
 30
0.0
 11
2556.884126799258
 21
2702.742737217245
 31
0.0
  0
LINE
  5
15A
  8
0
  6
CONTINUOUS
 62
     7
 10
2556.884126799258
 20
2702.742737217245
 30
0.0
 11
2556.884126799258
 21
2703.905343341019
 31
0.0
  0
LINE
  5
15B
  8
0
  6
CONTINUOUS
 62
     7
 10
3301.38412679926
 20
2702.325968695369
 30
0.0
 11
2556.884126799258
 21
2702.32596869537
 31
0.0
  0
LINE
  5
15C
  8
0
  6
CONTINUOUS
 62
     7
 10
2556.884126799258
 20
2702.32596869537
 30
0.0
 11
2556.884126799258
 21
2702.742737217245
 31
0.0
  0
LINE
  5
15D
  8
0
  6
CONTINUOUS
 62
     7
 10
3301.38412679926
 20
2704.746531959654
 30
0.0
 11
2556.884126799258
 21
2704.746531959654
 31
0.0
  0
LINE
  5
15E
  8
0
  6
CONTINUOUS
 62
     7
 10
2556.884126799258
 20
2703.905343341019
 30
0.0
 11
2556.884126799258
 21
2704.746531959654
 31
0.0
  0
LINE
  5
15F
  8
0
  6
CONTINUOUS
 62
     7
 10
2556.884126799258
 20
2705.742772236579
 30
0.0
 11
3301.38412679926
 21
2705.742772236578
 31
0.0
  0
LINE
  5
160
  8
0
  6
CONTINUOUS
 62
     7
 10
2556.884126799258
 20
2704.746531959654
 30
0.0
 11
2556.884126799258
 21
2705.742772236579
 31
0.0
  0
LINE
  5
161
  8
0
  6
CONTINUOUS
 62
     7
 10
3301.38412679926
 20
2716.125958466598
 30
0.0
 11
2556.884126799258
 21
2716.125958466598
 31
0.0
  0
LINE
  5
162
  8
0
  6
CONTINUOUS
 62
     7
 10
2556.884126799258
 20
2705.742772236579
 30
0.0
 11
2556.884126799258
 21
2716.125958466598
 31
0.0
  0
LINE
  5
163
  8
0
  6
CONTINUOUS
 62
     7
 10
2556.884126799258
 20
2716.825958466598
 30
0.0
 11
2556.884126799258
 21
2716.125958466598
 31
0.0
  0
LINE
  5
164
  8
0
  6
CONTINUOUS
 62
     7
 10
2553.13412679926
 20
2703.905343341019
 30
0.0
 11
1808.634126799258
 21
2703.905343341019
 31
0.0
  0
LINE
  5
165
  8
0
  6
CONTINUOUS
 62
     7
 10
2553.13412679926
 20
2702.742737217245
 30
0.0
 11
1808.634126799258
 21
2702.742737217245
 31
0.0
  0
LINE
  5
166
  8
0
  6
CONTINUOUS
 62
     7
 10
1808.634126799258
 20
2702.742737217245
 30
0.0
 11
1808.634126799258
 21
2703.905343341019
 31
0.0
  0
LINE
  5
167
  8
0
  6
CONTINUOUS
 62
     7
 10
2553.13412679926
 20
2702.325968695369
 30
0.0
 11
1808.634126799258
 21
2702.32596869537
 31
0.0
  0
LINE
  5
168
  8
0
  6
CONTINUOUS
 62
     7
 10
1808.634126799258
 20
2702.32596869537
 30
0.0
 11
1808.634126799258
 21
2702.742737217245
 31
0.0
  0
LINE
  5
169
  8
0
  6
CONTINUOUS
 62
     7
 10
2553.13412679926
 20
2704.746531959653
 30
0.0
 11
1808.634126799258
 21
2704.746531959654
 31
0.0
  0
LINE
  5
16A
  8
0
  6
CONTINUOUS
 62
     7
 10
1808.634126799258
 20
2703.905343341019
 30
0.0
 11
1808.634126799258
 21
2704.746531959654
 31
0.0
  0
LINE
  5
16B
  8
0
  6
CONTINUOUS
 62
     7
 10
1808.634126799258
 20
2705.742772236579
 30
0.0
 11
2553.13412679926
 21
2705.742772236578
 31
0.0
  0
LINE
  5
16C
  8
0
  6
CONTINUOUS
 62
     7
 10
1808.634126799258
 20
2704.746531959654
 30
0.0
 11
1808.634126799258
 21
2705.742772236579
 31
0.0
  0
LINE
  5
16D
  8
0
  6
CONTINUOUS
 62
     7
 10
2553.13412679926
 20
2716.125958466598
 30
0.0
 11
1808.634126799258
 21
2716.125958466598
 31
0.0
  0
LINE
  5
16E
  8
0
  6
CONTINUOUS
 62
     7
 10
1808.634126799258
 20
2705.742772236579
 30
0.0
 11
1808.634126799258
 21
2716.125958466598
 31
0.0
  0
LINE
  5
16F
  8
0
  6
CONTINUOUS
 62
     7
 10
1808.634126799258
 20
2716.825958466598
 30
0.0
 11
1808.634126799258
 21
2716.125958466598
 31
0.0
  0
LINE
  5
170
  8
0
  6
CONTINUOUS
 62
     7
 10
1807.634126799258
 20
2702.776010386615
 30
0.0
 11
1807.634126799258
 21
2703.706095285635
 31
0.0
  0
ARC
  5
171
  8
0
  6
CONTINUOUS
 62
     7
 10
1807.833751533727
 20
2703.705718603884
 30
0.0
 40
0.1996250898582628
 50
89.89229237755916
 51
179.8918858978871
  0
LINE
  5
172
  8
0
  6
CONTINUOUS
 62
     7
 10
1807.834126799258
 20
2703.905343341019
 30
0.0
 11
1807.834126799258
 21
2702.742737217245
 31
0.0
  0
ARC
  5
173
  8
0
  6
CONTINUOUS
 62
     7
 10
1807.785510679008
 20
2703.068234549034
 30
0.0
 40
0.329107946044434
 50
242.6140248796422
 51
278.4948720917303
  0
LINE
  5
174
  8
0
  6
CONTINUOUS
 62
     7
 10
1808.634126799258
 20
2702.742737217245
 30
0.0
 11
1807.834126799258
 21
2702.742737217245
 31
0.0
  0
LINE
  5
175
  8
0
  6
CONTINUOUS
 62
     7
 10
1808.634126799258
 20
2703.905343341019
 30
0.0
 11
1807.834126799258
 21
2703.905343341019
 31
0.0
  0
LINE
  5
176
  8
0
  6
CONTINUOUS
 62
     7
 10
1807.634126799258
 20
2702.60874678314
 30
0.0
 11
1807.634126799258
 21
2702.776010386615
 31
0.0
  0
LINE
  5
177
  8
0
  6
CONTINUOUS
 62
     7
 10
1807.834126799258
 20
2702.742737217245
 30
0.0
 11
1807.834126799258
 21
2702.32596869537
 31
0.0
  0
POLYLINE
  5
178
  8
0
  6
CONTINUOUS
 62
     7
 66
     1
 10
0.0
 20
0.0
 30
0.0
  0
VERTEX
  5
658
  8
0
  6
CONTINUOUS
 62
     7
 10
1807.634126799258
 20
2702.60874678314
 30
0.0
  0
VERTEX
  5
659
  8
0
  6
CONTINUOUS
 62
     7
 10
1807.63414423602
 20
2702.602395323227
 30
0.0
  0
VERTEX
  5
65A
  8
0
  6
CONTINUOUS
 62
     7
 10
1807.634200033784
 20
2702.5960672619
 30
0.0
  0
VERTEX
  5
65B
  8
0
  6
CONTINUOUS
 62
     7
 10
1807.634298635374
 20
2702.589764583332
 30
0.0
  0
VERTEX
  5
65C
  8
0
  6
CONTINUOUS
 62
     7
 10
1807.634443071583
 20
2702.583488380197
 30
0.0
  0
VERTEX
  5
65D
  8
0
  6
CONTINUOUS
 62
     7
 10
1807.634636373206
 20
2702.577239745173
 30
0.0
  0
VERTEX
  5
65E
  8
0
  6
CONTINUOUS
 62
     7
 10
1807.634881571036
 20
2702.571019770935
 30
0.0
  0
VERTEX
  5
65F
  8
0
  6
CONTINUOUS
 62
     7
 10
1807.635181695867
 20
2702.564829550159
 30
0.0
  0
VERTEX
  5
660
  8
0
  6
CONTINUOUS
 62
     7
 10
1807.635539778493
 20
2702.558670175523
 30
0.0
  0
VERTEX
  5
661
  8
0
  6
CONTINUOUS
 62
     7
 10
1807.635958849708
 20
2702.552542739704
 30
0.0
  0
VERTEX
  5
662
  8
0
  6
CONTINUOUS
 62
     7
 10
1807.636441940306
 20
2702.546448335376
 30
0.0
  0
VERTEX
  5
663
  8
0
  6
CONTINUOUS
 62
     7
 10
1807.636992081079
 20
2702.540388055218
 30
0.0
  0
VERTEX
  5
664
  8
0
  6
CONTINUOUS
 62
     7
 10
1807.637612302823
 20
2702.534362991904
 30
0.0
  0
VERTEX
  5
665
  8
0
  6
CONTINUOUS
 62
     7
 10
1807.638305636331
 20
2702.528374238113
 30
0.0
  0
VERTEX
  5
666
  8
0
  6
CONTINUOUS
 62
     7
 10
1807.639075112397
 20
2702.52242288652
 30
0.0
  0
VERTEX
  5
667
  8
0
  6
CONTINUOUS
 62
     7
 10
1807.639923761814
 20
2702.516510029801
 30
0.0
  0
VERTEX
  5
668
  8
0
  6
CONTINUOUS
 62
     7
 10
1807.640854615377
 20
2702.510636760634
 30
0.0
  0
VERTEX
  5
669
  8
0
  6
CONTINUOUS
 62
     7
 10
1807.641870703878
 20
2702.504804171694
 30
0.0
  0
VERTEX
  5
66A
  8
0
  6
CONTINUOUS
 62
     7
 10
1807.642975058113
 20
2702.499013355658
 30
0.0
  0
VERTEX
  5
66B
  8
0
  6
CONTINUOUS
 62
     7
 10
1807.644170708875
 20
2702.493265405203
 30
0.0
  0
VERTEX
  5
66C
  8
0
  6
CONTINUOUS
 62
     7
 10
1807.645460686957
 20
2702.487561413005
 30
0.0
  0
VERTEX
  5
66D
  8
0
  6
CONTINUOUS
 62
     7
 10
1807.646848023154
 20
2702.48190247174
 30
0.0
  0
VERTEX
  5
66E
  8
0
  6
CONTINUOUS
 62
     7
 10
1807.648335748259
 20
2702.476289674085
 30
0.0
  0
VERTEX
  5
66F
  8
0
  6
CONTINUOUS
 62
     7
 10
1807.649926893066
 20
2702.470724112717
 30
0.0
  0
VERTEX
  5
670
  8
0
  6
CONTINUOUS
 62
     7
 10
1807.65162448837
 20
2702.465206880312
 30
0.0
  0
VERTEX
  5
671
  8
0
  6
CONTINUOUS
 62
     7
 10
1807.653431577519
 20
2702.459739129292
 30
0.0
  0
VERTEX
  5
672
  8
0
  6
CONTINUOUS
 62
     7
 10
1807.655351426427
 20
2702.454323071093
 30
0.0
  0
VERTEX
  5
673
  8
0
  6
CONTINUOUS
 62
     7
 10
1807.657387492008
 20
2702.448961825983
 30
0.0
  0
VERTEX
  5
674
  8
0
  6
CONTINUOUS
 62
     7
 10
1807.659543237374
 20
2702.443658543724
 30
0.0
  0
VERTEX
  5
675
  8
0
  6
CONTINUOUS
 62
     7
 10
1807.661822125637
 20
2702.438416374079
 30
0.0
  0
VERTEX
  5
676
  8
0
  6
CONTINUOUS
 62
     7
 10
1807.66422761991
 20
2702.43323846681
 30
0.0
  0
VERTEX
  5
677
  8
0
  6
CONTINUOUS
 62
     7
 10
1807.666763183306
 20
2702.428127971677
 30
0.0
  0
VERTEX
  5
678
  8
0
  6
CONTINUOUS
 62
     7
 10
1807.669432278936
 20
2702.423088038445
 30
0.0
  0
VERTEX
  5
679
  8
0
  6
CONTINUOUS
 62
     7
 10
1807.672238369913
 20
2702.418121816874
 30
0.0
  0
VERTEX
  5
67A
  8
0
  6
CONTINUOUS
 62
     7
 10
1807.675184919348
 20
2702.413232456728
 30
0.0
  0
VERTEX
  5
67B
  8
0
  6
CONTINUOUS
 62
     7
 10
1807.678275390354
 20
2702.408423107766
 30
0.0
  0
VERTEX
  5
67C
  8
0
  6
CONTINUOUS
 62
     7
 10
1807.681513246044
 20
2702.403696919753
 30
0.0
  0
VERTEX
  5
67D
  8
0
  6
CONTINUOUS
 62
     7
 10
1807.684901949531
 20
2702.399057042449
 30
0.0
  0
VERTEX
  5
67E
  8
0
  6
CONTINUOUS
 62
     7
 10
1807.688444963924
 20
2702.394506625616
 30
0.0
  0
VERTEX
  5
67F
  8
0
  6
CONTINUOUS
 62
     7
 10
1807.692145750731
 20
2702.390048819896
 30
0.0
  0
VERTEX
  5
680
  8
0
  6
CONTINUOUS
 62
     7
 10
1807.696007076602
 20
2702.38568715527
 30
0.0
  0
VERTEX
  5
681
  8
0
  6
CONTINUOUS
 62
     7
 10
1807.700029931463
 20
2702.381426131695
 30
0.0
  0
VERTEX
  5
682
  8
0
  6
CONTINUOUS
 62
     7
 10
1807.704215025311
 20
2702.377270401947
 30
0.0
  0
VERTEX
  5
683
  8
0
  6
CONTINUOUS
 62
     7
 10
1807.708563068145
 20
2702.373224618805
 30
0.0
  0
VERTEX
  5
684
  8
0
  6
CONTINUOUS
 62
     7
 10
1807.713074769961
 20
2702.369293435045
 30
0.0
  0
VERTEX
  5
685
  8
0
  6
CONTINUOUS
 62
     7
 10
1807.717750840758
 20
2702.365481503446
 30
0.0
  0
VERTEX
  5
686
  8
0
  6
CONTINUOUS
 62
     7
 10
1807.722591990534
 20
2702.361793476785
 30
0.0
  0
VERTEX
  5
687
  8
0
  6
CONTINUOUS
 62
     7
 10
1807.727598929286
 20
2702.35823400784
 30
0.0
  0
VERTEX
  5
688
  8
0
  6
CONTINUOUS
 62
     7
 10
1807.732772367012
 20
2702.354807749388
 30
0.0
  0
VERTEX
  5
689
  8
0
  6
CONTINUOUS
 62
     7
 10
1807.738113013705
 20
2702.351519354216
 30
0.0
  0
VERTEX
  5
68A
  8
0
  6
CONTINUOUS
 62
     7
 10
1807.743620355854
 20
2702.348375984495
 30
0.0
  0
VERTEX
  5
68B
  8
0
  6
CONTINUOUS
 62
     7
 10
1807.74928921351
 20
2702.345394373154
 30
0.0
  0
VERTEX
  5
68C
  8
0
  6
CONTINUOUS
 62
     7
 10
1807.755113294395
 20
2702.342593534494
 30
0.0
  0
VERTEX
  5
68D
  8
0
  6
CONTINUOUS
 62
     7
 10
1807.761086306228
 20
2702.33999248282
 30
0.0
  0
VERTEX
  5
68E
  8
0
  6
CONTINUOUS
 62
     7
 10
1807.767201956727
 20
2702.337610232433
 30
0.0
  0
VERTEX
  5
68F
  8
0
  6
CONTINUOUS
 62
     7
 10
1807.773453953613
 20
2702.335465797634
 30
0.0
  0
VERTEX
  5
690
  8
0
  6
CONTINUOUS
 62
     7
 10
1807.779836004606
 20
2702.333578192728
 30
0.0
  0
VERTEX
  5
691
  8
0
  6
CONTINUOUS
 62
     7
 10
1807.786341585338
 20
2702.331965079273
 30
0.0
  0
VERTEX
  5
692
  8
0
  6
CONTINUOUS
 62
     7
 10
1807.792959358409
 20
2702.330616065454
 30
0.0
  0
VERTEX
  5
693
  8
0
  6
CONTINUOUS
 62
     7
 10
1807.799673448123
 20
2702.329494307424
 30
0.0
  0
VERTEX
  5
694
  8
0
  6
CONTINUOUS
 62
     7
 10
1807.806467801707
 20
2702.328561929223
 30
0.0
  0
VERTEX
  5
695
  8
0
  6
CONTINUOUS
 62
     7
 10
1807.813326366386
 20
2702.327781054881
 30
0.0
  0
VERTEX
  5
696
  8
0
  6
CONTINUOUS
 62
     7
 10
1807.820233089387
 20
2702.327113808435
 30
0.0
  0
VERTEX
  5
697
  8
0
  6
CONTINUOUS
 62
     7
 10
1807.827171917935
 20
2702.32652231392
 30
0.0
  0
VERTEX
  5
698
  8
0
  6
CONTINUOUS
 62
     7
 10
1807.834126799258
 20
2702.32596869537
 30
0.0
  0
SEQEND
  5
728
  8
0
  6
CONTINUOUS
 62
     7
  0
LINE
  5
179
  8
0
  6
CONTINUOUS
 62
     7
 10
1808.634126799258
 20
2702.32596869537
 30
0.0
 11
1807.834126799258
 21
2702.32596869537
 31
0.0
  0
ARC
  5
17A
  8
0
  6
CONTINUOUS
 62
     7
 10
1807.833751533726
 20
2704.546907222518
 30
0.0
 40
0.1996250898575798
 50
89.89229237736315
 51
179.8918858980172
  0
LINE
  5
17B
  8
0
  6
CONTINUOUS
 62
     7
 10
1807.834126799258
 20
2704.746531959654
 30
0.0
 11
1807.834126799258
 21
2703.905343341019
 31
0.0
  0
LINE
  5
17C
  8
0
  6
CONTINUOUS
 62
     7
 10
1807.634126799258
 20
2703.706095285635
 30
0.0
 11
1807.634126799258
 21
2704.547283904269
 31
0.0
  0
LINE
  5
17D
  8
0
  6
CONTINUOUS
 62
     7
 10
1808.634126799258
 20
2704.746531959654
 30
0.0
 11
1807.834126799258
 21
2704.746531959654
 31
0.0
  0
LINE
  5
17E
  8
0
  6
CONTINUOUS
 62
     7
 10
1807.634126799258
 20
2705.742772236579
 30
0.0
 11
1807.834126799258
 21
2705.742772236579
 31
0.0
  0
LINE
  5
17F
  8
0
  6
CONTINUOUS
 62
     7
 10
1807.834126799258
 20
2705.742772236579
 30
0.0
 11
1807.834126799258
 21
2704.746531959654
 31
0.0
  0
LINE
  5
180
  8
0
  6
CONTINUOUS
 62
     7
 10
1807.634126799258
 20
2704.547283904269
 30
0.0
 11
1807.634126799258
 21
2705.742772236579
 31
0.0
  0
LINE
  5
181
  8
0
  6
CONTINUOUS
 62
     7
 10
1807.834126799258
 20
2705.742772236579
 30
0.0
 11
1808.634126799258
 21
2705.742772236579
 31
0.0
  0
LINE
  5
182
  8
0
  6
CONTINUOUS
 62
     7
 10
1807.634126799258
 20
2716.125958466598
 30
0.0
 11
1807.834126799258
 21
2716.125958466598
 31
0.0
  0
LINE
  5
183
  8
0
  6
CONTINUOUS
 62
     7
 10
1807.834126799258
 20
2716.125958466598
 30
0.0
 11
1807.834126799258
 21
2705.742772236579
 31
0.0
  0
LINE
  5
184
  8
0
  6
CONTINUOUS
 62
     7
 10
1807.634126799258
 20
2705.742772236579
 30
0.0
 11
1807.634126799258
 21
2716.125958466598
 31
0.0
  0
LINE
  5
185
  8
0
  6
CONTINUOUS
 62
     7
 10
1808.634126799258
 20
2716.125958466598
 30
0.0
 11
1807.834126799258
 21
2716.125958466598
 31
0.0
  0
LINE
  5
186
  8
0
  6
CONTINUOUS
 62
     7
 10
1807.634126799258
 20
2716.125958466598
 30
0.0
 11
1807.634126799258
 21
2716.825958466598
 31
0.0
  0
LINE
  5
187
  8
0
  6
CONTINUOUS
 62
     7
 10
2555.884126799258
 20
2702.776010386615
 30
0.0
 11
2555.884126799258
 21
2703.706095285635
 31
0.0
  0
ARC
  5
188
  8
0
  6
CONTINUOUS
 62
     7
 10
2556.083751533728
 20
2703.705718603883
 30
0.0
 40
0.1996250898589466
 50
89.89229237788597
 51
179.8918858976264
  0
LINE
  5
189
  8
0
  6
CONTINUOUS
 62
     7
 10
2556.084126799258
 20
2703.905343341019
 30
0.0
 11
2556.084126799258
 21
2702.742737217245
 31
0.0
  0
ARC
  5
18A
  8
0
  6
CONTINUOUS
 62
     7
 10
2556.035510679008
 20
2703.068234549035
 30
0.0
 40
0.3291079460452999
 50
242.6140248797502
 51
278.4948720916678
  0
LINE
  5
18B
  8
0
  6
CONTINUOUS
 62
     7
 10
2556.884126799258
 20
2702.742737217245
 30
0.0
 11
2556.084126799258
 21
2702.742737217245
 31
0.0
  0
LINE
  5
18C
  8
0
  6
CONTINUOUS
 62
     7
 10
2556.884126799258
 20
2703.905343341019
 30
0.0
 11
2556.084126799258
 21
2703.905343341019
 31
0.0
  0
LINE
  5
18D
  8
0
  6
CONTINUOUS
 62
     7
 10
2555.884126799258
 20
2702.60874678314
 30
0.0
 11
2555.884126799258
 21
2702.776010386615
 31
0.0
  0
LINE
  5
18E
  8
0
  6
CONTINUOUS
 62
     7
 10
2556.084126799258
 20
2702.742737217245
 30
0.0
 11
2556.084126799258
 21
2702.32596869537
 31
0.0
  0
POLYLINE
  5
18F
  8
0
  6
CONTINUOUS
 62
     7
 66
     1
 10
0.0
 20
0.0
 30
0.0
  0
VERTEX
  5
699
  8
0
  6
CONTINUOUS
 62
     7
 10
2555.884126799258
 20
2702.60874678314
 30
0.0
  0
VERTEX
  5
69A
  8
0
  6
CONTINUOUS
 62
     7
 10
2555.884144236021
 20
2702.602395323226
 30
0.0
  0
VERTEX
  5
69B
  8
0
  6
CONTINUOUS
 62
     7
 10
2555.884200033785
 20
2702.5960672619
 30
0.0
  0
VERTEX
  5
69C
  8
0
  6
CONTINUOUS
 62
     7
 10
2555.884298635375
 20
2702.589764583332
 30
0.0
  0
VERTEX
  5
69D
  8
0
  6
CONTINUOUS
 62
     7
 10
2555.884443071584
 20
2702.583488380197
 30
0.0
  0
VERTEX
  5
69E
  8
0
  6
CONTINUOUS
 62
     7
 10
2555.884636373207
 20
2702.577239745172
 30
0.0
  0
VERTEX
  5
69F
  8
0
  6
CONTINUOUS
 62
     7
 10
2555.884881571037
 20
2702.571019770934
 30
0.0
  0
VERTEX
  5
6A0
  8
0
  6
CONTINUOUS
 62
     7
 10
2555.885181695869
 20
2702.564829550158
 30
0.0
  0
VERTEX
  5
6A1
  8
0
  6
CONTINUOUS
 62
     7
 10
2555.885539778494
 20
2702.558670175522
 30
0.0
  0
VERTEX
  5
6A2
  8
0
  6
CONTINUOUS
 62
     7
 10
2555.885958849708
 20
2702.552542739702
 30
0.0
  0
VERTEX
  5
6A3
  8
0
  6
CONTINUOUS
 62
     7
 10
2555.886441940306
 20
2702.546448335375
 30
0.0
  0
VERTEX
  5
6A4
  8
0
  6
CONTINUOUS
 62
     7
 10
2555.88699208108
 20
2702.540388055217
 30
0.0
  0
VERTEX
  5
6A5
  8
0
  6
CONTINUOUS
 62
     7
 10
2555.887612302824
 20
2702.534362991904
 30
0.0
  0
VERTEX
  5
6A6
  8
0
  6
CONTINUOUS
 62
     7
 10
2555.888305636332
 20
2702.528374238112
 30
0.0
  0
VERTEX
  5
6A7
  8
0
  6
CONTINUOUS
 62
     7
 10
2555.889075112398
 20
2702.522422886519
 30
0.0
  0
VERTEX
  5
6A8
  8
0
  6
CONTINUOUS
 62
     7
 10
2555.889923761814
 20
2702.5165100298
 30
0.0
  0
VERTEX
  5
6A9
  8
0
  6
CONTINUOUS
 62
     7
 10
2555.890854615377
 20
2702.510636760633
 30
0.0
  0
VERTEX
  5
6AA
  8
0
  6
CONTINUOUS
 62
     7
 10
2555.891870703879
 20
2702.504804171693
 30
0.0
  0
VERTEX
  5
6AB
  8
0
  6
CONTINUOUS
 62
     7
 10
2555.892975058114
 20
2702.499013355658
 30
0.0
  0
VERTEX
  5
6AC
  8
0
  6
CONTINUOUS
 62
     7
 10
2555.894170708875
 20
2702.493265405203
 30
0.0
  0
VERTEX
  5
6AD
  8
0
  6
CONTINUOUS
 62
     7
 10
2555.895460686957
 20
2702.487561413005
 30
0.0
  0
VERTEX
  5
6AE
  8
0
  6
CONTINUOUS
 62
     7
 10
2555.896848023154
 20
2702.48190247174
 30
0.0
  0
VERTEX
  5
6AF
  8
0
  6
CONTINUOUS
 62
     7
 10
2555.89833574826
 20
2702.476289674086
 30
0.0
  0
VERTEX
  5
6B0
  8
0
  6
CONTINUOUS
 62
     7
 10
2555.899926893067
 20
2702.470724112718
 30
0.0
  0
VERTEX
  5
6B1
  8
0
  6
CONTINUOUS
 62
     7
 10
2555.901624488371
 20
2702.465206880312
 30
0.0
  0
VERTEX
  5
6B2
  8
0
  6
CONTINUOUS
 62
     7
 10
2555.903431577519
 20
2702.459739129292
 30
0.0
  0
VERTEX
  5
6B3
  8
0
  6
CONTINUOUS
 62
     7
 10
2555.905351426427
 20
2702.454323071093
 30
0.0
  0
VERTEX
  5
6B4
  8
0
  6
CONTINUOUS
 62
     7
 10
2555.907387492009
 20
2702.448961825983
 30
0.0
  0
VERTEX
  5
6B5
  8
0
  6
CONTINUOUS
 62
     7
 10
2555.909543237375
 20
2702.443658543724
 30
0.0
  0
VERTEX
  5
6B6
  8
0
  6
CONTINUOUS
 62
     7
 10
2555.911822125638
 20
2702.438416374079
 30
0.0
  0
VERTEX
  5
6B7
  8
0
  6
CONTINUOUS
 62
     7
 10
2555.914227619911
 20
2702.43323846681
 30
0.0
  0
VERTEX
  5
6B8
  8
0
  6
CONTINUOUS
 62
     7
 10
2555.916763183306
 20
2702.428127971677
 30
0.0
  0
VERTEX
  5
6B9
  8
0
  6
CONTINUOUS
 62
     7
 10
2555.919432278936
 20
2702.423088038445
 30
0.0
  0
VERTEX
  5
6BA
  8
0
  6
CONTINUOUS
 62
     7
 10
2555.922238369913
 20
2702.418121816874
 30
0.0
  0
VERTEX
  5
6BB
  8
0
  6
CONTINUOUS
 62
     7
 10
2555.925184919349
 20
2702.413232456728
 30
0.0
  0
VERTEX
  5
6BC
  8
0
  6
CONTINUOUS
 62
     7
 10
2555.928275390355
 20
2702.408423107766
 30
0.0
  0
VERTEX
  5
6BD
  8
0
  6
CONTINUOUS
 62
     7
 10
2555.931513246045
 20
2702.403696919752
 30
0.0
  0
VERTEX
  5
6BE
  8
0
  6
CONTINUOUS
 62
     7
 10
2555.934901949531
 20
2702.399057042448
 30
0.0
  0
VERTEX
  5
6BF
  8
0
  6
CONTINUOUS
 62
     7
 10
2555.938444963925
 20
2702.394506625616
 30
0.0
  0
VERTEX
  5
6C0
  8
0
  6
CONTINUOUS
 62
     7
 10
2555.942145750731
 20
2702.390048819896
 30
0.0
  0
VERTEX
  5
6C1
  8
0
  6
CONTINUOUS
 62
     7
 10
2555.946007076603
 20
2702.385687155271
 30
0.0
  0
VERTEX
  5
6C2
  8
0
  6
CONTINUOUS
 62
     7
 10
2555.950029931464
 20
2702.381426131695
 30
0.0
  0
VERTEX
  5
6C3
  8
0
  6
CONTINUOUS
 62
     7
 10
2555.954215025312
 20
2702.377270401947
 30
0.0
  0
VERTEX
  5
6C4
  8
0
  6
CONTINUOUS
 62
     7
 10
2555.958563068145
 20
2702.373224618804
 30
0.0
  0
VERTEX
  5
6C5
  8
0
  6
CONTINUOUS
 62
     7
 10
2555.963074769961
 20
2702.369293435045
 30
0.0
  0
VERTEX
  5
6C6
  8
0
  6
CONTINUOUS
 62
     7
 10
2555.967750840758
 20
2702.365481503446
 30
0.0
  0
VERTEX
  5
6C7
  8
0
  6
CONTINUOUS
 62
     7
 10
2555.972591990534
 20
2702.361793476785
 30
0.0
  0
VERTEX
  5
6C8
  8
0
  6
CONTINUOUS
 62
     7
 10
2555.977598929286
 20
2702.35823400784
 30
0.0
  0
VERTEX
  5
6C9
  8
0
  6
CONTINUOUS
 62
     7
 10
2555.982772367012
 20
2702.354807749388
 30
0.0
  0
VERTEX
  5
6CA
  8
0
  6
CONTINUOUS
 62
     7
 10
2555.988113013706
 20
2702.351519354216
 30
0.0
  0
VERTEX
  5
6CB
  8
0
  6
CONTINUOUS
 62
     7
 10
2555.993620355854
 20
2702.348375984495
 30
0.0
  0
VERTEX
  5
6CC
  8
0
  6
CONTINUOUS
 62
     7
 10
2555.999289213511
 20
2702.345394373154
 30
0.0
  0
VERTEX
  5
6CD
  8
0
  6
CONTINUOUS
 62
     7
 10
2556.005113294395
 20
2702.342593534494
 30
0.0
  0
VERTEX
  5
6CE
  8
0
  6
CONTINUOUS
 62
     7
 10
2556.011086306228
 20
2702.33999248282
 30
0.0
  0
VERTEX
  5
6CF
  8
0
  6
CONTINUOUS
 62
     7
 10
2556.017201956728
 20
2702.337610232433
 30
0.0
  0
VERTEX
  5
6D0
  8
0
  6
CONTINUOUS
 62
     7
 10
2556.023453953614
 20
2702.335465797634
 30
0.0
  0
VERTEX
  5
6D1
  8
0
  6
CONTINUOUS
 62
     7
 10
2556.029836004606
 20
2702.333578192728
 30
0.0
  0
VERTEX
  5
6D2
  8
0
  6
CONTINUOUS
 62
     7
 10
2556.036341585339
 20
2702.331965079273
 30
0.0
  0
VERTEX
  5
6D3
  8
0
  6
CONTINUOUS
 62
     7
 10
2556.042959358409
 20
2702.330616065454
 30
0.0
  0
VERTEX
  5
6D4
  8
0
  6
CONTINUOUS
 62
     7
 10
2556.049673448123
 20
2702.329494307424
 30
0.0
  0
VERTEX
  5
6D5
  8
0
  6
CONTINUOUS
 62
     7
 10
2556.056467801708
 20
2702.328561929223
 30
0.0
  0
VERTEX
  5
6D6
  8
0
  6
CONTINUOUS
 62
     7
 10
2556.063326366386
 20
2702.327781054881
 30
0.0
  0
VERTEX
  5
6D7
  8
0
  6
CONTINUOUS
 62
     7
 10
2556.070233089387
 20
2702.327113808435
 30
0.0
  0
VERTEX
  5
6D8
  8
0
  6
CONTINUOUS
 62
     7
 10
2556.077171917936
 20
2702.32652231392
 30
0.0
  0
VERTEX
  5
6D9
  8
0
  6
CONTINUOUS
 62
     7
 10
2556.084126799258
 20
2702.32596869537
 30
0.0
  0
SEQEND
  5
729
  8
0
  6
CONTINUOUS
 62
     7
  0
LINE
  5
190
  8
0
  6
CONTINUOUS
 62
     7
 10
2556.884126799258
 20
2702.32596869537
 30
0.0
 11
2556.084126799258
 21
2702.32596869537
 31
0.0
  0
ARC
  5
191
  8
0
  6
CONTINUOUS
 62
     7
 10
2556.083751533727
 20
2704.546907222517
 30
0.0
 40
0.1996250898582732
 50
89.89229237749416
 51
179.8918858977562
  0
LINE
  5
192
  8
0
  6
CONTINUOUS
 62
     7
 10
2556.084126799258
 20
2704.746531959654
 30
0.0
 11
2556.084126799258
 21
2703.905343341019
 31
0.0
  0
LINE
  5
193
  8
0
  6
CONTINUOUS
 62
     7
 10
2555.884126799258
 20
2703.706095285635
 30
0.0
 11
2555.884126799258
 21
2704.547283904269
 31
0.0
  0
LINE
  5
194
  8
0
  6
CONTINUOUS
 62
     7
 10
2556.884126799258
 20
2704.746531959654
 30
0.0
 11
2556.084126799258
 21
2704.746531959654
 31
0.0
  0
LINE
  5
195
  8
0
  6
CONTINUOUS
 62
     7
 10
2555.884126799258
 20
2705.742772236579
 30
0.0
 11
2556.084126799258
 21
2705.742772236579
 31
0.0
  0
LINE
  5
196
  8
0
  6
CONTINUOUS
 62
     7
 10
2556.084126799258
 20
2705.742772236579
 30
0.0
 11
2556.084126799258
 21
2704.746531959654
 31
0.0
  0
LINE
  5
197
  8
0
  6
CONTINUOUS
 62
     7
 10
2555.884126799258
 20
2704.547283904269
 30
0.0
 11
2555.884126799258
 21
2705.742772236579
 31
0.0
  0
LINE
  5
198
  8
0
  6
CONTINUOUS
 62
     7
 10
2556.084126799258
 20
2705.742772236579
 30
0.0
 11
2556.884126799258
 21
2705.742772236579
 31
0.0
  0
LINE
  5
199
  8
0
  6
CONTINUOUS
 62
     7
 10
2556.084126799258
 20
2716.125958466598
 30
0.0
 11
2556.084126799258
 21
2705.742772236579
 31
0.0
  0
LINE
  5
19A
  8
0
  6
CONTINUOUS
 62
     7
 10
2556.884126799258
 20
2716.125958466598
 30
0.0
 11
2556.084126799258
 21
2716.125958466598
 31
0.0
  0
LINE
  5
19B
  8
0
  6
CONTINUOUS
 62
     7
 10
2555.884126799258
 20
2716.125958466598
 30
0.0
 11
2556.084126799258
 21
2716.125958466598
 31
0.0
  0
LINE
  5
19C
  8
0
  6
CONTINUOUS
 62
     7
 10
2555.884126799258
 20
2705.742772236579
 30
0.0
 11
2555.884126799258
 21
2716.125958466598
 31
0.0
  0
LINE
  5
19D
  8
0
  6
CONTINUOUS
 62
     7
 10
2555.884126799258
 20
2716.125958466598
 30
0.0
 11
2555.884126799258
 21
2716.825958466598
 31
0.0
  0
LINE
  5
19E
  8
0
  6
CONTINUOUS
 62
     7
 10
2553.634126799258
 20
2698.825958466598
 30
0.0
 11
1807.634126799258
 21
2698.825958466598
 31
0.0
  0
LINE
  5
19F
  8
0
  6
CONTINUOUS
 62
     7
 10
1807.634126799258
 20
2698.825958466598
 30
0.0
 11
1807.634126799258
 21
2702.60874678314
 31
0.0
  0
LINE
  5
1A0
  8
0
  6
CONTINUOUS
 62
     7
 10
2553.634126799258
 20
2698.825958466598
 30
0.0
 11
2553.634126799258
 21
2702.325968695369
 31
0.0
  0
LINE
  5
1A1
  8
0
  6
CONTINUOUS
 62
     7
 10
3307.384126799258
 20
3297.325958466598
 30
0.0
 11
1802.384126799258
 21
3297.325958466598
 31
0.0
  0
LINE
  5
1A2
  8
0
  6
CONTINUOUS
 62
     7
 10
3307.384126799258
 20
2716.825958466598
 30
0.0
 11
1802.384126799258
 21
2716.825958466598
 31
0.0
  0
LINE
  5
1A3
  8
0
  6
CONTINUOUS
 62
     7
 10
1802.384126799258
 20
3297.325958466598
 30
0.0
 11
1802.384126799258
 21
2716.825958466598
 31
0.0
  0
LINE
  5
1A4
  8
0
  6
CONTINUOUS
 62
     7
 10
3307.384126799258
 20
3297.325958466598
 30
0.0
 11
3307.384126799258
 21
2716.825958466598
 31
0.0
  0
LINE
  5
1A6
  8
0
  6
CONTINUOUS
 62
     8
 10
2553.93412679926
 20
2716.125958466598
 30
0.0
 11
2553.93412679926
 21
2716.825958466598
 31
0.0
  0
LINE
  5
1A7
  8
0
  6
CONTINUOUS
 62
     8
 10
3302.18412679926
 20
2716.125958466598
 30
0.0
 11
3302.18412679926
 21
2716.825958466598
 31
0.0
  0
LINE
  5
1A8
  8
0
  6
CONTINUOUS
 62
     8
 10
1807.834126799258
 20
2716.825958466598
 30
0.0
 11
1807.834126799258
 21
2716.125958466598
 31
0.0
  0
LINE
  5
1A9
  8
0
  6
CONTINUOUS
 62
     8
 10
2556.084126799258
 20
2716.825958466598
 30
0.0
 11
2556.084126799258
 21
2716.125958466598
 31
0.0
  0
LINE
  5
1AA
  8
0
  6
CONTINUOUS
 62
     7
 10
3898.931141865447
 20
1642.27683187571
 30
0.0
 11
3898.931141865447
 21
1984.77683187571
 31
0.0
  0
LINE
  5
1AB
  8
0
  6
CONTINUOUS
 62
     7
 10
3880.931141865447
 20
2018.27683187571
 30
0.0
 11
3884.431152094219
 21
2018.27683187571
 31
0.0
  0
LINE
  5
1AC
  8
0
  6
CONTINUOUS
 62
     7
 10
3880.931141865447
 20
1642.27683187571
 30
0.0
 11
3898.931141865447
 21
1642.27683187571
 31
0.0
  0
LINE
  5
1AD
  8
0
  6
CONTINUOUS
 62
     7
 10
3897.431141865447
 20
1985.276831875709
 30
0.0
 11
3897.431141865447
 21
1984.77683187571
 31
0.0
  0
LINE
  5
1AE
  8
0
  6
CONTINUOUS
 62
     7
 10
3897.431141865447
 20
1984.77683187571
 30
0.0
 11
3898.931141865447
 21
1984.77683187571
 31
0.0
  0
LINE
  5
1AF
  8
0
  6
CONTINUOUS
 62
     7
 10
3880.931141865447
 20
1642.27683187571
 30
0.0
 11
3880.931141865447
 21
2018.27683187571
 31
0.0
  0
ARC
  5
1B0
  8
0
  6
CONTINUOUS
 62
     7
 10
3885.014286462943
 20
2017.77683187571
 30
0.0
 40
0.8000000000004532
 50
4.969946594708118
 51
99.57658848101079
  0
LINE
  5
1B1
  8
0
  6
CONTINUOUS
 62
     7
 10
3884.881193785464
 20
2018.565683153963
 30
0.0
 11
3884.847920616094
 21
2018.762895973526
 31
0.0
  0
ARC
  5
1B2
  8
0
  6
CONTINUOUS
 62
     7
 10
3885.014286462943
 20
2017.77683187571
 30
0.0
 40
1.000000000000443
 50
4.969946594702192
 51
99.5765884810419
  0
LINE
  5
1B3
  8
0
  6
CONTINUOUS
 62
     7
 10
3885.811278684484
 20
2017.846138432435
 30
0.0
 11
3886.010526739869
 21
2017.863465071616
 31
0.0
  0
ARC
  5
1B4
  8
0
  6
CONTINUOUS
 62
     7
 10
3887.847955635427
 20
2008.27683187571
 30
0.0
 40
1.0
 50
184.9699465946815
 51
270.0000000000008
  0
LINE
  5
1B5
  8
0
  6
CONTINUOUS
 62
     7
 10
3887.847955635427
 20
2007.27683187571
 30
0.0
 11
3887.847955635427
 21
2007.07683187571
 31
0.0
  0
ARC
  5
1B6
  8
0
  6
CONTINUOUS
 62
     7
 10
3887.847955635427
 20
2008.27683187571
 30
0.0
 40
1.199999999999941
 50
184.9699465946793
 51
270.0000000000008
  0
LINE
  5
1B7
  8
0
  6
CONTINUOUS
 62
     7
 10
3886.851715358503
 20
2008.190198679804
 30
0.0
 11
3886.652467303118
 21
2008.172872040622
 31
0.0
  0
LINE
  5
1B8
  8
0
  6
CONTINUOUS
 62
     7
 10
3885.131141865447
 20
2018.47683187571
 30
0.0
 11
3885.131141865447
 21
2005.47683187571
 31
0.0
  0
LINE
  5
1B9
  8
0
  6
CONTINUOUS
 62
     7
 10
3885.131141865447
 20
2005.47683187571
 30
0.0
 11
3884.931141865447
 21
2005.27683187571
 31
0.0
  0
LINE
  5
1BA
  8
0
  6
CONTINUOUS
 62
     7
 10
3884.931141865447
 20
2005.27683187571
 30
0.0
 11
3884.931141865447
 21
2018.27683187571
 31
0.0
  0
LINE
  5
1BB
  8
0
  6
CONTINUOUS
 62
     7
 10
3885.131141865447
 20
2018.47683187571
 30
0.0
 11
3884.931141865447
 21
2018.27683187571
 31
0.0
  0
LINE
  5
1BC
  8
0
  6
CONTINUOUS
 62
     7
 10
3899.031141865446
 20
1985.276831875709
 30
0.0
 11
3899.031141865446
 21
1985.476831875709
 31
0.0
  0
LINE
  5
1BD
  8
0
  6
CONTINUOUS
 62
     7
 10
3899.231141865446
 20
1985.476831875709
 30
0.0
 11
3899.031141865446
 21
1985.476831875709
 31
0.0
  0
ARC
  5
1BE
  8
0
  6
CONTINUOUS
 62
     7
 10
3899.031141865446
 20
1985.476831875709
 30
0.0
 40
0.2000000000000455
 50
270.0000000000008
 51
0.0
  0
LINE
  5
1BF
  8
0
  6
CONTINUOUS
 62
     7
 10
3885.131141865447
 20
2005.47683187571
 30
0.0
 11
3897.631141865447
 21
2005.476831875709
 31
0.0
  0
LINE
  5
1C0
  8
0
  6
CONTINUOUS
 62
     7
 10
3897.631141865447
 20
2005.476831875709
 30
0.0
 11
3897.431141865447
 21
2005.276831875709
 31
0.0
  0
LINE
  5
1C1
  8
0
  6
CONTINUOUS
 62
     7
 10
3897.431141865447
 20
2005.276831875709
 30
0.0
 11
3884.931141865447
 21
2005.27683187571
 31
0.0
  0
LINE
  5
1C2
  8
0
  6
CONTINUOUS
 62
     7
 10
3899.031141865446
 20
1985.276831875709
 30
0.0
 11
3897.431141865447
 21
1985.276831875709
 31
0.0
  0
LINE
  5
1C3
  8
0
  6
CONTINUOUS
 62
     7
 10
3897.431141865447
 20
1985.276831875709
 30
0.0
 11
3897.631141865446
 21
1985.476831875709
 31
0.0
  0
LINE
  5
1C4
  8
0
  6
CONTINUOUS
 62
     7
 10
3897.631141865446
 20
1985.476831875709
 30
0.0
 11
3899.031141865446
 21
1985.476831875709
 31
0.0
  0
LINE
  5
1C5
  8
0
  6
CONTINUOUS
 62
     7
 10
3897.631141865447
 20
2005.476831875709
 30
0.0
 11
3897.631141865446
 21
1985.476831875709
 31
0.0
  0
LINE
  5
1C6
  8
0
  6
CONTINUOUS
 62
     7
 10
3897.431141865447
 20
1985.276831875709
 30
0.0
 11
3897.431141865447
 21
2005.276831875709
 31
0.0
  0
LINE
  5
1C7
  8
0
  6
CONTINUOUS
 62
     7
 10
3887.847955635427
 20
2007.27683187571
 30
0.0
 11
3898.231141865447
 21
2007.27683187571
 31
0.0
  0
LINE
  5
1C8
  8
0
  6
CONTINUOUS
 62
     7
 10
3898.231141865447
 20
2007.27683187571
 30
0.0
 11
3898.231141865447
 21
2007.076831875709
 31
0.0
  0
LINE
  5
1C9
  8
0
  6
CONTINUOUS
 62
     7
 10
3898.231141865447
 20
2007.076831875709
 30
0.0
 11
3887.847955635427
 21
2007.07683187571
 31
0.0
  0
ARC
  5
1CA
  8
0
  6
CONTINUOUS
 62
     7
 10
3884.931103539519
 20
2018.269863924618
 30
0.0
 40
0.3000000000002725
 50
99.57658848100534
 51
136.3783470327275
  0
POLYLINE
  5
1CB
  8
0
  6
CONTINUOUS
 62
     7
 66
     1
 10
0.0
 20
0.0
 30
0.0
  0
VERTEX
  5
6DA
  8
0
  6
CONTINUOUS
 62
     7
 10
3884.713930181989
 20
2018.47683187571
 30
0.0
  0
VERTEX
  5
6DB
  8
0
  6
CONTINUOUS
 62
     7
 10
3884.707578722076
 20
2018.474073943532
 30
0.0
  0
VERTEX
  5
6DC
  8
0
  6
CONTINUOUS
 62
     7
 10
3884.701250660749
 20
2018.471247503784
 30
0.0
  0
VERTEX
  5
6DD
  8
0
  6
CONTINUOUS
 62
     7
 10
3884.694947982182
 20
2018.468351716621
 30
0.0
  0
VERTEX
  5
6DE
  8
0
  6
CONTINUOUS
 62
     7
 10
3884.688671779047
 20
2018.465388559237
 30
0.0
  0
VERTEX
  5
6DF
  8
0
  6
CONTINUOUS
 62
     7
 10
3884.682423144023
 20
2018.462360008829
 30
0.0
  0
VERTEX
  5
6E0
  8
0
  6
CONTINUOUS
 62
     7
 10
3884.676203169784
 20
2018.459268042589
 30
0.0
  0
VERTEX
  5
6E1
  8
0
  6
CONTINUOUS
 62
     7
 10
3884.67001294901
 20
2018.456114637715
 30
0.0
  0
VERTEX
  5
6E2
  8
0
  6
CONTINUOUS
 62
     7
 10
3884.663853574374
 20
2018.4529017714
 30
0.0
  0
VERTEX
  5
6E3
  8
0
  6
CONTINUOUS
 62
     7
 10
3884.657726138554
 20
2018.449631420839
 30
0.0
  0
VERTEX
  5
6E4
  8
0
  6
CONTINUOUS
 62
     7
 10
3884.651631734227
 20
2018.446305563228
 30
0.0
  0
VERTEX
  5
6E5
  8
0
  6
CONTINUOUS
 62
     7
 10
3884.645571454068
 20
2018.442926175761
 30
0.0
  0
VERTEX
  5
6E6
  8
0
  6
CONTINUOUS
 62
     7
 10
3884.639546390754
 20
2018.439495235633
 30
0.0
  0
VERTEX
  5
6E7
  8
0
  6
CONTINUOUS
 62
     7
 10
3884.633557636963
 20
2018.43601472004
 30
0.0
  0
VERTEX
  5
6E8
  8
0
  6
CONTINUOUS
 62
     7
 10
3884.627606285369
 20
2018.432486606175
 30
0.0
  0
VERTEX
  5
6E9
  8
0
  6
CONTINUOUS
 62
     7
 10
3884.621693428651
 20
2018.428912871234
 30
0.0
  0
VERTEX
  5
6EA
  8
0
  6
CONTINUOUS
 62
     7
 10
3884.615820159484
 20
2018.425295492413
 30
0.0
  0
VERTEX
  5
6EB
  8
0
  6
CONTINUOUS
 62
     7
 10
3884.609987570544
 20
2018.421636446906
 30
0.0
  0
VERTEX
  5
6EC
  8
0
  6
CONTINUOUS
 62
     7
 10
3884.604196754508
 20
2018.417937711907
 30
0.0
  0
VERTEX
  5
6ED
  8
0
  6
CONTINUOUS
 62
     7
 10
3884.598448804053
 20
2018.414201264612
 30
0.0
  0
VERTEX
  5
6EE
  8
0
  6
CONTINUOUS
 62
     7
 10
3884.592744811855
 20
2018.410429082216
 30
0.0
  0
VERTEX
  5
6EF
  8
0
  6
CONTINUOUS
 62
     7
 10
3884.587085870589
 20
2018.406623141914
 30
0.0
  0
VERTEX
  5
6F0
  8
0
  6
CONTINUOUS
 62
     7
 10
3884.581473072935
 20
2018.4027854209
 30
0.0
  0
VERTEX
  5
6F1
  8
0
  6
CONTINUOUS
 62
     7
 10
3884.575907511567
 20
2018.39891789637
 30
0.0
  0
VERTEX
  5
6F2
  8
0
  6
CONTINUOUS
 62
     7
 10
3884.57039027916
 20
2018.395022545518
 30
0.0
  0
VERTEX
  5
6F3
  8
0
  6
CONTINUOUS
 62
     7
 10
3884.564922528141
 20
2018.391101423363
 30
0.0
  0
VERTEX
  5
6F4
  8
0
  6
CONTINUOUS
 62
     7
 10
3884.559506469942
 20
2018.387157964324
 30
0.0
  0
VERTEX
  5
6F5
  8
0
  6
CONTINUOUS
 62
     7
 10
3884.554145224832
 20
2018.383196786617
 30
0.0
  0
VERTEX
  5
6F6
  8
0
  6
CONTINUOUS
 62
     7
 10
3884.548841942573
 20
2018.379222546871
 30
0.0
  0
VERTEX
  5
6F7
  8
0
  6
CONTINUOUS
 62
     7
 10
3884.543599772928
 20
2018.375239901718
 30
0.0
  0
VERTEX
  5
6F8
  8
0
  6
CONTINUOUS
 62
     7
 10
3884.538421865659
 20
2018.371253507787
 30
0.0
  0
VERTEX
  5
6F9
  8
0
  6
CONTINUOUS
 62
     7
 10
3884.533311370527
 20
2018.367268021709
 30
0.0
  0
VERTEX
  5
6FA
  8
0
  6
CONTINUOUS
 62
     7
 10
3884.528271437295
 20
2018.363288100114
 30
0.0
  0
VERTEX
  5
6FB
  8
0
  6
CONTINUOUS
 62
     7
 10
3884.523305215724
 20
2018.359318399631
 30
0.0
  0
VERTEX
  5
6FC
  8
0
  6
CONTINUOUS
 62
     7
 10
3884.518415855576
 20
2018.355363576891
 30
0.0
  0
VERTEX
  5
6FD
  8
0
  6
CONTINUOUS
 62
     7
 10
3884.513606506615
 20
2018.351428288525
 30
0.0
  0
VERTEX
  5
6FE
  8
0
  6
CONTINUOUS
 62
     7
 10
3884.508880318601
 20
2018.347517191163
 30
0.0
  0
VERTEX
  5
6FF
  8
0
  6
CONTINUOUS
 62
     7
 10
3884.504240441298
 20
2018.343634941435
 30
0.0
  0
VERTEX
  5
700
  8
0
  6
CONTINUOUS
 62
     7
 10
3884.499690024466
 20
2018.339786195971
 30
0.0
  0
VERTEX
  5
701
  8
0
  6
CONTINUOUS
 62
     7
 10
3884.495232218745
 20
2018.335975612713
 30
0.0
  0
VERTEX
  5
702
  8
0
  6
CONTINUOUS
 62
     7
 10
3884.49087055412
 20
2018.332208416894
 30
0.0
  0
VERTEX
  5
703
  8
0
  6
CONTINUOUS
 62
     7
 10
3884.486609530544
 20
2018.328491284283
 30
0.0
  0
VERTEX
  5
704
  8
0
  6
CONTINUOUS
 62
     7
 10
3884.482453800796
 20
2018.324831119192
 30
0.0
  0
VERTEX
  5
705
  8
0
  6
CONTINUOUS
 62
     7
 10
3884.478408017653
 20
2018.32123482593
 30
0.0
  0
VERTEX
  5
706
  8
0
  6
CONTINUOUS
 62
     7
 10
3884.474476833895
 20
2018.317709308808
 30
0.0
  0
VERTEX
  5
707
  8
0
  6
CONTINUOUS
 62
     7
 10
3884.470664902296
 20
2018.314261472134
 30
0.0
  0
VERTEX
  5
708
  8
0
  6
CONTINUOUS
 62
     7
 10
3884.466976875634
 20
2018.310898220217
 30
0.0
  0
VERTEX
  5
709
  8
0
  6
CONTINUOUS
 62
     7
 10
3884.46341740669
 20
2018.30762645737
 30
0.0
  0
VERTEX
  5
70A
  8
0
  6
CONTINUOUS
 62
     7
 10
3884.459991148237
 20
2018.304453087899
 30
0.0
  0
VERTEX
  5
70B
  8
0
  6
CONTINUOUS
 62
     7
 10
3884.456702753065
 20
2018.301385016125
 30
0.0
  0
VERTEX
  5
70C
  8
0
  6
CONTINUOUS
 62
     7
 10
3884.453559383344
 20
2018.298431697966
 30
0.0
  0
VERTEX
  5
70D
  8
0
  6
CONTINUOUS
 62
     7
 10
3884.450577772004
 20
2018.295612321107
 30
0.0
  0
VERTEX
  5
70E
  8
0
  6
CONTINUOUS
 62
     7
 10
3884.447776933344
 20
2018.292948392989
 30
0.0
  0
VERTEX
  5
70F
  8
0
  6
CONTINUOUS
 62
     7
 10
3884.445175881669
 20
2018.290461421048
 30
0.0
  0
VERTEX
  5
710
  8
0
  6
CONTINUOUS
 62
     7
 10
3884.442793631281
 20
2018.288172912725
 30
0.0
  0
VERTEX
  5
711
  8
0
  6
CONTINUOUS
 62
     7
 10
3884.440649196484
 20
2018.286104375457
 30
0.0
  0
VERTEX
  5
712
  8
0
  6
CONTINUOUS
 62
     7
 10
3884.438761591577
 20
2018.284277316684
 30
0.0
  0
VERTEX
  5
713
  8
0
  6
CONTINUOUS
 62
     7
 10
3884.437148478123
 20
2018.282711868702
 30
0.0
  0
VERTEX
  5
714
  8
0
  6
CONTINUOUS
 62
     7
 10
3884.435799464303
 20
2018.281399645875
 30
0.0
  0
VERTEX
  5
715
  8
0
  6
CONTINUOUS
 62
     7
 10
3884.434677706275
 20
2018.280305372507
 30
0.0
  0
VERTEX
  5
716
  8
0
  6
CONTINUOUS
 62
     7
 10
3884.433745328072
 20
2018.279392723689
 30
0.0
  0
VERTEX
  5
717
  8
0
  6
CONTINUOUS
 62
     7
 10
3884.43296445373
 20
2018.278625374509
 30
0.0
  0
VERTEX
  5
718
  8
0
  6
CONTINUOUS
 62
     7
 10
3884.432297207284
 20
2018.27796700006
 30
0.0
  0
VERTEX
  5
719
  8
0
  6
CONTINUOUS
 62
     7
 10
3884.431705712769
 20
2018.27738127543
 30
0.0
  0
VERTEX
  5
71A
  8
0
  6
CONTINUOUS
 62
     7
 10
3884.431152094219
 20
2018.27683187571
 30
0.0
  0
SEQEND
  5
72A
  8
0
  6
CONTINUOUS
 62
     7
  0
ARC
  5
1CC
  8
0
  6
CONTINUOUS
 62
     7
 10
3884.931103539519
 20
2018.269863924618
 30
0.0
 40
0.5000000000001923
 50
99.57658848106976
 51
179.2015057738768
  0
ARC
  5
1CD
  8
0
  6
CONTINUOUS
 62
     7
 10
3898.231141865447
 20
2006.276831875709
 30
0.0
 40
1.000000000000227
 50
45.57299599918149
 51
90.0
  0
LINE
  5
1CE
  8
0
  6
CONTINUOUS
 62
     7
 10
3886.010526739869
 20
2017.863465071616
 30
0.0
 11
3886.851715358503
 21
2008.190198679804
 31
0.0
  0
LINE
  5
1CF
  8
0
  6
CONTINUOUS
 62
     7
 10
3886.652467303118
 20
2008.172872040622
 30
0.0
 11
3885.811278684484
 21
2017.846138432435
 31
0.0
  0
LINE
  5
1D0
  8
0
  6
CONTINUOUS
 62
     7
 10
3899.231141865447
 20
2001.77683187571
 30
0.0
 11
3899.231141865446
 21
1985.476831875709
 31
0.0
  0
LINE
  5
1D1
  8
0
  6
CONTINUOUS
 62
     7
 10
3884.713930181989
 20
2018.47683187571
 30
0.0
 11
3885.131141865447
 21
2018.47683187571
 31
0.0
  0
LINE
  5
1D2
  8
0
  6
CONTINUOUS
 62
     7
 10
3884.931141865447
 20
2018.27683187571
 30
0.0
 11
3884.431152094219
 21
2018.27683187571
 31
0.0
  0
LINE
  5
1D3
  8
0
  6
CONTINUOUS
 62
     7
 10
3898.931141865444
 20
1679.77683187571
 30
0.0
 11
3899.431141865447
 21
1679.77683187571
 31
0.0
  0
LINE
  5
1D4
  8
0
  6
CONTINUOUS
 62
     7
 10
3898.931141865444
 20
1899.77683187571
 30
0.0
 11
3899.431141865447
 21
1899.77683187571
 31
0.0
  0
LINE
  5
1D5
  8
0
  6
CONTINUOUS
 62
     7
 10
3898.931141865447
 20
2001.77683187571
 30
0.0
 11
4479.431141865447
 21
2001.77683187571
 31
0.0
  0
LINE
  5
1D6
  8
0
  6
CONTINUOUS
 62
     7
 10
3898.931141865447
 20
2040.27683187571
 30
0.0
 11
3898.931141865447
 21
2001.77683187571
 31
0.0
  0
LINE
  5
1D7
  8
0
  6
CONTINUOUS
 62
     7
 10
4479.431141865447
 20
2040.27683187571
 30
0.0
 11
3898.931141865447
 21
2040.27683187571
 31
0.0
  0
LINE
  5
1D8
  8
0
  6
CONTINUOUS
 62
     7
 10
4479.431141865447
 20
2001.77683187571
 30
0.0
 11
4479.431141865447
 21
2040.27683187571
 31
0.0
  0
LINE
  5
1D9
  8
0
  6
CONTINUOUS
 62
     7
 10
3899.431141865447
 20
1640.27683187571
 30
0.0
 11
4479.431141865447
 21
1640.27683187571
 31
0.0
  0
LINE
  5
1DA
  8
0
  6
CONTINUOUS
 62
     7
 10
3899.431141865447
 20
1640.27683187571
 30
0.0
 11
3899.431141865447
 21
2001.77683187571
 31
0.0
  0
LINE
  5
1DB
  8
0
  6
CONTINUOUS
 62
     7
 10
4479.431141865447
 20
1640.27683187571
 30
0.0
 11
4479.431141865447
 21
2001.77683187571
 31
0.0
  0
ARC
  5
1DC
  8
0
  6
CONTINUOUS
 62
     8
 10
3898.231141865447
 20
2006.276831875709
 30
0.0
 40
0.800000000000113
 50
28.95502437183411
 51
90.0
  0
LINE
  5
1DD
  8
0
  6
CONTINUOUS
 62
     8
 10
3899.031141865446
 20
1985.476831875709
 30
0.0
 11
3899.031141865447
 21
2001.77683187571
 31
0.0
  0
LINE
  5
1E0
  8
0
  6
CONTINUOUS
 62
     7
 10
1888.134126799256
 20
958.9552229666396
 30
0.0
 11
1888.134126799256
 21
615.9552229666397
 31
0.0
  0
LINE
  5
1E1
  8
0
  6
CONTINUOUS
 62
     7
 10
2458.134126799256
 20
958.9552229666396
 30
0.0
 11
2458.134126799256
 21
615.9552229666397
 31
0.0
  0
LINE
  5
1E2
  8
0
  6
CONTINUOUS
 62
     7
 10
2463.134126799256
 20
941.9552229666408
 30
0.0
 11
2458.134126799252
 21
941.9552229666407
 31
0.0
  0
LINE
  5
1E3
  8
0
  6
CONTINUOUS
 62
     7
 10
1888.134126799252
 20
941.9552229666397
 30
0.0
 11
1883.134126799252
 21
941.9552229666397
 31
0.0
  0
ARC
  5
1E4
  8
0
  6
CONTINUOUS
 62
     7
 10
3254.634126799256
 20
657.9552229666394
 30
0.0
 40
3.000000000000133
 50
0.0
 51
171.1358288719076
  0
POLYLINE
  5
1E5
  8
0
  6
CONTINUOUS
 62
     7
 66
     1
 10
0.0
 20
0.0
 30
0.0
 70
   128
  0
VERTEX
  5
71B
  8
0
  6
CONTINUOUS
 62
     7
 10
3257.084126799256
 20
656.2238939973213
 30
0.0
  0
VERTEX
  5
71C
  8
0
  6
CONTINUOUS
 62
     7
 10
3257.453204661614
 20
656.9291625366625
 30
0.0
  0
VERTEX
  5
71D
  8
0
  6
CONTINUOUS
 62
     7
 10
3257.634126799256
 20
657.9552229666394
 30
0.0
  0
SEQEND
  5
72B
  8
0
  6
CONTINUOUS
 62
     7
  0
ARC
  5
1E6
  8
0
  6
CONTINUOUS
 62
     7
 10
2586.634126799257
 20
657.9552229666394
 30
0.0
 40
3.0
 50
8.864171128073119
 51
180.0
  0
ARC
  5
1E7
  8
0
  6
CONTINUOUS
 62
     7
 10
2586.634126799257
 20
657.9552229666394
 30
0.0
 40
3.0
 50
180.0
 51
226.8953261800881
  0
LINE
  5
1E8
  8
0
  6
CONTINUOUS
 62
     7
 10
2580.634126799257
 20
652.9552229666394
 30
0.0
 11
2580.634126799257
 21
646.9552229666396
 31
0.0
  0
LINE
  5
1E9
  8
0
  6
CONTINUOUS
 62
     7
 10
2580.634126799256
 20
856.9552229666396
 30
0.0
 11
2635.634126799255
 21
856.9552229666396
 31
0.0
  0
LINE
  5
1EA
  8
0
  6
CONTINUOUS
 62
     7
 10
3205.634126799255
 20
856.9552229666396
 30
0.0
 11
3210.634126799259
 21
856.9552229666396
 31
0.0
  0
LINE
  5
1EB
  8
0
  6
CONTINUOUS
 62
     7
 10
3260.634126799256
 20
652.9552229666396
 30
0.0
 11
3260.634126799256
 21
646.9552229666396
 31
0.0
  0
LINE
  5
1EC
  8
0
  6
CONTINUOUS
 62
     7
 10
3260.634126799256
 20
646.9552229666396
 30
0.0
 11
3257.084126799256
 21
646.9552229666396
 31
0.0
  0
LINE
  5
1ED
  8
0
  6
CONTINUOUS
 62
     7
 10
3250.084126799256
 20
646.9552229666396
 30
0.0
 11
3240.634126799257
 21
646.9552229666396
 31
0.0
  0
LINE
  5
1EE
  8
0
  6
CONTINUOUS
 62
     7
 10
3240.634126799257
 20
646.9552229666396
 30
0.0
 11
3240.634126799257
 21
636.9552229666396
 31
0.0
  0
LINE
  5
1EF
  8
0
  6
CONTINUOUS
 62
     7
 10
2600.634126799257
 20
636.9552229666396
 30
0.0
 11
2635.634126799255
 21
636.9552229666396
 31
0.0
  0
LINE
  5
1F0
  8
0
  6
CONTINUOUS
 62
     7
 10
3205.634126799255
 20
636.9552229666396
 30
0.0
 11
3240.634126799257
 21
636.9552229666396
 31
0.0
  0
LINE
  5
1F1
  8
0
  6
CONTINUOUS
 62
     7
 10
2600.634126799257
 20
646.9552229666396
 30
0.0
 11
2600.634126799257
 21
636.9552229666396
 31
0.0
  0
LINE
  5
1F2
  8
0
  6
CONTINUOUS
 62
     7
 10
2580.634126799257
 20
646.9552229666396
 30
0.0
 11
2584.584126799256
 21
646.9552229666396
 31
0.0
  0
LINE
  5
1F3
  8
0
  6
CONTINUOUS
 62
     7
 10
2591.584126799256
 20
646.9552229666396
 30
0.0
 11
2600.634126799257
 21
646.9552229666396
 31
0.0
  0
ARC
  5
1F4
  8
0
  6
CONTINUOUS
 62
     7
 10
2507.134126799256
 20
657.9552229666394
 30
0.0
 40
3.0
 50
0.0
 51
171.1358288719063
  0
POLYLINE
  5
1F5
  8
0
  6
CONTINUOUS
 62
     7
 66
     1
 10
0.0
 20
0.0
 30
0.0
 70
   128
  0
VERTEX
  5
71E
  8
0
  6
CONTINUOUS
 62
     7
 10
2509.584126799256
 20
656.2238939973214
 30
0.0
  0
VERTEX
  5
71F
  8
0
  6
CONTINUOUS
 62
     7
 10
2509.953204661614
 20
656.9291625366625
 30
0.0
  0
VERTEX
  5
720
  8
0
  6
CONTINUOUS
 62
     7
 10
2510.134126799256
 20
657.9552229666394
 30
0.0
  0
SEQEND
  5
72C
  8
0
  6
CONTINUOUS
 62
     7
  0
ARC
  5
1F6
  8
0
  6
CONTINUOUS
 62
     7
 10
1839.134126799257
 20
657.9552229666394
 30
0.0
 40
3.0000000000002
 50
8.86417112807245
 51
180.0
  0
ARC
  5
1F7
  8
0
  6
CONTINUOUS
 62
     7
 10
1839.134126799257
 20
657.9552229666394
 30
0.0
 40
3.0
 50
180.0
 51
226.8953261800912
  0
LINE
  5
1F8
  8
0
  6
CONTINUOUS
 62
     7
 10
1833.134126799257
 20
652.9552229666396
 30
0.0
 11
1833.134126799257
 21
646.9552229666396
 31
0.0
  0
LINE
  5
1F9
  8
0
  6
CONTINUOUS
 62
     7
 10
1883.134126799255
 20
856.9552229666396
 30
0.0
 11
1888.134126799255
 21
856.9552229666396
 31
0.0
  0
LINE
  5
1FA
  8
0
  6
CONTINUOUS
 62
     7
 10
2458.134126799255
 20
856.9552229666396
 30
0.0
 11
2463.134126799259
 21
856.9552229666396
 31
0.0
  0
LINE
  5
1FB
  8
0
  6
CONTINUOUS
 62
     7
 10
2513.134126799257
 20
652.9552229666396
 30
0.0
 11
2513.134126799257
 21
646.9552229666396
 31
0.0
  0
LINE
  5
1FC
  8
0
  6
CONTINUOUS
 62
     7
 10
2513.134126799257
 20
646.9552229666396
 30
0.0
 11
2509.584126799256
 21
646.9552229666396
 31
0.0
  0
LINE
  5
1FD
  8
0
  6
CONTINUOUS
 62
     7
 10
2502.584126799256
 20
646.9552229666396
 30
0.0
 11
2493.134126799256
 21
646.9552229666396
 31
0.0
  0
LINE
  5
1FE
  8
0
  6
CONTINUOUS
 62
     7
 10
2493.134126799256
 20
646.9552229666396
 30
0.0
 11
2493.134126799256
 21
636.9552229666396
 31
0.0
  0
LINE
  5
1FF
  8
0
  6
CONTINUOUS
 62
     7
 10
1853.134126799257
 20
636.9552229666396
 30
0.0
 11
1888.134126799255
 21
636.9552229666396
 31
0.0
  0
LINE
  5
200
  8
0
  6
CONTINUOUS
 62
     7
 10
2458.134126799255
 20
636.9552229666396
 30
0.0
 11
2493.134126799256
 21
636.9552229666396
 31
0.0
  0
LINE
  5
201
  8
0
  6
CONTINUOUS
 62
     7
 10
1853.134126799257
 20
646.9552229666396
 30
0.0
 11
1853.134126799257
 21
636.9552229666396
 31
0.0
  0
LINE
  5
202
  8
0
  6
CONTINUOUS
 62
     7
 10
1833.134126799257
 20
646.9552229666396
 30
0.0
 11
1837.084126799256
 21
646.9552229666396
 31
0.0
  0
LINE
  5
203
  8
0
  6
CONTINUOUS
 62
     7
 10
1844.084126799256
 20
646.9552229666396
 30
0.0
 11
1853.134126799257
 21
646.9552229666396
 31
0.0
  0
LINE
  5
204
  8
0
  6
CONTINUOUS
 62
     7
 10
2463.134126799256
 20
942.4552229666392
 30
0.0
 11
2458.134126799252
 21
942.4552229666392
 31
0.0
  0
LINE
  5
205
  8
0
  6
CONTINUOUS
 62
     7
 10
1888.134126799252
 20
942.4552229666392
 30
0.0
 11
1883.134126799252
 21
942.4552229666392
 31
0.0
  0
LINE
  5
206
  8
0
  6
CONTINUOUS
 62
     7
 10
3210.634126799256
 20
942.4552229666397
 30
0.0
 11
3205.634126799252
 21
942.4552229666397
 31
0.0
  0
LINE
  5
207
  8
0
  6
CONTINUOUS
 62
     7
 10
2635.634126799252
 20
942.4552229666398
 30
0.0
 11
2560.634126799252
 21
942.4552229666399
 31
0.0
  0
LINE
  5
208
  8
0
  6
CONTINUOUS
 62
     7
 10
2533.134126799256
 20
615.9552229666394
 30
0.0
 11
2533.134126799256
 21
958.9552229666396
 31
0.0
  0
LINE
  5
209
  8
0
  6
CONTINUOUS
 62
     7
 10
2533.134126799256
 20
958.9552229666396
 30
0.0
 11
2560.634126799256
 21
958.9552229666396
 31
0.0
  0
LINE
  5
20A
  8
0
  6
CONTINUOUS
 62
     7
 10
2560.634126799256
 20
958.9552229666396
 30
0.0
 11
2560.634126799256
 21
615.9552229666394
 31
0.0
  0
LINE
  5
20B
  8
0
  6
CONTINUOUS
 62
     7
 10
2560.634126799256
 20
615.9552229666394
 30
0.0
 11
2533.134126799256
 21
615.9552229666394
 31
0.0
  0
LINE
  5
20C
  8
0
  6
CONTINUOUS
 62
     7
 10
1846.884126799256
 20
641.0052229666395
 30
0.0
 11
1846.884126799256
 21
636.9552229666396
 31
0.0
  0
ARC
  5
20D
  8
0
  6
CONTINUOUS
 62
     7
 10
1846.684126799256
 20
641.0052229666394
 30
0.0
 40
0.2000000000000455
 50
0.0000000000325689
 51
90.0
  0
ARC
  5
20E
  8
0
  6
CONTINUOUS
 62
     7
 10
1846.684126799256
 20
642.0052229666396
 30
0.0
 40
0.7999999999999545
 50
180.0
 51
270.0000000000008
  0
LINE
  5
20F
  8
0
  6
CONTINUOUS
 62
     7
 10
1845.884126799256
 20
643.0052229666394
 30
0.0
 11
1845.884126799256
 21
642.0052229666395
 31
0.0
  0
ARC
  5
210
  8
0
  6
CONTINUOUS
 62
     7
 10
1843.684126799256
 20
643.0052229666394
 30
0.0
 40
2.200000000000273
 50
0.0
 51
90.0
  0
LINE
  5
211
  8
0
  6
CONTINUOUS
 62
     7
 10
1837.084126799256
 20
645.2052229666396
 30
0.0
 11
1843.684126799256
 21
645.2052229666396
 31
0.0
  0
ARC
  5
212
  8
0
  6
CONTINUOUS
 62
     7
 10
1837.084126799256
 20
643.0052229666394
 30
0.0
 40
2.200000000000273
 50
90.0
 51
180.0
  0
LINE
  5
213
  8
0
  6
CONTINUOUS
 62
     7
 10
1834.884126799256
 20
636.4052229666395
 30
0.0
 11
1834.884126799256
 21
643.0052229666394
 31
0.0
  0
ARC
  5
214
  8
0
  6
CONTINUOUS
 62
     7
 10
1837.084126799256
 20
636.4052229666395
 30
0.0
 40
2.200000000000273
 50
180.0
 51
270.0000000000008
  0
LINE
  5
215
  8
0
  6
CONTINUOUS
 62
     7
 10
1837.884126799256
 20
634.2052229666396
 30
0.0
 11
1837.084126799256
 21
634.2052229666396
 31
0.0
  0
LINE
  5
216
  8
0
  6
CONTINUOUS
 62
     7
 10
1837.884126799256
 20
632.4552229666394
 30
0.0
 11
1837.884126799256
 21
634.2052229666396
 31
0.0
  0
LINE
  5
217
  8
0
  6
CONTINUOUS
 62
     7
 10
1837.084126799256
 20
632.4552229666394
 30
0.0
 11
1837.884126799256
 21
632.4552229666394
 31
0.0
  0
ARC
  5
218
  8
0
  6
CONTINUOUS
 62
     7
 10
1837.084126799256
 20
636.4052229666394
 30
0.0
 40
3.950000000000045
 50
180.0
 51
270.0000000000074
  0
LINE
  5
219
  8
0
  6
CONTINUOUS
 62
     7
 10
1833.134126799256
 20
643.0052229666394
 30
0.0
 11
1833.134126799256
 21
636.4052229666395
 31
0.0
  0
ARC
  5
21A
  8
0
  6
CONTINUOUS
 62
     7
 10
1837.084126799256
 20
643.0052229666396
 30
0.0
 40
3.950000000000045
 50
89.9999999999934
 51
180.0
  0
LINE
  5
21B
  8
0
  6
CONTINUOUS
 62
     7
 10
1843.684126799256
 20
646.9552229666396
 30
0.0
 11
1837.084126799256
 21
646.9552229666396
 31
0.0
  0
ARC
  5
21C
  8
0
  6
CONTINUOUS
 62
     7
 10
1843.684126799256
 20
643.0052229666396
 30
0.0
 40
3.950000000000045
 50
359.9999995166836
 51
90.00000000000331
  0
ARC
  5
21D
  8
0
  6
CONTINUOUS
 62
     7
 10
1848.434126799256
 20
643.0052229666396
 30
0.0
 40
0.8000000000001826
 50
180.0000023863797
 51
269.9999990757448
  0
ARC
  5
21E
  8
0
  6
CONTINUOUS
 62
     7
 10
1848.434126799256
 20
642.0052229666395
 30
0.0
 40
0.2000000000000459
 50
0.0
 51
90.0000036969587
  0
LINE
  5
21F
  8
0
  6
CONTINUOUS
 62
     7
 10
1848.634126799256
 20
636.9552229666396
 30
0.0
 11
1848.634126799256
 21
642.0052229666395
 31
0.0
  0
LINE
  5
220
  8
0
  6
CONTINUOUS
 62
     7
 10
1846.884126799256
 20
636.9552229666396
 30
0.0
 11
1848.634126799256
 21
636.9552229666396
 31
0.0
  0
LINE
  5
221
  8
0
  6
CONTINUOUS
 62
     7
 10
1837.084126799256
 20
646.9552229666396
 30
0.0
 11
1837.084126799256
 21
655.2552229666395
 31
0.0
  0
LINE
  5
222
  8
0
  6
CONTINUOUS
 62
     7
 10
1837.084126799256
 20
655.2552229666395
 30
0.0
 11
1844.084126799256
 21
655.2552229666395
 31
0.0
  0
LINE
  5
223
  8
0
  6
CONTINUOUS
 62
     7
 10
1844.084126799256
 20
646.9552229666396
 30
0.0
 11
1844.084126799256
 21
655.2552229666395
 31
0.0
  0
LINE
  5
224
  8
0
  6
CONTINUOUS
 62
     7
 10
1837.084126799256
 20
655.2552229666395
 30
0.0
 11
1837.084126799256
 21
658.7552229666347
 31
0.0
  0
LINE
  5
225
  8
0
  6
CONTINUOUS
 62
     7
 10
1837.084126799256
 20
658.7552229666395
 30
0.0
 11
1842.025493258217
 21
658.7552229666395
 31
0.0
  0
LINE
  5
226
  8
0
  6
CONTINUOUS
 62
     7
 10
1844.084126799256
 20
655.2552229666395
 30
0.0
 11
1844.084126799256
 21
658.4175006268007
 31
0.0
  0
LINE
  5
227
  8
0
  6
CONTINUOUS
 62
     7
 10
1837.084126799256
 20
658.8155303458818
 30
0.0
 11
1837.084126799256
 21
658.7552229666695
 31
0.0
  0
LINE
  5
228
  8
0
  6
CONTINUOUS
 62
     7
 10
1837.084126799256
 20
659.8471336694384
 30
0.0
 11
1841.462360870959
 21
659.8471336694384
 31
0.0
  0
LINE
  5
229
  8
0
  6
CONTINUOUS
 62
     7
 10
1837.084126799256
 20
658.8155303458535
 30
0.0
 11
1837.084126799256
 21
659.8471336694384
 31
0.0
  0
LINE
  5
22A
  8
0
  6
CONTINUOUS
 62
     7
 10
2594.384126799256
 20
641.0052229666395
 30
0.0
 11
2594.384126799256
 21
636.9552229666396
 31
0.0
  0
ARC
  5
22B
  8
0
  6
CONTINUOUS
 62
     7
 10
2594.184126799256
 20
641.0052229666394
 30
0.0
 40
0.2000000000000455
 50
0.0000000000325689
 51
90.0
  0
ARC
  5
22C
  8
0
  6
CONTINUOUS
 62
     7
 10
2594.184126799256
 20
642.0052229666396
 30
0.0
 40
0.8000000000001819
 50
180.0
 51
270.0000000000008
  0
LINE
  5
22D
  8
0
  6
CONTINUOUS
 62
     7
 10
2593.384126799256
 20
643.0052229666394
 30
0.0
 11
2593.384126799256
 21
642.0052229666395
 31
0.0
  0
ARC
  5
22E
  8
0
  6
CONTINUOUS
 62
     7
 10
2591.184126799256
 20
643.0052229666394
 30
0.0
 40
2.200000000000045
 50
0.0
 51
90.0
  0
LINE
  5
22F
  8
0
  6
CONTINUOUS
 62
     7
 10
2584.584126799256
 20
645.2052229666396
 30
0.0
 11
2591.184126799256
 21
645.2052229666396
 31
0.0
  0
ARC
  5
230
  8
0
  6
CONTINUOUS
 62
     7
 10
2584.584126799256
 20
643.0052229666394
 30
0.0
 40
2.200000000000273
 50
90.0
 51
180.0
  0
LINE
  5
231
  8
0
  6
CONTINUOUS
 62
     7
 10
2582.384126799256
 20
636.4052229666395
 30
0.0
 11
2582.384126799256
 21
643.0052229666394
 31
0.0
  0
ARC
  5
232
  8
0
  6
CONTINUOUS
 62
     7
 10
2584.584126799256
 20
636.4052229666395
 30
0.0
 40
2.200000000000273
 50
180.0
 51
270.0000000000008
  0
LINE
  5
233
  8
0
  6
CONTINUOUS
 62
     7
 10
2585.384126799256
 20
634.2052229666396
 30
0.0
 11
2584.584126799256
 21
634.2052229666396
 31
0.0
  0
LINE
  5
234
  8
0
  6
CONTINUOUS
 62
     7
 10
2585.384126799256
 20
632.4552229666394
 30
0.0
 11
2585.384126799256
 21
634.2052229666396
 31
0.0
  0
LINE
  5
235
  8
0
  6
CONTINUOUS
 62
     7
 10
2584.584126799256
 20
632.4552229666394
 30
0.0
 11
2585.384126799256
 21
632.4552229666394
 31
0.0
  0
ARC
  5
236
  8
0
  6
CONTINUOUS
 62
     7
 10
2584.584126799256
 20
636.4052229666394
 30
0.0
 40
3.950000000000045
 50
180.0
 51
270.0000000000074
  0
LINE
  5
237
  8
0
  6
CONTINUOUS
 62
     7
 10
2580.634126799256
 20
643.0052229666394
 30
0.0
 11
2580.634126799256
 21
636.4052229666395
 31
0.0
  0
ARC
  5
238
  8
0
  6
CONTINUOUS
 62
     7
 10
2584.584126799256
 20
643.0052229666396
 30
0.0
 40
3.950000000000045
 50
89.9999999999934
 51
180.0
  0
LINE
  5
239
  8
0
  6
CONTINUOUS
 62
     7
 10
2591.184126799256
 20
646.9552229666396
 30
0.0
 11
2584.584126799256
 21
646.9552229666396
 31
0.0
  0
ARC
  5
23A
  8
0
  6
CONTINUOUS
 62
     7
 10
2591.184126799257
 20
643.0052229666396
 30
0.0
 40
3.950000000000045
 50
359.9999995166836
 51
90.0000000000066
  0
ARC
  5
23B
  8
0
  6
CONTINUOUS
 62
     7
 10
2595.934126799256
 20
642.0052229666395
 30
0.0
 40
0.2000000000000459
 50
0.0
 51
90.0000036969587
  0
LINE
  5
23C
  8
0
  6
CONTINUOUS
 62
     7
 10
2594.384126799256
 20
636.9552229666396
 30
0.0
 11
2596.134126799256
 21
636.9552229666396
 31
0.0
  0
LINE
  5
23D
  8
0
  6
CONTINUOUS
 62
     7
 10
2596.134126799256
 20
636.9552229666396
 30
0.0
 11
2596.134126799256
 21
642.0052229666395
 31
0.0
  0
ARC
  5
23E
  8
0
  6
CONTINUOUS
 62
     7
 10
2595.934126799256
 20
643.0052229666396
 30
0.0
 40
0.8000000000001826
 50
180.0000023863797
 51
269.9999990757611
  0
LINE
  5
23F
  8
0
  6
CONTINUOUS
 62
     7
 10
2584.584126799256
 20
646.9552229666396
 30
0.0
 11
2584.584126799256
 21
655.2552229666395
 31
0.0
  0
LINE
  5
240
  8
0
  6
CONTINUOUS
 62
     7
 10
2584.584126799256
 20
655.2552229666395
 30
0.0
 11
2591.584126799256
 21
655.2552229666395
 31
0.0
  0
LINE
  5
241
  8
0
  6
CONTINUOUS
 62
     7
 10
2591.584126799256
 20
646.9552229666396
 30
0.0
 11
2591.584126799256
 21
655.2552229666395
 31
0.0
  0
LINE
  5
242
  8
0
  6
CONTINUOUS
 62
     7
 10
2584.584126799256
 20
655.2552229666395
 30
0.0
 11
2584.584126799256
 21
658.7552229666347
 31
0.0
  0
LINE
  5
243
  8
0
  6
CONTINUOUS
 62
     7
 10
2584.584126799256
 20
658.7552229666395
 30
0.0
 11
2589.525493258217
 21
658.7552229666395
 31
0.0
  0
LINE
  5
244
  8
0
  6
CONTINUOUS
 62
     7
 10
2591.584126799256
 20
655.2552229666395
 30
0.0
 11
2591.584126799256
 21
658.4175006268007
 31
0.0
  0
LINE
  5
245
  8
0
  6
CONTINUOUS
 62
     7
 10
2584.584126799256
 20
658.8155303458818
 30
0.0
 11
2584.584126799256
 21
658.7552229666695
 31
0.0
  0
LINE
  5
246
  8
0
  6
CONTINUOUS
 62
     7
 10
2584.584126799256
 20
659.8471336694384
 30
0.0
 11
2588.962360870959
 21
659.8471336694384
 31
0.0
  0
LINE
  5
247
  8
0
  6
CONTINUOUS
 62
     7
 10
2584.584126799256
 20
658.8155303458535
 30
0.0
 11
2584.584126799256
 21
659.8471336694384
 31
0.0
  0
LINE
  5
248
  8
0
  6
CONTINUOUS
 62
     7
 10
2591.642994170504
 20
637.5949386932496
 30
0.0
 11
2592.310711935534
 21
637.8735652972586
 31
0.0
  0
ARC
  5
249
  8
0
  6
CONTINUOUS
 62
     7
 10
2590.872795766826
 20
639.4406890607071
 30
0.0
 40
2.000000000000037
 50
270.0000000000008
 51
292.6498989713999
  0
LINE
  5
24A
  8
0
  6
CONTINUOUS
 62
     7
 10
2589.97497420343
 20
637.4406890607075
 30
0.0
 11
2590.872795766826
 21
637.4406890607075
 31
0.0
  0
ARC
  5
24B
  8
0
  6
CONTINUOUS
 62
     7
 10
2589.97497420343
 20
639.9406890607079
 30
0.0
 40
2.500000000000342
 50
224.9999999999989
 51
269.9999999999904
  0
LINE
  5
24C
  8
0
  6
CONTINUOUS
 62
     7
 10
2587.244016595412
 20
639.136112762793
 30
0.0
 11
2588.207207250463
 21
638.1729221077411
 31
0.0
  0
LINE
  5
24D
  8
0
  6
CONTINUOUS
 62
     7
 10
2588.453169191241
 20
640.345265358622
 30
0.0
 11
2587.244016595412
 21
639.136112762793
 31
0.0
  0
LINE
  5
24E
  8
0
  6
CONTINUOUS
 62
     7
 10
2589.551716945347
 20
639.2467176045153
 30
0.0
 11
2588.453169191241
 21
640.345265358622
 31
0.0
  0
ARC
  5
24F
  8
0
  6
CONTINUOUS
 62
     7
 10
2590.258823726534
 20
639.9538243857015
 30
0.0
 40
1.000000000000008
 50
224.9999999999916
 51
292.6498989714037
  0
LINE
  5
250
  8
0
  6
CONTINUOUS
 62
     7
 10
2591.5790141456
 20
639.4211459346943
 30
0.0
 11
2590.643922928373
 21
639.0309492019729
 31
0.0
  0
ARC
  5
251
  8
0
  6
CONTINUOUS
 62
     7
 10
2591.384126799259
 20
643.2762229666401
 30
0.0
 40
3.860000000000152
 50
203.6602221890212
 51
272.8940341733173
  0
ARC
  5
252
  8
0
  6
CONTINUOUS
 62
     7
 10
2584.313058987393
 20
643.2762229666407
 30
0.0
 40
3.859999999999943
 50
293.6602221890225
 51
336.3397778109746
  0
ARC
  5
253
  8
0
  6
CONTINUOUS
 62
     7
 10
2584.313058987393
 20
636.2051551547746
 30
0.0
 40
3.860000000000199
 50
9.169004714996314
 51
66.33977781097894
  0
LINE
  5
254
  8
0
  6
CONTINUOUS
 62
     7
 10
2589.478635897981
 20
630.5304296019566
 30
0.0
 11
2588.12373826785
 21
636.8202351670504
 31
0.0
  0
ARC
  5
255
  8
0
  6
CONTINUOUS
 62
     7
 10
2591.384126799259
 20
631.5262229666397
 30
0.0
 40
2.150000000000512
 50
207.5911861618964
 51
263.8177853690092
  0
ARC
  5
256
  8
0
  6
CONTINUOUS
 62
     7
 10
2591.068592893326
 20
628.6132625559572
 30
0.0
 40
0.779999999999882
 50
359.9999999999925
 51
83.81778536903556
  0
LINE
  5
257
  8
0
  6
CONTINUOUS
 62
     7
 10
2591.848592893326
 20
627.3681155654577
 30
0.0
 11
2591.848592893326
 21
628.6132625559571
 31
0.0
  0
ARC
  5
258
  8
0
  6
CONTINUOUS
 62
     7
 10
2591.068592893326
 20
627.3681155654577
 30
0.0
 40
0.779999999999995
 50
276.1822146309643
 51
0.0
  0
ARC
  5
259
  8
0
  6
CONTINUOUS
 62
     7
 10
2591.384126799259
 20
624.4551551547748
 30
0.0
 40
2.150000000000204
 50
96.18221463099195
 51
171.8467986880341
  0
ARC
  5
25A
  8
0
  6
CONTINUOUS
 62
     7
 10
2588.48374207081
 20
624.8706890607074
 30
0.0
 40
0.7800000000001148
 50
270.0000000000008
 51
351.846798688048
  0
LINE
  5
25B
  8
0
  6
CONTINUOUS
 62
     7
 10
2587.213443715842
 20
624.0906890607075
 30
0.0
 11
2588.48374207081
 21
624.0906890607075
 31
0.0
  0
ARC
  5
25C
  8
0
  6
CONTINUOUS
 62
     7
 10
2587.213443715842
 20
624.8706890607074
 30
0.0
 40
0.7800000000000651
 50
188.1532085725922
 51
270.0000000000008
  0
ARC
  5
25D
  8
0
  6
CONTINUOUS
 62
     7
 10
2584.313058987394
 20
624.4551551547746
 30
0.0
 40
2.149999999999925
 50
8.153198677878537
 51
97.96953880498509
  0
ARC
  5
25E
  8
0
  6
CONTINUOUS
 62
     7
 10
2583.848592893326
 20
627.7728005920482
 30
0.0
 40
1.200000000000125
 50
180.0
 51
277.969536884897
  0
LINE
  5
25F
  8
0
  6
CONTINUOUS
 62
     7
 10
2582.648592893326
 20
628.7503626036817
 30
0.0
 11
2582.648592893326
 21
627.7728005920483
 31
0.0
  0
ARC
  5
260
  8
0
  6
CONTINUOUS
 62
     7
 10
2583.848592893326
 20
628.7503626036818
 30
0.0
 40
1.200000000000057
 50
112.6498989714032
 51
180.0
  0
LINE
  5
261
  8
0
  6
CONTINUOUS
 62
     7
 10
2584.054191616148
 20
630.1364394281654
 30
0.0
 11
2583.386473851119
 21
629.8578128241564
 31
0.0
  0
ARC
  5
262
  8
0
  6
CONTINUOUS
 62
     7
 10
2584.824390019826
 20
628.2906890607079
 30
0.0
 40
2.0
 50
90.0
 51
112.6498989714004
  0
LINE
  5
263
  8
0
  6
CONTINUOUS
 62
     7
 10
2585.722211583222
 20
630.2906890607076
 30
0.0
 11
2584.824390019826
 21
630.2906890607076
 31
0.0
  0
ARC
  5
264
  8
0
  6
CONTINUOUS
 62
     7
 10
2585.722211583222
 20
627.7906890607073
 30
0.0
 40
2.500000000000114
 50
45.00000000000369
 51
90.0
  0
LINE
  5
265
  8
0
  6
CONTINUOUS
 62
     7
 10
2588.453169191241
 20
628.595265358622
 30
0.0
 11
2587.489978536189
 21
629.5584560136739
 31
0.0
  0
LINE
  5
266
  8
0
  6
CONTINUOUS
 62
     7
 10
2587.244016595412
 20
627.386112762793
 30
0.0
 11
2588.453169191241
 21
628.595265358622
 31
0.0
  0
LINE
  5
267
  8
0
  6
CONTINUOUS
 62
     7
 10
2586.145468841305
 20
628.4846605168997
 30
0.0
 11
2587.244016595412
 21
627.386112762793
 31
0.0
  0
ARC
  5
268
  8
0
  6
CONTINUOUS
 62
     7
 10
2585.438362060119
 20
627.7775537357134
 30
0.0
 40
1.000000000000036
 50
45.00000000000922
 51
112.6498989714269
  0
LINE
  5
269
  8
0
  6
CONTINUOUS
 62
     7
 10
2584.118171641052
 20
628.3102321867207
 30
0.0
 11
2585.053262858279
 21
628.7004289194421
 31
0.0
  0
ARC
  5
26A
  8
0
  6
CONTINUOUS
 62
     7
 10
2584.313058987394
 20
624.4551551547748
 30
0.0
 40
3.86000000000013
 50
23.6602221890231
 51
92.8940341733232
  0
ARC
  5
26B
  8
0
  6
CONTINUOUS
 62
     7
 10
2591.384126799259
 20
624.4551551547744
 30
0.0
 40
3.860000000000197
 50
113.6602221890218
 51
156.3397778109781
  0
ARC
  5
26C
  8
0
  6
CONTINUOUS
 62
     7
 10
2591.384126799259
 20
631.5262229666406
 30
0.0
 40
3.860000000000197
 50
203.6602221890227
 51
246.3397778109791
  0
LINE
  5
26D
  8
0
  6
CONTINUOUS
 62
     7
 10
2586.441327644788
 20
636.510069113053
 30
0.0
 11
2587.848592893326
 21
629.9771587329817
 31
0.0
  0
ARC
  5
26E
  8
0
  6
CONTINUOUS
 62
     7
 10
2584.313058987394
 20
636.2051551547748
 30
0.0
 40
2.150000000000172
 50
8.153201311959943
 51
83.81778457481067
  0
ARC
  5
26F
  8
0
  6
CONTINUOUS
 62
     7
 10
2584.628592893326
 20
639.1181155654577
 30
0.0
 40
0.7800000000000475
 50
180.0
 51
263.8177875582052
  0
LINE
  5
270
  8
0
  6
CONTINUOUS
 62
     7
 10
2583.848592893326
 20
640.3632625559572
 30
0.0
 11
2583.848592893326
 21
639.1181155654579
 31
0.0
  0
ARC
  5
271
  8
0
  6
CONTINUOUS
 62
     7
 10
2584.628592893326
 20
640.3632625559572
 30
0.0
 40
0.7800000000002001
 50
96.18221463096353
 51
180.0
  0
ARC
  5
272
  8
0
  6
CONTINUOUS
 62
     7
 10
2584.313058987394
 20
643.2762229666403
 30
0.0
 40
2.150000000000204
 50
276.1822146309921
 51
351.8467986880348
  0
ARC
  5
273
  8
0
  6
CONTINUOUS
 62
     7
 10
2587.213443715842
 20
642.8606890607076
 30
0.0
 40
0.7800000000001148
 50
90.0
 51
171.8467986880472
  0
LINE
  5
274
  8
0
  6
CONTINUOUS
 62
     7
 10
2588.48374207081
 20
643.6406890607075
 30
0.0
 11
2587.213443715842
 21
643.6406890607075
 31
0.0
  0
ARC
  5
275
  8
0
  6
CONTINUOUS
 62
     7
 10
2588.48374207081
 20
642.8606890607075
 30
0.0
 40
0.7799999999999727
 50
8.153210854309267
 51
90.0
  0
ARC
  5
276
  8
0
  6
CONTINUOUS
 62
     7
 10
2591.384126799259
 20
643.2762229666403
 30
0.0
 40
2.150000000000604
 50
188.1531978500916
 51
277.9695381171779
  0
LINE
  5
277
  8
0
  6
CONTINUOUS
 62
     7
 10
2593.048592893326
 20
638.9810155177333
 30
0.0
 11
2593.048592893326
 21
639.9585775293667
 31
0.0
  0
ARC
  5
278
  8
0
  6
CONTINUOUS
 62
     7
 10
2591.848592893326
 20
638.9810155177332
 30
0.0
 40
1.200000000000273
 50
292.649898971424
 51
0.0000000000054281
  0
ARC
  5
279
  8
0
  6
CONTINUOUS
 62
     7
 10
2591.848592893326
 20
639.9585775293668
 30
0.0
 40
1.200000000000273
 50
359.9999999999953
 51
97.96953811717677
  0
LINE
  5
27A
  8
0
  6
CONTINUOUS
 62
     7
 10
1844.142994170504
 20
637.5949386932496
 30
0.0
 11
1844.810711935533
 21
637.8735652972586
 31
0.0
  0
ARC
  5
27B
  8
0
  6
CONTINUOUS
 62
     7
 10
1843.372795766826
 20
639.4406890607071
 30
0.0
 40
2.000000000000124
 50
270.0000000000008
 51
292.6498989714059
  0
LINE
  5
27C
  8
0
  6
CONTINUOUS
 62
     7
 10
1842.47497420343
 20
637.4406890607075
 30
0.0
 11
1843.372795766826
 21
637.4406890607075
 31
0.0
  0
ARC
  5
27D
  8
0
  6
CONTINUOUS
 62
     7
 10
1842.47497420343
 20
639.9406890607079
 30
0.0
 40
2.500000000000181
 50
225.0000000000026
 51
269.9999999999904
  0
LINE
  5
27E
  8
0
  6
CONTINUOUS
 62
     7
 10
1839.744016595411
 20
639.136112762793
 30
0.0
 11
1840.707207250464
 21
638.1729221077411
 31
0.0
  0
LINE
  5
27F
  8
0
  6
CONTINUOUS
 62
     7
 10
1840.953169191241
 20
640.345265358622
 30
0.0
 11
1839.744016595411
 21
639.136112762793
 31
0.0
  0
LINE
  5
280
  8
0
  6
CONTINUOUS
 62
     7
 10
1842.051716945347
 20
639.2467176045153
 30
0.0
 11
1840.953169191241
 21
640.345265358622
 31
0.0
  0
ARC
  5
281
  8
0
  6
CONTINUOUS
 62
     7
 10
1842.758823726534
 20
639.9538243857015
 30
0.0
 40
1.000000000000008
 50
224.9999999999916
 51
292.6498989714157
  0
LINE
  5
282
  8
0
  6
CONTINUOUS
 62
     7
 10
1844.0790141456
 20
639.4211459346943
 30
0.0
 11
1843.143922928373
 21
639.0309492019729
 31
0.0
  0
ARC
  5
283
  8
0
  6
CONTINUOUS
 62
     7
 10
1843.884126799259
 20
643.2762229666401
 30
0.0
 40
3.860000000000118
 50
203.6602221890225
 51
272.8940341733206
  0
ARC
  5
284
  8
0
  6
CONTINUOUS
 62
     7
 10
1836.813058987393
 20
643.2762229666407
 30
0.0
 40
3.859999999999943
 50
293.6602221890225
 51
336.3397778109746
  0
ARC
  5
285
  8
0
  6
CONTINUOUS
 62
     7
 10
1836.813058987393
 20
636.2051551547746
 30
0.0
 40
3.860000000000048
 50
9.169004714996852
 51
66.33977781097894
  0
LINE
  5
286
  8
0
  6
CONTINUOUS
 62
     7
 10
1841.978635897981
 20
630.5304296019566
 30
0.0
 11
1840.62373826785
 21
636.8202351670504
 31
0.0
  0
ARC
  5
287
  8
0
  6
CONTINUOUS
 62
     7
 10
1843.884126799258
 20
631.5262229666397
 30
0.0
 40
2.150000000000009
 50
207.5911861619049
 51
263.8177853690212
  0
ARC
  5
288
  8
0
  6
CONTINUOUS
 62
     7
 10
1843.568592893326
 20
628.6132625559572
 30
0.0
 40
0.7799999999999727
 50
359.9999999999925
 51
83.81778536901896
  0
LINE
  5
289
  8
0
  6
CONTINUOUS
 62
     7
 10
1844.348592893326
 20
627.3681155654577
 30
0.0
 11
1844.348592893326
 21
628.6132625559571
 31
0.0
  0
ARC
  5
28A
  8
0
  6
CONTINUOUS
 62
     7
 10
1843.568592893326
 20
627.3681155654577
 30
0.0
 40
0.7800000000000195
 50
276.182214630981
 51
0.0
  0
ARC
  5
28B
  8
0
  6
CONTINUOUS
 62
     7
 10
1843.884126799259
 20
624.4551551547748
 30
0.0
 40
2.149999999999979
 50
96.18221463098591
 51
171.8467986880332
  0
ARC
  5
28C
  8
0
  6
CONTINUOUS
 62
     7
 10
1840.98374207081
 20
624.8706890607074
 30
0.0
 40
0.78000000000034
 50
270.0000000000008
 51
351.8467986880503
  0
LINE
  5
28D
  8
0
  6
CONTINUOUS
 62
     7
 10
1839.713443715842
 20
624.0906890607075
 30
0.0
 11
1840.98374207081
 21
624.0906890607075
 31
0.0
  0
ARC
  5
28E
  8
0
  6
CONTINUOUS
 62
     7
 10
1839.713443715842
 20
624.8706890607074
 30
0.0
 40
0.7800000000000651
 50
188.1532085725922
 51
270.0000000000008
  0
ARC
  5
28F
  8
0
  6
CONTINUOUS
 62
     7
 10
1836.813058987393
 20
624.4551551547746
 30
0.0
 40
2.150000000000054
 50
8.153198677877677
 51
97.96953880499112
  0
ARC
  5
290
  8
0
  6
CONTINUOUS
 62
     7
 10
1836.348592893326
 20
627.7728005920482
 30
0.0
 40
1.200000000000062
 50
180.0
 51
277.9695368848755
  0
LINE
  5
291
  8
0
  6
CONTINUOUS
 62
     7
 10
1835.148592893326
 20
628.7503626036817
 30
0.0
 11
1835.148592893326
 21
627.7728005920483
 31
0.0
  0
ARC
  5
292
  8
0
  6
CONTINUOUS
 62
     7
 10
1836.348592893326
 20
628.7503626036818
 30
0.0
 40
1.200000000000057
 50
112.6498989714032
 51
180.0
  0
LINE
  5
293
  8
0
  6
CONTINUOUS
 62
     7
 10
1836.554191616148
 20
630.1364394281654
 30
0.0
 11
1835.886473851119
 21
629.8578128241564
 31
0.0
  0
ARC
  5
294
  8
0
  6
CONTINUOUS
 62
     7
 10
1837.324390019826
 20
628.2906890607079
 30
0.0
 40
2.0
 50
90.0
 51
112.6498989714004
  0
LINE
  5
295
  8
0
  6
CONTINUOUS
 62
     7
 10
1838.222211583223
 20
630.2906890607076
 30
0.0
 11
1837.324390019826
 21
630.2906890607076
 31
0.0
  0
ARC
  5
296
  8
0
  6
CONTINUOUS
 62
     7
 10
1838.222211583222
 20
627.7906890607073
 30
0.0
 40
2.500000000000114
 50
45.00000000000369
 51
89.9999999999948
  0
LINE
  5
297
  8
0
  6
CONTINUOUS
 62
     7
 10
1840.953169191241
 20
628.595265358622
 30
0.0
 11
1839.989978536189
 21
629.5584560136739
 31
0.0
  0
LINE
  5
298
  8
0
  6
CONTINUOUS
 62
     7
 10
1839.744016595411
 20
627.386112762793
 30
0.0
 11
1840.953169191241
 21
628.595265358622
 31
0.0
  0
LINE
  5
299
  8
0
  6
CONTINUOUS
 62
     7
 10
1838.645468841305
 20
628.4846605168997
 30
0.0
 11
1839.744016595411
 21
627.386112762793
 31
0.0
  0
ARC
  5
29A
  8
0
  6
CONTINUOUS
 62
     7
 10
1837.938362060118
 20
627.7775537357134
 30
0.0
 40
1.000000000000008
 50
44.99999999999078
 51
112.6498989714149
  0
LINE
  5
29B
  8
0
  6
CONTINUOUS
 62
     7
 10
1836.618171641053
 20
628.3102321867207
 30
0.0
 11
1837.553262858279
 21
628.7004289194421
 31
0.0
  0
ARC
  5
29C
  8
0
  6
CONTINUOUS
 62
     7
 10
1836.813058987393
 20
624.4551551547748
 30
0.0
 40
3.860000000000107
 50
23.66022218902174
 51
92.89403417331646
  0
ARC
  5
29D
  8
0
  6
CONTINUOUS
 62
     7
 10
1843.884126799259
 20
624.4551551547744
 30
0.0
 40
3.859999999999989
 50
113.6602221890218
 51
156.3397778109767
  0
ARC
  5
29E
  8
0
  6
CONTINUOUS
 62
     7
 10
1843.884126799259
 20
631.5262229666406
 30
0.0
 40
3.859999999999989
 50
203.6602221890241
 51
246.3397778109791
  0
LINE
  5
29F
  8
0
  6
CONTINUOUS
 62
     7
 10
1838.941327644788
 20
636.510069113053
 30
0.0
 11
1840.348592893326
 21
629.9771587329817
 31
0.0
  0
ARC
  5
2A0
  8
0
  6
CONTINUOUS
 62
     7
 10
1836.813058987393
 20
636.2051551547748
 30
0.0
 40
2.150000000000172
 50
8.153201311959943
 51
83.81778457481067
  0
ARC
  5
2A1
  8
0
  6
CONTINUOUS
 62
     7
 10
1837.128592893326
 20
639.1181155654577
 30
0.0
 40
0.7800000000000965
 50
180.0
 51
263.817787558172
  0
LINE
  5
2A2
  8
0
  6
CONTINUOUS
 62
     7
 10
1836.348592893326
 20
640.3632625559572
 30
0.0
 11
1836.348592893326
 21
639.1181155654579
 31
0.0
  0
ARC
  5
2A3
  8
0
  6
CONTINUOUS
 62
     7
 10
1837.128592893326
 20
640.3632625559572
 30
0.0
 40
0.7800000000002001
 50
96.18221463098014
 51
180.0
  0
ARC
  5
2A4
  8
0
  6
CONTINUOUS
 62
     7
 10
1836.813058987393
 20
643.2762229666403
 30
0.0
 40
2.150000000000204
 50
276.1822146309921
 51
351.8467986880348
  0
ARC
  5
2A5
  8
0
  6
CONTINUOUS
 62
     7
 10
1839.713443715842
 20
642.8606890607076
 30
0.0
 40
0.78000000000034
 50
90.0
 51
171.8467986880495
  0
LINE
  5
2A6
  8
0
  6
CONTINUOUS
 62
     7
 10
1840.98374207081
 20
643.6406890607075
 30
0.0
 11
1839.713443715842
 21
643.6406890607075
 31
0.0
  0
ARC
  5
2A7
  8
0
  6
CONTINUOUS
 62
     7
 10
1840.98374207081
 20
642.8606890607075
 30
0.0
 40
0.7799999999999727
 50
8.153210854306899
 51
90.0
  0
ARC
  5
2A8
  8
0
  6
CONTINUOUS
 62
     7
 10
1843.884126799259
 20
643.2762229666403
 30
0.0
 40
2.150000000000154
 50
188.1531978500933
 51
277.9695381171898
  0
ARC
  5
2A9
  8
0
  6
CONTINUOUS
 62
     7
 10
1844.348592893326
 20
639.9585775293668
 30
0.0
 40
1.200000000000273
 50
359.9999999999953
 51
97.96953811717677
  0
LINE
  5
2AA
  8
0
  6
CONTINUOUS
 62
     7
 10
1845.548592893326
 20
638.9810155177333
 30
0.0
 11
1845.548592893326
 21
639.9585775293667
 31
0.0
  0
ARC
  5
2AB
  8
0
  6
CONTINUOUS
 62
     7
 10
1844.348592893326
 20
638.9810155177332
 30
0.0
 40
1.200000000000273
 50
292.649898971414
 51
0.0000000000054281
  0
LINE
  5
2AC
  8
0
  6
CONTINUOUS
 62
     7
 10
2593.334126799256
 20
620.7051551547745
 30
0.0
 11
2601.534126799256
 21
620.7051551547745
 31
0.0
  0
LINE
  5
2AD
  8
0
  6
CONTINUOUS
 62
     7
 10
2593.334126799256
 20
626.5067180364306
 30
0.0
 11
2593.334126799256
 21
620.7051551547745
 31
0.0
  0
ARC
  5
2AE
  8
0
  6
CONTINUOUS
 62
     7
 10
2597.434126799256
 20
629.7051551547745
 30
0.0
 40
5.199999999999942
 50
322.0419714193186
 51
217.958028580683
  0
LINE
  5
2AF
  8
0
  6
CONTINUOUS
 62
     7
 10
2601.534126799256
 20
620.7051551547745
 30
0.0
 11
2601.534126799256
 21
626.5067180364306
 31
0.0
  0
LINE
  5
2B0
  8
0
  6
CONTINUOUS
 62
     7
 10
2602.384126799256
 20
634.9051551547745
 30
0.0
 11
2597.434126799256
 21
634.9051551547745
 31
0.0
  0
LINE
  5
2B1
  8
0
  6
CONTINUOUS
 62
     7
 10
2602.384126799256
 20
631.298108386982
 30
0.0
 11
2602.384126799256
 21
634.9051551547745
 31
0.0
  0
LINE
  5
2B2
  8
0
  6
CONTINUOUS
 62
     7
 10
2594.184126799256
 20
634.9051551547745
 30
0.0
 11
2594.184126799256
 21
633.7644038537336
 31
0.0
  0
LINE
  5
2B3
  8
0
  6
CONTINUOUS
 62
     7
 10
2597.434126799256
 20
634.9051551547745
 30
0.0
 11
2594.184126799256
 21
634.9051551547745
 31
0.0
  0
LINE
  5
2B4
  8
0
  6
CONTINUOUS
 62
     7
 10
2602.384126799256
 20
620.7051551547745
 30
0.0
 11
2602.384126799256
 21
628.1122019225669
 31
0.0
  0
LINE
  5
2B5
  8
0
  6
CONTINUOUS
 62
     7
 10
2601.534126799256
 20
620.7051551547745
 30
0.0
 11
2602.384126799256
 21
620.7051551547745
 31
0.0
  0
LINE
  5
2B6
  8
0
  6
CONTINUOUS
 62
     7
 10
2590.534126799256
 20
634.7051551547744
 30
0.0
 11
2590.534126799256
 21
633.2051551547745
 31
0.0
  0
LINE
  5
2B7
  8
0
  6
CONTINUOUS
 62
     7
 10
2591.384126799256
 20
634.7051551547744
 30
0.0
 11
2590.534126799256
 21
634.7051551547744
 31
0.0
  0
LINE
  5
2B8
  8
0
  6
CONTINUOUS
 62
     7
 10
2590.534126799256
 20
633.2051551547745
 30
0.0
 11
2591.384126799256
 21
633.2051551547745
 31
0.0
  0
ARC
  5
2B9
  8
0
  6
CONTINUOUS
 62
     7
 10
2591.384126799256
 20
631.2051551547742
 30
0.0
 40
2.0
 50
36.71402945430452
 51
90.0
  0
ARC
  5
2BA
  8
0
  6
CONTINUOUS
 62
     7
 10
2591.384126799258
 20
630.9551551547761
 30
0.0
 40
3.749999999999886
 50
45.3962440269453
 51
90.0000000000278
  0
ARC
  5
2BB
  8
0
  6
CONTINUOUS
 62
     7
 10
2584.384126799255
 20
624.455155154773
 30
0.0
 40
3.750000000000455
 50
180.0
 51
270.0000000000286
  0
LINE
  5
2BC
  8
0
  6
CONTINUOUS
 62
     7
 10
2580.634126799256
 20
625.1465829385345
 30
0.0
 11
2580.634126799256
 21
624.4551551547746
 31
0.0
  0
LINE
  5
2BD
  8
0
  6
CONTINUOUS
 62
     7
 10
2580.136478947696
 20
626.5138591735355
 30
0.0
 11
2580.634126799256
 21
625.1465829385345
 31
0.0
  0
ARC
  5
2BE
  8
0
  6
CONTINUOUS
 62
     7
 10
2578.726940016518
 20
626.0008289585472
 30
0.0
 40
1.500000000000388
 50
20.00000000000223
 51
136.8297092601938
  0
LINE
  5
2BF
  8
0
  6
CONTINUOUS
 62
     7
 10
2576.899042355661
 20
626.2447325900415
 30
0.0
 11
2577.632954790833
 21
627.0270824973865
 31
0.0
  0
ARC
  5
2C0
  8
0
  6
CONTINUOUS
 62
     7
 10
2575.075733646184
 20
627.9551551547777
 30
0.0
 40
2.5
 50
270.0000000000321
 51
316.8297092601308
  0
LINE
  5
2C1
  8
0
  6
CONTINUOUS
 62
     7
 10
2563.384126799257
 20
625.4551551547745
 30
0.0
 11
2575.075733646185
 21
625.4551551547745
 31
0.0
  0
ARC
  5
2C2
  8
0
  6
CONTINUOUS
 62
     7
 10
2563.384126799257
 20
628.2051551547745
 30
0.0
 40
2.750000000000455
 50
180.0
 51
270.0000000000008
  0
LINE
  5
2C3
  8
0
  6
CONTINUOUS
 62
     7
 10
2562.384126799256
 20
631.2051551547745
 30
0.0
 11
2560.634126799256
 21
631.2051551547745
 31
0.0
  0
LINE
  5
2C4
  8
0
  6
CONTINUOUS
 62
     7
 10
2562.384126799256
 20
628.2051551547745
 30
0.0
 11
2562.384126799256
 21
631.2051551547745
 31
0.0
  0
ARC
  5
2C5
  8
0
  6
CONTINUOUS
 62
     7
 10
2563.384126799256
 20
628.2051551547738
 30
0.0
 40
1.0
 50
180.0
 51
270.0000000000008
  0
LINE
  5
2C6
  8
0
  6
CONTINUOUS
 62
     7
 10
2575.33013700523
 20
627.2051551547745
 30
0.0
 11
2563.384126799257
 21
627.2051551547745
 31
0.0
  0
ARC
  5
2C7
  8
0
  6
CONTINUOUS
 62
     7
 10
2575.330137005228
 20
628.2051551547777
 30
0.0
 40
1.000000000000169
 50
270.0000000000008
 51
314.9999999998903
  0
LINE
  5
2C8
  8
0
  6
CONTINUOUS
 62
     7
 10
2576.865670911162
 20
628.3264754983345
 30
0.0
 11
2576.037243786415
 21
627.4980483735875
 31
0.0
  0
ARC
  5
2C9
  8
0
  6
CONTINUOUS
 62
     7
 10
2578.986991254724
 20
626.2051551547701
 30
0.0
 40
3.000000000000105
 50
90.65295157111338
 51
134.9999999999586
  0
ARC
  5
2CA
  8
0
  6
CONTINUOUS
 62
     7
 10
2578.918615806128
 20
626.205155154775
 30
0.0
 40
3.000000000000524
 50
19.99999999998831
 51
89.34704842890397
  0
LINE
  5
2CB
  8
0
  6
CONTINUOUS
 62
     7
 10
2582.384126799256
 20
625.4551551547745
 30
0.0
 11
2581.737693668486
 21
627.2312155847515
 31
0.0
  0
LINE
  5
2CC
  8
0
  6
CONTINUOUS
 62
     7
 10
2582.384126799256
 20
624.4551551547746
 30
0.0
 11
2582.384126799256
 21
625.4551551547745
 31
0.0
  0
ARC
  5
2CD
  8
0
  6
CONTINUOUS
 62
     7
 10
2584.384126799257
 20
624.4551551547748
 30
0.0
 40
2.000000000000114
 50
180.0
 51
270.0000000000008
  0
LINE
  5
2CE
  8
0
  6
CONTINUOUS
 62
     7
 10
2591.384126799256
 20
622.4551551547746
 30
0.0
 11
2584.384126799257
 21
622.4551551547746
 31
0.0
  0
LINE
  5
2CF
  8
0
  6
CONTINUOUS
 62
     7
 10
2584.384126799257
 20
620.7051551547745
 30
0.0
 11
2591.384126799256
 21
620.7051551547745
 31
0.0
  0
ARC
  5
2D0
  8
0
  6
CONTINUOUS
 62
     7
 10
2591.384126799256
 20
624.4551551547748
 30
0.0
 40
2.000000000000114
 50
270.0000000000008
 51
347.1614318590153
  0
ARC
  5
2D1
  8
0
  6
CONTINUOUS
 62
     7
 10
2591.384126799258
 20
624.455155154773
 30
0.0
 40
3.75
 50
269.999999999973
 51
301.3322514975776
  0
LINE
  5
2D2
  8
0
  6
CONTINUOUS
 62
     7
 10
2560.634126799256
 20
662.2051551547745
 30
0.0
 11
2562.384126799256
 21
662.2051551547745
 31
0.0
  0
LINE
  5
2D3
  8
0
  6
CONTINUOUS
 62
     7
 10
2560.634126799256
 20
665.2051551547745
 30
0.0
 11
2562.384126799256
 21
665.2051551547745
 31
0.0
  0
LINE
  5
2D4
  8
0
  6
CONTINUOUS
 62
     7
 10
2562.384126799256
 20
662.2051551547745
 30
0.0
 11
2562.384126799256
 21
665.2051551547751
 31
0.0
  0
LINE
  5
2D5
  8
0
  6
CONTINUOUS
 62
     7
 10
2562.384126799256
 20
631.2051551547745
 30
0.0
 11
2562.384126799256
 21
662.2051551547745
 31
0.0
  0
LINE
  5
2D6
  8
0
  6
CONTINUOUS
 62
     7
 10
1845.834126799256
 20
620.7051551547745
 30
0.0
 11
1854.034126799256
 21
620.7051551547745
 31
0.0
  0
LINE
  5
2D7
  8
0
  6
CONTINUOUS
 62
     7
 10
1845.834126799256
 20
626.5067180364306
 30
0.0
 11
1845.834126799256
 21
620.7051551547745
 31
0.0
  0
ARC
  5
2D8
  8
0
  6
CONTINUOUS
 62
     7
 10
1849.934126799256
 20
629.7051551547745
 30
0.0
 40
5.200000000000122
 50
322.0419714193201
 51
217.9580285806846
  0
LINE
  5
2D9
  8
0
  6
CONTINUOUS
 62
     7
 10
1854.034126799256
 20
620.7051551547745
 30
0.0
 11
1854.034126799256
 21
626.5067180364306
 31
0.0
  0
LINE
  5
2DA
  8
0
  6
CONTINUOUS
 62
     7
 10
1854.884126799256
 20
620.7051551547745
 30
0.0
 11
1854.884126799256
 21
628.1122019225669
 31
0.0
  0
LINE
  5
2DB
  8
0
  6
CONTINUOUS
 62
     7
 10
1854.034126799256
 20
620.7051551547745
 30
0.0
 11
1854.884126799256
 21
620.7051551547745
 31
0.0
  0
LINE
  5
2DC
  8
0
  6
CONTINUOUS
 62
     7
 10
1846.684126799256
 20
634.9051551547745
 30
0.0
 11
1846.684126799256
 21
633.7644038537336
 31
0.0
  0
LINE
  5
2DD
  8
0
  6
CONTINUOUS
 62
     7
 10
1849.934126799256
 20
634.9051551547745
 30
0.0
 11
1846.684126799256
 21
634.9051551547745
 31
0.0
  0
LINE
  5
2DE
  8
0
  6
CONTINUOUS
 62
     7
 10
1854.884126799256
 20
634.9051551547745
 30
0.0
 11
1849.934126799256
 21
634.9051551547745
 31
0.0
  0
LINE
  5
2DF
  8
0
  6
CONTINUOUS
 62
     7
 10
1854.884126799256
 20
631.298108386982
 30
0.0
 11
1854.884126799256
 21
634.9051551547745
 31
0.0
  0
ARC
  5
2E0
  8
0
  6
CONTINUOUS
 62
     7
 10
1836.884126799255
 20
624.455155154773
 30
0.0
 40
3.75
 50
180.0
 51
270.0000000000286
  0
LINE
  5
2E1
  8
0
  6
CONTINUOUS
 62
     7
 10
1833.134126799256
 20
625.1465829385345
 30
0.0
 11
1833.134126799256
 21
624.4551551547746
 31
0.0
  0
LINE
  5
2E2
  8
0
  6
CONTINUOUS
 62
     7
 10
1832.636478947696
 20
626.5138591735355
 30
0.0
 11
1833.134126799256
 21
625.1465829385345
 31
0.0
  0
ARC
  5
2E3
  8
0
  6
CONTINUOUS
 62
     7
 10
1831.226940016518
 20
626.0008289585472
 30
0.0
 40
1.500000000000222
 50
19.99999999999926
 51
136.8297092601878
  0
LINE
  5
2E4
  8
0
  6
CONTINUOUS
 62
     7
 10
1829.399042355661
 20
626.2447325900415
 30
0.0
 11
1830.132954790832
 21
627.0270824973865
 31
0.0
  0
ARC
  5
2E5
  8
0
  6
CONTINUOUS
 62
     7
 10
1827.575733646184
 20
627.9551551547777
 30
0.0
 40
2.500000000000058
 50
270.0000000000373
 51
316.8297092601379
  0
LINE
  5
2E6
  8
0
  6
CONTINUOUS
 62
     7
 10
1815.884126799256
 20
625.4551551547745
 30
0.0
 11
1827.575733646185
 21
625.4551551547745
 31
0.0
  0
ARC
  5
2E7
  8
0
  6
CONTINUOUS
 62
     7
 10
1815.884126799256
 20
628.2051551547745
 30
0.0
 40
2.750000000000227
 50
180.0
 51
270.0000000000008
  0
LINE
  5
2E8
  8
0
  6
CONTINUOUS
 62
     7
 10
1814.884126799256
 20
631.2051551547745
 30
0.0
 11
1813.134126799256
 21
631.2051551547745
 31
0.0
  0
LINE
  5
2E9
  8
0
  6
CONTINUOUS
 62
     7
 10
1814.884126799256
 20
628.2051551547745
 30
0.0
 11
1814.884126799256
 21
631.2051551547745
 31
0.0
  0
ARC
  5
2EA
  8
0
  6
CONTINUOUS
 62
     7
 10
1815.884126799256
 20
628.2051551547738
 30
0.0
 40
1.0
 50
180.0
 51
270.0000000000008
  0
LINE
  5
2EB
  8
0
  6
CONTINUOUS
 62
     7
 10
1827.830137005229
 20
627.2051551547745
 30
0.0
 11
1815.884126799256
 21
627.2051551547745
 31
0.0
  0
ARC
  5
2EC
  8
0
  6
CONTINUOUS
 62
     7
 10
1827.830137005228
 20
628.2051551547777
 30
0.0
 40
1.00000000000033
 50
270.0000000000008
 51
314.9999999998995
  0
LINE
  5
2ED
  8
0
  6
CONTINUOUS
 62
     7
 10
1829.365670911162
 20
628.3264754983345
 30
0.0
 11
1828.537243786415
 21
627.4980483735875
 31
0.0
  0
ARC
  5
2EE
  8
0
  6
CONTINUOUS
 62
     7
 10
1831.486991254724
 20
626.2051551547701
 30
0.0
 40
3.000000000000105
 50
90.65295157111338
 51
134.9999999999586
  0
ARC
  5
2EF
  8
0
  6
CONTINUOUS
 62
     7
 10
1831.418615806129
 20
626.205155154775
 30
0.0
 40
2.999999999999882
 50
19.99999999999277
 51
89.347048428917
  0
LINE
  5
2F0
  8
0
  6
CONTINUOUS
 62
     7
 10
1834.884126799256
 20
625.4551551547745
 30
0.0
 11
1834.237693668486
 21
627.2312155847515
 31
0.0
  0
LINE
  5
2F1
  8
0
  6
CONTINUOUS
 62
     7
 10
1834.884126799256
 20
624.4551551547746
 30
0.0
 11
1834.884126799256
 21
625.4551551547745
 31
0.0
  0
ARC
  5
2F2
  8
0
  6
CONTINUOUS
 62
     7
 10
1836.884126799256
 20
624.4551551547748
 30
0.0
 40
2.000000000000114
 50
180.0
 51
270.0000000000008
  0
LINE
  5
2F3
  8
0
  6
CONTINUOUS
 62
     7
 10
1843.884126799256
 20
622.4551551547746
 30
0.0
 11
1836.884126799256
 21
622.4551551547746
 31
0.0
  0
ARC
  5
2F4
  8
0
  6
CONTINUOUS
 62
     7
 10
1843.884126799256
 20
624.4551551547748
 30
0.0
 40
2.000000000000114
 50
270.0000000000073
 51
347.1614318590153
  0
LINE
  5
2F5
  8
0
  6
CONTINUOUS
 62
     7
 10
1836.884126799256
 20
620.7051551547745
 30
0.0
 11
1843.884126799256
 21
620.7051551547745
 31
0.0
  0
ARC
  5
2F6
  8
0
  6
CONTINUOUS
 62
     7
 10
1843.884126799258
 20
624.455155154773
 30
0.0
 40
3.75
 50
269.9999999999799
 51
301.3322514975806
  0
LINE
  5
2F7
  8
0
  6
CONTINUOUS
 62
     7
 10
1843.884126799256
 20
634.7051551547744
 30
0.0
 11
1843.034126799256
 21
634.7051551547744
 31
0.0
  0
LINE
  5
2F8
  8
0
  6
CONTINUOUS
 62
     7
 10
1843.034126799256
 20
633.2051551547745
 30
0.0
 11
1843.884126799256
 21
633.2051551547745
 31
0.0
  0
ARC
  5
2F9
  8
0
  6
CONTINUOUS
 62
     7
 10
1843.884126799256
 20
631.2051551547742
 30
0.0
 40
2.0
 50
36.71402945430452
 51
89.99999999999349
  0
LINE
  5
2FA
  8
0
  6
CONTINUOUS
 62
     7
 10
1843.034126799256
 20
634.7051551547744
 30
0.0
 11
1843.034126799256
 21
633.2051551547745
 31
0.0
  0
ARC
  5
2FB
  8
0
  6
CONTINUOUS
 62
     7
 10
1843.884126799258
 20
630.9551551547761
 30
0.0
 40
3.749999999999948
 50
45.39624402694283
 51
90.00000000002085
  0
LINE
  5
2FC
  8
0
  6
CONTINUOUS
 62
     7
 10
1813.134126799256
 20
662.2051551547745
 30
0.0
 11
1814.884126799256
 21
662.2051551547745
 31
0.0
  0
LINE
  5
2FD
  8
0
  6
CONTINUOUS
 62
     7
 10
1814.884126799256
 20
631.2051551547745
 30
0.0
 11
1814.884126799256
 21
662.2051551547745
 31
0.0
  0
LINE
  5
2FE
  8
0
  6
CONTINUOUS
 62
     7
 10
1813.134126799256
 20
665.2051551547745
 30
0.0
 11
1814.884126799256
 21
665.2051551547745
 31
0.0
  0
LINE
  5
2FF
  8
0
  6
CONTINUOUS
 62
     7
 10
1814.884126799256
 20
662.2051551547745
 30
0.0
 11
1814.884126799256
 21
665.2051551547751
 31
0.0
  0
LINE
  5
300
  8
0
  6
CONTINUOUS
 62
     7
 10
2508.384126799256
 20
632.4552229666394
 30
0.0
 11
2509.184126799256
 21
632.4552229666394
 31
0.0
  0
LINE
  5
301
  8
0
  6
CONTINUOUS
 62
     7
 10
2508.384126799256
 20
634.2052229666396
 30
0.0
 11
2508.384126799256
 21
632.4552229666394
 31
0.0
  0
LINE
  5
302
  8
0
  6
CONTINUOUS
 62
     7
 10
2509.184126799256
 20
634.2052229666396
 30
0.0
 11
2508.384126799256
 21
634.2052229666396
 31
0.0
  0
ARC
  5
303
  8
0
  6
CONTINUOUS
 62
     7
 10
2509.184126799256
 20
636.4052229666395
 30
0.0
 40
2.199999999999932
 50
270.0000000000008
 51
0.0
  0
LINE
  5
304
  8
0
  6
CONTINUOUS
 62
     7
 10
2511.384126799256
 20
643.0052229666394
 30
0.0
 11
2511.384126799256
 21
636.4052229666395
 31
0.0
  0
ARC
  5
305
  8
0
  6
CONTINUOUS
 62
     7
 10
2509.184126799256
 20
643.0052229666394
 30
0.0
 40
2.200000000000045
 50
0.0
 51
90.0
  0
LINE
  5
306
  8
0
  6
CONTINUOUS
 62
     7
 10
2502.584126799256
 20
645.2052229666396
 30
0.0
 11
2509.184126799256
 21
645.2052229666396
 31
0.0
  0
ARC
  5
307
  8
0
  6
CONTINUOUS
 62
     7
 10
2502.584126799256
 20
643.0052229666394
 30
0.0
 40
2.200000000000045
 50
90.0
 51
180.0
  0
LINE
  5
308
  8
0
  6
CONTINUOUS
 62
     7
 10
2500.384126799256
 20
642.0052229666395
 30
0.0
 11
2500.384126799256
 21
643.0052229666394
 31
0.0
  0
ARC
  5
309
  8
0
  6
CONTINUOUS
 62
     7
 10
2499.584126799256
 20
642.0052229666396
 30
0.0
 40
0.8000000000001819
 50
270.0000000000008
 51
359.9999999999927
  0
ARC
  5
30A
  8
0
  6
CONTINUOUS
 62
     7
 10
2499.584126799256
 20
641.0052229666394
 30
0.0
 40
0.2000000000000455
 50
90.0
 51
180.0
  0
LINE
  5
30B
  8
0
  6
CONTINUOUS
 62
     7
 10
2499.384126799256
 20
636.9552229666396
 30
0.0
 11
2499.384126799256
 21
641.0052229666395
 31
0.0
  0
LINE
  5
30C
  8
0
  6
CONTINUOUS
 62
     7
 10
2497.634126799256
 20
636.9552229666396
 30
0.0
 11
2499.384126799256
 21
636.9552229666396
 31
0.0
  0
LINE
  5
30D
  8
0
  6
CONTINUOUS
 62
     7
 10
2497.634126799256
 20
642.0052229666395
 30
0.0
 11
2497.634126799256
 21
636.9552229666396
 31
0.0
  0
ARC
  5
30E
  8
0
  6
CONTINUOUS
 62
     7
 10
2497.834126799256
 20
642.0052229666395
 30
0.0
 40
0.2000000000000455
 50
90.0
 51
180.0
  0
ARC
  5
30F
  8
0
  6
CONTINUOUS
 62
     7
 10
2497.834126799256
 20
643.0052229666396
 30
0.0
 40
0.8000000000001841
 50
270.0000000000008
 51
359.9999957311244
  0
ARC
  5
310
  8
0
  6
CONTINUOUS
 62
     7
 10
2502.584126799256
 20
643.0052229666396
 30
0.0
 40
3.950000000000045
 50
90.0
 51
180.0000008645834
  0
LINE
  5
311
  8
0
  6
CONTINUOUS
 62
     7
 10
2509.184126799256
 20
646.9552229666396
 30
0.0
 11
2502.584126799256
 21
646.9552229666396
 31
0.0
  0
LINE
  5
312
  8
0
  6
CONTINUOUS
 62
     7
 10
2513.134126799257
 20
636.4052229666395
 30
0.0
 11
2513.134126799257
 21
643.0052229666394
 31
0.0
  0
ARC
  5
313
  8
0
  6
CONTINUOUS
 62
     7
 10
2509.184126799256
 20
636.4052229666394
 30
0.0
 40
3.950000000000273
 50
270.0000000000008
 51
0.0000000000016491
  0
ARC
  5
314
  8
0
  6
CONTINUOUS
 62
     7
 10
2509.184126799256
 20
643.0052229666396
 30
0.0
 40
3.950000000000273
 50
359.9999999999975
 51
90.0
  0
LINE
  5
315
  8
0
  6
CONTINUOUS
 62
     7
 10
2502.584126799256
 20
655.2552229666395
 30
0.0
 11
2509.584126799256
 21
655.2552229666395
 31
0.0
  0
LINE
  5
316
  8
0
  6
CONTINUOUS
 62
     7
 10
2502.584126799256
 20
655.2552229666395
 30
0.0
 11
2502.584126799256
 21
658.4175006268014
 31
0.0
  0
LINE
  5
317
  8
0
  6
CONTINUOUS
 62
     7
 10
2504.242760340296
 20
658.7552229666395
 30
0.0
 11
2509.584126799256
 21
658.7552229666395
 31
0.0
  0
LINE
  5
318
  8
0
  6
CONTINUOUS
 62
     7
 10
2509.584126799256
 20
655.2552229666395
 30
0.0
 11
2509.584126799256
 21
658.7552229666347
 31
0.0
  0
LINE
  5
319
  8
0
  6
CONTINUOUS
 62
     7
 10
2502.584126799256
 20
646.9552229666396
 30
0.0
 11
2502.584126799256
 21
655.2552229666395
 31
0.0
  0
LINE
  5
31A
  8
0
  6
CONTINUOUS
 62
     7
 10
2509.584126799256
 20
646.9552229666396
 30
0.0
 11
2509.584126799256
 21
655.2552229666395
 31
0.0
  0
LINE
  5
31B
  8
0
  6
CONTINUOUS
 62
     7
 10
2509.584126799256
 20
658.8155303458818
 30
0.0
 11
2509.584126799256
 21
658.7552229666695
 31
0.0
  0
LINE
  5
31C
  8
0
  6
CONTINUOUS
 62
     7
 10
2504.805892727554
 20
659.8471336694384
 30
0.0
 11
2509.462360870958
 21
659.8471336694384
 31
0.0
  0
LINE
  5
31D
  8
0
  6
CONTINUOUS
 62
     7
 10
2509.584126799256
 20
658.8155303458535
 30
0.0
 11
2509.584126799256
 21
659.6865519359575
 31
0.0
  0
LINE
  5
31E
  8
0
  6
CONTINUOUS
 62
     7
 10
3255.884126799256
 20
632.4552229666394
 30
0.0
 11
3256.684126799256
 21
632.4552229666394
 31
0.0
  0
LINE
  5
31F
  8
0
  6
CONTINUOUS
 62
     7
 10
3255.884126799256
 20
634.2052229666396
 30
0.0
 11
3255.884126799256
 21
632.4552229666394
 31
0.0
  0
LINE
  5
320
  8
0
  6
CONTINUOUS
 62
     7
 10
3256.684126799256
 20
634.2052229666396
 30
0.0
 11
3255.884126799256
 21
634.2052229666396
 31
0.0
  0
ARC
  5
321
  8
0
  6
CONTINUOUS
 62
     7
 10
3256.684126799256
 20
636.4052229666395
 30
0.0
 40
2.199999999999932
 50
270.0000000000008
 51
0.0
  0
LINE
  5
322
  8
0
  6
CONTINUOUS
 62
     7
 10
3258.884126799256
 20
643.0052229666394
 30
0.0
 11
3258.884126799256
 21
636.4052229666395
 31
0.0
  0
ARC
  5
323
  8
0
  6
CONTINUOUS
 62
     7
 10
3256.684126799256
 20
643.0052229666394
 30
0.0
 40
2.200000000000045
 50
0.0
 51
90.0
  0
LINE
  5
324
  8
0
  6
CONTINUOUS
 62
     7
 10
3250.084126799256
 20
645.2052229666396
 30
0.0
 11
3256.684126799256
 21
645.2052229666396
 31
0.0
  0
ARC
  5
325
  8
0
  6
CONTINUOUS
 62
     7
 10
3250.084126799256
 20
643.0052229666394
 30
0.0
 40
2.200000000000045
 50
90.0
 51
180.0
  0
LINE
  5
326
  8
0
  6
CONTINUOUS
 62
     7
 10
3247.884126799256
 20
642.0052229666395
 30
0.0
 11
3247.884126799256
 21
643.0052229666394
 31
0.0
  0
ARC
  5
327
  8
0
  6
CONTINUOUS
 62
     7
 10
3247.084126799256
 20
642.0052229666396
 30
0.0
 40
0.8000000000001819
 50
270.0000000000008
 51
359.9999999999927
  0
ARC
  5
328
  8
0
  6
CONTINUOUS
 62
     7
 10
3247.084126799256
 20
641.0052229666394
 30
0.0
 40
0.2000000000000455
 50
90.0
 51
180.0
  0
LINE
  5
329
  8
0
  6
CONTINUOUS
 62
     7
 10
3246.884126799256
 20
636.9552229666396
 30
0.0
 11
3246.884126799256
 21
641.0052229666395
 31
0.0
  0
LINE
  5
32A
  8
0
  6
CONTINUOUS
 62
     7
 10
3245.134126799256
 20
636.9552229666396
 30
0.0
 11
3246.884126799256
 21
636.9552229666396
 31
0.0
  0
LINE
  5
32B
  8
0
  6
CONTINUOUS
 62
     7
 10
3245.134126799256
 20
642.0052229666395
 30
0.0
 11
3245.134126799256
 21
636.9552229666396
 31
0.0
  0
ARC
  5
32C
  8
0
  6
CONTINUOUS
 62
     7
 10
3245.334126799256
 20
642.0052229666395
 30
0.0
 40
0.2000000000000455
 50
90.0
 51
180.0
  0
ARC
  5
32D
  8
0
  6
CONTINUOUS
 62
     7
 10
3245.334126799256
 20
643.0052229666396
 30
0.0
 40
0.8000000000001841
 50
270.0000000000008
 51
359.9999957311244
  0
ARC
  5
32E
  8
0
  6
CONTINUOUS
 62
     7
 10
3250.084126799256
 20
643.0052229666396
 30
0.0
 40
3.950000000000045
 50
90.0
 51
180.0000008645834
  0
LINE
  5
32F
  8
0
  6
CONTINUOUS
 62
     7
 10
3256.684126799256
 20
646.9552229666396
 30
0.0
 11
3250.084126799256
 21
646.9552229666396
 31
0.0
  0
ARC
  5
330
  8
0
  6
CONTINUOUS
 62
     7
 10
3256.684126799256
 20
643.0052229666396
 30
0.0
 40
3.950000000000273
 50
359.9999999999975
 51
90.0
  0
LINE
  5
331
  8
0
  6
CONTINUOUS
 62
     7
 10
3260.634126799256
 20
636.4052229666395
 30
0.0
 11
3260.634126799256
 21
643.0052229666394
 31
0.0
  0
ARC
  5
332
  8
0
  6
CONTINUOUS
 62
     7
 10
3256.684126799256
 20
636.4052229666394
 30
0.0
 40
3.950000000000273
 50
270.0000000000008
 51
0.0000000000016491
  0
LINE
  5
333
  8
0
  6
CONTINUOUS
 62
     7
 10
3250.084126799256
 20
655.2552229666395
 30
0.0
 11
3257.084126799256
 21
655.2552229666395
 31
0.0
  0
LINE
  5
334
  8
0
  6
CONTINUOUS
 62
     7
 10
3250.084126799256
 20
655.2552229666395
 30
0.0
 11
3250.084126799256
 21
658.4175006268014
 31
0.0
  0
LINE
  5
335
  8
0
  6
CONTINUOUS
 62
     7
 10
3251.742760340296
 20
658.7552229666395
 30
0.0
 11
3257.084126799256
 21
658.7552229666395
 31
0.0
  0
LINE
  5
336
  8
0
  6
CONTINUOUS
 62
     7
 10
3257.084126799256
 20
655.2552229666395
 30
0.0
 11
3257.084126799256
 21
658.7552229666347
 31
0.0
  0
LINE
  5
337
  8
0
  6
CONTINUOUS
 62
     7
 10
3250.084126799256
 20
646.9552229666396
 30
0.0
 11
3250.084126799256
 21
655.2552229666395
 31
0.0
  0
LINE
  5
338
  8
0
  6
CONTINUOUS
 62
     7
 10
3257.084126799256
 20
646.9552229666396
 30
0.0
 11
3257.084126799256
 21
655.2552229666395
 31
0.0
  0
LINE
  5
339
  8
0
  6
CONTINUOUS
 62
     7
 10
3257.084126799256
 20
658.8155303458818
 30
0.0
 11
3257.084126799256
 21
658.7552229666695
 31
0.0
  0
LINE
  5
33A
  8
0
  6
CONTINUOUS
 62
     7
 10
3252.305892727554
 20
659.8471336694384
 30
0.0
 11
3256.962360870958
 21
659.8471336694384
 31
0.0
  0
LINE
  5
33B
  8
0
  6
CONTINUOUS
 62
     7
 10
3257.084126799256
 20
658.8155303458535
 30
0.0
 11
3257.084126799256
 21
659.6865519359576
 31
0.0
  0
ARC
  5
33C
  8
0
  6
CONTINUOUS
 62
     7
 10
3253.983742070807
 20
624.8706890607074
 30
0.0
 40
0.7800000000003534
 50
270.0000000000008
 51
351.8468059898152
  0
LINE
  5
33D
  8
0
  6
CONTINUOUS
 62
     7
 10
3252.71344371584
 20
624.0906890607075
 30
0.0
 11
3253.983742070807
 21
624.0906890607075
 31
0.0
  0
ARC
  5
33E
  8
0
  6
CONTINUOUS
 62
     7
 10
3252.71344371584
 20
624.8706890607074
 30
0.0
 40
0.780000000000565
 50
188.1532013119489
 51
270.0000000000008
  0
ARC
  5
33F
  8
0
  6
CONTINUOUS
 62
     7
 10
3249.81305898739
 20
624.4551551547748
 30
0.0
 40
2.149999999999884
 50
8.153201311964661
 51
83.81778616321749
  0
ARC
  5
340
  8
0
  6
CONTINUOUS
 62
     7
 10
3250.128592893323
 20
627.3681155654577
 30
0.0
 40
0.7799999999999436
 50
180.0
 51
263.8177831798694
  0
LINE
  5
341
  8
0
  6
CONTINUOUS
 62
     7
 10
3249.348592893323
 20
628.6132625559571
 30
0.0
 11
3249.348592893323
 21
627.3681155654577
 31
0.0
  0
ARC
  5
342
  8
0
  6
CONTINUOUS
 62
     7
 10
3250.128592893323
 20
628.6132625559572
 30
0.0
 40
0.779999999999882
 50
96.18221463096444
 51
180.0
  0
ARC
  5
343
  8
0
  6
CONTINUOUS
 62
     7
 10
3249.81305898739
 20
631.52622296664
 30
0.0
 40
2.150000000000214
 50
276.1822146309927
 51
332.4088138380941
  0
LINE
  5
344
  8
0
  6
CONTINUOUS
 62
     7
 10
3253.0734475188
 20
636.8202351670504
 30
0.0
 11
3251.718549888668
 21
630.5304296019566
 31
0.0
  0
ARC
  5
345
  8
0
  6
CONTINUOUS
 62
     7
 10
3256.884126799256
 20
636.2051551547746
 30
0.0
 40
3.860000000000048
 50
113.6602221890211
 51
170.8309952850026
  0
ARC
  5
346
  8
0
  6
CONTINUOUS
 62
     7
 10
3256.884126799256
 20
643.2762229666407
 30
0.0
 40
3.859999999999943
 50
203.660222189027
 51
246.3397778109791
  0
ARC
  5
347
  8
0
  6
CONTINUOUS
 62
     7
 10
3249.81305898739
 20
643.27622296664
 30
0.0
 40
3.860000000000106
 50
267.1059658266843
 51
336.339777810982
  0
LINE
  5
348
  8
0
  6
CONTINUOUS
 62
     7
 10
3250.553262858276
 20
639.0309492019729
 30
0.0
 11
3249.61817164105
 21
639.4211459346943
 31
0.0
  0
ARC
  5
349
  8
0
  6
CONTINUOUS
 62
     7
 10
3250.938362060116
 20
639.9538243857018
 30
0.0
 40
1.000000000000169
 50
247.3501010285764
 51
315.0000000000008
  0
LINE
  5
34A
  8
0
  6
CONTINUOUS
 62
     7
 10
3252.744016595409
 20
640.345265358622
 30
0.0
 11
3251.645468841302
 21
639.2467176045153
 31
0.0
  0
LINE
  5
34B
  8
0
  6
CONTINUOUS
 62
     7
 10
3253.953169191238
 20
639.136112762793
 30
0.0
 11
3252.744016595409
 21
640.345265358622
 31
0.0
  0
LINE
  5
34C
  8
0
  6
CONTINUOUS
 62
     7
 10
3252.989978536186
 20
638.1729221077411
 30
0.0
 11
3253.953169191238
 21
639.136112762793
 31
0.0
  0
ARC
  5
34D
  8
0
  6
CONTINUOUS
 62
     7
 10
3251.222211583219
 20
639.9406890607079
 30
0.0
 40
2.500000000000342
 50
270.0000000000113
 51
315.0000000000026
  0
LINE
  5
34E
  8
0
  6
CONTINUOUS
 62
     7
 10
3250.324390019824
 20
637.4406890607075
 30
0.0
 11
3251.22221158322
 21
637.4406890607075
 31
0.0
  0
ARC
  5
34F
  8
0
  6
CONTINUOUS
 62
     7
 10
3250.324390019824
 20
639.4406890607071
 30
0.0
 40
2.000000000000037
 50
247.3501010286017
 51
270.0000000000008
  0
LINE
  5
350
  8
0
  6
CONTINUOUS
 62
     7
 10
3248.886473851116
 20
637.8735652972586
 30
0.0
 11
3249.554191616145
 21
637.5949386932496
 31
0.0
  0
ARC
  5
351
  8
0
  6
CONTINUOUS
 62
     7
 10
3249.348592893323
 20
638.9810155177332
 30
0.0
 40
1.200000000000232
 50
180.0
 51
247.3501010285776
  0
LINE
  5
352
  8
0
  6
CONTINUOUS
 62
     7
 10
3248.148592893323
 20
639.9585775293667
 30
0.0
 11
3248.148592893323
 21
638.9810155177333
 31
0.0
  0
ARC
  5
353
  8
0
  6
CONTINUOUS
 62
     7
 10
3249.348592893323
 20
639.9585775293668
 30
0.0
 40
1.199999999999908
 50
82.03046188282323
 51
180.0
  0
ARC
  5
354
  8
0
  6
CONTINUOUS
 62
     7
 10
3249.81305898739
 20
643.2762229666405
 30
0.0
 40
2.150000000000191
 50
262.0304618828126
 51
351.8467948584972
  0
ARC
  5
355
  8
0
  6
CONTINUOUS
 62
     7
 10
3252.71344371584
 20
642.8606890607076
 30
0.0
 40
0.7800000000002671
 50
90.0
 51
171.8468092438074
  0
LINE
  5
356
  8
0
  6
CONTINUOUS
 62
     7
 10
3253.983742070807
 20
643.6406890607075
 30
0.0
 11
3252.71344371584
 21
643.6406890607075
 31
0.0
  0
ARC
  5
357
  8
0
  6
CONTINUOUS
 62
     7
 10
3253.983742070807
 20
642.8606890607076
 30
0.0
 40
0.780000000000565
 50
8.153201311948102
 51
90.0
  0
ARC
  5
358
  8
0
  6
CONTINUOUS
 62
     7
 10
3256.568592893324
 20
639.1181155654577
 30
0.0
 40
0.779999999999968
 50
276.1822061523631
 51
0.000000000008351
  0
LINE
  5
359
  8
0
  6
CONTINUOUS
 62
     7
 10
3253.348592893323
 20
629.9771587329817
 30
0.0
 11
3254.755858141862
 21
636.510069113053
 31
0.0
  0
ARC
  5
35A
  8
0
  6
CONTINUOUS
 62
     7
 10
3249.81305898739
 20
631.5262229666406
 30
0.0
 40
3.860000000000197
 50
293.6602221890287
 51
336.3397778109789
  0
ARC
  5
35B
  8
0
  6
CONTINUOUS
 62
     7
 10
3249.81305898739
 20
624.4551551547744
 30
0.0
 40
3.860000000000197
 50
23.66022218902193
 51
66.3397778109721
  0
LINE
  5
35C
  8
0
  6
CONTINUOUS
 62
     7
 10
3256.143922928371
 20
628.7004289194421
 30
0.0
 11
3257.079014145597
 21
628.3102321867207
 31
0.0
  0
ARC
  5
35D
  8
0
  6
CONTINUOUS
 62
     7
 10
3255.758823726531
 20
627.7775537357134
 30
0.0
 40
1.000000000000036
 50
67.35010102857306
 51
135.0000000000092
  0
LINE
  5
35E
  8
0
  6
CONTINUOUS
 62
     7
 10
3253.953169191238
 20
627.386112762793
 30
0.0
 11
3255.051716945344
 21
628.4846605168997
 31
0.0
  0
LINE
  5
35F
  8
0
  6
CONTINUOUS
 62
     7
 10
3252.744016595409
 20
628.595265358622
 30
0.0
 11
3253.953169191238
 21
627.386112762793
 31
0.0
  0
LINE
  5
360
  8
0
  6
CONTINUOUS
 62
     7
 10
3253.707207250461
 20
629.5584560136739
 30
0.0
 11
3252.744016595409
 21
628.595265358622
 31
0.0
  0
ARC
  5
361
  8
0
  6
CONTINUOUS
 62
     7
 10
3255.474974203427
 20
627.7906890607072
 30
0.0
 40
2.50000000000002
 50
90.0
 51
134.9999999999945
  0
LINE
  5
362
  8
0
  6
CONTINUOUS
 62
     7
 10
3256.372795766823
 20
630.2906890607076
 30
0.0
 11
3255.474974203427
 21
630.2906890607076
 31
0.0
  0
ARC
  5
363
  8
0
  6
CONTINUOUS
 62
     7
 10
3256.372795766823
 20
628.2906890607079
 30
0.0
 40
2.0
 50
67.35010102859961
 51
90.0
  0
ARC
  5
364
  8
0
  6
CONTINUOUS
 62
     7
 10
3257.348592893323
 20
628.7503626036818
 30
0.0
 40
1.200000000000057
 50
359.9999999999953
 51
67.35010102859687
  0
LINE
  5
365
  8
0
  6
CONTINUOUS
 62
     7
 10
3258.548592893323
 20
627.7728005920483
 30
0.0
 11
3258.548592893323
 21
628.7503626036817
 31
0.0
  0
ARC
  5
366
  8
0
  6
CONTINUOUS
 62
     7
 10
3256.884126799256
 20
624.4551551547748
 30
0.0
 40
3.86000000000013
 50
87.10596582667681
 51
156.3397778109769
  0
LINE
  5
367
  8
0
  6
CONTINUOUS
 62
     7
 10
3257.348592893323
 20
639.1181155654579
 30
0.0
 11
3257.348592893323
 21
640.3632625559572
 31
0.0
  0
LINE
  5
368
  8
0
  6
CONTINUOUS
 62
     7
 10
3257.81071193553
 20
629.8578128241564
 30
0.0
 11
3257.142994170501
 21
630.1364394281654
 31
0.0
  0
ARC
  5
369
  8
0
  6
CONTINUOUS
 62
     7
 10
3257.348592893323
 20
627.7728005920482
 30
0.0
 40
1.199999999999908
 50
262.0304618828241
 51
0.0000000000054281
  0
ARC
  5
36A
  8
0
  6
CONTINUOUS
 62
     7
 10
3256.884126799256
 20
636.205155154775
 30
0.0
 40
2.149999999999934
 50
96.18221770693756
 51
171.8467986880413
  0
ARC
  5
36B
  8
0
  6
CONTINUOUS
 62
     7
 10
3256.568592893324
 20
640.3632625559572
 30
0.0
 40
0.779999999999995
 50
0.0
 51
83.81778536903647
  0
ARC
  5
36C
  8
0
  6
CONTINUOUS
 62
     7
 10
3256.884126799256
 20
624.4551551547747
 30
0.0
 40
2.150000000000029
 50
82.03046188279897
 51
171.8467960390191
  0
ARC
  5
36D
  8
0
  6
CONTINUOUS
 62
     7
 10
3256.884126799256
 20
643.2762229666401
 30
0.0
 40
2.150000000000009
 50
188.1532013119655
 51
263.8177853690212
  0
ARC
  5
36E
  8
0
  6
CONTINUOUS
 62
     7
 10
2509.384126799256
 20
624.4551551547747
 30
0.0
 40
2.150000000000424
 50
82.03046188282298
 51
171.8467960390226
  0
ARC
  5
36F
  8
0
  6
CONTINUOUS
 62
     7
 10
2506.483742070807
 20
624.8706890607074
 30
0.0
 40
0.7799999999999727
 50
270.0000000000008
 51
351.8468059898104
  0
LINE
  5
370
  8
0
  6
CONTINUOUS
 62
     7
 10
2505.21344371584
 20
624.0906890607075
 30
0.0
 11
2506.483742070807
 21
624.0906890607075
 31
0.0
  0
ARC
  5
371
  8
0
  6
CONTINUOUS
 62
     7
 10
2505.21344371584
 20
624.8706890607074
 30
0.0
 40
0.780000000000565
 50
188.1532013119489
 51
270.0000000000008
  0
ARC
  5
372
  8
0
  6
CONTINUOUS
 62
     7
 10
2502.31305898739
 20
624.4551551547748
 30
0.0
 40
2.150000000000188
 50
8.153201311962944
 51
83.81778616321749
  0
ARC
  5
373
  8
0
  6
CONTINUOUS
 62
     7
 10
2502.628592893323
 20
627.3681155654577
 30
0.0
 40
0.7799999999999436
 50
180.0
 51
263.8177831798694
  0
LINE
  5
374
  8
0
  6
CONTINUOUS
 62
     7
 10
2501.848592893323
 20
628.6132625559571
 30
0.0
 11
2501.848592893323
 21
627.3681155654577
 31
0.0
  0
ARC
  5
375
  8
0
  6
CONTINUOUS
 62
     7
 10
2502.628592893323
 20
628.6132625559572
 30
0.0
 40
0.7800000000002001
 50
96.18221463099765
 51
180.0
  0
ARC
  5
376
  8
0
  6
CONTINUOUS
 62
     7
 10
2502.31305898739
 20
631.52622296664
 30
0.0
 40
2.150000000000214
 50
276.1822146309927
 51
332.4088138380941
  0
LINE
  5
377
  8
0
  6
CONTINUOUS
 62
     7
 10
2505.5734475188
 20
636.8202351670504
 30
0.0
 11
2504.218549888668
 21
630.5304296019566
 31
0.0
  0
ARC
  5
378
  8
0
  6
CONTINUOUS
 62
     7
 10
2509.384126799256
 20
636.2051551547746
 30
0.0
 40
3.860000000000199
 50
113.6602221890211
 51
170.8309952850037
  0
ARC
  5
379
  8
0
  6
CONTINUOUS
 62
     7
 10
2509.384126799256
 20
643.2762229666407
 30
0.0
 40
3.859999999999943
 50
203.660222189027
 51
246.3397778109791
  0
ARC
  5
37A
  8
0
  6
CONTINUOUS
 62
     7
 10
2502.31305898739
 20
643.27622296664
 30
0.0
 40
3.860000000000106
 50
267.1059658266843
 51
336.339777810982
  0
LINE
  5
37B
  8
0
  6
CONTINUOUS
 62
     7
 10
2503.053262858276
 20
639.0309492019729
 30
0.0
 11
2502.11817164105
 21
639.4211459346943
 31
0.0
  0
ARC
  5
37C
  8
0
  6
CONTINUOUS
 62
     7
 10
2503.438362060115
 20
639.9538243857018
 30
0.0
 40
1.000000000000169
 50
247.3501010286004
 51
315.0000000000008
  0
LINE
  5
37D
  8
0
  6
CONTINUOUS
 62
     7
 10
2505.244016595409
 20
640.345265358622
 30
0.0
 11
2504.145468841302
 21
639.2467176045153
 31
0.0
  0
LINE
  5
37E
  8
0
  6
CONTINUOUS
 62
     7
 10
2506.453169191238
 20
639.136112762793
 30
0.0
 11
2505.244016595409
 21
640.345265358622
 31
0.0
  0
LINE
  5
37F
  8
0
  6
CONTINUOUS
 62
     7
 10
2505.489978536186
 20
638.1729221077411
 30
0.0
 11
2506.453169191238
 21
639.136112762793
 31
0.0
  0
ARC
  5
380
  8
0
  6
CONTINUOUS
 62
     7
 10
2503.722211583219
 20
639.9406890607079
 30
0.0
 40
2.500000000000342
 50
270.0000000000113
 51
315.0000000000026
  0
LINE
  5
381
  8
0
  6
CONTINUOUS
 62
     7
 10
2502.824390019824
 20
637.4406890607075
 30
0.0
 11
2503.72221158322
 21
637.4406890607075
 31
0.0
  0
ARC
  5
382
  8
0
  6
CONTINUOUS
 62
     7
 10
2502.824390019824
 20
639.4406890607071
 30
0.0
 40
2.000000000000037
 50
247.3501010286017
 51
270.0000000000008
  0
LINE
  5
383
  8
0
  6
CONTINUOUS
 62
     7
 10
2501.386473851116
 20
637.8735652972586
 30
0.0
 11
2502.054191616145
 21
637.5949386932496
 31
0.0
  0
ARC
  5
384
  8
0
  6
CONTINUOUS
 62
     7
 10
2501.848592893323
 20
638.9810155177332
 30
0.0
 40
1.200000000000273
 50
180.0
 51
247.3501010285776
  0
LINE
  5
385
  8
0
  6
CONTINUOUS
 62
     7
 10
2500.648592893323
 20
639.9585775293667
 30
0.0
 11
2500.648592893323
 21
638.9810155177333
 31
0.0
  0
ARC
  5
386
  8
0
  6
CONTINUOUS
 62
     7
 10
2501.848592893323
 20
639.9585775293668
 30
0.0
 40
1.200000000000273
 50
82.03046188282323
 51
180.0
  0
ARC
  5
387
  8
0
  6
CONTINUOUS
 62
     7
 10
2502.31305898739
 20
643.2762229666405
 30
0.0
 40
2.150000000000552
 50
262.0304618828246
 51
351.846794858499
  0
ARC
  5
388
  8
0
  6
CONTINUOUS
 62
     7
 10
2505.21344371584
 20
642.8606890607076
 30
0.0
 40
0.7800000000002671
 50
90.0
 51
171.8468092438074
  0
LINE
  5
389
  8
0
  6
CONTINUOUS
 62
     7
 10
2506.483742070807
 20
643.6406890607075
 30
0.0
 11
2505.21344371584
 21
643.6406890607075
 31
0.0
  0
ARC
  5
38A
  8
0
  6
CONTINUOUS
 62
     7
 10
2506.483742070807
 20
642.8606890607076
 30
0.0
 40
0.7799999999999727
 50
8.153201311957577
 51
90.0
  0
ARC
  5
38B
  8
0
  6
CONTINUOUS
 62
     7
 10
2509.384126799256
 20
643.2762229666401
 30
0.0
 40
2.150000000000188
 50
188.1532013119638
 51
263.8177853690212
  0
LINE
  5
38C
  8
0
  6
CONTINUOUS
 62
     7
 10
2509.848592893323
 20
639.1181155654579
 30
0.0
 11
2509.848592893323
 21
640.3632625559572
 31
0.0
  0
ARC
  5
38D
  8
0
  6
CONTINUOUS
 62
     7
 10
2509.068592893323
 20
639.1181155654577
 30
0.0
 40
0.7800000000002001
 50
276.1822061523962
 51
0.000000000008351
  0
LINE
  5
38E
  8
0
  6
CONTINUOUS
 62
     7
 10
2505.848592893323
 20
629.9771587329817
 30
0.0
 11
2507.255858141861
 21
636.510069113053
 31
0.0
  0
ARC
  5
38F
  8
0
  6
CONTINUOUS
 62
     7
 10
2502.31305898739
 20
631.5262229666406
 30
0.0
 40
3.860000000000197
 50
293.6602221890287
 51
336.3397778109789
  0
ARC
  5
390
  8
0
  6
CONTINUOUS
 62
     7
 10
2502.31305898739
 20
624.4551551547744
 30
0.0
 40
3.860000000000197
 50
23.66022218902193
 51
66.3397778109721
  0
ARC
  5
391
  8
0
  6
CONTINUOUS
 62
     7
 10
2509.384126799256
 20
624.4551551547748
 30
0.0
 40
3.860000000000107
 50
87.10596582668354
 51
156.3397778109769
  0
LINE
  5
392
  8
0
  6
CONTINUOUS
 62
     7
 10
2508.643922928371
 20
628.7004289194421
 30
0.0
 11
2509.579014145596
 21
628.3102321867207
 31
0.0
  0
ARC
  5
393
  8
0
  6
CONTINUOUS
 62
     7
 10
2508.258823726531
 20
627.7775537357134
 30
0.0
 40
1.000000000000036
 50
67.35010102857306
 51
135.0000000000092
  0
LINE
  5
394
  8
0
  6
CONTINUOUS
 62
     7
 10
2506.453169191238
 20
627.386112762793
 30
0.0
 11
2507.551716945344
 21
628.4846605168997
 31
0.0
  0
LINE
  5
395
  8
0
  6
CONTINUOUS
 62
     7
 10
2505.244016595409
 20
628.595265358622
 30
0.0
 11
2506.453169191238
 21
627.386112762793
 31
0.0
  0
LINE
  5
396
  8
0
  6
CONTINUOUS
 62
     7
 10
2506.207207250461
 20
629.5584560136739
 30
0.0
 11
2505.244016595409
 21
628.595265358622
 31
0.0
  0
ARC
  5
397
  8
0
  6
CONTINUOUS
 62
     7
 10
2507.974974203427
 20
627.7906890607072
 30
0.0
 40
2.500000000000342
 50
90.00000000001042
 51
135.0000000000018
  0
LINE
  5
398
  8
0
  6
CONTINUOUS
 62
     7
 10
2508.872795766823
 20
630.2906890607076
 30
0.0
 11
2507.974974203427
 21
630.2906890607076
 31
0.0
  0
LINE
  5
399
  8
0
  6
CONTINUOUS
 62
     7
 10
2510.31071193553
 20
629.8578128241564
 30
0.0
 11
2509.642994170501
 21
630.1364394281654
 31
0.0
  0
ARC
  5
39A
  8
0
  6
CONTINUOUS
 62
     7
 10
2509.848592893323
 20
627.7728005920482
 30
0.0
 40
1.200000000000273
 50
262.0304618828026
 51
0.0000000000054281
  0
ARC
  5
39B
  8
0
  6
CONTINUOUS
 62
     7
 10
2508.872795766823
 20
628.2906890607079
 30
0.0
 40
2.0
 50
67.35010102859961
 51
90.0
  0
ARC
  5
39C
  8
0
  6
CONTINUOUS
 62
     7
 10
2509.068592893323
 20
640.3632625559572
 30
0.0
 40
0.7800000000002001
 50
0.0
 51
83.81778536900325
  0
ARC
  5
39D
  8
0
  6
CONTINUOUS
 62
     7
 10
2509.848592893323
 20
628.7503626036818
 30
0.0
 40
1.200000000000273
 50
359.9999999999953
 51
67.35010102859687
  0
LINE
  5
39E
  8
0
  6
CONTINUOUS
 62
     7
 10
2511.048592893323
 20
627.7728005920483
 30
0.0
 11
2511.048592893323
 21
628.7503626036817
 31
0.0
  0
ARC
  5
39F
  8
0
  6
CONTINUOUS
 62
     7
 10
2509.384126799256
 20
636.205155154775
 30
0.0
 40
2.150000000000156
 50
96.18221770693756
 51
171.8467986880431
  0
LINE
  5
3A0
  8
0
  6
CONTINUOUS
 62
     7
 10
3239.734126799257
 20
620.7051551547745
 30
0.0
 11
3247.934126799256
 21
620.7051551547745
 31
0.0
  0
LINE
  5
3A1
  8
0
  6
CONTINUOUS
 62
     7
 10
3239.734126799257
 20
626.5067180364306
 30
0.0
 11
3239.734126799257
 21
620.7051551547745
 31
0.0
  0
LINE
  5
3A2
  8
0
  6
CONTINUOUS
 62
     7
 10
3247.934126799256
 20
620.7051551547745
 30
0.0
 11
3247.934126799256
 21
626.5067180364306
 31
0.0
  0
ARC
  5
3A3
  8
0
  6
CONTINUOUS
 62
     7
 10
3243.834126799256
 20
629.7051551547745
 30
0.0
 40
5.200000000000301
 50
322.0419714193217
 51
217.9580285806861
  0
LINE
  5
3A4
  8
0
  6
CONTINUOUS
 62
     7
 10
3256.884126799256
 20
622.4551551547746
 30
0.0
 11
3249.884126799256
 21
622.4551551547746
 31
0.0
  0
ARC
  5
3A5
  8
0
  6
CONTINUOUS
 62
     7
 10
3256.884126799256
 20
624.4551551547748
 30
0.0
 40
2.000000000000455
 50
270.0000000000138
 51
359.9999999999943
  0
LINE
  5
3A6
  8
0
  6
CONTINUOUS
 62
     7
 10
3258.884126799256
 20
625.4551551547745
 30
0.0
 11
3258.884126799256
 21
624.4551551547746
 31
0.0
  0
LINE
  5
3A7
  8
0
  6
CONTINUOUS
 62
     7
 10
3259.530559930026
 20
627.2312155847515
 30
0.0
 11
3258.884126799256
 21
625.4551551547745
 31
0.0
  0
ARC
  5
3A8
  8
0
  6
CONTINUOUS
 62
     7
 10
3262.349637792384
 20
626.205155154775
 30
0.0
 40
3.000000000000096
 50
90.65295157108734
 51
160.0000000000087
  0
ARC
  5
3A9
  8
0
  6
CONTINUOUS
 62
     7
 10
3262.281262343789
 20
626.2051551547701
 30
0.0
 40
2.999999999999957
 50
45.00000000004759
 51
89.34704842888664
  0
LINE
  5
3AA
  8
0
  6
CONTINUOUS
 62
     7
 10
3265.231009812097
 20
627.4980483735875
 30
0.0
 11
3264.40258268735
 21
628.3264754983345
 31
0.0
  0
ARC
  5
3AB
  8
0
  6
CONTINUOUS
 62
     7
 10
3265.938116593285
 20
628.2051551547777
 30
0.0
 40
1.0
 50
225.0000000001298
 51
270.0000000000008
  0
LINE
  5
3AC
  8
0
  6
CONTINUOUS
 62
     7
 10
3277.884126799256
 20
627.2051551547745
 30
0.0
 11
3265.938116593283
 21
627.2051551547745
 31
0.0
  0
LINE
  5
3AD
  8
0
  6
CONTINUOUS
 62
     7
 10
3266.192519952327
 20
625.4551551547745
 30
0.0
 11
3277.884126799256
 21
625.4551551547745
 31
0.0
  0
ARC
  5
3AE
  8
0
  6
CONTINUOUS
 62
     7
 10
3266.192519952329
 20
627.9551551547777
 30
0.0
 40
2.5
 50
223.1702907398709
 51
269.9999999999591
  0
LINE
  5
3AF
  8
0
  6
CONTINUOUS
 62
     7
 10
3263.63529880768
 20
627.0270824973865
 30
0.0
 11
3264.369211242851
 21
626.2447325900415
 31
0.0
  0
ARC
  5
3B0
  8
0
  6
CONTINUOUS
 62
     7
 10
3262.541313581995
 20
626.0008289585472
 30
0.0
 40
1.500000000000281
 50
43.17029073983
 51
160.0000000000097
  0
LINE
  5
3B1
  8
0
  6
CONTINUOUS
 62
     7
 10
3260.634126799256
 20
625.1465829385345
 30
0.0
 11
3261.131774650816
 21
626.5138591735355
 31
0.0
  0
LINE
  5
3B2
  8
0
  6
CONTINUOUS
 62
     7
 10
3260.634126799256
 20
624.4551551547746
 30
0.0
 11
3260.634126799256
 21
625.1465829385345
 31
0.0
  0
ARC
  5
3B3
  8
0
  6
CONTINUOUS
 62
     7
 10
3256.884126799258
 20
624.455155154773
 30
0.0
 40
3.750000000000455
 50
269.9999999999799
 51
0.0000000000243181
  0
LINE
  5
3B4
  8
0
  6
CONTINUOUS
 62
     7
 10
3249.884126799256
 20
620.7051551547745
 30
0.0
 11
3256.884126799256
 21
620.7051551547745
 31
0.0
  0
ARC
  5
3B5
  8
0
  6
CONTINUOUS
 62
     7
 10
3249.884126799255
 20
624.455155154773
 30
0.0
 40
3.750000000000016
 50
238.6677485024181
 51
270.0000000000217
  0
ARC
  5
3B6
  8
0
  6
CONTINUOUS
 62
     7
 10
3249.884126799257
 20
624.4551551547748
 30
0.0
 40
2.000000000000269
 50
192.8385681409835
 51
269.9999999999878
  0
LINE
  5
3B7
  8
0
  6
CONTINUOUS
 62
     7
 10
3278.884126799256
 20
631.2051551547745
 30
0.0
 11
3278.884126799256
 21
628.2051551547745
 31
0.0
  0
ARC
  5
3B8
  8
0
  6
CONTINUOUS
 62
     7
 10
3277.884126799256
 20
628.2051551547745
 30
0.0
 40
2.75
 50
270.0000000000008
 51
0.0
  0
LINE
  5
3B9
  8
0
  6
CONTINUOUS
 62
     7
 10
3280.634126799256
 20
631.2051551547745
 30
0.0
 11
3278.884126799256
 21
631.2051551547745
 31
0.0
  0
ARC
  5
3BA
  8
0
  6
CONTINUOUS
 62
     7
 10
3277.884126799257
 20
628.2051551547738
 30
0.0
 40
1.000000000000455
 50
270.0000000000008
 51
0.0
  0
LINE
  5
3BB
  8
0
  6
CONTINUOUS
 62
     7
 10
3250.734126799256
 20
634.7051551547744
 30
0.0
 11
3249.884126799256
 21
634.7051551547744
 31
0.0
  0
ARC
  5
3BC
  8
0
  6
CONTINUOUS
 62
     7
 10
3249.884126799257
 20
631.2051551547742
 30
0.0
 40
2.000000000000307
 50
90.00000000001303
 51
143.2859705457033
  0
ARC
  5
3BD
  8
0
  6
CONTINUOUS
 62
     7
 10
3249.884126799255
 20
630.9551551547761
 30
0.0
 40
3.750000000000108
 50
89.99999999997915
 51
134.6037559730597
  0
LINE
  5
3BE
  8
0
  6
CONTINUOUS
 62
     7
 10
3249.884126799256
 20
633.2051551547745
 30
0.0
 11
3250.734126799256
 21
633.2051551547745
 31
0.0
  0
LINE
  5
3BF
  8
0
  6
CONTINUOUS
 62
     7
 10
3250.734126799256
 20
633.2051551547745
 30
0.0
 11
3250.734126799256
 21
634.7051551547744
 31
0.0
  0
LINE
  5
3C0
  8
0
  6
CONTINUOUS
 62
     7
 10
3247.084126799256
 20
634.9051551547745
 30
0.0
 11
3243.834126799256
 21
634.9051551547745
 31
0.0
  0
LINE
  5
3C1
  8
0
  6
CONTINUOUS
 62
     7
 10
3247.084126799256
 20
633.7644038537336
 30
0.0
 11
3247.084126799256
 21
634.9051551547745
 31
0.0
  0
LINE
  5
3C2
  8
0
  6
CONTINUOUS
 62
     7
 10
3238.884126799256
 20
634.9051551547745
 30
0.0
 11
3238.884126799256
 21
631.298108386982
 31
0.0
  0
LINE
  5
3C3
  8
0
  6
CONTINUOUS
 62
     7
 10
3243.834126799256
 20
634.9051551547745
 30
0.0
 11
3238.884126799256
 21
634.9051551547745
 31
0.0
  0
LINE
  5
3C4
  8
0
  6
CONTINUOUS
 62
     7
 10
3238.884126799256
 20
628.112201922567
 30
0.0
 11
3238.884126799256
 21
620.7051551547745
 31
0.0
  0
LINE
  5
3C5
  8
0
  6
CONTINUOUS
 62
     7
 10
3238.884126799256
 20
620.7051551547745
 30
0.0
 11
3239.734126799257
 21
620.7051551547745
 31
0.0
  0
LINE
  5
3C6
  8
0
  6
CONTINUOUS
 62
     7
 10
3278.884126799256
 20
662.2051551547745
 30
0.0
 11
3280.634126799256
 21
662.2051551547745
 31
0.0
  0
LINE
  5
3C7
  8
0
  6
CONTINUOUS
 62
     7
 10
3278.884126799256
 20
662.2051551547745
 30
0.0
 11
3278.884126799256
 21
631.2051551547745
 31
0.0
  0
LINE
  5
3C8
  8
0
  6
CONTINUOUS
 62
     7
 10
3278.884126799256
 20
665.2051551547745
 30
0.0
 11
3280.634126799256
 21
665.2051551547745
 31
0.0
  0
LINE
  5
3C9
  8
0
  6
CONTINUOUS
 62
     7
 10
3278.884126799256
 20
665.2051551547751
 30
0.0
 11
3278.884126799256
 21
662.2051551547745
 31
0.0
  0
LINE
  5
3CA
  8
0
  6
CONTINUOUS
 62
     7
 10
2492.234126799256
 20
620.7051551547745
 30
0.0
 11
2500.434126799256
 21
620.7051551547745
 31
0.0
  0
LINE
  5
3CB
  8
0
  6
CONTINUOUS
 62
     7
 10
2492.234126799256
 20
626.5067180364306
 30
0.0
 11
2492.234126799256
 21
620.7051551547745
 31
0.0
  0
LINE
  5
3CC
  8
0
  6
CONTINUOUS
 62
     7
 10
2500.434126799256
 20
620.7051551547745
 30
0.0
 11
2500.434126799256
 21
626.5067180364306
 31
0.0
  0
ARC
  5
3CD
  8
0
  6
CONTINUOUS
 62
     7
 10
2496.334126799256
 20
629.7051551547745
 30
0.0
 40
5.200000000000301
 50
322.0419714193186
 51
217.9580285806799
  0
LINE
  5
3CE
  8
0
  6
CONTINUOUS
 62
     7
 10
2509.384126799256
 20
622.4551551547746
 30
0.0
 11
2502.384126799256
 21
622.4551551547746
 31
0.0
  0
ARC
  5
3CF
  8
0
  6
CONTINUOUS
 62
     7
 10
2509.384126799256
 20
624.4551551547748
 30
0.0
 40
2.000000000000455
 50
270.0000000000138
 51
359.9999999999943
  0
LINE
  5
3D0
  8
0
  6
CONTINUOUS
 62
     7
 10
2511.384126799256
 20
625.4551551547745
 30
0.0
 11
2511.384126799256
 21
624.4551551547746
 31
0.0
  0
LINE
  5
3D1
  8
0
  6
CONTINUOUS
 62
     7
 10
2512.030559930026
 20
627.2312155847515
 30
0.0
 11
2511.384126799256
 21
625.4551551547745
 31
0.0
  0
ARC
  5
3D2
  8
0
  6
CONTINUOUS
 62
     7
 10
2514.849637792384
 20
626.205155154775
 30
0.0
 40
3.000000000000096
 50
90.65295157108734
 51
160.0000000000087
  0
ARC
  5
3D3
  8
0
  6
CONTINUOUS
 62
     7
 10
2514.781262343789
 20
626.2051551547701
 30
0.0
 40
3.000000000000105
 50
45.00000000004146
 51
89.34704842888664
  0
LINE
  5
3D4
  8
0
  6
CONTINUOUS
 62
     7
 10
2517.731009812097
 20
627.4980483735875
 30
0.0
 11
2516.90258268735
 21
628.3264754983345
 31
0.0
  0
ARC
  5
3D5
  8
0
  6
CONTINUOUS
 62
     7
 10
2518.438116593285
 20
628.2051551547777
 30
0.0
 40
1.0
 50
225.0000000001298
 51
270.0000000000008
  0
LINE
  5
3D6
  8
0
  6
CONTINUOUS
 62
     7
 10
2530.384126799256
 20
627.2051551547745
 30
0.0
 11
2518.438116593283
 21
627.2051551547745
 31
0.0
  0
LINE
  5
3D7
  8
0
  6
CONTINUOUS
 62
     7
 10
2518.692519952327
 20
625.4551551547745
 30
0.0
 11
2530.384126799256
 21
625.4551551547745
 31
0.0
  0
ARC
  5
3D8
  8
0
  6
CONTINUOUS
 62
     7
 10
2518.692519952329
 20
627.9551551547777
 30
0.0
 40
2.500000000000058
 50
223.1702907398638
 51
269.9999999999591
  0
LINE
  5
3D9
  8
0
  6
CONTINUOUS
 62
     7
 10
2516.13529880768
 20
627.0270824973865
 30
0.0
 11
2516.869211242852
 21
626.2447325900415
 31
0.0
  0
ARC
  5
3DA
  8
0
  6
CONTINUOUS
 62
     7
 10
2515.041313581994
 20
626.0008289585472
 30
0.0
 40
1.500000000000056
 50
43.17029073981811
 51
160.0000000000037
  0
LINE
  5
3DB
  8
0
  6
CONTINUOUS
 62
     7
 10
2513.134126799257
 20
625.1465829385345
 30
0.0
 11
2513.631774650816
 21
626.5138591735355
 31
0.0
  0
LINE
  5
3DC
  8
0
  6
CONTINUOUS
 62
     7
 10
2513.134126799257
 20
624.4551551547746
 30
0.0
 11
2513.134126799257
 21
625.1465829385345
 31
0.0
  0
ARC
  5
3DD
  8
0
  6
CONTINUOUS
 62
     7
 10
2509.384126799258
 20
624.455155154773
 30
0.0
 40
3.750000000000455
 50
269.9999999999799
 51
0.0000000000243181
  0
LINE
  5
3DE
  8
0
  6
CONTINUOUS
 62
     7
 10
2502.384126799256
 20
620.7051551547745
 30
0.0
 11
2509.384126799256
 21
620.7051551547745
 31
0.0
  0
ARC
  5
3DF
  8
0
  6
CONTINUOUS
 62
     7
 10
2502.384126799255
 20
624.455155154773
 30
0.0
 40
3.750000000000016
 50
238.6677485024181
 51
270.0000000000217
  0
ARC
  5
3E0
  8
0
  6
CONTINUOUS
 62
     7
 10
2502.384126799257
 20
624.4551551547748
 30
0.0
 40
2.000000000000114
 50
192.8385681409864
 51
269.9999999999878
  0
ARC
  5
3E1
  8
0
  6
CONTINUOUS
 62
     7
 10
2530.384126799257
 20
628.2051551547738
 30
0.0
 40
1.0
 50
270.0000000000008
 51
0.0
  0
ARC
  5
3E2
  8
0
  6
CONTINUOUS
 62
     7
 10
2530.384126799256
 20
628.2051551547745
 30
0.0
 40
2.75
 50
270.0000000000008
 51
0.0
  0
LINE
  5
3E3
  8
0
  6
CONTINUOUS
 62
     7
 10
2533.134126799256
 20
631.2051551547745
 30
0.0
 11
2531.384126799256
 21
631.2051551547745
 31
0.0
  0
LINE
  5
3E4
  8
0
  6
CONTINUOUS
 62
     7
 10
2531.384126799256
 20
631.2051551547745
 30
0.0
 11
2531.384126799256
 21
628.2051551547745
 31
0.0
  0
LINE
  5
3E5
  8
0
  6
CONTINUOUS
 62
     7
 10
2503.234126799257
 20
634.7051551547744
 30
0.0
 11
2502.384126799256
 21
634.7051551547744
 31
0.0
  0
LINE
  5
3E6
  8
0
  6
CONTINUOUS
 62
     7
 10
2503.234126799257
 20
633.2051551547745
 30
0.0
 11
2503.234126799257
 21
634.7051551547744
 31
0.0
  0
LINE
  5
3E7
  8
0
  6
CONTINUOUS
 62
     7
 10
2502.384126799256
 20
633.2051551547745
 30
0.0
 11
2503.234126799257
 21
633.2051551547745
 31
0.0
  0
ARC
  5
3E8
  8
0
  6
CONTINUOUS
 62
     7
 10
2502.384126799257
 20
631.2051551547742
 30
0.0
 40
2.0
 50
90.00000000001303
 51
143.2859705456955
  0
ARC
  5
3E9
  8
0
  6
CONTINUOUS
 62
     7
 10
2502.384126799255
 20
630.9551551547761
 30
0.0
 40
3.750000000000108
 50
89.99999999997915
 51
134.6037559730597
  0
LINE
  5
3EA
  8
0
  6
CONTINUOUS
 62
     7
 10
2499.584126799256
 20
634.9051551547745
 30
0.0
 11
2496.334126799256
 21
634.9051551547745
 31
0.0
  0
LINE
  5
3EB
  8
0
  6
CONTINUOUS
 62
     7
 10
2499.584126799256
 20
633.7644038537336
 30
0.0
 11
2499.584126799256
 21
634.9051551547745
 31
0.0
  0
LINE
  5
3EC
  8
0
  6
CONTINUOUS
 62
     7
 10
2491.384126799257
 20
628.112201922567
 30
0.0
 11
2491.384126799257
 21
620.7051551547745
 31
0.0
  0
LINE
  5
3ED
  8
0
  6
CONTINUOUS
 62
     7
 10
2491.384126799257
 20
620.7051551547745
 30
0.0
 11
2492.234126799256
 21
620.7051551547745
 31
0.0
  0
LINE
  5
3EE
  8
0
  6
CONTINUOUS
 62
     7
 10
2491.384126799257
 20
634.9051551547745
 30
0.0
 11
2491.384126799257
 21
631.298108386982
 31
0.0
  0
LINE
  5
3EF
  8
0
  6
CONTINUOUS
 62
     7
 10
2496.334126799256
 20
634.9051551547745
 30
0.0
 11
2491.384126799257
 21
634.9051551547745
 31
0.0
  0
LINE
  5
3F0
  8
0
  6
CONTINUOUS
 62
     7
 10
2531.384126799256
 20
662.2051551547745
 30
0.0
 11
2533.134126799256
 21
662.2051551547745
 31
0.0
  0
LINE
  5
3F1
  8
0
  6
CONTINUOUS
 62
     7
 10
2531.384126799256
 20
662.2051551547745
 30
0.0
 11
2531.384126799256
 21
631.2051551547745
 31
0.0
  0
LINE
  5
3F2
  8
0
  6
CONTINUOUS
 62
     7
 10
2531.384126799256
 20
665.2051551547745
 30
0.0
 11
2533.134126799256
 21
665.2051551547745
 31
0.0
  0
LINE
  5
3F3
  8
0
  6
CONTINUOUS
 62
     7
 10
2531.384126799256
 20
665.2051551547751
 30
0.0
 11
2531.384126799256
 21
662.2051551547745
 31
0.0
  0
LINE
  5
3F4
  8
0
  6
CONTINUOUS
 62
     7
 10
2575.034126799257
 20
646.9552229666396
 30
0.0
 11
2575.034126799257
 21
652.9552229666396
 31
0.0
  0
LINE
  5
3F5
  8
0
  6
CONTINUOUS
 62
     7
 10
3266.034126799256
 20
652.9552229666396
 30
0.0
 11
3266.034126799256
 21
646.9552229666396
 31
0.0
  0
LINE
  5
3F6
  8
0
  6
CONTINUOUS
 62
     7
 10
1827.534126799256
 20
646.9552229666396
 30
0.0
 11
1827.534126799256
 21
652.9552229666396
 31
0.0
  0
LINE
  5
3F7
  8
0
  6
CONTINUOUS
 62
     7
 10
2518.534126799256
 20
652.9552229666396
 30
0.0
 11
2518.534126799256
 21
646.9552229666396
 31
0.0
  0
LINE
  5
3F8
  8
0
  6
CONTINUOUS
 62
     7
 10
1827.134126799256
 20
646.9552229666396
 30
0.0
 11
1833.134126799256
 21
646.9552229666396
 31
0.0
  0
LINE
  5
3F9
  8
0
  6
CONTINUOUS
 62
     7
 10
1820.634126799256
 20
636.9552229666396
 30
0.0
 11
1833.134126799256
 21
636.9552229666396
 31
0.0
  0
LINE
  5
3FA
  8
0
  6
CONTINUOUS
 62
     7
 10
1820.634126799256
 20
808.9552229666396
 30
0.0
 11
1820.634126799256
 21
636.9552229666396
 31
0.0
  0
LINE
  5
3FB
  8
0
  6
CONTINUOUS
 62
     7
 10
1833.134126799256
 20
808.9552229666397
 30
0.0
 11
1833.134126799256
 21
652.9552229666396
 31
0.0
  0
LINE
  5
3FC
  8
0
  6
CONTINUOUS
 62
     7
 10
1827.134126799256
 20
652.9552229666396
 30
0.0
 11
1827.134126799256
 21
646.9552229666396
 31
0.0
  0
LINE
  5
3FD
  8
0
  6
CONTINUOUS
 62
     7
 10
1833.134126799256
 20
646.9552229666396
 30
0.0
 11
1833.134126799256
 21
643.0052229666396
 31
0.0
  0
LINE
  5
3FE
  8
0
  6
CONTINUOUS
 62
     7
 10
1827.134126799256
 20
652.9552229666396
 30
0.0
 11
1833.134126799256
 21
652.9552229666396
 31
0.0
  0
LINE
  5
3FF
  8
0
  6
CONTINUOUS
 62
     7
 10
2568.134126799256
 20
636.9552229666396
 30
0.0
 11
2580.634126799256
 21
636.9552229666396
 31
0.0
  0
LINE
  5
400
  8
0
  6
CONTINUOUS
 62
     7
 10
2568.134126799256
 20
856.9552229666396
 30
0.0
 11
2568.134126799256
 21
636.9552229666396
 31
0.0
  0
LINE
  5
401
  8
0
  6
CONTINUOUS
 62
     7
 10
2574.634126799256
 20
652.9552229666396
 30
0.0
 11
2574.634126799256
 21
646.9552229666396
 31
0.0
  0
LINE
  5
402
  8
0
  6
CONTINUOUS
 62
     7
 10
2574.634126799256
 20
652.9552229666396
 30
0.0
 11
2580.634126799256
 21
652.9552229666396
 31
0.0
  0
LINE
  5
403
  8
0
  6
CONTINUOUS
 62
     7
 10
2574.634126799256
 20
646.9552229666396
 30
0.0
 11
2580.634126799256
 21
646.9552229666396
 31
0.0
  0
LINE
  5
404
  8
0
  6
CONTINUOUS
 62
     7
 10
2580.634126799256
 20
856.9552229666396
 30
0.0
 11
2580.634126799256
 21
652.9552229666396
 31
0.0
  0
LINE
  5
405
  8
0
  6
CONTINUOUS
 62
     7
 10
2580.634126799256
 20
646.9552229666396
 30
0.0
 11
2580.634126799256
 21
643.0052229666396
 31
0.0
  0
LINE
  5
406
  8
0
  6
CONTINUOUS
 62
     7
 10
2568.134126799256
 20
856.9552229666396
 30
0.0
 11
2580.634126799256
 21
856.9552229666396
 31
0.0
  0
LINE
  5
407
  8
0
  6
CONTINUOUS
 62
     7
 10
3260.634126799256
 20
646.9552229666396
 30
0.0
 11
3260.634126799256
 21
643.0052229666396
 31
0.0
  0
LINE
  5
408
  8
0
  6
CONTINUOUS
 62
     7
 10
3266.434126799256
 20
646.9552229666396
 30
0.0
 11
3260.634126799256
 21
646.9552229666396
 31
0.0
  0
LINE
  5
409
  8
0
  6
CONTINUOUS
 62
     7
 10
3266.434126799256
 20
646.9552229666396
 30
0.0
 11
3266.434126799256
 21
652.9552229666396
 31
0.0
  0
LINE
  5
40A
  8
0
  6
CONTINUOUS
 62
     7
 10
3266.434126799256
 20
652.9552229666396
 30
0.0
 11
3260.634126799256
 21
652.9552229666396
 31
0.0
  0
LINE
  5
40B
  8
0
  6
CONTINUOUS
 62
     7
 10
3260.634126799256
 20
808.9552229666397
 30
0.0
 11
3260.634126799256
 21
652.9552229666396
 31
0.0
  0
LINE
  5
40C
  8
0
  6
CONTINUOUS
 62
     7
 10
3260.634126799256
 20
636.9552229666396
 30
0.0
 11
3273.134126799256
 21
636.9552229666396
 31
0.0
  0
LINE
  5
40D
  8
0
  6
CONTINUOUS
 62
     7
 10
3273.134126799256
 20
808.9552229666397
 30
0.0
 11
3273.134126799256
 21
636.9552229666396
 31
0.0
  0
LINE
  5
40E
  8
0
  6
CONTINUOUS
 62
     7
 10
2513.134126799257
 20
646.9552229666396
 30
0.0
 11
2513.134126799257
 21
643.0052229666396
 31
0.0
  0
LINE
  5
40F
  8
0
  6
CONTINUOUS
 62
     7
 10
2518.934126799256
 20
646.9552229666396
 30
0.0
 11
2513.134126799257
 21
646.9552229666396
 31
0.0
  0
LINE
  5
410
  8
0
  6
CONTINUOUS
 62
     7
 10
2518.934126799256
 20
646.9552229666396
 30
0.0
 11
2518.934126799256
 21
652.9552229666396
 31
0.0
  0
LINE
  5
411
  8
0
  6
CONTINUOUS
 62
     7
 10
2518.934126799256
 20
652.9552229666396
 30
0.0
 11
2513.134126799257
 21
652.9552229666396
 31
0.0
  0
LINE
  5
412
  8
0
  6
CONTINUOUS
 62
     7
 10
2513.134126799257
 20
808.955222966639
 30
0.0
 11
2513.134126799257
 21
652.9552229666396
 31
0.0
  0
LINE
  5
413
  8
0
  6
CONTINUOUS
 62
     7
 10
2525.634126799256
 20
808.955222966639
 30
0.0
 11
2525.634126799256
 21
636.9552229666396
 31
0.0
  0
LINE
  5
414
  8
0
  6
CONTINUOUS
 62
     7
 10
2513.134126799257
 20
636.9552229666396
 30
0.0
 11
2525.634126799256
 21
636.9552229666396
 31
0.0
  0
LINE
  5
415
  8
0
  6
CONTINUOUS
 62
     7
 10
3210.634126799256
 20
941.9552229666396
 30
0.0
 11
3205.634126799252
 21
941.9552229666397
 31
0.0
  0
LINE
  5
416
  8
0
  6
CONTINUOUS
 62
     7
 10
2635.634126799252
 20
941.9552229666397
 30
0.0
 11
2560.634126799252
 21
941.9552229666397
 31
0.0
  0
LINE
  5
417
  8
0
  6
CONTINUOUS
 62
     7
 10
2635.634126799256
 20
958.9552229666397
 30
0.0
 11
2635.634126799256
 21
615.9552229666397
 31
0.0
  0
LINE
  5
418
  8
0
  6
CONTINUOUS
 62
     7
 10
3205.634126799256
 20
958.9552229666397
 30
0.0
 11
3205.634126799256
 21
615.9552229666397
 31
0.0
  0
LINE
  5
419
  8
0
  6
CONTINUOUS
 62
     7
 10
1813.134126799256
 20
598.4552229666396
 30
0.0
 11
1813.134126799256
 21
615.9552229666397
 31
0.0
  0
LINE
  5
41A
  8
0
  6
CONTINUOUS
 62
     7
 10
1813.134126799256
 20
615.9552229666397
 30
0.0
 11
3280.634126799256
 21
615.9552229666397
 31
0.0
  0
LINE
  5
41B
  8
0
  6
CONTINUOUS
 62
     7
 10
1813.134126799256
 20
598.4552229666396
 30
0.0
 11
3280.634126799256
 21
598.4552229666396
 31
0.0
  0
LINE
  5
41C
  8
0
  6
CONTINUOUS
 62
     7
 10
3280.634126799256
 20
598.4552229666396
 30
0.0
 11
3280.634126799256
 21
615.9552229666397
 31
0.0
  0
LINE
  5
41D
  8
0
  6
CONTINUOUS
 62
     7
 10
1794.384126799256
 20
958.9552229666396
 30
0.0
 11
3299.384126799256
 21
958.9552229666396
 31
0.0
  0
LINE
  5
41E
  8
0
  6
CONTINUOUS
 62
     7
 10
1794.384126799256
 20
958.9552229666396
 30
0.0
 11
1794.384126799256
 21
997.4552229666398
 31
0.0
  0
LINE
  5
41F
  8
0
  6
CONTINUOUS
 62
     7
 10
1794.384126799256
 20
997.4552229666398
 30
0.0
 11
3299.384126799256
 21
997.4552229666398
 31
0.0
  0
LINE
  5
420
  8
0
  6
CONTINUOUS
 62
     7
 10
3299.384126799256
 20
958.9552229666396
 30
0.0
 11
3299.384126799256
 21
997.4552229666398
 31
0.0
  0
LINE
  5
423
  8
0
  6
CONTINUOUS
 62
     7
 10
1795.634126799256
 20
597.4552229666396
 30
0.0
 11
1795.634126799256
 21
958.9552229666396
 31
0.0
  0
LINE
  5
424
  8
0
  6
CONTINUOUS
 62
     7
 10
1795.634126799256
 20
958.9552229666396
 30
0.0
 11
1813.134126799256
 21
958.9552229666396
 31
0.0
  0
LINE
  5
425
  8
0
  6
CONTINUOUS
 62
     7
 10
1813.134126799256
 20
958.9552229666396
 30
0.0
 11
1813.134126799256
 21
597.4552229666396
 31
0.0
  0
LINE
  5
426
  8
0
  6
CONTINUOUS
 62
     7
 10
1813.134126799256
 20
597.4552229666396
 30
0.0
 11
1795.634126799256
 21
597.4552229666396
 31
0.0
  0
LINE
  5
427
  8
0
  6
CONTINUOUS
 62
     7
 10
3298.134126799256
 20
597.4552229666397
 30
0.0
 11
3280.634126799256
 21
597.4552229666397
 31
0.0
  0
LINE
  5
428
  8
0
  6
CONTINUOUS
 62
     7
 10
3280.634126799256
 20
597.4552229666397
 30
0.0
 11
3280.634126799256
 21
958.9552229666396
 31
0.0
  0
LINE
  5
429
  8
0
  6
CONTINUOUS
 62
     7
 10
3280.634126799256
 20
958.9552229666396
 30
0.0
 11
3298.134126799256
 21
958.9552229666396
 31
0.0
  0
LINE
  5
42A
  8
0
  6
CONTINUOUS
 62
     7
 10
3298.134126799256
 20
958.9552229666396
 30
0.0
 11
3298.134126799256
 21
597.4552229666397
 31
0.0
  0
ARC
  5
42B
  8
0
  6
CONTINUOUS
 62
     7
 10
2468.13412679926
 20
813.955222966639
 30
0.0
 40
5.0
 50
180.0
 51
270.0000000000008
  0
LINE
  5
42C
  8
0
  6
CONTINUOUS
 62
     7
 10
2463.13412679926
 20
813.955222966639
 30
0.0
 11
2463.13412679926
 21
956.6552229666389
 31
0.0
  0
LINE
  5
42D
  8
0
  6
CONTINUOUS
 62
     7
 10
2463.13412679926
 20
956.6552229666389
 30
0.0
 11
2503.13412679926
 21
956.6552229666389
 31
0.0
  0
LINE
  5
42E
  8
0
  6
CONTINUOUS
 62
     7
 10
2503.13412679926
 20
956.6552229666389
 30
0.0
 11
2503.13412679926
 21
958.955222966639
 31
0.0
  0
LINE
  5
42F
  8
0
  6
CONTINUOUS
 62
     7
 10
2533.13412679926
 20
813.9552229666391
 30
0.0
 11
2533.13412679926
 21
958.955222966639
 31
0.0
  0
ARC
  5
430
  8
0
  6
CONTINUOUS
 62
     7
 10
2528.13412679926
 20
813.955222966639
 30
0.0
 40
5.0
 50
270.0000000000008
 51
0.0000000000013028
  0
LINE
  5
431
  8
0
  6
CONTINUOUS
 62
     7
 10
2468.13412679926
 20
808.955222966639
 30
0.0
 11
2528.13412679926
 21
808.955222966639
 31
0.0
  0
CIRCLE
  5
432
  8
0
  6
CONTINUOUS
 62
     7
 10
2513.13412679926
 20
928.9552229666389
 30
0.0
 40
2.499999999999545
  0
CIRCLE
  5
433
  8
0
  6
CONTINUOUS
 62
     7
 10
2483.134126799258
 20
878.9552229666391
 30
0.0
 40
2.5
  0
CIRCLE
  5
434
  8
0
  6
CONTINUOUS
 62
     7
 10
2483.13412679926
 20
928.9552229666393
 30
0.0
 40
2.5
  0
CIRCLE
  5
435
  8
0
  6
CONTINUOUS
 62
     7
 10
2513.134126799258
 20
878.9552229666386
 30
0.0
 40
2.5
  0
CIRCLE
  5
436
  8
0
  6
CONTINUOUS
 62
     7
 10
2480.13412679926
 20
908.9552229666389
 30
0.0
 40
2.5
  0
CIRCLE
  5
437
  8
0
  6
CONTINUOUS
 62
     7
 10
2510.13412679926
 20
908.9552229666389
 30
0.0
 40
2.5
  0
CIRCLE
  5
438
  8
0
  6
CONTINUOUS
 62
     7
 10
2480.13412679926
 20
838.9552229666391
 30
0.0
 40
2.499999999999545
  0
CIRCLE
  5
439
  8
0
  6
CONTINUOUS
 62
     7
 10
2510.13412679926
 20
838.9552229666391
 30
0.0
 40
2.5
  0
LINE
  5
43A
  8
0
  6
CONTINUOUS
 62
     7
 10
2533.13412679926
 20
958.955222966639
 30
0.0
 11
2503.13412679926
 21
958.955222966639
 31
0.0
  0
ARC
  5
43B
  8
0
  6
CONTINUOUS
 62
     7
 10
3215.63412679926
 20
813.9552229666397
 30
0.0
 40
5.000000000000455
 50
180.0
 51
270.0000000000008
  0
LINE
  5
43C
  8
0
  6
CONTINUOUS
 62
     7
 10
3210.63412679926
 20
813.9552229666397
 30
0.0
 11
3210.63412679926
 21
956.6552229666396
 31
0.0
  0
LINE
  5
43D
  8
0
  6
CONTINUOUS
 62
     7
 10
3210.63412679926
 20
956.6552229666396
 30
0.0
 11
3250.63412679926
 21
956.6552229666396
 31
0.0
  0
LINE
  5
43E
  8
0
  6
CONTINUOUS
 62
     7
 10
3250.63412679926
 20
956.6552229666396
 30
0.0
 11
3250.63412679926
 21
958.9552229666396
 31
0.0
  0
LINE
  5
43F
  8
0
  6
CONTINUOUS
 62
     7
 10
3280.63412679926
 20
813.9552229666398
 30
0.0
 11
3280.63412679926
 21
958.9552229666396
 31
0.0
  0
ARC
  5
440
  8
0
  6
CONTINUOUS
 62
     7
 10
3275.63412679926
 20
813.9552229666397
 30
0.0
 40
5.0
 50
270.0000000000008
 51
0.0000000000013028
  0
LINE
  5
441
  8
0
  6
CONTINUOUS
 62
     7
 10
3215.63412679926
 20
808.9552229666397
 30
0.0
 11
3275.63412679926
 21
808.9552229666397
 31
0.0
  0
CIRCLE
  5
442
  8
0
  6
CONTINUOUS
 62
     7
 10
3260.63412679926
 20
928.9552229666396
 30
0.0
 40
2.5
  0
CIRCLE
  5
443
  8
0
  6
CONTINUOUS
 62
     7
 10
3230.634126799258
 20
878.9552229666398
 30
0.0
 40
2.5
  0
CIRCLE
  5
444
  8
0
  6
CONTINUOUS
 62
     7
 10
3230.63412679926
 20
928.95522296664
 30
0.0
 40
2.5
  0
CIRCLE
  5
445
  8
0
  6
CONTINUOUS
 62
     7
 10
3260.634126799258
 20
878.9552229666393
 30
0.0
 40
2.5
  0
CIRCLE
  5
446
  8
0
  6
CONTINUOUS
 62
     7
 10
3227.63412679926
 20
908.9552229666396
 30
0.0
 40
2.5
  0
CIRCLE
  5
447
  8
0
  6
CONTINUOUS
 62
     7
 10
3257.63412679926
 20
908.9552229666396
 30
0.0
 40
2.5
  0
CIRCLE
  5
448
  8
0
  6
CONTINUOUS
 62
     7
 10
3227.63412679926
 20
838.9552229666397
 30
0.0
 40
2.500000000000455
  0
CIRCLE
  5
449
  8
0
  6
CONTINUOUS
 62
     7
 10
3257.63412679926
 20
838.9552229666397
 30
0.0
 40
2.5
  0
LINE
  5
44A
  8
0
  6
CONTINUOUS
 62
     7
 10
3280.63412679926
 20
958.9552229666396
 30
0.0
 11
3250.63412679926
 21
958.9552229666396
 31
0.0
  0
ARC
  5
44B
  8
0
  6
CONTINUOUS
 62
     7
 10
1818.134126799256
 20
813.9552229666396
 30
0.0
 40
5.0
 50
179.9999999999974
 51
270.0000000000034
  0
LINE
  5
44C
  8
0
  6
CONTINUOUS
 62
     7
 10
1813.134126799256
 20
813.9552229666398
 30
0.0
 11
1813.134126799256
 21
958.9552229666396
 31
0.0
  0
LINE
  5
44D
  8
0
  6
CONTINUOUS
 62
     7
 10
1813.134126799256
 20
958.9552229666396
 30
0.0
 11
1843.134126799257
 21
958.9552229666396
 31
0.0
  0
LINE
  5
44E
  8
0
  6
CONTINUOUS
 62
     7
 10
1843.134126799256
 20
956.6552229666396
 30
0.0
 11
1843.134126799257
 21
958.9552229666396
 31
0.0
  0
LINE
  5
44F
  8
0
  6
CONTINUOUS
 62
     7
 10
1883.134126799256
 20
956.6552229666396
 30
0.0
 11
1843.134126799256
 21
956.6552229666396
 31
0.0
  0
LINE
  5
450
  8
0
  6
CONTINUOUS
 62
     7
 10
1883.134126799256
 20
813.9552229666396
 30
0.0
 11
1883.134126799256
 21
956.6552229666396
 31
0.0
  0
ARC
  5
451
  8
0
  6
CONTINUOUS
 62
     7
 10
1878.134126799256
 20
813.9552229666397
 30
0.0
 40
5.0
 50
270.0000000000008
 51
359.9999999999979
  0
LINE
  5
452
  8
0
  6
CONTINUOUS
 62
     7
 10
1878.134126799256
 20
808.9552229666397
 30
0.0
 11
1818.134126799256
 21
808.9552229666396
 31
0.0
  0
CIRCLE
  5
453
  8
0
  6
CONTINUOUS
 62
     7
 10
1833.134126799256
 20
928.9552229666396
 30
0.0
 40
2.5
  0
CIRCLE
  5
454
  8
0
  6
CONTINUOUS
 62
     7
 10
1863.134126799259
 20
878.95522296664
 30
0.0
 40
2.5
  0
CIRCLE
  5
455
  8
0
  6
CONTINUOUS
 62
     7
 10
1863.134126799256
 20
928.95522296664
 30
0.0
 40
2.499999999999773
  0
CIRCLE
  5
456
  8
0
  6
CONTINUOUS
 62
     7
 10
1833.134126799259
 20
878.9552229666396
 30
0.0
 40
2.5
  0
CIRCLE
  5
457
  8
0
  6
CONTINUOUS
 62
     7
 10
1866.134126799256
 20
908.9552229666396
 30
0.0
 40
2.5
  0
CIRCLE
  5
458
  8
0
  6
CONTINUOUS
 62
     7
 10
1836.134126799256
 20
908.9552229666396
 30
0.0
 40
2.5
  0
CIRCLE
  5
459
  8
0
  6
CONTINUOUS
 62
     7
 10
1866.134126799257
 20
838.9552229666396
 30
0.0
 40
2.5
  0
CIRCLE
  5
45A
  8
0
  6
CONTINUOUS
 62
     7
 10
1836.134126799257
 20
838.9552229666396
 30
0.0
 40
2.5
  0
LINE
  5
45B
  8
0
  6
CONTINUOUS
 62
     8
 10
1883.134126799252
 20
942.6552229666391
 30
0.0
 11
1888.134126799252
 21
942.6552229666391
 31
0.0
  0
LINE
  5
45C
  8
0
  6
CONTINUOUS
 62
     8
 10
2458.134126799252
 20
942.6552229666394
 30
0.0
 11
2463.134126799256
 21
942.6552229666394
 31
0.0
  0
LINE
  5
45D
  8
0
  6
CONTINUOUS
 62
     8
 10
2560.634126799252
 20
942.6552229666398
 30
0.0
 11
2635.634126799252
 21
942.6552229666398
 31
0.0
  0
LINE
  5
45E
  8
0
  6
CONTINUOUS
 62
     8
 10
3205.634126799252
 20
942.6552229666396
 30
0.0
 11
3210.634126799256
 21
942.6552229666396
 31
0.0
  0
LINE
  5
45F
  8
0
  6
CONTINUOUS
 62
     8
 10
1837.084126799256
 20
658.8155303458535
 30
0.0
 11
1842.008125966492
 21
658.8155303458535
 31
0.0
  0
LINE
  5
460
  8
0
  6
CONTINUOUS
 62
     8
 10
2584.584126799256
 20
658.8155303458535
 30
0.0
 11
2589.508125966493
 21
658.8155303458535
 31
0.0
  0
LINE
  5
461
  8
0
  6
CONTINUOUS
 62
     8
 10
2504.260127632021
 20
658.8155303458535
 30
0.0
 11
2509.584126799256
 21
658.8155303458535
 31
0.0
  0
LINE
  5
462
  8
0
  6
CONTINUOUS
 62
     8
 10
3251.760127632021
 20
658.8155303458535
 30
0.0
 11
3257.084126799256
 21
658.8155303458535
 31
0.0
  0
ENDSEC
  0
EOF
