  0
SECTION
  2
HEADER
  9
$ACADVER
  1
AC1006
  9
$DWGCODEPAGE
  3
dos932
  9
$INSBASE
 10
0.0
 20
0.0
 30
0.0
  9
$EXTMIN
 10
0.0
 20
0.0
  9
$EXTMAX
 10
5000.0
 20
3500.0
  9
$LIMMIN
 10
0.0
 20
0.0
  9
$LIMMAX
 10
5000.0
 20
3500.0
  9
$ORTHOMODE
 70
     0
  9
$REGENMODE
 70
     1
  9
$FILLMODE
 70
     1
  9
$QTEXTMODE
 70
     0
  9
$MIRRTEXT
 70
     1
  9
$DRAGMODE
 70
     2
  9
$LTSCALE
 40
1.0
  9
$OSMODE
 70
    37
  9
$ATTMODE
 70
     1
  9
$TEXTSIZE
 40
3.5
  9
$TRACEWID
 40
1.0
  9
$TEXTSTYLE
  7
STANDARD
  9
$CLAYER
  8
0
  9
$CELTYPE
  6
BYLAYER
  9
$CECOLOR
 62
   256
  9
$DIMSCALE
 40
1.0
  9
$DIMASZ
 40
3.302
  9
$DIMEXO
 40
1.0
  9
$DIMDLI
 40
3.75
  9
$DIMRND
 40
0.0
  9
$DIMDLE
 40
0.0
  9
$DIMEXE
 40
1.0
  9
$DIMTP
 40
0.0
  9
$DIMTM
 40
0.0
  9
$DIMTXT
 40
3.5
  9
$DIMCEN
 40
2.5
  9
$DIMTSZ
 40
0.0
  9
$DIMTOL
 70
     0
  9
$DIMLIM
 70
     0
  9
$DIMTIH
 70
     1
  9
$DIMTOH
 70
     1
  9
$DIMSE1
 70
     0
  9
$DIMSE2
 70
     0
  9
$DIMTAD
 70
     1
  9
$DIMZIN
 70
     0
  9
$DIMBLK
  1

  9
$DIMASO
 70
     1
  9
$DIMSHO
 70
     1
  9
$DIMPOST
  1

  9
$DIMAPOST
  1

  9
$DIMALT
 70
     0
  9
$DIMALTD
 70
     3
  9
$DIMALTF
 40
0.0393700787401575
  9
$DIMLFAC
 40
1.0
  9
$DIMTOFL
 70
     1
  9
$DIMTVP
 40
0.0
  9
$DIMTIX
 70
     0
  9
$DIMSOXD
 70
     0
  9
$DIMSAH
 70
     0
  9
$DIMBLK1
  1

  9
$DIMBLK2
  1

  9
$LUNITS
 70
     2
  9
$LUPREC
 70
     3
  9
$SKETCHINC
 40
1.0
  9
$FILLETRAD
 40
10.0
  9
$AUNITS
 70
     0
  9
$AUPREC
 70
     2
  9
$MENU
  1
.
  9
$ELEVATION
 40
0.0
  9
$THICKNESS
 40
0.0
  9
$LIMCHECK
 70
     0
  9
$CHAMFERA
 40
0.0
  9
$CHAMFERB
 40
0.0
  9
$SKPOLY
 70
     0
  9
$TDCREATE
 40
2459867.553321701
  9
$TDUPDATE
 40
2460140.102317882
  9
$TDINDWG
 40
0.0000000116
  9
$TDUSRTIMER
 40
0.0000000116
  9
$USRTIMER
 70
     1
  9
$ANGBASE
 50
0.0
  9
$ANGDIR
 70
     0
  9
$PDMODE
 70
     0
  9
$PDSIZE
 40
-1.0
  9
$PLINEWID
 40
0.0
  9
$COORDS
 70
     1
  9
$SPLFRAME
 70
     0
  9
$SPLINETYPE
 70
     6
  9
$SPLINESEGS
 70
     8
  9
$ATTDIA
 70
     0
  9
$ATTREQ
 70
     1
  9
$HANDLING
 70
     1
  9
$HANDSEED
  5
712
  9
$SURFTAB1
 70
     6
  9
$SURFTAB2
 70
     6
  9
$SURFTYPE
 70
     6
  9
$SURFU
 70
     6
  9
$SURFV
 70
     6
  9
$UCSNAME
  2

  9
$UCSORG
 10
0.0
 20
0.0
 30
0.0
  9
$UCSXDIR
 10
1.0
 20
0.0
 30
0.0
  9
$UCSYDIR
 10
0.0
 20
1.0
 30
0.0
  9
$USERI1
 70
     0
  9
$USERI2
 70
     0
  9
$USERI3
 70
     0
  9
$USERI4
 70
     0
  9
$USERI5
 70
     0
  9
$USERR1
 40
0.0
  9
$USERR2
 40
0.0
  9
$USERR3
 40
0.0
  9
$USERR4
 40
0.0
  9
$USERR5
 40
0.0
  9
$WORLDVIEW
 70
     1
  0
ENDSEC
  0
SECTION
  2
TABLES
  0
TABLE
  2
VPORT
 70
     1
  0
VPORT
  2
*ACTIVE
 70
     0
 10
0.0
 20
0.0
 11
1.0
 21
1.0
 12
2500.0
 22
1750.0
 13
0.0
 23
0.0
 14
10.0
 24
10.0
 15
10.0
 25
10.0
 16
0.0
 26
0.0
 36
1.0
 17
0.0
 27
0.0
 37
0.0
 40
3500.0
 41
1.428571428571429
 42
50.0
 43
0.0
 44
0.0
 50
0.0
 51
0.0
 71
     0
 72
  2000
 73
     1
 74
     3
 75
     0
 76
     0
 77
     0
 78
     0
  0
ENDTAB
  0
TABLE
  2
LTYPE
 70
     6
  0
LTYPE
  2
CONTINUOUS
 70
     0
  3
Solid line
 72
    65
 73
     0
 40
0.0
  0
LTYPE
  2
HIDDEN
 70
     0
  3
Hidden __ __ __ __ __ __ __ __ __ __ __ __ __ __
 72
    65
 73
     2
 40
1.905
 49
1.27
 49
-0.635
  0
LTYPE
  2
PHANTOM
 70
     0
  3
Phantom ______  __  __  ______  __  __  ______
 72
    65
 73
     6
 40
12.7
 49
6.35
 49
-1.27
 49
1.27
 49
-1.27
 49
1.27
 49
-1.27
  0
LTYPE
  2
CENTER
 70
     0
  3
Center ____ _ ____ _ ____ _ ____ _ ____ _ ____
 72
    65
 73
     4
 40
10.16
 49
6.35
 49
-1.27
 49
1.27
 49
-1.27
  0
LTYPE
  2
CENTERX2
 70
     0
  3
Center (2x) ________  __  ________  __  _____
 72
    65
 73
     4
 40
20.32
 49
12.7
 49
-2.54
 49
2.54
 49
-2.54
  0
LTYPE
  2
DOT2
 70
     0
  3
Dot (.5x) ........................................
 72
    65
 73
     2
 40
0.635
 49
0.0
 49
-0.635
  0
ENDTAB
  0
TABLE
  2
LAYER
 70
     3
  0
LAYER
  2
0
 70
     0
 62
     7
  6
CONTINUOUS
  0
LAYER
  2
SLD-0
 70
     0
 62
   179
  6
CONTINUOUS
  0
LAYER
  2
寸法
 70
     0
 62
   179
  6
CONTINUOUS
  0
ENDTAB
  0
TABLE
  2
STYLE
 70
     2
  0
STYLE
  2
STANDARD
 70
     0
 40
0.0
 41
1.0
 50
0.0
 71
     0
 42
3.5
  3
txt
  4
bigfont
  0
STYLE
  2
SLDTEXTSTYLE0
 70
     0
 40
0.0
 41
0.75
 50
0.0
 71
     0
 42
3.5
  3
TXT
  4
bigfont
  0
ENDTAB
  0
TABLE
  2
VIEW
 70
     0
  0
ENDTAB
  0
TABLE
  2
UCS
 70
     0
  0
ENDTAB
  0
ENDSEC
  0
SECTION
  2
BLOCKS
  0
ENDSEC
  0
SECTION
  2
ENTITIES
  0
LINE
  5
75
  8
0
  6
CONTINUOUS
 62
     7
 10
4839.484712179223
 20
284.470902007842
 30
0.0
 11
3312.374599790194
 21
284.4709020078419
 31
0.0
  0
TEXT
  5
77
  8
0
  6
CONTINUOUS
 62
     7
 10
1589.361942129567
 20
3393.651564948732
 30
0.0
 40
52.91666666666666
  1
＜上面＞
 41
0.75
  7
SLDTEXTSTYLE0
  0
TEXT
  5
78
  8
0
  6
CONTINUOUS
 62
     7
 10
448.9835812991267
 20
2229.551765300122
 30
0.0
 40
52.91666666666666
  1
＜左側面＞
 41
0.75
  7
SLDTEXTSTYLE0
  0
TEXT
  5
79
  8
0
  6
CONTINUOUS
 62
     7
 10
1558.899532574738
 20
2234.241752087087
 30
0.0
 40
52.91666666666666
  1
＜正面＞
 41
0.75
  7
SLDTEXTSTYLE0
  0
TEXT
  5
7A
  8
0
  6
CONTINUOUS
 62
     7
 10
3377.814243189123
 20
326.489054196763
 30
0.0
 40
52.91666666666666
  1
品名：
 41
0.75
  7
SLDTEXTSTYLE0
  0
TEXT
  5
7B
  8
0
  6
CONTINUOUS
 62
     7
 10
4446.663437481703
 20
332.3177187478654
 30
0.0
 40
52.91666666666666
  1
Pamouna
 41
0.75
  7
SLDTEXTSTYLE0
  0
TEXT
  5
7C
  8
寸法
  6
CONTINUOUS
 62
     7
 10
4688.007304885427
 20
165.7088516276312
 30
0.0
 40
52.91666666666666
  1
1/1
 41
0.75
  7
SLDTEXTSTYLE0
  0
TEXT
  5
7D
  8
寸法
  6
CONTINUOUS
 62
     7
 10
3611.283129349216
 20
332.2465883182592
 30
0.0
 40
66.14583333333331
  1
MA-WL1200
 41
0.75
  7
SLDTEXTSTYLE0
  0
TEXT
  5
7E
  8
寸法
  6
CONTINUOUS
 62
     7
 10
3805.952630829561
 20
2229.55176530012
 30
0.0
 40
52.91666666666666
  1
＜右側面＞
 41
0.75
  7
SLDTEXTSTYLE0
  0
TEXT
  5
7F
  8
寸法
  6
CONTINUOUS
 62
     7
 10
4198.79693921183
 20
165.7088544215994
 30
0.0
 40
52.91666666666666
  1
2022/10/14
 41
0.75
  7
SLDTEXTSTYLE0
  0
TEXT
  5
80
  8
寸法
  6
CONTINUOUS
 62
     7
 10
1570.865530629479
 20
1157.767594469445
 30
0.0
 40
52.91666666666666
  1
＜背面＞
 41
0.75
  7
SLDTEXTSTYLE0
  0
LINE
  5
81
  8
0
  6
CONTINUOUS
 62
     7
 10
3057.340061954229
 20
2013.739928679804
 30
0.0
 11
3056.540061954229
 21
2013.739928679804
 31
0.0
  0
ARC
  5
82
  8
0
  6
CONTINUOUS
 62
     7
 10
3057.340061954229
 20
2013.539928679804
 30
0.0
 40
0.1999999999998181
 50
0.0
 51
90.0
  0
ARC
  5
83
  8
0
  6
CONTINUOUS
 62
     7
 10
2458.840061954229
 20
2013.539928679804
 30
0.0
 40
0.1999999999998181
 50
0.0
 51
90.0
  0
LINE
  5
84
  8
0
  6
CONTINUOUS
 62
     7
 10
2458.840061954229
 20
2013.739928679804
 30
0.0
 11
2458.040061954229
 21
2013.739928679804
 31
0.0
  0
LINE
  5
85
  8
0
  6
CONTINUOUS
 62
     7
 10
2458.040061954229
 20
2013.739928679804
 30
0.0
 11
1864.040061954231
 21
2013.739928679804
 31
0.0
  0
LINE
  5
86
  8
0
  6
CONTINUOUS
 62
     7
 10
3056.540061954229
 20
2013.739928679804
 30
0.0
 11
2462.54006195423
 21
2013.739928679804
 31
0.0
  0
ARC
  5
87
  8
0
  6
CONTINUOUS
 62
     7
 10
2461.740061954228
 20
2013.539928679804
 30
0.0
 40
0.1999999999998181
 50
90.0
 51
180.0
  0
LINE
  5
88
  8
0
  6
CONTINUOUS
 62
     7
 10
2462.54006195423
 20
2013.739928679804
 30
0.0
 11
2461.74006195423
 21
2013.739928679804
 31
0.0
  0
LINE
  5
89
  8
0
  6
CONTINUOUS
 62
     7
 10
1864.040061954231
 20
2013.739928679804
 30
0.0
 11
1863.24006195423
 21
2013.739928679804
 31
0.0
  0
ARC
  5
8A
  8
0
  6
CONTINUOUS
 62
     7
 10
1863.240061954228
 20
2013.539928679804
 30
0.0
 40
0.2000000000000455
 50
90.0
 51
180.0
  0
LINE
  5
8B
  8
0
  6
CONTINUOUS
 62
     7
 10
2461.540061954228
 20
2013.239928679804
 30
0.0
 11
2461.540061954227
 21
1637.239928679804
 31
0.0
  0
LINE
  5
8C
  8
0
  6
CONTINUOUS
 62
     7
 10
3057.540061954228
 20
2013.239928679804
 30
0.0
 11
2461.540061954228
 21
2013.239928679804
 31
0.0
  0
LINE
  5
8D
  8
0
  6
CONTINUOUS
 62
     7
 10
3057.540061954228
 20
1637.239928679804
 30
0.0
 11
3057.540061954228
 21
2013.239928679804
 31
0.0
  0
LINE
  5
8E
  8
0
  6
CONTINUOUS
 62
     7
 10
2461.540061954227
 20
1637.239928679804
 30
0.0
 11
3057.540061954228
 21
1637.239928679804
 31
0.0
  0
LINE
  5
8F
  8
0
  6
CONTINUOUS
 62
     7
 10
1863.040061954228
 20
2013.239928679803
 30
0.0
 11
1863.040061954228
 21
1637.239928679804
 31
0.0
  0
LINE
  5
90
  8
0
  6
CONTINUOUS
 62
     7
 10
2459.040061954228
 20
2013.239928679803
 30
0.0
 11
1863.040061954228
 21
2013.239928679803
 31
0.0
  0
LINE
  5
91
  8
0
  6
CONTINUOUS
 62
     7
 10
1863.040061954228
 20
1637.239928679804
 30
0.0
 11
2459.040061954228
 21
1637.239928679804
 31
0.0
  0
LINE
  5
92
  8
0
  6
CONTINUOUS
 62
     7
 10
2459.040061954228
 20
1637.239928679804
 30
0.0
 11
2459.040061954228
 21
2013.239928679803
 31
0.0
  0
LINE
  5
93
  8
0
  6
CONTINUOUS
 62
     7
 10
3044.040061954228
 20
1636.239928679804
 30
0.0
 11
1876.540061954228
 21
1636.239928679804
 31
0.0
  0
LINE
  5
94
  8
0
  6
CONTINUOUS
 62
     7
 10
3062.790061954228
 20
2035.239928679804
 30
0.0
 11
1857.790061954229
 21
2035.239928679804
 31
0.0
  0
LINE
  5
95
  8
0
  6
CONTINUOUS
 62
     7
 10
3062.790061954228
 20
2035.239928679804
 30
0.0
 11
3062.790061954228
 21
1996.739928679804
 31
0.0
  0
LINE
  5
96
  8
0
  6
CONTINUOUS
 62
     7
 10
3062.790061954228
 20
1996.739928679804
 30
0.0
 11
3057.540061954229
 21
1996.739928679804
 31
0.0
  0
LINE
  5
97
  8
0
  6
CONTINUOUS
 62
     7
 10
2461.540061954228
 20
1996.739928679804
 30
0.0
 11
2459.040061954229
 21
1996.739928679804
 31
0.0
  0
LINE
  5
98
  8
0
  6
CONTINUOUS
 62
     7
 10
1863.040061954228
 20
1996.739928679804
 30
0.0
 11
1857.790061954229
 21
1996.739928679804
 31
0.0
  0
LINE
  5
99
  8
0
  6
CONTINUOUS
 62
     7
 10
1857.790061954229
 20
2035.239928679804
 30
0.0
 11
1857.790061954229
 21
1996.739928679804
 31
0.0
  0
LINE
  5
9A
  8
0
  6
CONTINUOUS
 62
     7
 10
2459.040061954228
 20
1653.739928679803
 30
0.0
 11
2461.540061954227
 21
1653.739928679803
 31
0.0
  0
LINE
  5
9B
  8
0
  6
CONTINUOUS
 62
     7
 10
3057.540061954229
 20
2013.528779958057
 30
0.0
 11
3057.540061954229
 21
2013.439928679804
 31
0.0
  0
POLYLINE
  5
9C
  8
0
  6
CONTINUOUS
 62
     7
 66
     1
 10
0.0
 20
0.0
 30
0.0
  0
VERTEX
  5
476
  8
0
  6
CONTINUOUS
 62
     7
 10
3057.540061954229
 20
2013.439928679804
 30
0.0
  0
VERTEX
  5
477
  8
0
  6
CONTINUOUS
 62
     7
 10
3057.540044517467
 20
2013.437170747626
 30
0.0
  0
VERTEX
  5
478
  8
0
  6
CONTINUOUS
 62
     7
 10
3057.539988719703
 20
2013.434344307878
 30
0.0
  0
VERTEX
  5
479
  8
0
  6
CONTINUOUS
 62
     7
 10
3057.539890118113
 20
2013.431448520715
 30
0.0
  0
VERTEX
  5
47A
  8
0
  6
CONTINUOUS
 62
     7
 10
3057.539745681903
 20
2013.428485363331
 30
0.0
  0
VERTEX
  5
47B
  8
0
  6
CONTINUOUS
 62
     7
 10
3057.53955238028
 20
2013.425456812922
 30
0.0
  0
VERTEX
  5
47C
  8
0
  6
CONTINUOUS
 62
     7
 10
3057.53930718245
 20
2013.422364846683
 30
0.0
  0
VERTEX
  5
47D
  8
0
  6
CONTINUOUS
 62
     7
 10
3057.53900705762
 20
2013.419211441808
 30
0.0
  0
VERTEX
  5
47E
  8
0
  6
CONTINUOUS
 62
     7
 10
3057.538648974993
 20
2013.415998575493
 30
0.0
  0
VERTEX
  5
47F
  8
0
  6
CONTINUOUS
 62
     7
 10
3057.538229903778
 20
2013.412728224932
 30
0.0
  0
VERTEX
  5
480
  8
0
  6
CONTINUOUS
 62
     7
 10
3057.537746813181
 20
2013.409402367321
 30
0.0
  0
VERTEX
  5
481
  8
0
  6
CONTINUOUS
 62
     7
 10
3057.537196672407
 20
2013.406022979854
 30
0.0
  0
VERTEX
  5
482
  8
0
  6
CONTINUOUS
 62
     7
 10
3057.536576450663
 20
2013.402592039726
 30
0.0
  0
VERTEX
  5
483
  8
0
  6
CONTINUOUS
 62
     7
 10
3057.535883117155
 20
2013.399111524132
 30
0.0
  0
VERTEX
  5
484
  8
0
  6
CONTINUOUS
 62
     7
 10
3057.53511364109
 20
2013.395583410268
 30
0.0
  0
VERTEX
  5
485
  8
0
  6
CONTINUOUS
 62
     7
 10
3057.534264991673
 20
2013.392009675328
 30
0.0
  0
VERTEX
  5
486
  8
0
  6
CONTINUOUS
 62
     7
 10
3057.53333413811
 20
2013.388392296506
 30
0.0
  0
VERTEX
  5
487
  8
0
  6
CONTINUOUS
 62
     7
 10
3057.532318049608
 20
2013.384733250998
 30
0.0
  0
VERTEX
  5
488
  8
0
  6
CONTINUOUS
 62
     7
 10
3057.531213695373
 20
2013.381034516
 30
0.0
  0
VERTEX
  5
489
  8
0
  6
CONTINUOUS
 62
     7
 10
3057.530018044612
 20
2013.377298068705
 30
0.0
  0
VERTEX
  5
48A
  8
0
  6
CONTINUOUS
 62
     7
 10
3057.528728066529
 20
2013.373525886309
 30
0.0
  0
VERTEX
  5
48B
  8
0
  6
CONTINUOUS
 62
     7
 10
3057.527340730333
 20
2013.369719946007
 30
0.0
  0
VERTEX
  5
48C
  8
0
  6
CONTINUOUS
 62
     7
 10
3057.525853005228
 20
2013.365882224994
 30
0.0
  0
VERTEX
  5
48D
  8
0
  6
CONTINUOUS
 62
     7
 10
3057.52426186042
 20
2013.362014700463
 30
0.0
  0
VERTEX
  5
48E
  8
0
  6
CONTINUOUS
 62
     7
 10
3057.522564265117
 20
2013.358119349612
 30
0.0
  0
VERTEX
  5
48F
  8
0
  6
CONTINUOUS
 62
     7
 10
3057.520757175968
 20
2013.354198227456
 30
0.0
  0
VERTEX
  5
490
  8
0
  6
CONTINUOUS
 62
     7
 10
3057.51883732706
 20
2013.350254768417
 30
0.0
  0
VERTEX
  5
491
  8
0
  6
CONTINUOUS
 62
     7
 10
3057.516801261479
 20
2013.346293590711
 30
0.0
  0
VERTEX
  5
492
  8
0
  6
CONTINUOUS
 62
     7
 10
3057.514645516113
 20
2013.342319350965
 30
0.0
  0
VERTEX
  5
493
  8
0
  6
CONTINUOUS
 62
     7
 10
3057.51236662785
 20
2013.338336705812
 30
0.0
  0
VERTEX
  5
494
  8
0
  6
CONTINUOUS
 62
     7
 10
3057.509961133576
 20
2013.334350311881
 30
0.0
  0
VERTEX
  5
495
  8
0
  6
CONTINUOUS
 62
     7
 10
3057.507425570181
 20
2013.330364825803
 30
0.0
  0
VERTEX
  5
496
  8
0
  6
CONTINUOUS
 62
     7
 10
3057.504756474551
 20
2013.326384904207
 30
0.0
  0
VERTEX
  5
497
  8
0
  6
CONTINUOUS
 62
     7
 10
3057.501950383575
 20
2013.322415203725
 30
0.0
  0
VERTEX
  5
498
  8
0
  6
CONTINUOUS
 62
     7
 10
3057.499003834139
 20
2013.318460380985
 30
0.0
  0
VERTEX
  5
499
  8
0
  6
CONTINUOUS
 62
     7
 10
3057.495913363132
 20
2013.314525092619
 30
0.0
  0
VERTEX
  5
49A
  8
0
  6
CONTINUOUS
 62
     7
 10
3057.492675507442
 20
2013.310613995257
 30
0.0
  0
VERTEX
  5
49B
  8
0
  6
CONTINUOUS
 62
     7
 10
3057.489286803956
 20
2013.306731745529
 30
0.0
  0
VERTEX
  5
49C
  8
0
  6
CONTINUOUS
 62
     7
 10
3057.485743789562
 20
2013.302883000065
 30
0.0
  0
VERTEX
  5
49D
  8
0
  6
CONTINUOUS
 62
     7
 10
3057.482043002755
 20
2013.299072416807
 30
0.0
  0
VERTEX
  5
49E
  8
0
  6
CONTINUOUS
 62
     7
 10
3057.478181676885
 20
2013.295305220987
 30
0.0
  0
VERTEX
  5
49F
  8
0
  6
CONTINUOUS
 62
     7
 10
3057.474158822024
 20
2013.291588088377
 30
0.0
  0
VERTEX
  5
4A0
  8
0
  6
CONTINUOUS
 62
     7
 10
3057.469973728176
 20
2013.287927923286
 30
0.0
  0
VERTEX
  5
4A1
  8
0
  6
CONTINUOUS
 62
     7
 10
3057.465625685343
 20
2013.284331630025
 30
0.0
  0
VERTEX
  5
4A2
  8
0
  6
CONTINUOUS
 62
     7
 10
3057.461113983526
 20
2013.280806112902
 30
0.0
  0
VERTEX
  5
4A3
  8
0
  6
CONTINUOUS
 62
     7
 10
3057.456437912729
 20
2013.277358276228
 30
0.0
  0
VERTEX
  5
4A4
  8
0
  6
CONTINUOUS
 62
     7
 10
3057.451596762953
 20
2013.273995024311
 30
0.0
  0
VERTEX
  5
4A5
  8
0
  6
CONTINUOUS
 62
     7
 10
3057.446589824201
 20
2013.270723261463
 30
0.0
  0
VERTEX
  5
4A6
  8
0
  6
CONTINUOUS
 62
     7
 10
3057.441416386476
 20
2013.267549891993
 30
0.0
  0
VERTEX
  5
4A7
  8
0
  6
CONTINUOUS
 62
     7
 10
3057.436075739782
 20
2013.264481820218
 30
0.0
  0
VERTEX
  5
4A8
  8
0
  6
CONTINUOUS
 62
     7
 10
3057.430568397634
 20
2013.261528502059
 30
0.0
  0
VERTEX
  5
4A9
  8
0
  6
CONTINUOUS
 62
     7
 10
3057.424899539977
 20
2013.258709125201
 30
0.0
  0
VERTEX
  5
4AA
  8
0
  6
CONTINUOUS
 62
     7
 10
3057.419075459091
 20
2013.256045197082
 30
0.0
  0
VERTEX
  5
4AB
  8
0
  6
CONTINUOUS
 62
     7
 10
3057.413102447259
 20
2013.253558225142
 30
0.0
  0
VERTEX
  5
4AC
  8
0
  6
CONTINUOUS
 62
     7
 10
3057.40698679676
 20
2013.251269716819
 30
0.0
  0
VERTEX
  5
4AD
  8
0
  6
CONTINUOUS
 62
     7
 10
3057.400734799874
 20
2013.249201179551
 30
0.0
  0
VERTEX
  5
4AE
  8
0
  6
CONTINUOUS
 62
     7
 10
3057.394352748881
 20
2013.247374120778
 30
0.0
  0
VERTEX
  5
4AF
  8
0
  6
CONTINUOUS
 62
     7
 10
3057.387847168149
 20
2013.245808672796
 30
0.0
  0
VERTEX
  5
4B0
  8
0
  6
CONTINUOUS
 62
     7
 10
3057.381229395078
 20
2013.244496449969
 30
0.0
  0
VERTEX
  5
4B1
  8
0
  6
CONTINUOUS
 62
     7
 10
3057.374515305364
 20
2013.243402176601
 30
0.0
  0
VERTEX
  5
4B2
  8
0
  6
CONTINUOUS
 62
     7
 10
3057.36772095178
 20
2013.242489527782
 30
0.0
  0
VERTEX
  5
4B3
  8
0
  6
CONTINUOUS
 62
     7
 10
3057.3608623871
 20
2013.241722178603
 30
0.0
  0
VERTEX
  5
4B4
  8
0
  6
CONTINUOUS
 62
     7
 10
3057.3539556641
 20
2013.241063804154
 30
0.0
  0
VERTEX
  5
4B5
  8
0
  6
CONTINUOUS
 62
     7
 10
3057.347016835551
 20
2013.240478079524
 30
0.0
  0
VERTEX
  5
4B6
  8
0
  6
CONTINUOUS
 62
     7
 10
3057.340061954229
 20
2013.239928679804
 30
0.0
  0
SEQEND
  5
706
  8
0
  6
CONTINUOUS
 62
     7
  0
LINE
  5
9D
  8
0
  6
CONTINUOUS
 62
     7
 10
3057.340061954229
 20
2013.239928679804
 30
0.0
 11
3057.340061954229
 21
2013.72599277762
 31
0.0
  0
ARC
  5
9E
  8
0
  6
CONTINUOUS
 62
     7
 10
3057.341445833978
 20
2013.527376520133
 30
0.0
 40
0.1986210785930374
 50
0.4048499763990092
 51
90.39920793440879
  0
LINE
  5
9F
  8
0
  6
CONTINUOUS
 62
     7
 10
3057.340061954229
 20
2013.72599277762
 30
0.0
 11
3056.540061954229
 21
2013.72599277762
 31
0.0
  0
LINE
  5
A0
  8
0
  6
CONTINUOUS
 62
     7
 10
3056.540061954229
 20
2013.72599277762
 30
0.0
 11
3056.540061954229
 21
2013.239928679804
 31
0.0
  0
LINE
  5
A1
  8
0
  6
CONTINUOUS
 62
     7
 10
3056.540061954229
 20
2013.739928679804
 30
0.0
 11
3056.540061954229
 21
2013.72599277762
 31
0.0
  0
LINE
  5
A2
  8
0
  6
CONTINUOUS
 62
     7
 10
3057.540061954229
 20
2013.539928679804
 30
0.0
 11
3057.540061954229
 21
2013.528779958057
 31
0.0
  0
LINE
  5
A3
  8
0
  6
CONTINUOUS
 62
     7
 10
3057.540061954229
 20
2013.439928679804
 30
0.0
 11
3057.540061954229
 21
2013.239928679804
 31
0.0
  0
LINE
  5
A4
  8
0
  6
CONTINUOUS
 62
     7
 10
2459.040061954229
 20
2013.528779958057
 30
0.0
 11
2459.040061954229
 21
2013.439928679804
 31
0.0
  0
LINE
  5
A5
  8
0
  6
CONTINUOUS
 62
     7
 10
2458.840061954229
 20
2013.239928679804
 30
0.0
 11
2458.840061954229
 21
2013.72599277762
 31
0.0
  0
ARC
  5
A6
  8
0
  6
CONTINUOUS
 62
     7
 10
2458.841445833979
 20
2013.527376520134
 30
0.0
 40
0.198621078592178
 50
0.4048499762687595
 51
90.3992079345418
  0
POLYLINE
  5
A7
  8
0
  6
CONTINUOUS
 62
     7
 66
     1
 10
0.0
 20
0.0
 30
0.0
  0
VERTEX
  5
4B7
  8
0
  6
CONTINUOUS
 62
     7
 10
2459.040061954229
 20
2013.439928679804
 30
0.0
  0
VERTEX
  5
4B8
  8
0
  6
CONTINUOUS
 62
     7
 10
2459.040044517466
 20
2013.437170747627
 30
0.0
  0
VERTEX
  5
4B9
  8
0
  6
CONTINUOUS
 62
     7
 10
2459.039988719703
 20
2013.434344307879
 30
0.0
  0
VERTEX
  5
4BA
  8
0
  6
CONTINUOUS
 62
     7
 10
2459.039890118113
 20
2013.431448520716
 30
0.0
  0
VERTEX
  5
4BB
  8
0
  6
CONTINUOUS
 62
     7
 10
2459.039745681903
 20
2013.428485363331
 30
0.0
  0
VERTEX
  5
4BC
  8
0
  6
CONTINUOUS
 62
     7
 10
2459.03955238028
 20
2013.425456812923
 30
0.0
  0
VERTEX
  5
4BD
  8
0
  6
CONTINUOUS
 62
     7
 10
2459.039307182451
 20
2013.422364846683
 30
0.0
  0
VERTEX
  5
4BE
  8
0
  6
CONTINUOUS
 62
     7
 10
2459.039007057619
 20
2013.419211441809
 30
0.0
  0
VERTEX
  5
4BF
  8
0
  6
CONTINUOUS
 62
     7
 10
2459.038648974993
 20
2013.415998575494
 30
0.0
  0
VERTEX
  5
4C0
  8
0
  6
CONTINUOUS
 62
     7
 10
2459.038229903777
 20
2013.412728224933
 30
0.0
  0
VERTEX
  5
4C1
  8
0
  6
CONTINUOUS
 62
     7
 10
2459.03774681318
 20
2013.409402367322
 30
0.0
  0
VERTEX
  5
4C2
  8
0
  6
CONTINUOUS
 62
     7
 10
2459.037196672406
 20
2013.406022979855
 30
0.0
  0
VERTEX
  5
4C3
  8
0
  6
CONTINUOUS
 62
     7
 10
2459.036576450663
 20
2013.402592039727
 30
0.0
  0
VERTEX
  5
4C4
  8
0
  6
CONTINUOUS
 62
     7
 10
2459.035883117155
 20
2013.399111524133
 30
0.0
  0
VERTEX
  5
4C5
  8
0
  6
CONTINUOUS
 62
     7
 10
2459.035113641089
 20
2013.395583410269
 30
0.0
  0
VERTEX
  5
4C6
  8
0
  6
CONTINUOUS
 62
     7
 10
2459.034264991672
 20
2013.392009675329
 30
0.0
  0
VERTEX
  5
4C7
  8
0
  6
CONTINUOUS
 62
     7
 10
2459.03333413811
 20
2013.388392296507
 30
0.0
  0
VERTEX
  5
4C8
  8
0
  6
CONTINUOUS
 62
     7
 10
2459.032318049608
 20
2013.384733250999
 30
0.0
  0
VERTEX
  5
4C9
  8
0
  6
CONTINUOUS
 62
     7
 10
2459.031213695373
 20
2013.381034516001
 30
0.0
  0
VERTEX
  5
4CA
  8
0
  6
CONTINUOUS
 62
     7
 10
2459.030018044612
 20
2013.377298068706
 30
0.0
  0
VERTEX
  5
4CB
  8
0
  6
CONTINUOUS
 62
     7
 10
2459.028728066529
 20
2013.37352588631
 30
0.0
  0
VERTEX
  5
4CC
  8
0
  6
CONTINUOUS
 62
     7
 10
2459.027340730333
 20
2013.369719946008
 30
0.0
  0
VERTEX
  5
4CD
  8
0
  6
CONTINUOUS
 62
     7
 10
2459.025853005227
 20
2013.365882224994
 30
0.0
  0
VERTEX
  5
4CE
  8
0
  6
CONTINUOUS
 62
     7
 10
2459.02426186042
 20
2013.362014700464
 30
0.0
  0
VERTEX
  5
4CF
  8
0
  6
CONTINUOUS
 62
     7
 10
2459.022564265117
 20
2013.358119349612
 30
0.0
  0
VERTEX
  5
4D0
  8
0
  6
CONTINUOUS
 62
     7
 10
2459.020757175968
 20
2013.354198227457
 30
0.0
  0
VERTEX
  5
4D1
  8
0
  6
CONTINUOUS
 62
     7
 10
2459.01883732706
 20
2013.350254768418
 30
0.0
  0
VERTEX
  5
4D2
  8
0
  6
CONTINUOUS
 62
     7
 10
2459.016801261479
 20
2013.346293590711
 30
0.0
  0
VERTEX
  5
4D3
  8
0
  6
CONTINUOUS
 62
     7
 10
2459.014645516113
 20
2013.342319350965
 30
0.0
  0
VERTEX
  5
4D4
  8
0
  6
CONTINUOUS
 62
     7
 10
2459.01236662785
 20
2013.338336705812
 30
0.0
  0
VERTEX
  5
4D5
  8
0
  6
CONTINUOUS
 62
     7
 10
2459.009961133576
 20
2013.334350311882
 30
0.0
  0
VERTEX
  5
4D6
  8
0
  6
CONTINUOUS
 62
     7
 10
2459.007425570181
 20
2013.330364825803
 30
0.0
  0
VERTEX
  5
4D7
  8
0
  6
CONTINUOUS
 62
     7
 10
2459.004756474551
 20
2013.326384904207
 30
0.0
  0
VERTEX
  5
4D8
  8
0
  6
CONTINUOUS
 62
     7
 10
2459.001950383575
 20
2013.322415203725
 30
0.0
  0
VERTEX
  5
4D9
  8
0
  6
CONTINUOUS
 62
     7
 10
2458.999003834139
 20
2013.318460380986
 30
0.0
  0
VERTEX
  5
4DA
  8
0
  6
CONTINUOUS
 62
     7
 10
2458.995913363132
 20
2013.31452509262
 30
0.0
  0
VERTEX
  5
4DB
  8
0
  6
CONTINUOUS
 62
     7
 10
2458.992675507443
 20
2013.310613995258
 30
0.0
  0
VERTEX
  5
4DC
  8
0
  6
CONTINUOUS
 62
     7
 10
2458.989286803957
 20
2013.30673174553
 30
0.0
  0
VERTEX
  5
4DD
  8
0
  6
CONTINUOUS
 62
     7
 10
2458.985743789562
 20
2013.302883000065
 30
0.0
  0
VERTEX
  5
4DE
  8
0
  6
CONTINUOUS
 62
     7
 10
2458.982043002755
 20
2013.299072416808
 30
0.0
  0
VERTEX
  5
4DF
  8
0
  6
CONTINUOUS
 62
     7
 10
2458.978181676885
 20
2013.295305220988
 30
0.0
  0
VERTEX
  5
4E0
  8
0
  6
CONTINUOUS
 62
     7
 10
2458.974158822024
 20
2013.291588088377
 30
0.0
  0
VERTEX
  5
4E1
  8
0
  6
CONTINUOUS
 62
     7
 10
2458.969973728176
 20
2013.287927923286
 30
0.0
  0
VERTEX
  5
4E2
  8
0
  6
CONTINUOUS
 62
     7
 10
2458.965625685343
 20
2013.284331630025
 30
0.0
  0
VERTEX
  5
4E3
  8
0
  6
CONTINUOUS
 62
     7
 10
2458.961113983527
 20
2013.280806112903
 30
0.0
  0
VERTEX
  5
4E4
  8
0
  6
CONTINUOUS
 62
     7
 10
2458.956437912729
 20
2013.277358276228
 30
0.0
  0
VERTEX
  5
4E5
  8
0
  6
CONTINUOUS
 62
     7
 10
2458.951596762953
 20
2013.273995024312
 30
0.0
  0
VERTEX
  5
4E6
  8
0
  6
CONTINUOUS
 62
     7
 10
2458.946589824202
 20
2013.270723261464
 30
0.0
  0
VERTEX
  5
4E7
  8
0
  6
CONTINUOUS
 62
     7
 10
2458.941416386475
 20
2013.267549891993
 30
0.0
  0
VERTEX
  5
4E8
  8
0
  6
CONTINUOUS
 62
     7
 10
2458.936075739782
 20
2013.264481820219
 30
0.0
  0
VERTEX
  5
4E9
  8
0
  6
CONTINUOUS
 62
     7
 10
2458.930568397634
 20
2013.26152850206
 30
0.0
  0
VERTEX
  5
4EA
  8
0
  6
CONTINUOUS
 62
     7
 10
2458.924899539977
 20
2013.258709125202
 30
0.0
  0
VERTEX
  5
4EB
  8
0
  6
CONTINUOUS
 62
     7
 10
2458.919075459091
 20
2013.256045197083
 30
0.0
  0
VERTEX
  5
4EC
  8
0
  6
CONTINUOUS
 62
     7
 10
2458.913102447259
 20
2013.253558225143
 30
0.0
  0
VERTEX
  5
4ED
  8
0
  6
CONTINUOUS
 62
     7
 10
2458.90698679676
 20
2013.251269716819
 30
0.0
  0
VERTEX
  5
4EE
  8
0
  6
CONTINUOUS
 62
     7
 10
2458.900734799873
 20
2013.249201179551
 30
0.0
  0
VERTEX
  5
4EF
  8
0
  6
CONTINUOUS
 62
     7
 10
2458.894352748881
 20
2013.247374120778
 30
0.0
  0
VERTEX
  5
4F0
  8
0
  6
CONTINUOUS
 62
     7
 10
2458.887847168149
 20
2013.245808672797
 30
0.0
  0
VERTEX
  5
4F1
  8
0
  6
CONTINUOUS
 62
     7
 10
2458.881229395078
 20
2013.24449644997
 30
0.0
  0
VERTEX
  5
4F2
  8
0
  6
CONTINUOUS
 62
     7
 10
2458.874515305364
 20
2013.243402176601
 30
0.0
  0
VERTEX
  5
4F3
  8
0
  6
CONTINUOUS
 62
     7
 10
2458.86772095178
 20
2013.242489527783
 30
0.0
  0
VERTEX
  5
4F4
  8
0
  6
CONTINUOUS
 62
     7
 10
2458.8608623871
 20
2013.241722178604
 30
0.0
  0
VERTEX
  5
4F5
  8
0
  6
CONTINUOUS
 62
     7
 10
2458.8539556641
 20
2013.241063804154
 30
0.0
  0
VERTEX
  5
4F6
  8
0
  6
CONTINUOUS
 62
     7
 10
2458.847016835552
 20
2013.240478079525
 30
0.0
  0
VERTEX
  5
4F7
  8
0
  6
CONTINUOUS
 62
     7
 10
2458.840061954229
 20
2013.239928679804
 30
0.0
  0
SEQEND
  5
707
  8
0
  6
CONTINUOUS
 62
     7
  0
LINE
  5
A8
  8
0
  6
CONTINUOUS
 62
     7
 10
2458.040061954229
 20
2013.72599277762
 30
0.0
 11
2458.040061954229
 21
2013.239928679804
 31
0.0
  0
LINE
  5
A9
  8
0
  6
CONTINUOUS
 62
     7
 10
2458.840061954229
 20
2013.72599277762
 30
0.0
 11
2458.040061954229
 21
2013.72599277762
 31
0.0
  0
LINE
  5
AA
  8
0
  6
CONTINUOUS
 62
     7
 10
2459.040061954229
 20
2013.539928679804
 30
0.0
 11
2459.040061954229
 21
2013.528779958057
 31
0.0
  0
LINE
  5
AB
  8
0
  6
CONTINUOUS
 62
     7
 10
2458.040061954229
 20
2013.739928679804
 30
0.0
 11
2458.040061954229
 21
2013.72599277762
 31
0.0
  0
LINE
  5
AC
  8
0
  6
CONTINUOUS
 62
     7
 10
2459.040061954229
 20
2013.439928679804
 30
0.0
 11
2459.040061954229
 21
2013.239928679804
 31
0.0
  0
LINE
  5
AD
  8
0
  6
CONTINUOUS
 62
     7
 10
2458.040061954229
 20
2013.72599277762
 30
0.0
 11
1864.040061954228
 21
2013.72599277762
 31
0.0
  0
LINE
  5
AE
  8
0
  6
CONTINUOUS
 62
     7
 10
1864.040061954228
 20
2013.239928679804
 30
0.0
 11
1864.040061954228
 21
2013.72599277762
 31
0.0
  0
LINE
  5
AF
  8
0
  6
CONTINUOUS
 62
     7
 10
1864.040061954228
 20
2013.72599277762
 30
0.0
 11
1864.040061954228
 21
2013.739928679804
 31
0.0
  0
LINE
  5
B0
  8
0
  6
CONTINUOUS
 62
     7
 10
3056.540061954229
 20
2013.72599277762
 30
0.0
 11
2462.540061954228
 21
2013.72599277762
 31
0.0
  0
LINE
  5
B1
  8
0
  6
CONTINUOUS
 62
     7
 10
2462.540061954228
 20
2013.239928679804
 30
0.0
 11
2462.540061954228
 21
2013.72599277762
 31
0.0
  0
LINE
  5
B2
  8
0
  6
CONTINUOUS
 62
     7
 10
2462.540061954228
 20
2013.72599277762
 30
0.0
 11
2462.540061954228
 21
2013.739928679803
 31
0.0
  0
LINE
  5
B3
  8
0
  6
CONTINUOUS
 62
     7
 10
2461.540061954228
 20
2013.439928679804
 30
0.0
 11
2461.540061954228
 21
2013.528779958056
 31
0.0
  0
ARC
  5
B4
  8
0
  6
CONTINUOUS
 62
     7
 10
2461.738678074478
 20
2013.527376520134
 30
0.0
 40
0.1986210785917168
 50
89.60079206519494
 51
179.5951500239927
  0
LINE
  5
B5
  8
0
  6
CONTINUOUS
 62
     7
 10
2461.740061954228
 20
2013.72599277762
 30
0.0
 11
2461.740061954228
 21
2013.239928679804
 31
0.0
  0
POLYLINE
  5
B6
  8
0
  6
CONTINUOUS
 62
     7
 66
     1
 10
0.0
 20
0.0
 30
0.0
  0
VERTEX
  5
4F8
  8
0
  6
CONTINUOUS
 62
     7
 10
2461.540061954228
 20
2013.439928679804
 30
0.0
  0
VERTEX
  5
4F9
  8
0
  6
CONTINUOUS
 62
     7
 10
2461.540079390989
 20
2013.437170747626
 30
0.0
  0
VERTEX
  5
4FA
  8
0
  6
CONTINUOUS
 62
     7
 10
2461.540135188753
 20
2013.434344307878
 30
0.0
  0
VERTEX
  5
4FB
  8
0
  6
CONTINUOUS
 62
     7
 10
2461.540233790343
 20
2013.431448520714
 30
0.0
  0
VERTEX
  5
4FC
  8
0
  6
CONTINUOUS
 62
     7
 10
2461.540378226552
 20
2013.428485363331
 30
0.0
  0
VERTEX
  5
4FD
  8
0
  6
CONTINUOUS
 62
     7
 10
2461.540571528174
 20
2013.425456812922
 30
0.0
  0
VERTEX
  5
4FE
  8
0
  6
CONTINUOUS
 62
     7
 10
2461.540816726004
 20
2013.422364846683
 30
0.0
  0
VERTEX
  5
4FF
  8
0
  6
CONTINUOUS
 62
     7
 10
2461.541116850835
 20
2013.419211441808
 30
0.0
  0
VERTEX
  5
500
  8
0
  6
CONTINUOUS
 62
     7
 10
2461.541474933461
 20
2013.415998575493
 30
0.0
  0
VERTEX
  5
501
  8
0
  6
CONTINUOUS
 62
     7
 10
2461.541894004677
 20
2013.412728224932
 30
0.0
  0
VERTEX
  5
502
  8
0
  6
CONTINUOUS
 62
     7
 10
2461.542377095274
 20
2013.409402367321
 30
0.0
  0
VERTEX
  5
503
  8
0
  6
CONTINUOUS
 62
     7
 10
2461.542927236047
 20
2013.406022979854
 30
0.0
  0
VERTEX
  5
504
  8
0
  6
CONTINUOUS
 62
     7
 10
2461.543547457792
 20
2013.402592039726
 30
0.0
  0
VERTEX
  5
505
  8
0
  6
CONTINUOUS
 62
     7
 10
2461.544240791299
 20
2013.399111524132
 30
0.0
  0
VERTEX
  5
506
  8
0
  6
CONTINUOUS
 62
     7
 10
2461.545010267365
 20
2013.395583410268
 30
0.0
  0
VERTEX
  5
507
  8
0
  6
CONTINUOUS
 62
     7
 10
2461.545858916782
 20
2013.392009675328
 30
0.0
  0
VERTEX
  5
508
  8
0
  6
CONTINUOUS
 62
     7
 10
2461.546789770345
 20
2013.388392296506
 30
0.0
  0
VERTEX
  5
509
  8
0
  6
CONTINUOUS
 62
     7
 10
2461.547805858847
 20
2013.384733250999
 30
0.0
  0
VERTEX
  5
50A
  8
0
  6
CONTINUOUS
 62
     7
 10
2461.548910213082
 20
2013.381034516
 30
0.0
  0
VERTEX
  5
50B
  8
0
  6
CONTINUOUS
 62
     7
 10
2461.550105863844
 20
2013.377298068706
 30
0.0
  0
VERTEX
  5
50C
  8
0
  6
CONTINUOUS
 62
     7
 10
2461.551395841927
 20
2013.37352588631
 30
0.0
  0
VERTEX
  5
50D
  8
0
  6
CONTINUOUS
 62
     7
 10
2461.552783178124
 20
2013.369719946007
 30
0.0
  0
VERTEX
  5
50E
  8
0
  6
CONTINUOUS
 62
     7
 10
2461.554270903229
 20
2013.365882224994
 30
0.0
  0
VERTEX
  5
50F
  8
0
  6
CONTINUOUS
 62
     7
 10
2461.555862048036
 20
2013.362014700463
 30
0.0
  0
VERTEX
  5
510
  8
0
  6
CONTINUOUS
 62
     7
 10
2461.557559643339
 20
2013.358119349611
 30
0.0
  0
VERTEX
  5
511
  8
0
  6
CONTINUOUS
 62
     7
 10
2461.559366732489
 20
2013.354198227457
 30
0.0
  0
VERTEX
  5
512
  8
0
  6
CONTINUOUS
 62
     7
 10
2461.561286581397
 20
2013.350254768417
 30
0.0
  0
VERTEX
  5
513
  8
0
  6
CONTINUOUS
 62
     7
 10
2461.563322646978
 20
2013.34629359071
 30
0.0
  0
VERTEX
  5
514
  8
0
  6
CONTINUOUS
 62
     7
 10
2461.565478392343
 20
2013.342319350964
 30
0.0
  0
VERTEX
  5
515
  8
0
  6
CONTINUOUS
 62
     7
 10
2461.567757280608
 20
2013.338336705812
 30
0.0
  0
VERTEX
  5
516
  8
0
  6
CONTINUOUS
 62
     7
 10
2461.570162774881
 20
2013.334350311881
 30
0.0
  0
VERTEX
  5
517
  8
0
  6
CONTINUOUS
 62
     7
 10
2461.572698338276
 20
2013.330364825802
 30
0.0
  0
VERTEX
  5
518
  8
0
  6
CONTINUOUS
 62
     7
 10
2461.575367433906
 20
2013.326384904207
 30
0.0
  0
VERTEX
  5
519
  8
0
  6
CONTINUOUS
 62
     7
 10
2461.578173524883
 20
2013.322415203725
 30
0.0
  0
VERTEX
  5
51A
  8
0
  6
CONTINUOUS
 62
     7
 10
2461.581120074318
 20
2013.318460380985
 30
0.0
  0
VERTEX
  5
51B
  8
0
  6
CONTINUOUS
 62
     7
 10
2461.584210545324
 20
2013.314525092619
 30
0.0
  0
VERTEX
  5
51C
  8
0
  6
CONTINUOUS
 62
     7
 10
2461.587448401015
 20
2013.310613995257
 30
0.0
  0
VERTEX
  5
51D
  8
0
  6
CONTINUOUS
 62
     7
 10
2461.590837104501
 20
2013.306731745529
 30
0.0
  0
VERTEX
  5
51E
  8
0
  6
CONTINUOUS
 62
     7
 10
2461.594380118895
 20
2013.302883000065
 30
0.0
  0
VERTEX
  5
51F
  8
0
  6
CONTINUOUS
 62
     7
 10
2461.598080905702
 20
2013.299072416807
 30
0.0
  0
VERTEX
  5
520
  8
0
  6
CONTINUOUS
 62
     7
 10
2461.601942231573
 20
2013.295305220987
 30
0.0
  0
VERTEX
  5
521
  8
0
  6
CONTINUOUS
 62
     7
 10
2461.605965086434
 20
2013.291588088377
 30
0.0
  0
VERTEX
  5
522
  8
0
  6
CONTINUOUS
 62
     7
 10
2461.610150180282
 20
2013.287927923286
 30
0.0
  0
VERTEX
  5
523
  8
0
  6
CONTINUOUS
 62
     7
 10
2461.614498223115
 20
2013.284331630025
 30
0.0
  0
VERTEX
  5
524
  8
0
  6
CONTINUOUS
 62
     7
 10
2461.619009924931
 20
2013.280806112902
 30
0.0
  0
VERTEX
  5
525
  8
0
  6
CONTINUOUS
 62
     7
 10
2461.623685995728
 20
2013.277358276227
 30
0.0
  0
VERTEX
  5
526
  8
0
  6
CONTINUOUS
 62
     7
 10
2461.628527145504
 20
2013.273995024312
 30
0.0
  0
VERTEX
  5
527
  8
0
  6
CONTINUOUS
 62
     7
 10
2461.633534084256
 20
2013.270723261463
 30
0.0
  0
VERTEX
  5
528
  8
0
  6
CONTINUOUS
 62
     7
 10
2461.638707521982
 20
2013.267549891992
 30
0.0
  0
VERTEX
  5
529
  8
0
  6
CONTINUOUS
 62
     7
 10
2461.644048168675
 20
2013.264481820218
 30
0.0
  0
VERTEX
  5
52A
  8
0
  6
CONTINUOUS
 62
     7
 10
2461.649555510823
 20
2013.26152850206
 30
0.0
  0
VERTEX
  5
52B
  8
0
  6
CONTINUOUS
 62
     7
 10
2461.65522436848
 20
2013.258709125201
 30
0.0
  0
VERTEX
  5
52C
  8
0
  6
CONTINUOUS
 62
     7
 10
2461.661048449365
 20
2013.256045197082
 30
0.0
  0
VERTEX
  5
52D
  8
0
  6
CONTINUOUS
 62
     7
 10
2461.667021461198
 20
2013.253558225142
 30
0.0
  0
VERTEX
  5
52E
  8
0
  6
CONTINUOUS
 62
     7
 10
2461.673137111697
 20
2013.251269716818
 30
0.0
  0
VERTEX
  5
52F
  8
0
  6
CONTINUOUS
 62
     7
 10
2461.679389108584
 20
2013.249201179551
 30
0.0
  0
VERTEX
  5
530
  8
0
  6
CONTINUOUS
 62
     7
 10
2461.685771159576
 20
2013.247374120778
 30
0.0
  0
VERTEX
  5
531
  8
0
  6
CONTINUOUS
 62
     7
 10
2461.692276740308
 20
2013.245808672796
 30
0.0
  0
VERTEX
  5
532
  8
0
  6
CONTINUOUS
 62
     7
 10
2461.698894513379
 20
2013.244496449969
 30
0.0
  0
VERTEX
  5
533
  8
0
  6
CONTINUOUS
 62
     7
 10
2461.705608603093
 20
2013.243402176601
 30
0.0
  0
VERTEX
  5
534
  8
0
  6
CONTINUOUS
 62
     7
 10
2461.712402956678
 20
2013.242489527782
 30
0.0
  0
VERTEX
  5
535
  8
0
  6
CONTINUOUS
 62
     7
 10
2461.719261521356
 20
2013.241722178603
 30
0.0
  0
VERTEX
  5
536
  8
0
  6
CONTINUOUS
 62
     7
 10
2461.726168244357
 20
2013.241063804154
 30
0.0
  0
VERTEX
  5
537
  8
0
  6
CONTINUOUS
 62
     7
 10
2461.733107072906
 20
2013.240478079524
 30
0.0
  0
VERTEX
  5
538
  8
0
  6
CONTINUOUS
 62
     7
 10
2461.740061954228
 20
2013.239928679804
 30
0.0
  0
SEQEND
  5
708
  8
0
  6
CONTINUOUS
 62
     7
  0
LINE
  5
B7
  8
0
  6
CONTINUOUS
 62
     7
 10
2462.540061954228
 20
2013.72599277762
 30
0.0
 11
2461.740061954228
 21
2013.72599277762
 31
0.0
  0
LINE
  5
B8
  8
0
  6
CONTINUOUS
 62
     7
 10
2461.540061954228
 20
2013.528779958056
 30
0.0
 11
2461.540061954228
 21
2013.539928679804
 31
0.0
  0
LINE
  5
B9
  8
0
  6
CONTINUOUS
 62
     7
 10
2461.540061954228
 20
2013.239928679804
 30
0.0
 11
2461.540061954228
 21
2013.439928679804
 31
0.0
  0
LINE
  5
BA
  8
0
  6
CONTINUOUS
 62
     7
 10
1863.040061954228
 20
2013.439928679804
 30
0.0
 11
1863.040061954228
 21
2013.528779958057
 31
0.0
  0
ARC
  5
BB
  8
0
  6
CONTINUOUS
 62
     7
 10
1863.238678074479
 20
2013.527376520133
 30
0.0
 40
0.1986210785930907
 50
89.60079206552562
 51
179.5951500236019
  0
LINE
  5
BC
  8
0
  6
CONTINUOUS
 62
     7
 10
1863.240061954228
 20
2013.72599277762
 30
0.0
 11
1863.240061954228
 21
2013.239928679804
 31
0.0
  0
POLYLINE
  5
BD
  8
0
  6
CONTINUOUS
 62
     7
 66
     1
 10
0.0
 20
0.0
 30
0.0
  0
VERTEX
  5
539
  8
0
  6
CONTINUOUS
 62
     7
 10
1863.040061954228
 20
2013.439928679804
 30
0.0
  0
VERTEX
  5
53A
  8
0
  6
CONTINUOUS
 62
     7
 10
1863.04007939099
 20
2013.437170747626
 30
0.0
  0
VERTEX
  5
53B
  8
0
  6
CONTINUOUS
 62
     7
 10
1863.040135188754
 20
2013.434344307878
 30
0.0
  0
VERTEX
  5
53C
  8
0
  6
CONTINUOUS
 62
     7
 10
1863.040233790343
 20
2013.431448520714
 30
0.0
  0
VERTEX
  5
53D
  8
0
  6
CONTINUOUS
 62
     7
 10
1863.040378226553
 20
2013.428485363331
 30
0.0
  0
VERTEX
  5
53E
  8
0
  6
CONTINUOUS
 62
     7
 10
1863.040571528176
 20
2013.425456812922
 30
0.0
  0
VERTEX
  5
53F
  8
0
  6
CONTINUOUS
 62
     7
 10
1863.040816726006
 20
2013.422364846683
 30
0.0
  0
VERTEX
  5
540
  8
0
  6
CONTINUOUS
 62
     7
 10
1863.041116850837
 20
2013.419211441808
 30
0.0
  0
VERTEX
  5
541
  8
0
  6
CONTINUOUS
 62
     7
 10
1863.041474933463
 20
2013.415998575493
 30
0.0
  0
VERTEX
  5
542
  8
0
  6
CONTINUOUS
 62
     7
 10
1863.041894004679
 20
2013.412728224932
 30
0.0
  0
VERTEX
  5
543
  8
0
  6
CONTINUOUS
 62
     7
 10
1863.042377095275
 20
2013.409402367321
 30
0.0
  0
VERTEX
  5
544
  8
0
  6
CONTINUOUS
 62
     7
 10
1863.042927236049
 20
2013.406022979854
 30
0.0
  0
VERTEX
  5
545
  8
0
  6
CONTINUOUS
 62
     7
 10
1863.043547457793
 20
2013.402592039726
 30
0.0
  0
VERTEX
  5
546
  8
0
  6
CONTINUOUS
 62
     7
 10
1863.044240791301
 20
2013.399111524132
 30
0.0
  0
VERTEX
  5
547
  8
0
  6
CONTINUOUS
 62
     7
 10
1863.045010267367
 20
2013.395583410268
 30
0.0
  0
VERTEX
  5
548
  8
0
  6
CONTINUOUS
 62
     7
 10
1863.045858916784
 20
2013.392009675328
 30
0.0
  0
VERTEX
  5
549
  8
0
  6
CONTINUOUS
 62
     7
 10
1863.046789770346
 20
2013.388392296506
 30
0.0
  0
VERTEX
  5
54A
  8
0
  6
CONTINUOUS
 62
     7
 10
1863.047805858848
 20
2013.384733250999
 30
0.0
  0
VERTEX
  5
54B
  8
0
  6
CONTINUOUS
 62
     7
 10
1863.048910213083
 20
2013.381034516
 30
0.0
  0
VERTEX
  5
54C
  8
0
  6
CONTINUOUS
 62
     7
 10
1863.050105863845
 20
2013.377298068706
 30
0.0
  0
VERTEX
  5
54D
  8
0
  6
CONTINUOUS
 62
     7
 10
1863.051395841928
 20
2013.37352588631
 30
0.0
  0
VERTEX
  5
54E
  8
0
  6
CONTINUOUS
 62
     7
 10
1863.052783178125
 20
2013.369719946007
 30
0.0
  0
VERTEX
  5
54F
  8
0
  6
CONTINUOUS
 62
     7
 10
1863.05427090323
 20
2013.365882224994
 30
0.0
  0
VERTEX
  5
550
  8
0
  6
CONTINUOUS
 62
     7
 10
1863.055862048036
 20
2013.362014700463
 30
0.0
  0
VERTEX
  5
551
  8
0
  6
CONTINUOUS
 62
     7
 10
1863.057559643339
 20
2013.358119349611
 30
0.0
  0
VERTEX
  5
552
  8
0
  6
CONTINUOUS
 62
     7
 10
1863.059366732489
 20
2013.354198227457
 30
0.0
  0
VERTEX
  5
553
  8
0
  6
CONTINUOUS
 62
     7
 10
1863.061286581397
 20
2013.350254768417
 30
0.0
  0
VERTEX
  5
554
  8
0
  6
CONTINUOUS
 62
     7
 10
1863.063322646978
 20
2013.34629359071
 30
0.0
  0
VERTEX
  5
555
  8
0
  6
CONTINUOUS
 62
     7
 10
1863.065478392343
 20
2013.342319350964
 30
0.0
  0
VERTEX
  5
556
  8
0
  6
CONTINUOUS
 62
     7
 10
1863.067757280608
 20
2013.338336705812
 30
0.0
  0
VERTEX
  5
557
  8
0
  6
CONTINUOUS
 62
     7
 10
1863.070162774881
 20
2013.334350311881
 30
0.0
  0
VERTEX
  5
558
  8
0
  6
CONTINUOUS
 62
     7
 10
1863.072698338276
 20
2013.330364825802
 30
0.0
  0
VERTEX
  5
559
  8
0
  6
CONTINUOUS
 62
     7
 10
1863.075367433906
 20
2013.326384904207
 30
0.0
  0
VERTEX
  5
55A
  8
0
  6
CONTINUOUS
 62
     7
 10
1863.078173524883
 20
2013.322415203725
 30
0.0
  0
VERTEX
  5
55B
  8
0
  6
CONTINUOUS
 62
     7
 10
1863.081120074318
 20
2013.318460380985
 30
0.0
  0
VERTEX
  5
55C
  8
0
  6
CONTINUOUS
 62
     7
 10
1863.084210545324
 20
2013.314525092619
 30
0.0
  0
VERTEX
  5
55D
  8
0
  6
CONTINUOUS
 62
     7
 10
1863.087448401015
 20
2013.310613995257
 30
0.0
  0
VERTEX
  5
55E
  8
0
  6
CONTINUOUS
 62
     7
 10
1863.0908371045
 20
2013.306731745529
 30
0.0
  0
VERTEX
  5
55F
  8
0
  6
CONTINUOUS
 62
     7
 10
1863.094380118895
 20
2013.302883000065
 30
0.0
  0
VERTEX
  5
560
  8
0
  6
CONTINUOUS
 62
     7
 10
1863.098080905702
 20
2013.299072416807
 30
0.0
  0
VERTEX
  5
561
  8
0
  6
CONTINUOUS
 62
     7
 10
1863.101942231573
 20
2013.295305220987
 30
0.0
  0
VERTEX
  5
562
  8
0
  6
CONTINUOUS
 62
     7
 10
1863.105965086433
 20
2013.291588088377
 30
0.0
  0
VERTEX
  5
563
  8
0
  6
CONTINUOUS
 62
     7
 10
1863.110150180281
 20
2013.287927923286
 30
0.0
  0
VERTEX
  5
564
  8
0
  6
CONTINUOUS
 62
     7
 10
1863.114498223115
 20
2013.284331630025
 30
0.0
  0
VERTEX
  5
565
  8
0
  6
CONTINUOUS
 62
     7
 10
1863.119009924931
 20
2013.280806112902
 30
0.0
  0
VERTEX
  5
566
  8
0
  6
CONTINUOUS
 62
     7
 10
1863.123685995728
 20
2013.277358276228
 30
0.0
  0
VERTEX
  5
567
  8
0
  6
CONTINUOUS
 62
     7
 10
1863.128527145504
 20
2013.273995024312
 30
0.0
  0
VERTEX
  5
568
  8
0
  6
CONTINUOUS
 62
     7
 10
1863.133534084256
 20
2013.270723261464
 30
0.0
  0
VERTEX
  5
569
  8
0
  6
CONTINUOUS
 62
     7
 10
1863.138707521981
 20
2013.267549891993
 30
0.0
  0
VERTEX
  5
56A
  8
0
  6
CONTINUOUS
 62
     7
 10
1863.144048168675
 20
2013.264481820219
 30
0.0
  0
VERTEX
  5
56B
  8
0
  6
CONTINUOUS
 62
     7
 10
1863.149555510823
 20
2013.26152850206
 30
0.0
  0
VERTEX
  5
56C
  8
0
  6
CONTINUOUS
 62
     7
 10
1863.15522436848
 20
2013.258709125201
 30
0.0
  0
VERTEX
  5
56D
  8
0
  6
CONTINUOUS
 62
     7
 10
1863.161048449365
 20
2013.256045197083
 30
0.0
  0
VERTEX
  5
56E
  8
0
  6
CONTINUOUS
 62
     7
 10
1863.167021461198
 20
2013.253558225142
 30
0.0
  0
VERTEX
  5
56F
  8
0
  6
CONTINUOUS
 62
     7
 10
1863.173137111697
 20
2013.251269716819
 30
0.0
  0
VERTEX
  5
570
  8
0
  6
CONTINUOUS
 62
     7
 10
1863.179389108584
 20
2013.249201179551
 30
0.0
  0
VERTEX
  5
571
  8
0
  6
CONTINUOUS
 62
     7
 10
1863.185771159576
 20
2013.247374120778
 30
0.0
  0
VERTEX
  5
572
  8
0
  6
CONTINUOUS
 62
     7
 10
1863.192276740308
 20
2013.245808672796
 30
0.0
  0
VERTEX
  5
573
  8
0
  6
CONTINUOUS
 62
     7
 10
1863.198894513379
 20
2013.244496449969
 30
0.0
  0
VERTEX
  5
574
  8
0
  6
CONTINUOUS
 62
     7
 10
1863.205608603093
 20
2013.243402176601
 30
0.0
  0
VERTEX
  5
575
  8
0
  6
CONTINUOUS
 62
     7
 10
1863.212402956678
 20
2013.242489527782
 30
0.0
  0
VERTEX
  5
576
  8
0
  6
CONTINUOUS
 62
     7
 10
1863.219261521356
 20
2013.241722178603
 30
0.0
  0
VERTEX
  5
577
  8
0
  6
CONTINUOUS
 62
     7
 10
1863.226168244357
 20
2013.241063804154
 30
0.0
  0
VERTEX
  5
578
  8
0
  6
CONTINUOUS
 62
     7
 10
1863.233107072906
 20
2013.240478079524
 30
0.0
  0
VERTEX
  5
579
  8
0
  6
CONTINUOUS
 62
     7
 10
1863.240061954228
 20
2013.239928679804
 30
0.0
  0
SEQEND
  5
709
  8
0
  6
CONTINUOUS
 62
     7
  0
LINE
  5
BE
  8
0
  6
CONTINUOUS
 62
     7
 10
1864.040061954228
 20
2013.72599277762
 30
0.0
 11
1863.240061954228
 21
2013.72599277762
 31
0.0
  0
LINE
  5
BF
  8
0
  6
CONTINUOUS
 62
     7
 10
1863.040061954228
 20
2013.528779958057
 30
0.0
 11
1863.040061954228
 21
2013.539928679804
 31
0.0
  0
LINE
  5
C0
  8
0
  6
CONTINUOUS
 62
     7
 10
1863.040061954228
 20
2013.239928679803
 30
0.0
 11
1863.040061954228
 21
2013.439928679804
 31
0.0
  0
LINE
  5
C1
  8
0
  6
CONTINUOUS
 62
     7
 10
3061.540061954228
 20
1635.239928679803
 30
0.0
 11
3061.540061954228
 21
1996.739928679804
 31
0.0
  0
LINE
  5
C2
  8
0
  6
CONTINUOUS
 62
     7
 10
3044.040061954228
 20
1635.239928679803
 30
0.0
 11
3061.540061954228
 21
1635.239928679803
 31
0.0
  0
LINE
  5
C3
  8
0
  6
CONTINUOUS
 62
     7
 10
3044.040061954228
 20
1637.239928679804
 30
0.0
 11
3044.040061954228
 21
1635.239928679803
 31
0.0
  0
LINE
  5
C4
  8
0
  6
CONTINUOUS
 62
     7
 10
1876.540061954228
 20
1635.239928679804
 30
0.0
 11
1876.540061954228
 21
1637.239928679804
 31
0.0
  0
LINE
  5
C5
  8
0
  6
CONTINUOUS
 62
     7
 10
1859.040061954228
 20
1996.739928679804
 30
0.0
 11
1859.040061954228
 21
1635.239928679804
 31
0.0
  0
LINE
  5
C6
  8
0
  6
CONTINUOUS
 62
     7
 10
1859.040061954228
 20
1635.239928679804
 30
0.0
 11
1876.540061954228
 21
1635.239928679804
 31
0.0
  0
LINE
  5
C7
  8
0
  6
CONTINUOUS
 62
     8
 10
3057.340061954229
 20
2013.72599277762
 30
0.0
 11
3057.340061954229
 21
2013.739928679804
 31
0.0
  0
LINE
  5
C8
  8
0
  6
CONTINUOUS
 62
     8
 10
2458.840061954229
 20
2013.72599277762
 30
0.0
 11
2458.840061954229
 21
2013.739928679804
 31
0.0
  0
LINE
  5
C9
  8
0
  6
CONTINUOUS
 62
     8
 10
2461.740061954228
 20
2013.739928679803
 30
0.0
 11
2461.740061954228
 21
2013.72599277762
 31
0.0
  0
LINE
  5
CA
  8
0
  6
CONTINUOUS
 62
     8
 10
1863.240061954228
 20
2013.739928679804
 30
0.0
 11
1863.240061954228
 21
2013.72599277762
 31
0.0
  0
LINE
  5
CB
  8
0
  6
CONTINUOUS
 62
     7
 10
942.9983621755565
 20
1979.739928679804
 30
0.0
 11
941.4983621755566
 21
1979.739928679804
 31
0.0
  0
LINE
  5
CC
  8
0
  6
CONTINUOUS
 62
     7
 10
942.9983621755565
 20
2000.239928679804
 30
0.0
 11
942.9983621755565
 21
1979.739928679804
 31
0.0
  0
LINE
  5
CD
  8
0
  6
CONTINUOUS
 62
     7
 10
955.4983621755566
 20
2000.239928679804
 30
0.0
 11
942.9983621755565
 21
2000.239928679804
 31
0.0
  0
LINE
  5
CE
  8
0
  6
CONTINUOUS
 62
     7
 10
955.4983621755566
 20
2013.239928679804
 30
0.0
 11
955.4983621755566
 21
2000.239928679804
 31
0.0
  0
LINE
  5
CF
  8
0
  6
CONTINUOUS
 62
     7
 10
959.4983621755566
 20
2013.239928679804
 30
0.0
 11
955.4983621755566
 21
2013.239928679804
 31
0.0
  0
LINE
  5
D0
  8
0
  6
CONTINUOUS
 62
     7
 10
959.4983621755566
 20
2013.239928679804
 30
0.0
 11
959.4983621755565
 21
1637.239928679804
 31
0.0
  0
LINE
  5
D1
  8
0
  6
CONTINUOUS
 62
     7
 10
947.4983621755583
 20
1690.739928679804
 30
0.0
 11
947.4983621755583
 21
1684.739928679803
 31
0.0
  0
LINE
  5
D2
  8
0
  6
CONTINUOUS
 62
     7
 10
959.4983621755565
 20
1637.239928679804
 30
0.0
 11
941.4983621755566
 21
1637.239928679804
 31
0.0
  0
LINE
  5
D3
  8
0
  6
CONTINUOUS
 62
     7
 10
947.4983621755583
 20
1684.739928679803
 30
0.0
 11
941.4983621755566
 21
1684.739928679803
 31
0.0
  0
LINE
  5
D4
  8
0
  6
CONTINUOUS
 62
     7
 10
941.4983621755566
 20
1684.739928679803
 30
0.0
 11
941.4983621755566
 21
1637.239928679804
 31
0.0
  0
LINE
  5
D5
  8
0
  6
CONTINUOUS
 62
     7
 10
941.4983621755566
 20
1979.739928679804
 30
0.0
 11
941.4983621755566
 21
1690.739928679804
 31
0.0
  0
LINE
  5
D6
  8
0
  6
CONTINUOUS
 62
     7
 10
941.4983621755566
 20
1690.739928679804
 30
0.0
 11
947.4983621755583
 21
1690.739928679804
 31
0.0
  0
LINE
  5
D7
  8
0
  6
CONTINUOUS
 62
     7
 10
360.9983621755568
 20
2035.239928679804
 30
0.0
 11
941.4983621755568
 21
2035.239928679804
 31
0.0
  0
LINE
  5
D8
  8
0
  6
CONTINUOUS
 62
     7
 10
941.4983621755568
 20
2035.239928679804
 30
0.0
 11
941.4983621755568
 21
1996.739928679804
 31
0.0
  0
LINE
  5
D9
  8
0
  6
CONTINUOUS
 62
     7
 10
360.9983621755568
 20
1996.739928679804
 30
0.0
 11
360.9983621755568
 21
2035.239928679804
 31
0.0
  0
LINE
  5
DA
  8
0
  6
CONTINUOUS
 62
     7
 10
941.4983621755568
 20
1996.739928679804
 30
0.0
 11
360.9983621755568
 21
1996.739928679804
 31
0.0
  0
LINE
  5
DB
  8
0
  6
CONTINUOUS
 62
     7
 10
940.9983621755568
 20
1894.739928679803
 30
0.0
 11
941.4983621755566
 21
1894.739928679803
 31
0.0
  0
LINE
  5
DC
  8
0
  6
CONTINUOUS
 62
     7
 10
941.4983621755566
 20
1690.739928679804
 30
0.0
 11
941.4983621755566
 21
1684.739928679804
 31
0.0
  0
LINE
  5
DD
  8
0
  6
CONTINUOUS
 62
     7
 10
940.9983621755568
 20
1674.739928679803
 30
0.0
 11
941.4983621755566
 21
1674.739928679803
 31
0.0
  0
LINE
  5
DE
  8
0
  6
CONTINUOUS
 62
     7
 10
941.1983621755572
 20
1980.439928679804
 30
0.0
 11
941.198362175557
 21
1996.739928679804
 31
0.0
  0
LINE
  5
DF
  8
0
  6
CONTINUOUS
 62
     7
 10
941.1983621755572
 20
1980.439928679804
 30
0.0
 11
941.3983621755572
 21
1980.439928679804
 31
0.0
  0
ARC
  5
E0
  8
0
  6
CONTINUOUS
 62
     7
 10
942.198362175557
 20
2001.239928679804
 30
0.0
 40
0.9999999999997726
 50
90.0
 51
134.4270040008321
  0
LINE
  5
E1
  8
0
  6
CONTINUOUS
 62
     7
 10
942.198362175557
 20
2002.039928679804
 30
0.0
 11
942.198362175557
 21
2002.239928679804
 31
0.0
  0
LINE
  5
E2
  8
0
  6
CONTINUOUS
 62
     7
 10
952.5815484055764
 20
2002.039928679804
 30
0.0
 11
942.198362175557
 21
2002.039928679804
 31
0.0
  0
LINE
  5
E3
  8
0
  6
CONTINUOUS
 62
     7
 10
942.198362175557
 20
2002.239928679804
 30
0.0
 11
952.5815484055764
 21
2002.239928679804
 31
0.0
  0
LINE
  5
E4
  8
0
  6
CONTINUOUS
 62
     7
 10
952.5815484055764
 20
2002.039928679804
 30
0.0
 11
952.5815484055764
 21
2002.239928679804
 31
0.0
  0
LINE
  5
E5
  8
0
  6
CONTINUOUS
 62
     7
 10
942.998362175557
 20
2000.239928679804
 30
0.0
 11
942.798362175557
 21
2000.439928679804
 31
0.0
  0
LINE
  5
E6
  8
0
  6
CONTINUOUS
 62
     7
 10
942.798362175557
 20
2000.439928679804
 30
0.0
 11
955.2983621755569
 21
2000.439928679804
 31
0.0
  0
LINE
  5
E7
  8
0
  6
CONTINUOUS
 62
     7
 10
955.498362175557
 20
2000.239928679804
 30
0.0
 11
955.2983621755569
 21
2000.439928679804
 31
0.0
  0
LINE
  5
E8
  8
0
  6
CONTINUOUS
 62
     7
 10
942.9983621755572
 20
1980.239928679804
 30
0.0
 11
942.7983621755573
 21
1980.439928679804
 31
0.0
  0
LINE
  5
E9
  8
0
  6
CONTINUOUS
 62
     7
 10
942.7983621755573
 20
1980.439928679804
 30
0.0
 11
942.798362175557
 21
2000.439928679804
 31
0.0
  0
LINE
  5
EA
  8
0
  6
CONTINUOUS
 62
     7
 10
942.9983621755572
 20
1980.239928679804
 30
0.0
 11
941.3983621755572
 21
1980.239928679804
 31
0.0
  0
LINE
  5
EB
  8
0
  6
CONTINUOUS
 62
     7
 10
941.3983621755572
 20
1980.239928679804
 30
0.0
 11
941.3983621755572
 21
1980.439928679804
 31
0.0
  0
LINE
  5
EC
  8
0
  6
CONTINUOUS
 62
     7
 10
941.3983621755572
 20
1980.439928679804
 30
0.0
 11
942.7983621755573
 21
1980.439928679804
 31
0.0
  0
ARC
  5
ED
  8
0
  6
CONTINUOUS
 62
     7
 10
941.3983621755572
 20
1980.439928679804
 30
0.0
 40
0.2000000000000455
 50
180.0
 51
270.0000000000008
  0
ARC
  5
EE
  8
0
  6
CONTINUOUS
 62
     7
 10
952.5815484055764
 20
2003.239928679804
 30
0.0
 40
1.2000000000005
 50
270.0000000000008
 51
355.0300534053011
  0
LINE
  5
EF
  8
0
  6
CONTINUOUS
 62
     7
 10
954.6182253565206
 20
2012.809235236529
 30
0.0
 11
953.7770367378862
 21
2003.135968844716
 31
0.0
  0
ARC
  5
F0
  8
0
  6
CONTINUOUS
 62
     7
 10
955.4152175780604
 20
2012.739928679804
 30
0.0
 40
0.8000000000001488
 50
80.42341151894638
 51
175.0300534052891
  0
ARC
  5
F1
  8
0
  6
CONTINUOUS
 62
     7
 10
955.4984005014852
 20
2013.232960728712
 30
0.0
 40
0.2999999999998431
 50
43.62165296723961
 51
80.42341151895877
  0
LINE
  5
F2
  8
0
  6
CONTINUOUS
 62
     7
 10
955.2983621755569
 20
2013.439928679804
 30
0.0
 11
955.7155738590151
 21
2013.439928679804
 31
0.0
  0
LINE
  5
F3
  8
0
  6
CONTINUOUS
 62
     7
 10
955.2983621755569
 20
2000.439928679804
 30
0.0
 11
955.2983621755569
 21
2013.439928679804
 31
0.0
  0
LINE
  5
F4
  8
0
  6
CONTINUOUS
 62
     7
 10
953.7770367378862
 20
2003.135968844716
 30
0.0
 11
953.5777886825013
 21
2003.153295483898
 31
0.0
  0
LINE
  5
F5
  8
0
  6
CONTINUOUS
 62
     7
 10
953.5777886825013
 20
2003.153295483898
 30
0.0
 11
954.4189773011357
 21
2012.82656187571
 31
0.0
  0
LINE
  5
F6
  8
0
  6
CONTINUOUS
 62
     7
 10
954.6182253565206
 20
2012.809235236529
 30
0.0
 11
954.4189773011357
 21
2012.82656187571
 31
0.0
  0
ARC
  5
F7
  8
0
  6
CONTINUOUS
 62
     7
 10
952.5815484055764
 20
2003.239928679804
 30
0.0
 40
1.000000000000455
 50
270.0000000000008
 51
355.0300534052969
  0
ARC
  5
F8
  8
0
  6
CONTINUOUS
 62
     7
 10
955.4152175780604
 20
2012.739928679804
 30
0.0
 40
1.000000000000368
 50
80.42341151894318
 51
175.0300534052955
  0
LINE
  5
F9
  8
0
  6
CONTINUOUS
 62
     7
 10
955.54831025554
 20
2013.528779958057
 30
0.0
 11
955.5815834249099
 21
2013.72599277762
 31
0.0
  0
LINE
  5
FA
  8
0
  6
CONTINUOUS
 62
     7
 10
955.498362175557
 20
2013.239928679804
 30
0.0
 11
955.2983621755569
 21
2013.439928679804
 31
0.0
  0
POLYLINE
  5
FB
  8
0
  6
CONTINUOUS
 62
     7
 66
     1
 10
0.0
 20
0.0
 30
0.0
  0
VERTEX
  5
57A
  8
0
  6
CONTINUOUS
 62
     7
 10
955.7155738590151
 20
2013.439928679804
 30
0.0
  0
VERTEX
  5
57B
  8
0
  6
CONTINUOUS
 62
     7
 10
955.7219253189286
 20
2013.437170747626
 30
0.0
  0
VERTEX
  5
57C
  8
0
  6
CONTINUOUS
 62
     7
 10
955.728253380254
 20
2013.434344307878
 30
0.0
  0
VERTEX
  5
57D
  8
0
  6
CONTINUOUS
 62
     7
 10
955.7345560588221
 20
2013.431448520714
 30
0.0
  0
VERTEX
  5
57E
  8
0
  6
CONTINUOUS
 62
     7
 10
955.7408322619572
 20
2013.428485363331
 30
0.0
  0
VERTEX
  5
57F
  8
0
  6
CONTINUOUS
 62
     7
 10
955.7470808969815
 20
2013.425456812922
 30
0.0
  0
VERTEX
  5
580
  8
0
  6
CONTINUOUS
 62
     7
 10
955.7533008712196
 20
2013.422364846683
 30
0.0
  0
VERTEX
  5
581
  8
0
  6
CONTINUOUS
 62
     7
 10
955.7594910919947
 20
2013.419211441808
 30
0.0
  0
VERTEX
  5
582
  8
0
  6
CONTINUOUS
 62
     7
 10
955.7656504666304
 20
2013.415998575493
 30
0.0
  0
VERTEX
  5
583
  8
0
  6
CONTINUOUS
 62
     7
 10
955.7717779024501
 20
2013.412728224932
 30
0.0
  0
VERTEX
  5
584
  8
0
  6
CONTINUOUS
 62
     7
 10
955.7778723067775
 20
2013.409402367321
 30
0.0
  0
VERTEX
  5
585
  8
0
  6
CONTINUOUS
 62
     7
 10
955.7839325869361
 20
2013.406022979854
 30
0.0
  0
VERTEX
  5
586
  8
0
  6
CONTINUOUS
 62
     7
 10
955.7899576502493
 20
2013.402592039726
 30
0.0
  0
VERTEX
  5
587
  8
0
  6
CONTINUOUS
 62
     7
 10
955.7959464040408
 20
2013.399111524132
 30
0.0
  0
VERTEX
  5
588
  8
0
  6
CONTINUOUS
 62
     7
 10
955.8018977556342
 20
2013.395583410268
 30
0.0
  0
VERTEX
  5
589
  8
0
  6
CONTINUOUS
 62
     7
 10
955.8078106123529
 20
2013.392009675328
 30
0.0
  0
VERTEX
  5
58A
  8
0
  6
CONTINUOUS
 62
     7
 10
955.8136838815202
 20
2013.388392296506
 30
0.0
  0
VERTEX
  5
58B
  8
0
  6
CONTINUOUS
 62
     7
 10
955.8195164704599
 20
2013.384733250999
 30
0.0
  0
VERTEX
  5
58C
  8
0
  6
CONTINUOUS
 62
     7
 10
955.8253072864958
 20
2013.381034516
 30
0.0
  0
VERTEX
  5
58D
  8
0
  6
CONTINUOUS
 62
     7
 10
955.8310552369512
 20
2013.377298068706
 30
0.0
  0
VERTEX
  5
58E
  8
0
  6
CONTINUOUS
 62
     7
 10
955.8367592291495
 20
2013.37352588631
 30
0.0
  0
VERTEX
  5
58F
  8
0
  6
CONTINUOUS
 62
     7
 10
955.8424181704145
 20
2013.369719946007
 30
0.0
  0
VERTEX
  5
590
  8
0
  6
CONTINUOUS
 62
     7
 10
955.8480309680693
 20
2013.365882224994
 30
0.0
  0
VERTEX
  5
591
  8
0
  6
CONTINUOUS
 62
     7
 10
955.8535965294377
 20
2013.362014700463
 30
0.0
  0
VERTEX
  5
592
  8
0
  6
CONTINUOUS
 62
     7
 10
955.8591137618433
 20
2013.358119349611
 30
0.0
  0
VERTEX
  5
593
  8
0
  6
CONTINUOUS
 62
     7
 10
955.8645815128629
 20
2013.354198227457
 30
0.0
  0
VERTEX
  5
594
  8
0
  6
CONTINUOUS
 62
     7
 10
955.8699975710624
 20
2013.350254768417
 30
0.0
  0
VERTEX
  5
595
  8
0
  6
CONTINUOUS
 62
     7
 10
955.8753588161725
 20
2013.34629359071
 30
0.0
  0
VERTEX
  5
596
  8
0
  6
CONTINUOUS
 62
     7
 10
955.8806620984309
 20
2013.342319350964
 30
0.0
  0
VERTEX
  5
597
  8
0
  6
CONTINUOUS
 62
     7
 10
955.8859042680764
 20
2013.338336705812
 30
0.0
  0
VERTEX
  5
598
  8
0
  6
CONTINUOUS
 62
     7
 10
955.891082175346
 20
2013.334350311881
 30
0.0
  0
VERTEX
  5
599
  8
0
  6
CONTINUOUS
 62
     7
 10
955.896192670478
 20
2013.330364825802
 30
0.0
  0
VERTEX
  5
59A
  8
0
  6
CONTINUOUS
 62
     7
 10
955.9012326037105
 20
2013.326384904207
 30
0.0
  0
VERTEX
  5
59B
  8
0
  6
CONTINUOUS
 62
     7
 10
955.9061988252813
 20
2013.322415203725
 30
0.0
  0
VERTEX
  5
59C
  8
0
  6
CONTINUOUS
 62
     7
 10
955.9110881854282
 20
2013.318460380985
 30
0.0
  0
VERTEX
  5
59D
  8
0
  6
CONTINUOUS
 62
     7
 10
955.9158975343894
 20
2013.314525092619
 30
0.0
  0
VERTEX
  5
59E
  8
0
  6
CONTINUOUS
 62
     7
 10
955.9206237224032
 20
2013.310613995257
 30
0.0
  0
VERTEX
  5
59F
  8
0
  6
CONTINUOUS
 62
     7
 10
955.9252635997068
 20
2013.306731745529
 30
0.0
  0
VERTEX
  5
5A0
  8
0
  6
CONTINUOUS
 62
     7
 10
955.9298140165387
 20
2013.302883000065
 30
0.0
  0
VERTEX
  5
5A1
  8
0
  6
CONTINUOUS
 62
     7
 10
955.9342718222591
 20
2013.299072416807
 30
0.0
  0
VERTEX
  5
5A2
  8
0
  6
CONTINUOUS
 62
     7
 10
955.938633486885
 20
2013.295305220987
 30
0.0
  0
VERTEX
  5
5A3
  8
0
  6
CONTINUOUS
 62
     7
 10
955.9428945104606
 20
2013.291588088377
 30
0.0
  0
VERTEX
  5
5A4
  8
0
  6
CONTINUOUS
 62
     7
 10
955.9470502402083
 20
2013.287927923286
 30
0.0
  0
VERTEX
  5
5A5
  8
0
  6
CONTINUOUS
 62
     7
 10
955.9510960233508
 20
2013.284331630025
 30
0.0
  0
VERTEX
  5
5A6
  8
0
  6
CONTINUOUS
 62
     7
 10
955.9550272071103
 20
2013.280806112902
 30
0.0
  0
VERTEX
  5
5A7
  8
0
  6
CONTINUOUS
 62
     7
 10
955.958839138709
 20
2013.277358276228
 30
0.0
  0
VERTEX
  5
5A8
  8
0
  6
CONTINUOUS
 62
     7
 10
955.9625271653701
 20
2013.273995024312
 30
0.0
  0
VERTEX
  5
5A9
  8
0
  6
CONTINUOUS
 62
     7
 10
955.9660866343154
 20
2013.270723261464
 30
0.0
  0
VERTEX
  5
5AA
  8
0
  6
CONTINUOUS
 62
     7
 10
955.9695128927676
 20
2013.267549891993
 30
0.0
  0
VERTEX
  5
5AB
  8
0
  6
CONTINUOUS
 62
     7
 10
955.9728012879395
 20
2013.264481820219
 30
0.0
  0
VERTEX
  5
5AC
  8
0
  6
CONTINUOUS
 62
     7
 10
955.9759446576605
 20
2013.26152850206
 30
0.0
  0
VERTEX
  5
5AD
  8
0
  6
CONTINUOUS
 62
     7
 10
955.9789262690014
 20
2013.258709125201
 30
0.0
  0
VERTEX
  5
5AE
  8
0
  6
CONTINUOUS
 62
     7
 10
955.9817271076603
 20
2013.256045197083
 30
0.0
  0
VERTEX
  5
5AF
  8
0
  6
CONTINUOUS
 62
     7
 10
955.9843281593347
 20
2013.253558225142
 30
0.0
  0
VERTEX
  5
5B0
  8
0
  6
CONTINUOUS
 62
     7
 10
955.9867104097224
 20
2013.251269716819
 30
0.0
  0
VERTEX
  5
5B1
  8
0
  6
CONTINUOUS
 62
     7
 10
955.9888548445209
 20
2013.249201179551
 30
0.0
  0
VERTEX
  5
5B2
  8
0
  6
CONTINUOUS
 62
     7
 10
955.9907424494277
 20
2013.247374120778
 30
0.0
  0
VERTEX
  5
5B3
  8
0
  6
CONTINUOUS
 62
     7
 10
955.9923555628818
 20
2013.245808672796
 30
0.0
  0
VERTEX
  5
5B4
  8
0
  6
CONTINUOUS
 62
     7
 10
955.9937045767016
 20
2013.244496449969
 30
0.0
  0
VERTEX
  5
5B5
  8
0
  6
CONTINUOUS
 62
     7
 10
955.99482633473
 20
2013.243402176601
 30
0.0
  0
VERTEX
  5
5B6
  8
0
  6
CONTINUOUS
 62
     7
 10
955.9957587129327
 20
2013.242489527782
 30
0.0
  0
VERTEX
  5
5B7
  8
0
  6
CONTINUOUS
 62
     7
 10
955.996539587274
 20
2013.241722178603
 30
0.0
  0
VERTEX
  5
5B8
  8
0
  6
CONTINUOUS
 62
     7
 10
955.9972068337197
 20
2013.241063804154
 30
0.0
  0
VERTEX
  5
5B9
  8
0
  6
CONTINUOUS
 62
     7
 10
955.9977983282351
 20
2013.240478079524
 30
0.0
  0
VERTEX
  5
5BA
  8
0
  6
CONTINUOUS
 62
     7
 10
955.9983519467852
 20
2013.239928679804
 30
0.0
  0
SEQEND
  5
70A
  8
0
  6
CONTINUOUS
 62
     7
  0
ARC
  5
FC
  8
0
  6
CONTINUOUS
 62
     7
 10
955.4984005014852
 20
2013.232960728712
 30
0.0
 40
0.5000000000000626
 50
0.7984942260975312
 51
80.42341151894743
  0
LINE
  5
FD
  8
0
  6
CONTINUOUS
 62
     7
 10
940.9983621755567
 20
1996.739928679804
 30
0.0
 11
940.9983621755567
 21
1635.239928679804
 31
0.0
  0
LINE
  5
FE
  8
0
  6
CONTINUOUS
 62
     7
 10
360.9983621755568
 20
1996.739928679804
 30
0.0
 11
360.9983621755568
 21
1635.239928679804
 31
0.0
  0
LINE
  5
FF
  8
0
  6
CONTINUOUS
 62
     7
 10
940.9983621755567
 20
1635.239928679804
 30
0.0
 11
360.9983621755568
 21
1635.239928679804
 31
0.0
  0
LINE
  5
100
  8
0
  6
CONTINUOUS
 62
     8
 10
941.398362175557
 20
1996.739928679804
 30
0.0
 11
941.3983621755572
 21
1980.439928679804
 31
0.0
  0
ARC
  5
101
  8
0
  6
CONTINUOUS
 62
     8
 10
942.198362175557
 20
2001.239928679804
 30
0.0
 40
0.7999999999999035
 50
90.0
 51
151.0449756281762
  0
LINE
  5
102
  8
0
  6
CONTINUOUS
 62
     7
 10
3057.540061954228
 20
2698.825958466598
 30
0.0
 11
2461.540061954228
 21
2698.825958466598
 31
0.0
  0
LINE
  5
103
  8
0
  6
CONTINUOUS
 62
     7
 10
3057.540061954228
 20
2698.825958466598
 30
0.0
 11
3057.540061954228
 21
2702.608746782827
 31
0.0
  0
LINE
  5
104
  8
0
  6
CONTINUOUS
 62
     7
 10
2461.540061954228
 20
2698.825958466598
 30
0.0
 11
2461.540061954228
 21
2702.60874678314
 31
0.0
  0
LINE
  5
105
  8
0
  6
CONTINUOUS
 62
     7
 10
2459.040061954228
 20
2698.825958466598
 30
0.0
 11
1863.040061954228
 21
2698.825958466598
 31
0.0
  0
LINE
  5
106
  8
0
  6
CONTINUOUS
 62
     7
 10
2459.040061954228
 20
2698.825958466598
 30
0.0
 11
2459.040061954228
 21
2702.608746782983
 31
0.0
  0
LINE
  5
107
  8
0
  6
CONTINUOUS
 62
     7
 10
1863.040061954228
 20
2698.825958466598
 30
0.0
 11
1863.040061954228
 21
2702.608746783122
 31
0.0
  0
LINE
  5
108
  8
0
  6
CONTINUOUS
 62
     7
 10
3062.790061954228
 20
3297.325958466598
 30
0.0
 11
3062.790061954228
 21
2716.825958466598
 31
0.0
  0
LINE
  5
109
  8
0
  6
CONTINUOUS
 62
     7
 10
3062.790061954228
 20
2716.825958466598
 30
0.0
 11
1857.790061954229
 21
2716.825958466598
 31
0.0
  0
LINE
  5
10A
  8
0
  6
CONTINUOUS
 62
     7
 10
3062.790061954228
 20
3297.325958466598
 30
0.0
 11
1857.790061954229
 21
3297.325958466598
 31
0.0
  0
LINE
  5
10B
  8
0
  6
CONTINUOUS
 62
     7
 10
1857.790061954229
 20
3297.325958466598
 30
0.0
 11
1857.790061954229
 21
2716.825958466598
 31
0.0
  0
LINE
  5
10C
  8
0
  6
CONTINUOUS
 62
     7
 10
3057.540061954229
 20
2703.706095285634
 30
0.0
 11
3057.540061954229
 21
2702.776010386615
 31
0.0
  0
ARC
  5
10D
  8
0
  6
CONTINUOUS
 62
     7
 10
3057.388678074478
 20
2703.068234549033
 30
0.0
 40
0.32910794604432
 50
261.505127908467
 51
297.3859751205013
  0
LINE
  5
10E
  8
0
  6
CONTINUOUS
 62
     7
 10
3057.340061954229
 20
2702.742737217245
 30
0.0
 11
3057.340061954229
 21
2703.905343341019
 31
0.0
  0
ARC
  5
10F
  8
0
  6
CONTINUOUS
 62
     7
 10
3057.34043721976
 20
2703.705718603883
 30
0.0
 40
0.1996250898580354
 50
0.1081141021130805
 51
90.10770762237557
  0
LINE
  5
110
  8
0
  6
CONTINUOUS
 62
     7
 10
3057.340061954229
 20
2703.905343341019
 30
0.0
 11
3056.540061954228
 21
2703.905343341019
 31
0.0
  0
LINE
  5
111
  8
0
  6
CONTINUOUS
 62
     7
 10
3057.340061954229
 20
2702.742737217245
 30
0.0
 11
3056.540061954228
 21
2702.742737217245
 31
0.0
  0
LINE
  5
112
  8
0
  6
CONTINUOUS
 62
     7
 10
3056.540061954228
 20
2703.905343341019
 30
0.0
 11
3056.540061954228
 21
2702.742737217245
 31
0.0
  0
LINE
  5
113
  8
0
  6
CONTINUOUS
 62
     7
 10
3057.340061954229
 20
2702.32596869537
 30
0.0
 11
3057.340061954229
 21
2702.742737217245
 31
0.0
  0
LINE
  5
114
  8
0
  6
CONTINUOUS
 62
     7
 10
3057.340061954229
 20
2702.32596869537
 30
0.0
 11
3056.540061954228
 21
2702.32596869537
 31
0.0
  0
LINE
  5
115
  8
0
  6
CONTINUOUS
 62
     7
 10
3056.540061954228
 20
2702.742737217245
 30
0.0
 11
3056.540061954228
 21
2702.32596869537
 31
0.0
  0
LINE
  5
116
  8
0
  6
CONTINUOUS
 62
     7
 10
3057.540061954229
 20
2702.776010386615
 30
0.0
 11
3057.540061954229
 21
2702.60874678314
 31
0.0
  0
POLYLINE
  5
117
  8
0
  6
CONTINUOUS
 62
     7
 66
     1
 10
0.0
 20
0.0
 30
0.0
  0
VERTEX
  5
5BB
  8
0
  6
CONTINUOUS
 62
     7
 10
3057.540061954229
 20
2702.60874678314
 30
0.0
  0
VERTEX
  5
5BC
  8
0
  6
CONTINUOUS
 62
     7
 10
3057.540044517466
 20
2702.602395323226
 30
0.0
  0
VERTEX
  5
5BD
  8
0
  6
CONTINUOUS
 62
     7
 10
3057.539988719702
 20
2702.596067261901
 30
0.0
  0
VERTEX
  5
5BE
  8
0
  6
CONTINUOUS
 62
     7
 10
3057.539890118112
 20
2702.589764583332
 30
0.0
  0
VERTEX
  5
5BF
  8
0
  6
CONTINUOUS
 62
     7
 10
3057.539745681902
 20
2702.583488380197
 30
0.0
  0
VERTEX
  5
5C0
  8
0
  6
CONTINUOUS
 62
     7
 10
3057.539552380279
 20
2702.577239745173
 30
0.0
  0
VERTEX
  5
5C1
  8
0
  6
CONTINUOUS
 62
     7
 10
3057.539307182448
 20
2702.571019770934
 30
0.0
  0
VERTEX
  5
5C2
  8
0
  6
CONTINUOUS
 62
     7
 10
3057.539007057618
 20
2702.564829550159
 30
0.0
  0
VERTEX
  5
5C3
  8
0
  6
CONTINUOUS
 62
     7
 10
3057.538648974991
 20
2702.558670175523
 30
0.0
  0
VERTEX
  5
5C4
  8
0
  6
CONTINUOUS
 62
     7
 10
3057.538229903776
 20
2702.552542739704
 30
0.0
  0
VERTEX
  5
5C5
  8
0
  6
CONTINUOUS
 62
     7
 10
3057.537746813179
 20
2702.546448335377
 30
0.0
  0
VERTEX
  5
5C6
  8
0
  6
CONTINUOUS
 62
     7
 10
3057.537196672405
 20
2702.540388055217
 30
0.0
  0
VERTEX
  5
5C7
  8
0
  6
CONTINUOUS
 62
     7
 10
3057.536576450662
 20
2702.534362991905
 30
0.0
  0
VERTEX
  5
5C8
  8
0
  6
CONTINUOUS
 62
     7
 10
3057.535883117154
 20
2702.528374238113
 30
0.0
  0
VERTEX
  5
5C9
  8
0
  6
CONTINUOUS
 62
     7
 10
3057.535113641089
 20
2702.52242288652
 30
0.0
  0
VERTEX
  5
5CA
  8
0
  6
CONTINUOUS
 62
     7
 10
3057.534264991672
 20
2702.516510029801
 30
0.0
  0
VERTEX
  5
5CB
  8
0
  6
CONTINUOUS
 62
     7
 10
3057.533334138109
 20
2702.510636760634
 30
0.0
  0
VERTEX
  5
5CC
  8
0
  6
CONTINUOUS
 62
     7
 10
3057.532318049607
 20
2702.504804171694
 30
0.0
  0
VERTEX
  5
5CD
  8
0
  6
CONTINUOUS
 62
     7
 10
3057.531213695373
 20
2702.499013355659
 30
0.0
  0
VERTEX
  5
5CE
  8
0
  6
CONTINUOUS
 62
     7
 10
3057.530018044611
 20
2702.493265405204
 30
0.0
  0
VERTEX
  5
5CF
  8
0
  6
CONTINUOUS
 62
     7
 10
3057.528728066529
 20
2702.487561413005
 30
0.0
  0
VERTEX
  5
5D0
  8
0
  6
CONTINUOUS
 62
     7
 10
3057.527340730333
 20
2702.48190247174
 30
0.0
  0
VERTEX
  5
5D1
  8
0
  6
CONTINUOUS
 62
     7
 10
3057.525853005228
 20
2702.476289674085
 30
0.0
  0
VERTEX
  5
5D2
  8
0
  6
CONTINUOUS
 62
     7
 10
3057.52426186042
 20
2702.470724112717
 30
0.0
  0
VERTEX
  5
5D3
  8
0
  6
CONTINUOUS
 62
     7
 10
3057.522564265117
 20
2702.465206880311
 30
0.0
  0
VERTEX
  5
5D4
  8
0
  6
CONTINUOUS
 62
     7
 10
3057.520757175968
 20
2702.459739129292
 30
0.0
  0
VERTEX
  5
5D5
  8
0
  6
CONTINUOUS
 62
     7
 10
3057.51883732706
 20
2702.454323071092
 30
0.0
  0
VERTEX
  5
5D6
  8
0
  6
CONTINUOUS
 62
     7
 10
3057.516801261479
 20
2702.448961825983
 30
0.0
  0
VERTEX
  5
5D7
  8
0
  6
CONTINUOUS
 62
     7
 10
3057.514645516113
 20
2702.443658543724
 30
0.0
  0
VERTEX
  5
5D8
  8
0
  6
CONTINUOUS
 62
     7
 10
3057.51236662785
 20
2702.438416374079
 30
0.0
  0
VERTEX
  5
5D9
  8
0
  6
CONTINUOUS
 62
     7
 10
3057.509961133577
 20
2702.433238466809
 30
0.0
  0
VERTEX
  5
5DA
  8
0
  6
CONTINUOUS
 62
     7
 10
3057.507425570181
 20
2702.428127971677
 30
0.0
  0
VERTEX
  5
5DB
  8
0
  6
CONTINUOUS
 62
     7
 10
3057.504756474551
 20
2702.423088038445
 30
0.0
  0
VERTEX
  5
5DC
  8
0
  6
CONTINUOUS
 62
     7
 10
3057.501950383575
 20
2702.418121816875
 30
0.0
  0
VERTEX
  5
5DD
  8
0
  6
CONTINUOUS
 62
     7
 10
3057.499003834139
 20
2702.413232456727
 30
0.0
  0
VERTEX
  5
5DE
  8
0
  6
CONTINUOUS
 62
     7
 10
3057.495913363133
 20
2702.408423107766
 30
0.0
  0
VERTEX
  5
5DF
  8
0
  6
CONTINUOUS
 62
     7
 10
3057.492675507443
 20
2702.403696919752
 30
0.0
  0
VERTEX
  5
5E0
  8
0
  6
CONTINUOUS
 62
     7
 10
3057.489286803957
 20
2702.399057042448
 30
0.0
  0
VERTEX
  5
5E1
  8
0
  6
CONTINUOUS
 62
     7
 10
3057.485743789562
 20
2702.394506625617
 30
0.0
  0
VERTEX
  5
5E2
  8
0
  6
CONTINUOUS
 62
     7
 10
3057.482043002755
 20
2702.390048819896
 30
0.0
  0
VERTEX
  5
5E3
  8
0
  6
CONTINUOUS
 62
     7
 10
3057.478181676885
 20
2702.38568715527
 30
0.0
  0
VERTEX
  5
5E4
  8
0
  6
CONTINUOUS
 62
     7
 10
3057.474158822024
 20
2702.381426131695
 30
0.0
  0
VERTEX
  5
5E5
  8
0
  6
CONTINUOUS
 62
     7
 10
3057.469973728175
 20
2702.377270401947
 30
0.0
  0
VERTEX
  5
5E6
  8
0
  6
CONTINUOUS
 62
     7
 10
3057.465625685342
 20
2702.373224618805
 30
0.0
  0
VERTEX
  5
5E7
  8
0
  6
CONTINUOUS
 62
     7
 10
3057.461113983525
 20
2702.369293435045
 30
0.0
  0
VERTEX
  5
5E8
  8
0
  6
CONTINUOUS
 62
     7
 10
3057.456437912729
 20
2702.365481503446
 30
0.0
  0
VERTEX
  5
5E9
  8
0
  6
CONTINUOUS
 62
     7
 10
3057.451596762953
 20
2702.361793476784
 30
0.0
  0
VERTEX
  5
5EA
  8
0
  6
CONTINUOUS
 62
     7
 10
3057.446589824201
 20
2702.35823400784
 30
0.0
  0
VERTEX
  5
5EB
  8
0
  6
CONTINUOUS
 62
     7
 10
3057.441416386475
 20
2702.354807749387
 30
0.0
  0
VERTEX
  5
5EC
  8
0
  6
CONTINUOUS
 62
     7
 10
3057.436075739782
 20
2702.351519354215
 30
0.0
  0
VERTEX
  5
5ED
  8
0
  6
CONTINUOUS
 62
     7
 10
3057.430568397634
 20
2702.348375984495
 30
0.0
  0
VERTEX
  5
5EE
  8
0
  6
CONTINUOUS
 62
     7
 10
3057.424899539976
 20
2702.345394373153
 30
0.0
  0
VERTEX
  5
5EF
  8
0
  6
CONTINUOUS
 62
     7
 10
3057.419075459091
 20
2702.342593534494
 30
0.0
  0
VERTEX
  5
5F0
  8
0
  6
CONTINUOUS
 62
     7
 10
3057.413102447259
 20
2702.33999248282
 30
0.0
  0
VERTEX
  5
5F1
  8
0
  6
CONTINUOUS
 62
     7
 10
3057.40698679676
 20
2702.337610232432
 30
0.0
  0
VERTEX
  5
5F2
  8
0
  6
CONTINUOUS
 62
     7
 10
3057.400734799873
 20
2702.335465797634
 30
0.0
  0
VERTEX
  5
5F3
  8
0
  6
CONTINUOUS
 62
     7
 10
3057.394352748881
 20
2702.333578192728
 30
0.0
  0
VERTEX
  5
5F4
  8
0
  6
CONTINUOUS
 62
     7
 10
3057.387847168149
 20
2702.331965079273
 30
0.0
  0
VERTEX
  5
5F5
  8
0
  6
CONTINUOUS
 62
     7
 10
3057.381229395078
 20
2702.330616065453
 30
0.0
  0
VERTEX
  5
5F6
  8
0
  6
CONTINUOUS
 62
     7
 10
3057.374515305364
 20
2702.329494307425
 30
0.0
  0
VERTEX
  5
5F7
  8
0
  6
CONTINUOUS
 62
     7
 10
3057.36772095178
 20
2702.328561929222
 30
0.0
  0
VERTEX
  5
5F8
  8
0
  6
CONTINUOUS
 62
     7
 10
3057.3608623871
 20
2702.327781054881
 30
0.0
  0
VERTEX
  5
5F9
  8
0
  6
CONTINUOUS
 62
     7
 10
3057.353955664099
 20
2702.327113808435
 30
0.0
  0
VERTEX
  5
5FA
  8
0
  6
CONTINUOUS
 62
     7
 10
3057.347016835551
 20
2702.32652231392
 30
0.0
  0
VERTEX
  5
5FB
  8
0
  6
CONTINUOUS
 62
     7
 10
3057.340061954229
 20
2702.32596869537
 30
0.0
  0
SEQEND
  5
70B
  8
0
  6
CONTINUOUS
 62
     7
  0
LINE
  5
118
  8
0
  6
CONTINUOUS
 62
     7
 10
3057.340061954229
 20
2703.905343341019
 30
0.0
 11
3057.340061954229
 21
2704.746531959654
 31
0.0
  0
ARC
  5
119
  8
0
  6
CONTINUOUS
 62
     7
 10
3057.34043721976
 20
2704.546907222518
 30
0.0
 40
0.1996250898580346
 50
0.1081141019825606
 51
90.10770762237581
  0
LINE
  5
11A
  8
0
  6
CONTINUOUS
 62
     7
 10
3057.540061954229
 20
2704.547283904269
 30
0.0
 11
3057.540061954229
 21
2703.706095285634
 31
0.0
  0
LINE
  5
11B
  8
0
  6
CONTINUOUS
 62
     7
 10
3057.340061954229
 20
2704.746531959654
 30
0.0
 11
3056.540061954228
 21
2704.746531959654
 31
0.0
  0
LINE
  5
11C
  8
0
  6
CONTINUOUS
 62
     7
 10
3056.540061954228
 20
2704.746531959654
 30
0.0
 11
3056.540061954228
 21
2703.905343341019
 31
0.0
  0
LINE
  5
11D
  8
0
  6
CONTINUOUS
 62
     7
 10
3056.540061954228
 20
2705.742772236579
 30
0.0
 11
3057.340061954229
 21
2705.742772236579
 31
0.0
  0
LINE
  5
11E
  8
0
  6
CONTINUOUS
 62
     7
 10
3057.340061954229
 20
2704.746531959654
 30
0.0
 11
3057.340061954229
 21
2705.742772236579
 31
0.0
  0
LINE
  5
11F
  8
0
  6
CONTINUOUS
 62
     7
 10
3056.540061954228
 20
2705.742772236579
 30
0.0
 11
3056.540061954228
 21
2704.746531959654
 31
0.0
  0
LINE
  5
120
  8
0
  6
CONTINUOUS
 62
     7
 10
3057.340061954229
 20
2705.742772236579
 30
0.0
 11
3057.540061954229
 21
2705.742772236579
 31
0.0
  0
LINE
  5
121
  8
0
  6
CONTINUOUS
 62
     7
 10
3057.540061954229
 20
2705.742772236579
 30
0.0
 11
3057.540061954229
 21
2704.547283904269
 31
0.0
  0
LINE
  5
122
  8
0
  6
CONTINUOUS
 62
     7
 10
3057.340061954229
 20
2705.742772236579
 30
0.0
 11
3057.340061954229
 21
2716.125958466598
 31
0.0
  0
LINE
  5
123
  8
0
  6
CONTINUOUS
 62
     7
 10
3057.340061954229
 20
2716.125958466598
 30
0.0
 11
3057.540061954229
 21
2716.125958466598
 31
0.0
  0
LINE
  5
124
  8
0
  6
CONTINUOUS
 62
     7
 10
3057.540061954229
 20
2716.125958466598
 30
0.0
 11
3057.540061954229
 21
2705.742772236579
 31
0.0
  0
LINE
  5
125
  8
0
  6
CONTINUOUS
 62
     7
 10
3057.340061954229
 20
2716.125958466598
 30
0.0
 11
3056.540061954228
 21
2716.125958466598
 31
0.0
  0
LINE
  5
126
  8
0
  6
CONTINUOUS
 62
     7
 10
3056.540061954228
 20
2716.125958466598
 30
0.0
 11
3056.540061954228
 21
2705.742772236579
 31
0.0
  0
LINE
  5
127
  8
0
  6
CONTINUOUS
 62
     7
 10
3057.540061954229
 20
2716.825958466598
 30
0.0
 11
3057.540061954229
 21
2716.125958466598
 31
0.0
  0
LINE
  5
128
  8
0
  6
CONTINUOUS
 62
     7
 10
3056.540061954228
 20
2716.125958466598
 30
0.0
 11
3056.540061954228
 21
2716.825958466598
 31
0.0
  0
LINE
  5
129
  8
0
  6
CONTINUOUS
 62
     7
 10
2458.840061954229
 20
2703.905343341019
 30
0.0
 11
2458.040061954228
 21
2703.905343341019
 31
0.0
  0
LINE
  5
12A
  8
0
  6
CONTINUOUS
 62
     7
 10
2458.840061954229
 20
2702.742737217245
 30
0.0
 11
2458.840061954229
 21
2703.905343341019
 31
0.0
  0
LINE
  5
12B
  8
0
  6
CONTINUOUS
 62
     7
 10
2458.840061954229
 20
2702.742737217245
 30
0.0
 11
2458.040061954228
 21
2702.742737217245
 31
0.0
  0
LINE
  5
12C
  8
0
  6
CONTINUOUS
 62
     7
 10
2458.040061954228
 20
2703.905343341019
 30
0.0
 11
2458.040061954228
 21
2702.742737217245
 31
0.0
  0
LINE
  5
12D
  8
0
  6
CONTINUOUS
 62
     7
 10
2459.040061954228
 20
2703.706095285634
 30
0.0
 11
2459.040061954228
 21
2702.776010386615
 31
0.0
  0
ARC
  5
12E
  8
0
  6
CONTINUOUS
 62
     7
 10
2458.888678074479
 20
2703.068234549023
 30
0.0
 40
0.3291079460341964
 50
261.5051279079631
 51
297.3859751210576
  0
ARC
  5
12F
  8
0
  6
CONTINUOUS
 62
     7
 10
2458.84043721976
 20
2703.705718603884
 30
0.0
 40
0.1996250898575798
 50
0.1081141019828069
 51
90.10770762237581
  0
LINE
  5
130
  8
0
  6
CONTINUOUS
 62
     7
 10
2459.040061954228
 20
2702.776010386615
 30
0.0
 11
2459.040061954228
 21
2702.608746783139
 31
0.0
  0
POLYLINE
  5
131
  8
0
  6
CONTINUOUS
 62
     7
 66
     1
 10
0.0
 20
0.0
 30
0.0
  0
VERTEX
  5
5FC
  8
0
  6
CONTINUOUS
 62
     7
 10
2459.040061954228
 20
2702.608746783139
 30
0.0
  0
VERTEX
  5
5FD
  8
0
  6
CONTINUOUS
 62
     7
 10
2459.040044517466
 20
2702.602395323226
 30
0.0
  0
VERTEX
  5
5FE
  8
0
  6
CONTINUOUS
 62
     7
 10
2459.039988719702
 20
2702.5960672619
 30
0.0
  0
VERTEX
  5
5FF
  8
0
  6
CONTINUOUS
 62
     7
 10
2459.039890118112
 20
2702.589764583332
 30
0.0
  0
VERTEX
  5
600
  8
0
  6
CONTINUOUS
 62
     7
 10
2459.039745681903
 20
2702.583488380197
 30
0.0
  0
VERTEX
  5
601
  8
0
  6
CONTINUOUS
 62
     7
 10
2459.039552380279
 20
2702.577239745173
 30
0.0
  0
VERTEX
  5
602
  8
0
  6
CONTINUOUS
 62
     7
 10
2459.03930718245
 20
2702.571019770934
 30
0.0
  0
VERTEX
  5
603
  8
0
  6
CONTINUOUS
 62
     7
 10
2459.039007057619
 20
2702.564829550159
 30
0.0
  0
VERTEX
  5
604
  8
0
  6
CONTINUOUS
 62
     7
 10
2459.038648974992
 20
2702.558670175523
 30
0.0
  0
VERTEX
  5
605
  8
0
  6
CONTINUOUS
 62
     7
 10
2459.038229903777
 20
2702.552542739704
 30
0.0
  0
VERTEX
  5
606
  8
0
  6
CONTINUOUS
 62
     7
 10
2459.03774681318
 20
2702.546448335376
 30
0.0
  0
VERTEX
  5
607
  8
0
  6
CONTINUOUS
 62
     7
 10
2459.037196672406
 20
2702.540388055217
 30
0.0
  0
VERTEX
  5
608
  8
0
  6
CONTINUOUS
 62
     7
 10
2459.036576450662
 20
2702.534362991904
 30
0.0
  0
VERTEX
  5
609
  8
0
  6
CONTINUOUS
 62
     7
 10
2459.035883117154
 20
2702.528374238113
 30
0.0
  0
VERTEX
  5
60A
  8
0
  6
CONTINUOUS
 62
     7
 10
2459.035113641089
 20
2702.52242288652
 30
0.0
  0
VERTEX
  5
60B
  8
0
  6
CONTINUOUS
 62
     7
 10
2459.034264991672
 20
2702.516510029801
 30
0.0
  0
VERTEX
  5
60C
  8
0
  6
CONTINUOUS
 62
     7
 10
2459.03333413811
 20
2702.510636760634
 30
0.0
  0
VERTEX
  5
60D
  8
0
  6
CONTINUOUS
 62
     7
 10
2459.032318049608
 20
2702.504804171694
 30
0.0
  0
VERTEX
  5
60E
  8
0
  6
CONTINUOUS
 62
     7
 10
2459.031213695373
 20
2702.499013355658
 30
0.0
  0
VERTEX
  5
60F
  8
0
  6
CONTINUOUS
 62
     7
 10
2459.030018044612
 20
2702.493265405203
 30
0.0
  0
VERTEX
  5
610
  8
0
  6
CONTINUOUS
 62
     7
 10
2459.028728066529
 20
2702.487561413005
 30
0.0
  0
VERTEX
  5
611
  8
0
  6
CONTINUOUS
 62
     7
 10
2459.027340730332
 20
2702.48190247174
 30
0.0
  0
VERTEX
  5
612
  8
0
  6
CONTINUOUS
 62
     7
 10
2459.025853005227
 20
2702.476289674085
 30
0.0
  0
VERTEX
  5
613
  8
0
  6
CONTINUOUS
 62
     7
 10
2459.02426186042
 20
2702.470724112716
 30
0.0
  0
VERTEX
  5
614
  8
0
  6
CONTINUOUS
 62
     7
 10
2459.022564265117
 20
2702.465206880311
 30
0.0
  0
VERTEX
  5
615
  8
0
  6
CONTINUOUS
 62
     7
 10
2459.020757175968
 20
2702.459739129292
 30
0.0
  0
VERTEX
  5
616
  8
0
  6
CONTINUOUS
 62
     7
 10
2459.018837327059
 20
2702.454323071092
 30
0.0
  0
VERTEX
  5
617
  8
0
  6
CONTINUOUS
 62
     7
 10
2459.016801261479
 20
2702.448961825983
 30
0.0
  0
VERTEX
  5
618
  8
0
  6
CONTINUOUS
 62
     7
 10
2459.014645516113
 20
2702.443658543723
 30
0.0
  0
VERTEX
  5
619
  8
0
  6
CONTINUOUS
 62
     7
 10
2459.012366627849
 20
2702.438416374079
 30
0.0
  0
VERTEX
  5
61A
  8
0
  6
CONTINUOUS
 62
     7
 10
2459.009961133576
 20
2702.433238466809
 30
0.0
  0
VERTEX
  5
61B
  8
0
  6
CONTINUOUS
 62
     7
 10
2459.007425570181
 20
2702.428127971677
 30
0.0
  0
VERTEX
  5
61C
  8
0
  6
CONTINUOUS
 62
     7
 10
2459.00475647455
 20
2702.423088038444
 30
0.0
  0
VERTEX
  5
61D
  8
0
  6
CONTINUOUS
 62
     7
 10
2459.001950383574
 20
2702.418121816874
 30
0.0
  0
VERTEX
  5
61E
  8
0
  6
CONTINUOUS
 62
     7
 10
2458.999003834139
 20
2702.413232456726
 30
0.0
  0
VERTEX
  5
61F
  8
0
  6
CONTINUOUS
 62
     7
 10
2458.995913363132
 20
2702.408423107765
 30
0.0
  0
VERTEX
  5
620
  8
0
  6
CONTINUOUS
 62
     7
 10
2458.992675507442
 20
2702.403696919751
 30
0.0
  0
VERTEX
  5
621
  8
0
  6
CONTINUOUS
 62
     7
 10
2458.989286803956
 20
2702.399057042448
 30
0.0
  0
VERTEX
  5
622
  8
0
  6
CONTINUOUS
 62
     7
 10
2458.985743789562
 20
2702.394506625616
 30
0.0
  0
VERTEX
  5
623
  8
0
  6
CONTINUOUS
 62
     7
 10
2458.982043002755
 20
2702.390048819896
 30
0.0
  0
VERTEX
  5
624
  8
0
  6
CONTINUOUS
 62
     7
 10
2458.978181676885
 20
2702.38568715527
 30
0.0
  0
VERTEX
  5
625
  8
0
  6
CONTINUOUS
 62
     7
 10
2458.974158822024
 20
2702.381426131695
 30
0.0
  0
VERTEX
  5
626
  8
0
  6
CONTINUOUS
 62
     7
 10
2458.969973728175
 20
2702.377270401947
 30
0.0
  0
VERTEX
  5
627
  8
0
  6
CONTINUOUS
 62
     7
 10
2458.965625685343
 20
2702.373224618804
 30
0.0
  0
VERTEX
  5
628
  8
0
  6
CONTINUOUS
 62
     7
 10
2458.961113983526
 20
2702.369293435045
 30
0.0
  0
VERTEX
  5
629
  8
0
  6
CONTINUOUS
 62
     7
 10
2458.956437912729
 20
2702.365481503446
 30
0.0
  0
VERTEX
  5
62A
  8
0
  6
CONTINUOUS
 62
     7
 10
2458.951596762953
 20
2702.361793476784
 30
0.0
  0
VERTEX
  5
62B
  8
0
  6
CONTINUOUS
 62
     7
 10
2458.946589824202
 20
2702.358234007839
 30
0.0
  0
VERTEX
  5
62C
  8
0
  6
CONTINUOUS
 62
     7
 10
2458.941416386475
 20
2702.354807749387
 30
0.0
  0
VERTEX
  5
62D
  8
0
  6
CONTINUOUS
 62
     7
 10
2458.936075739782
 20
2702.351519354215
 30
0.0
  0
VERTEX
  5
62E
  8
0
  6
CONTINUOUS
 62
     7
 10
2458.930568397634
 20
2702.348375984495
 30
0.0
  0
VERTEX
  5
62F
  8
0
  6
CONTINUOUS
 62
     7
 10
2458.924899539977
 20
2702.345394373153
 30
0.0
  0
VERTEX
  5
630
  8
0
  6
CONTINUOUS
 62
     7
 10
2458.919075459091
 20
2702.342593534494
 30
0.0
  0
VERTEX
  5
631
  8
0
  6
CONTINUOUS
 62
     7
 10
2458.913102447259
 20
2702.33999248282
 30
0.0
  0
VERTEX
  5
632
  8
0
  6
CONTINUOUS
 62
     7
 10
2458.90698679676
 20
2702.337610232432
 30
0.0
  0
VERTEX
  5
633
  8
0
  6
CONTINUOUS
 62
     7
 10
2458.900734799873
 20
2702.335465797634
 30
0.0
  0
VERTEX
  5
634
  8
0
  6
CONTINUOUS
 62
     7
 10
2458.894352748881
 20
2702.333578192728
 30
0.0
  0
VERTEX
  5
635
  8
0
  6
CONTINUOUS
 62
     7
 10
2458.887847168149
 20
2702.331965079273
 30
0.0
  0
VERTEX
  5
636
  8
0
  6
CONTINUOUS
 62
     7
 10
2458.881229395078
 20
2702.330616065453
 30
0.0
  0
VERTEX
  5
637
  8
0
  6
CONTINUOUS
 62
     7
 10
2458.874515305364
 20
2702.329494307424
 30
0.0
  0
VERTEX
  5
638
  8
0
  6
CONTINUOUS
 62
     7
 10
2458.86772095178
 20
2702.328561929222
 30
0.0
  0
VERTEX
  5
639
  8
0
  6
CONTINUOUS
 62
     7
 10
2458.8608623871
 20
2702.327781054881
 30
0.0
  0
VERTEX
  5
63A
  8
0
  6
CONTINUOUS
 62
     7
 10
2458.853955664099
 20
2702.327113808435
 30
0.0
  0
VERTEX
  5
63B
  8
0
  6
CONTINUOUS
 62
     7
 10
2458.847016835551
 20
2702.326522313919
 30
0.0
  0
VERTEX
  5
63C
  8
0
  6
CONTINUOUS
 62
     7
 10
2458.840061954229
 20
2702.325968695369
 30
0.0
  0
SEQEND
  5
70C
  8
0
  6
CONTINUOUS
 62
     7
  0
LINE
  5
132
  8
0
  6
CONTINUOUS
 62
     7
 10
2458.840061954229
 20
2702.325968695369
 30
0.0
 11
2458.840061954229
 21
2702.742737217245
 31
0.0
  0
LINE
  5
133
  8
0
  6
CONTINUOUS
 62
     7
 10
2458.840061954229
 20
2702.325968695369
 30
0.0
 11
2458.040061954228
 21
2702.325968695369
 31
0.0
  0
LINE
  5
134
  8
0
  6
CONTINUOUS
 62
     7
 10
2458.040061954228
 20
2702.742737217245
 30
0.0
 11
2458.040061954228
 21
2702.325968695369
 31
0.0
  0
LINE
  5
135
  8
0
  6
CONTINUOUS
 62
     7
 10
2458.840061954229
 20
2703.905343341019
 30
0.0
 11
2458.840061954229
 21
2704.746531959653
 31
0.0
  0
ARC
  5
136
  8
0
  6
CONTINUOUS
 62
     7
 10
2458.840437219761
 20
2704.546907222519
 30
0.0
 40
0.1996250898566686
 50
0.1081141017222596
 51
90.10770762263735
  0
LINE
  5
137
  8
0
  6
CONTINUOUS
 62
     7
 10
2459.040061954228
 20
2704.547283904268
 30
0.0
 11
2459.040061954228
 21
2703.706095285634
 31
0.0
  0
LINE
  5
138
  8
0
  6
CONTINUOUS
 62
     7
 10
2458.840061954229
 20
2704.746531959653
 30
0.0
 11
2458.040061954228
 21
2704.746531959653
 31
0.0
  0
LINE
  5
139
  8
0
  6
CONTINUOUS
 62
     7
 10
2458.040061954228
 20
2704.746531959653
 30
0.0
 11
2458.040061954228
 21
2703.905343341019
 31
0.0
  0
LINE
  5
13A
  8
0
  6
CONTINUOUS
 62
     7
 10
2458.840061954229
 20
2704.746531959653
 30
0.0
 11
2458.840061954229
 21
2705.742772236578
 31
0.0
  0
LINE
  5
13B
  8
0
  6
CONTINUOUS
 62
     7
 10
2458.840061954229
 20
2705.742772236578
 30
0.0
 11
2459.040061954228
 21
2705.742772236578
 31
0.0
  0
LINE
  5
13C
  8
0
  6
CONTINUOUS
 62
     7
 10
2459.040061954228
 20
2705.742772236578
 30
0.0
 11
2459.040061954228
 21
2704.547283904268
 31
0.0
  0
LINE
  5
13D
  8
0
  6
CONTINUOUS
 62
     7
 10
2458.040061954228
 20
2705.742772236578
 30
0.0
 11
2458.840061954229
 21
2705.742772236578
 31
0.0
  0
LINE
  5
13E
  8
0
  6
CONTINUOUS
 62
     7
 10
2458.040061954228
 20
2705.742772236578
 30
0.0
 11
2458.040061954228
 21
2704.746531959653
 31
0.0
  0
LINE
  5
13F
  8
0
  6
CONTINUOUS
 62
     7
 10
2458.840061954229
 20
2705.742772236578
 30
0.0
 11
2458.840061954229
 21
2716.125958466598
 31
0.0
  0
LINE
  5
140
  8
0
  6
CONTINUOUS
 62
     7
 10
2458.840061954229
 20
2716.125958466598
 30
0.0
 11
2459.040061954228
 21
2716.125958466598
 31
0.0
  0
LINE
  5
141
  8
0
  6
CONTINUOUS
 62
     7
 10
2459.040061954228
 20
2716.125958466598
 30
0.0
 11
2459.040061954228
 21
2705.742772236578
 31
0.0
  0
LINE
  5
142
  8
0
  6
CONTINUOUS
 62
     7
 10
2458.840061954229
 20
2716.125958466598
 30
0.0
 11
2458.040061954228
 21
2716.125958466598
 31
0.0
  0
LINE
  5
143
  8
0
  6
CONTINUOUS
 62
     7
 10
2458.040061954228
 20
2716.125958466598
 30
0.0
 11
2458.040061954228
 21
2705.742772236578
 31
0.0
  0
LINE
  5
144
  8
0
  6
CONTINUOUS
 62
     7
 10
2459.040061954228
 20
2716.825958466598
 30
0.0
 11
2459.040061954228
 21
2716.125958466598
 31
0.0
  0
LINE
  5
145
  8
0
  6
CONTINUOUS
 62
     7
 10
2458.040061954228
 20
2716.125958466598
 30
0.0
 11
2458.040061954228
 21
2716.825958466598
 31
0.0
  0
LINE
  5
146
  8
0
  6
CONTINUOUS
 62
     7
 10
2458.040061954228
 20
2703.905343341019
 30
0.0
 11
1864.040061954228
 21
2703.905343341019
 31
0.0
  0
LINE
  5
147
  8
0
  6
CONTINUOUS
 62
     7
 10
2458.040061954228
 20
2702.742737217245
 30
0.0
 11
1864.040061954228
 21
2702.742737217245
 31
0.0
  0
LINE
  5
148
  8
0
  6
CONTINUOUS
 62
     7
 10
1864.040061954228
 20
2702.742737217245
 30
0.0
 11
1864.040061954228
 21
2703.905343341019
 31
0.0
  0
LINE
  5
149
  8
0
  6
CONTINUOUS
 62
     7
 10
2458.040061954228
 20
2702.325968695369
 30
0.0
 11
1864.040061954228
 21
2702.32596869537
 31
0.0
  0
LINE
  5
14A
  8
0
  6
CONTINUOUS
 62
     7
 10
1864.040061954228
 20
2702.32596869537
 30
0.0
 11
1864.040061954228
 21
2702.742737217245
 31
0.0
  0
LINE
  5
14B
  8
0
  6
CONTINUOUS
 62
     7
 10
2458.040061954228
 20
2704.746531959653
 30
0.0
 11
1864.040061954228
 21
2704.746531959654
 31
0.0
  0
LINE
  5
14C
  8
0
  6
CONTINUOUS
 62
     7
 10
1864.040061954228
 20
2703.905343341019
 30
0.0
 11
1864.040061954228
 21
2704.746531959654
 31
0.0
  0
LINE
  5
14D
  8
0
  6
CONTINUOUS
 62
     7
 10
1864.040061954228
 20
2705.742772236579
 30
0.0
 11
2458.040061954228
 21
2705.742772236578
 31
0.0
  0
LINE
  5
14E
  8
0
  6
CONTINUOUS
 62
     7
 10
1864.040061954228
 20
2704.746531959654
 30
0.0
 11
1864.040061954228
 21
2705.742772236579
 31
0.0
  0
LINE
  5
14F
  8
0
  6
CONTINUOUS
 62
     7
 10
2458.040061954228
 20
2716.125958466598
 30
0.0
 11
1864.040061954228
 21
2716.125958466598
 31
0.0
  0
LINE
  5
150
  8
0
  6
CONTINUOUS
 62
     7
 10
1864.040061954228
 20
2705.742772236579
 30
0.0
 11
1864.040061954228
 21
2716.125958466598
 31
0.0
  0
LINE
  5
151
  8
0
  6
CONTINUOUS
 62
     7
 10
1864.040061954228
 20
2716.8259584666
 30
0.0
 11
1864.040061954228
 21
2716.125958466598
 31
0.0
  0
LINE
  5
152
  8
0
  6
CONTINUOUS
 62
     7
 10
3056.540061954228
 20
2703.905343341019
 30
0.0
 11
2462.540061954228
 21
2703.905343341019
 31
0.0
  0
LINE
  5
153
  8
0
  6
CONTINUOUS
 62
     7
 10
3056.540061954228
 20
2702.742737217245
 30
0.0
 11
2462.540061954228
 21
2702.742737217245
 31
0.0
  0
LINE
  5
154
  8
0
  6
CONTINUOUS
 62
     7
 10
2462.540061954228
 20
2702.742737217245
 30
0.0
 11
2462.540061954228
 21
2703.905343341019
 31
0.0
  0
LINE
  5
155
  8
0
  6
CONTINUOUS
 62
     7
 10
3056.540061954228
 20
2702.32596869537
 30
0.0
 11
2462.540061954228
 21
2702.32596869537
 31
0.0
  0
LINE
  5
156
  8
0
  6
CONTINUOUS
 62
     7
 10
2462.540061954228
 20
2702.32596869537
 30
0.0
 11
2462.540061954228
 21
2702.742737217245
 31
0.0
  0
LINE
  5
157
  8
0
  6
CONTINUOUS
 62
     7
 10
3056.540061954228
 20
2704.746531959654
 30
0.0
 11
2462.540061954228
 21
2704.746531959654
 31
0.0
  0
LINE
  5
158
  8
0
  6
CONTINUOUS
 62
     7
 10
2462.540061954228
 20
2703.905343341019
 30
0.0
 11
2462.540061954228
 21
2704.746531959654
 31
0.0
  0
LINE
  5
159
  8
0
  6
CONTINUOUS
 62
     7
 10
2462.540061954228
 20
2705.742772236579
 30
0.0
 11
3056.540061954228
 21
2705.742772236579
 31
0.0
  0
LINE
  5
15A
  8
0
  6
CONTINUOUS
 62
     7
 10
2462.540061954228
 20
2704.746531959654
 30
0.0
 11
2462.540061954228
 21
2705.742772236579
 31
0.0
  0
LINE
  5
15B
  8
0
  6
CONTINUOUS
 62
     7
 10
3056.540061954228
 20
2716.125958466598
 30
0.0
 11
2462.540061954228
 21
2716.125958466598
 31
0.0
  0
LINE
  5
15C
  8
0
  6
CONTINUOUS
 62
     7
 10
2462.540061954228
 20
2705.742772236579
 30
0.0
 11
2462.540061954228
 21
2716.125958466598
 31
0.0
  0
LINE
  5
15D
  8
0
  6
CONTINUOUS
 62
     7
 10
2462.540061954228
 20
2716.825958466598
 30
0.0
 11
2462.540061954228
 21
2716.125958466598
 31
0.0
  0
LINE
  5
15E
  8
0
  6
CONTINUOUS
 62
     7
 10
2462.540061954228
 20
2702.742737217245
 30
0.0
 11
2461.740061954228
 21
2702.742737217245
 31
0.0
  0
LINE
  5
15F
  8
0
  6
CONTINUOUS
 62
     7
 10
2461.740061954228
 20
2703.905343341019
 30
0.0
 11
2461.740061954228
 21
2702.742737217245
 31
0.0
  0
LINE
  5
160
  8
0
  6
CONTINUOUS
 62
     7
 10
2462.540061954228
 20
2703.905343341019
 30
0.0
 11
2461.740061954228
 21
2703.905343341019
 31
0.0
  0
LINE
  5
161
  8
0
  6
CONTINUOUS
 62
     7
 10
2461.540061954228
 20
2702.776010386615
 30
0.0
 11
2461.540061954228
 21
2703.706095285635
 31
0.0
  0
ARC
  5
162
  8
0
  6
CONTINUOUS
 62
     7
 10
2461.739686688697
 20
2703.705718603884
 30
0.0
 40
0.1996250898580354
 50
89.89229237762443
 51
179.8918858978869
  0
ARC
  5
163
  8
0
  6
CONTINUOUS
 62
     7
 10
2461.691445833977
 20
2703.068234549025
 30
0.0
 40
0.3291079460355396
 50
242.6140248790533
 51
278.4948720920817
  0
LINE
  5
164
  8
0
  6
CONTINUOUS
 62
     7
 10
2461.540061954228
 20
2702.60874678314
 30
0.0
 11
2461.540061954228
 21
2702.776010386615
 31
0.0
  0
LINE
  5
165
  8
0
  6
CONTINUOUS
 62
     7
 10
2461.740061954228
 20
2702.742737217245
 30
0.0
 11
2461.740061954228
 21
2702.32596869537
 31
0.0
  0
POLYLINE
  5
166
  8
0
  6
CONTINUOUS
 62
     7
 66
     1
 10
0.0
 20
0.0
 30
0.0
  0
VERTEX
  5
63D
  8
0
  6
CONTINUOUS
 62
     7
 10
2461.540061954228
 20
2702.60874678314
 30
0.0
  0
VERTEX
  5
63E
  8
0
  6
CONTINUOUS
 62
     7
 10
2461.540079390989
 20
2702.602395323227
 30
0.0
  0
VERTEX
  5
63F
  8
0
  6
CONTINUOUS
 62
     7
 10
2461.540135188753
 20
2702.596067261901
 30
0.0
  0
VERTEX
  5
640
  8
0
  6
CONTINUOUS
 62
     7
 10
2461.540233790343
 20
2702.589764583332
 30
0.0
  0
VERTEX
  5
641
  8
0
  6
CONTINUOUS
 62
     7
 10
2461.540378226552
 20
2702.583488380198
 30
0.0
  0
VERTEX
  5
642
  8
0
  6
CONTINUOUS
 62
     7
 10
2461.540571528174
 20
2702.577239745173
 30
0.0
  0
VERTEX
  5
643
  8
0
  6
CONTINUOUS
 62
     7
 10
2461.540816726004
 20
2702.571019770935
 30
0.0
  0
VERTEX
  5
644
  8
0
  6
CONTINUOUS
 62
     7
 10
2461.541116850835
 20
2702.56482955016
 30
0.0
  0
VERTEX
  5
645
  8
0
  6
CONTINUOUS
 62
     7
 10
2461.541474933461
 20
2702.558670175524
 30
0.0
  0
VERTEX
  5
646
  8
0
  6
CONTINUOUS
 62
     7
 10
2461.541894004677
 20
2702.552542739705
 30
0.0
  0
VERTEX
  5
647
  8
0
  6
CONTINUOUS
 62
     7
 10
2461.542377095274
 20
2702.546448335377
 30
0.0
  0
VERTEX
  5
648
  8
0
  6
CONTINUOUS
 62
     7
 10
2461.542927236047
 20
2702.540388055219
 30
0.0
  0
VERTEX
  5
649
  8
0
  6
CONTINUOUS
 62
     7
 10
2461.543547457792
 20
2702.534362991906
 30
0.0
  0
VERTEX
  5
64A
  8
0
  6
CONTINUOUS
 62
     7
 10
2461.544240791299
 20
2702.528374238114
 30
0.0
  0
VERTEX
  5
64B
  8
0
  6
CONTINUOUS
 62
     7
 10
2461.545010267365
 20
2702.522422886521
 30
0.0
  0
VERTEX
  5
64C
  8
0
  6
CONTINUOUS
 62
     7
 10
2461.545858916782
 20
2702.516510029802
 30
0.0
  0
VERTEX
  5
64D
  8
0
  6
CONTINUOUS
 62
     7
 10
2461.546789770345
 20
2702.510636760634
 30
0.0
  0
VERTEX
  5
64E
  8
0
  6
CONTINUOUS
 62
     7
 10
2461.547805858847
 20
2702.504804171695
 30
0.0
  0
VERTEX
  5
64F
  8
0
  6
CONTINUOUS
 62
     7
 10
2461.548910213082
 20
2702.499013355659
 30
0.0
  0
VERTEX
  5
650
  8
0
  6
CONTINUOUS
 62
     7
 10
2461.550105863844
 20
2702.493265405204
 30
0.0
  0
VERTEX
  5
651
  8
0
  6
CONTINUOUS
 62
     7
 10
2461.551395841927
 20
2702.487561413006
 30
0.0
  0
VERTEX
  5
652
  8
0
  6
CONTINUOUS
 62
     7
 10
2461.552783178124
 20
2702.481902471741
 30
0.0
  0
VERTEX
  5
653
  8
0
  6
CONTINUOUS
 62
     7
 10
2461.554270903229
 20
2702.476289674086
 30
0.0
  0
VERTEX
  5
654
  8
0
  6
CONTINUOUS
 62
     7
 10
2461.555862048036
 20
2702.470724112718
 30
0.0
  0
VERTEX
  5
655
  8
0
  6
CONTINUOUS
 62
     7
 10
2461.557559643339
 20
2702.465206880312
 30
0.0
  0
VERTEX
  5
656
  8
0
  6
CONTINUOUS
 62
     7
 10
2461.559366732489
 20
2702.459739129293
 30
0.0
  0
VERTEX
  5
657
  8
0
  6
CONTINUOUS
 62
     7
 10
2461.561286581397
 20
2702.454323071093
 30
0.0
  0
VERTEX
  5
658
  8
0
  6
CONTINUOUS
 62
     7
 10
2461.563322646978
 20
2702.448961825983
 30
0.0
  0
VERTEX
  5
659
  8
0
  6
CONTINUOUS
 62
     7
 10
2461.565478392343
 20
2702.443658543724
 30
0.0
  0
VERTEX
  5
65A
  8
0
  6
CONTINUOUS
 62
     7
 10
2461.567757280608
 20
2702.438416374079
 30
0.0
  0
VERTEX
  5
65B
  8
0
  6
CONTINUOUS
 62
     7
 10
2461.570162774881
 20
2702.43323846681
 30
0.0
  0
VERTEX
  5
65C
  8
0
  6
CONTINUOUS
 62
     7
 10
2461.572698338276
 20
2702.428127971678
 30
0.0
  0
VERTEX
  5
65D
  8
0
  6
CONTINUOUS
 62
     7
 10
2461.575367433906
 20
2702.423088038446
 30
0.0
  0
VERTEX
  5
65E
  8
0
  6
CONTINUOUS
 62
     7
 10
2461.578173524883
 20
2702.418121816875
 30
0.0
  0
VERTEX
  5
65F
  8
0
  6
CONTINUOUS
 62
     7
 10
2461.581120074318
 20
2702.413232456727
 30
0.0
  0
VERTEX
  5
660
  8
0
  6
CONTINUOUS
 62
     7
 10
2461.584210545324
 20
2702.408423107766
 30
0.0
  0
VERTEX
  5
661
  8
0
  6
CONTINUOUS
 62
     7
 10
2461.587448401015
 20
2702.403696919753
 30
0.0
  0
VERTEX
  5
662
  8
0
  6
CONTINUOUS
 62
     7
 10
2461.590837104501
 20
2702.399057042448
 30
0.0
  0
VERTEX
  5
663
  8
0
  6
CONTINUOUS
 62
     7
 10
2461.594380118895
 20
2702.394506625617
 30
0.0
  0
VERTEX
  5
664
  8
0
  6
CONTINUOUS
 62
     7
 10
2461.598080905702
 20
2702.390048819896
 30
0.0
  0
VERTEX
  5
665
  8
0
  6
CONTINUOUS
 62
     7
 10
2461.601942231573
 20
2702.38568715527
 30
0.0
  0
VERTEX
  5
666
  8
0
  6
CONTINUOUS
 62
     7
 10
2461.605965086434
 20
2702.381426131695
 30
0.0
  0
VERTEX
  5
667
  8
0
  6
CONTINUOUS
 62
     7
 10
2461.610150180282
 20
2702.377270401947
 30
0.0
  0
VERTEX
  5
668
  8
0
  6
CONTINUOUS
 62
     7
 10
2461.614498223115
 20
2702.373224618805
 30
0.0
  0
VERTEX
  5
669
  8
0
  6
CONTINUOUS
 62
     7
 10
2461.619009924931
 20
2702.369293435045
 30
0.0
  0
VERTEX
  5
66A
  8
0
  6
CONTINUOUS
 62
     7
 10
2461.623685995728
 20
2702.365481503446
 30
0.0
  0
VERTEX
  5
66B
  8
0
  6
CONTINUOUS
 62
     7
 10
2461.628527145504
 20
2702.361793476785
 30
0.0
  0
VERTEX
  5
66C
  8
0
  6
CONTINUOUS
 62
     7
 10
2461.633534084256
 20
2702.35823400784
 30
0.0
  0
VERTEX
  5
66D
  8
0
  6
CONTINUOUS
 62
     7
 10
2461.638707521982
 20
2702.354807749387
 30
0.0
  0
VERTEX
  5
66E
  8
0
  6
CONTINUOUS
 62
     7
 10
2461.644048168675
 20
2702.351519354216
 30
0.0
  0
VERTEX
  5
66F
  8
0
  6
CONTINUOUS
 62
     7
 10
2461.649555510823
 20
2702.348375984495
 30
0.0
  0
VERTEX
  5
670
  8
0
  6
CONTINUOUS
 62
     7
 10
2461.65522436848
 20
2702.345394373154
 30
0.0
  0
VERTEX
  5
671
  8
0
  6
CONTINUOUS
 62
     7
 10
2461.661048449365
 20
2702.342593534495
 30
0.0
  0
VERTEX
  5
672
  8
0
  6
CONTINUOUS
 62
     7
 10
2461.667021461198
 20
2702.33999248282
 30
0.0
  0
VERTEX
  5
673
  8
0
  6
CONTINUOUS
 62
     7
 10
2461.673137111697
 20
2702.337610232433
 30
0.0
  0
VERTEX
  5
674
  8
0
  6
CONTINUOUS
 62
     7
 10
2461.679389108584
 20
2702.335465797635
 30
0.0
  0
VERTEX
  5
675
  8
0
  6
CONTINUOUS
 62
     7
 10
2461.685771159576
 20
2702.333578192728
 30
0.0
  0
VERTEX
  5
676
  8
0
  6
CONTINUOUS
 62
     7
 10
2461.692276740308
 20
2702.331965079274
 30
0.0
  0
VERTEX
  5
677
  8
0
  6
CONTINUOUS
 62
     7
 10
2461.698894513379
 20
2702.330616065454
 30
0.0
  0
VERTEX
  5
678
  8
0
  6
CONTINUOUS
 62
     7
 10
2461.705608603093
 20
2702.329494307425
 30
0.0
  0
VERTEX
  5
679
  8
0
  6
CONTINUOUS
 62
     7
 10
2461.712402956678
 20
2702.328561929222
 30
0.0
  0
VERTEX
  5
67A
  8
0
  6
CONTINUOUS
 62
     7
 10
2461.719261521356
 20
2702.327781054881
 30
0.0
  0
VERTEX
  5
67B
  8
0
  6
CONTINUOUS
 62
     7
 10
2461.726168244357
 20
2702.327113808436
 30
0.0
  0
VERTEX
  5
67C
  8
0
  6
CONTINUOUS
 62
     7
 10
2461.733107072906
 20
2702.32652231392
 30
0.0
  0
VERTEX
  5
67D
  8
0
  6
CONTINUOUS
 62
     7
 10
2461.740061954228
 20
2702.32596869537
 30
0.0
  0
SEQEND
  5
70D
  8
0
  6
CONTINUOUS
 62
     7
  0
LINE
  5
167
  8
0
  6
CONTINUOUS
 62
     7
 10
2462.540061954228
 20
2702.32596869537
 30
0.0
 11
2461.740061954228
 21
2702.32596869537
 31
0.0
  0
ARC
  5
168
  8
0
  6
CONTINUOUS
 62
     7
 10
2461.739686688696
 20
2704.546907222518
 30
0.0
 40
0.1996250898573645
 50
89.89229237736315
 51
179.8918858980169
  0
LINE
  5
169
  8
0
  6
CONTINUOUS
 62
     7
 10
2461.740061954228
 20
2704.746531959654
 30
0.0
 11
2461.740061954228
 21
2703.905343341019
 31
0.0
  0
LINE
  5
16A
  8
0
  6
CONTINUOUS
 62
     7
 10
2461.540061954228
 20
2703.706095285635
 30
0.0
 11
2461.540061954228
 21
2704.547283904269
 31
0.0
  0
LINE
  5
16B
  8
0
  6
CONTINUOUS
 62
     7
 10
2462.540061954228
 20
2704.746531959654
 30
0.0
 11
2461.740061954228
 21
2704.746531959654
 31
0.0
  0
LINE
  5
16C
  8
0
  6
CONTINUOUS
 62
     7
 10
2461.540061954228
 20
2705.742772236579
 30
0.0
 11
2461.740061954228
 21
2705.742772236579
 31
0.0
  0
LINE
  5
16D
  8
0
  6
CONTINUOUS
 62
     7
 10
2461.740061954228
 20
2705.742772236579
 30
0.0
 11
2461.740061954228
 21
2704.746531959654
 31
0.0
  0
LINE
  5
16E
  8
0
  6
CONTINUOUS
 62
     7
 10
2461.540061954228
 20
2704.547283904269
 30
0.0
 11
2461.540061954228
 21
2705.742772236579
 31
0.0
  0
LINE
  5
16F
  8
0
  6
CONTINUOUS
 62
     7
 10
2461.740061954228
 20
2705.742772236579
 30
0.0
 11
2462.540061954228
 21
2705.742772236579
 31
0.0
  0
LINE
  5
170
  8
0
  6
CONTINUOUS
 62
     7
 10
2461.540061954228
 20
2716.125958466598
 30
0.0
 11
2461.740061954228
 21
2716.125958466598
 31
0.0
  0
LINE
  5
171
  8
0
  6
CONTINUOUS
 62
     7
 10
2461.740061954228
 20
2716.125958466598
 30
0.0
 11
2461.740061954228
 21
2705.742772236579
 31
0.0
  0
LINE
  5
172
  8
0
  6
CONTINUOUS
 62
     7
 10
2461.540061954228
 20
2705.742772236579
 30
0.0
 11
2461.540061954228
 21
2716.125958466598
 31
0.0
  0
LINE
  5
173
  8
0
  6
CONTINUOUS
 62
     7
 10
2462.540061954228
 20
2716.125958466598
 30
0.0
 11
2461.740061954228
 21
2716.125958466598
 31
0.0
  0
LINE
  5
174
  8
0
  6
CONTINUOUS
 62
     7
 10
2461.540061954228
 20
2716.125958466598
 30
0.0
 11
2461.540061954228
 21
2716.825958466598
 31
0.0
  0
LINE
  5
175
  8
0
  6
CONTINUOUS
 62
     7
 10
1863.040061954228
 20
2702.776010386615
 30
0.0
 11
1863.040061954228
 21
2703.706095285634
 31
0.0
  0
ARC
  5
176
  8
0
  6
CONTINUOUS
 62
     7
 10
1863.239686688697
 20
2703.705718603883
 30
0.0
 40
0.1996250898578184
 50
89.89229237749392
 51
179.8918858978868
  0
LINE
  5
177
  8
0
  6
CONTINUOUS
 62
     7
 10
1863.240061954228
 20
2703.905343341019
 30
0.0
 11
1863.240061954228
 21
2702.742737217245
 31
0.0
  0
ARC
  5
178
  8
0
  6
CONTINUOUS
 62
     7
 10
1863.191445833979
 20
2703.068234549033
 30
0.0
 40
0.3291079460439162
 50
242.6140248794639
 51
278.4948720915854
  0
LINE
  5
179
  8
0
  6
CONTINUOUS
 62
     7
 10
1864.040061954228
 20
2702.742737217245
 30
0.0
 11
1863.240061954228
 21
2702.742737217245
 31
0.0
  0
LINE
  5
17A
  8
0
  6
CONTINUOUS
 62
     7
 10
1864.040061954228
 20
2703.905343341019
 30
0.0
 11
1863.240061954228
 21
2703.905343341019
 31
0.0
  0
LINE
  5
17B
  8
0
  6
CONTINUOUS
 62
     7
 10
1863.040061954228
 20
2702.60874678314
 30
0.0
 11
1863.040061954228
 21
2702.776010386615
 31
0.0
  0
LINE
  5
17C
  8
0
  6
CONTINUOUS
 62
     7
 10
1863.240061954228
 20
2702.742737217245
 30
0.0
 11
1863.240061954228
 21
2702.32596869537
 31
0.0
  0
POLYLINE
  5
17D
  8
0
  6
CONTINUOUS
 62
     7
 66
     1
 10
0.0
 20
0.0
 30
0.0
  0
VERTEX
  5
67E
  8
0
  6
CONTINUOUS
 62
     7
 10
1863.040061954228
 20
2702.60874678314
 30
0.0
  0
VERTEX
  5
67F
  8
0
  6
CONTINUOUS
 62
     7
 10
1863.04007939099
 20
2702.602395323226
 30
0.0
  0
VERTEX
  5
680
  8
0
  6
CONTINUOUS
 62
     7
 10
1863.040135188754
 20
2702.596067261901
 30
0.0
  0
VERTEX
  5
681
  8
0
  6
CONTINUOUS
 62
     7
 10
1863.040233790343
 20
2702.589764583332
 30
0.0
  0
VERTEX
  5
682
  8
0
  6
CONTINUOUS
 62
     7
 10
1863.040378226553
 20
2702.583488380198
 30
0.0
  0
VERTEX
  5
683
  8
0
  6
CONTINUOUS
 62
     7
 10
1863.040571528176
 20
2702.577239745173
 30
0.0
  0
VERTEX
  5
684
  8
0
  6
CONTINUOUS
 62
     7
 10
1863.040816726006
 20
2702.571019770935
 30
0.0
  0
VERTEX
  5
685
  8
0
  6
CONTINUOUS
 62
     7
 10
1863.041116850837
 20
2702.56482955016
 30
0.0
  0
VERTEX
  5
686
  8
0
  6
CONTINUOUS
 62
     7
 10
1863.041474933463
 20
2702.558670175524
 30
0.0
  0
VERTEX
  5
687
  8
0
  6
CONTINUOUS
 62
     7
 10
1863.041894004679
 20
2702.552542739705
 30
0.0
  0
VERTEX
  5
688
  8
0
  6
CONTINUOUS
 62
     7
 10
1863.042377095275
 20
2702.546448335377
 30
0.0
  0
VERTEX
  5
689
  8
0
  6
CONTINUOUS
 62
     7
 10
1863.042927236049
 20
2702.540388055219
 30
0.0
  0
VERTEX
  5
68A
  8
0
  6
CONTINUOUS
 62
     7
 10
1863.043547457793
 20
2702.534362991905
 30
0.0
  0
VERTEX
  5
68B
  8
0
  6
CONTINUOUS
 62
     7
 10
1863.044240791301
 20
2702.528374238114
 30
0.0
  0
VERTEX
  5
68C
  8
0
  6
CONTINUOUS
 62
     7
 10
1863.045010267367
 20
2702.52242288652
 30
0.0
  0
VERTEX
  5
68D
  8
0
  6
CONTINUOUS
 62
     7
 10
1863.045858916784
 20
2702.516510029802
 30
0.0
  0
VERTEX
  5
68E
  8
0
  6
CONTINUOUS
 62
     7
 10
1863.046789770346
 20
2702.510636760634
 30
0.0
  0
VERTEX
  5
68F
  8
0
  6
CONTINUOUS
 62
     7
 10
1863.047805858848
 20
2702.504804171695
 30
0.0
  0
VERTEX
  5
690
  8
0
  6
CONTINUOUS
 62
     7
 10
1863.048910213083
 20
2702.499013355659
 30
0.0
  0
VERTEX
  5
691
  8
0
  6
CONTINUOUS
 62
     7
 10
1863.050105863845
 20
2702.493265405204
 30
0.0
  0
VERTEX
  5
692
  8
0
  6
CONTINUOUS
 62
     7
 10
1863.051395841928
 20
2702.487561413006
 30
0.0
  0
VERTEX
  5
693
  8
0
  6
CONTINUOUS
 62
     7
 10
1863.052783178125
 20
2702.481902471741
 30
0.0
  0
VERTEX
  5
694
  8
0
  6
CONTINUOUS
 62
     7
 10
1863.05427090323
 20
2702.476289674086
 30
0.0
  0
VERTEX
  5
695
  8
0
  6
CONTINUOUS
 62
     7
 10
1863.055862048036
 20
2702.470724112718
 30
0.0
  0
VERTEX
  5
696
  8
0
  6
CONTINUOUS
 62
     7
 10
1863.057559643339
 20
2702.465206880311
 30
0.0
  0
VERTEX
  5
697
  8
0
  6
CONTINUOUS
 62
     7
 10
1863.059366732489
 20
2702.459739129293
 30
0.0
  0
VERTEX
  5
698
  8
0
  6
CONTINUOUS
 62
     7
 10
1863.061286581397
 20
2702.454323071093
 30
0.0
  0
VERTEX
  5
699
  8
0
  6
CONTINUOUS
 62
     7
 10
1863.063322646978
 20
2702.448961825983
 30
0.0
  0
VERTEX
  5
69A
  8
0
  6
CONTINUOUS
 62
     7
 10
1863.065478392343
 20
2702.443658543723
 30
0.0
  0
VERTEX
  5
69B
  8
0
  6
CONTINUOUS
 62
     7
 10
1863.067757280608
 20
2702.438416374079
 30
0.0
  0
VERTEX
  5
69C
  8
0
  6
CONTINUOUS
 62
     7
 10
1863.070162774881
 20
2702.433238466809
 30
0.0
  0
VERTEX
  5
69D
  8
0
  6
CONTINUOUS
 62
     7
 10
1863.072698338276
 20
2702.428127971677
 30
0.0
  0
VERTEX
  5
69E
  8
0
  6
CONTINUOUS
 62
     7
 10
1863.075367433906
 20
2702.423088038445
 30
0.0
  0
VERTEX
  5
69F
  8
0
  6
CONTINUOUS
 62
     7
 10
1863.078173524883
 20
2702.418121816874
 30
0.0
  0
VERTEX
  5
6A0
  8
0
  6
CONTINUOUS
 62
     7
 10
1863.081120074318
 20
2702.413232456727
 30
0.0
  0
VERTEX
  5
6A1
  8
0
  6
CONTINUOUS
 62
     7
 10
1863.084210545324
 20
2702.408423107765
 30
0.0
  0
VERTEX
  5
6A2
  8
0
  6
CONTINUOUS
 62
     7
 10
1863.087448401015
 20
2702.403696919752
 30
0.0
  0
VERTEX
  5
6A3
  8
0
  6
CONTINUOUS
 62
     7
 10
1863.0908371045
 20
2702.399057042448
 30
0.0
  0
VERTEX
  5
6A4
  8
0
  6
CONTINUOUS
 62
     7
 10
1863.094380118895
 20
2702.394506625616
 30
0.0
  0
VERTEX
  5
6A5
  8
0
  6
CONTINUOUS
 62
     7
 10
1863.098080905702
 20
2702.390048819896
 30
0.0
  0
VERTEX
  5
6A6
  8
0
  6
CONTINUOUS
 62
     7
 10
1863.101942231573
 20
2702.38568715527
 30
0.0
  0
VERTEX
  5
6A7
  8
0
  6
CONTINUOUS
 62
     7
 10
1863.105965086433
 20
2702.381426131695
 30
0.0
  0
VERTEX
  5
6A8
  8
0
  6
CONTINUOUS
 62
     7
 10
1863.110150180281
 20
2702.377270401947
 30
0.0
  0
VERTEX
  5
6A9
  8
0
  6
CONTINUOUS
 62
     7
 10
1863.114498223115
 20
2702.373224618804
 30
0.0
  0
VERTEX
  5
6AA
  8
0
  6
CONTINUOUS
 62
     7
 10
1863.119009924931
 20
2702.369293435045
 30
0.0
  0
VERTEX
  5
6AB
  8
0
  6
CONTINUOUS
 62
     7
 10
1863.123685995728
 20
2702.365481503446
 30
0.0
  0
VERTEX
  5
6AC
  8
0
  6
CONTINUOUS
 62
     7
 10
1863.128527145504
 20
2702.361793476785
 30
0.0
  0
VERTEX
  5
6AD
  8
0
  6
CONTINUOUS
 62
     7
 10
1863.133534084256
 20
2702.35823400784
 30
0.0
  0
VERTEX
  5
6AE
  8
0
  6
CONTINUOUS
 62
     7
 10
1863.138707521981
 20
2702.354807749387
 30
0.0
  0
VERTEX
  5
6AF
  8
0
  6
CONTINUOUS
 62
     7
 10
1863.144048168675
 20
2702.351519354216
 30
0.0
  0
VERTEX
  5
6B0
  8
0
  6
CONTINUOUS
 62
     7
 10
1863.149555510823
 20
2702.348375984494
 30
0.0
  0
VERTEX
  5
6B1
  8
0
  6
CONTINUOUS
 62
     7
 10
1863.15522436848
 20
2702.345394373153
 30
0.0
  0
VERTEX
  5
6B2
  8
0
  6
CONTINUOUS
 62
     7
 10
1863.161048449365
 20
2702.342593534494
 30
0.0
  0
VERTEX
  5
6B3
  8
0
  6
CONTINUOUS
 62
     7
 10
1863.167021461198
 20
2702.33999248282
 30
0.0
  0
VERTEX
  5
6B4
  8
0
  6
CONTINUOUS
 62
     7
 10
1863.173137111697
 20
2702.337610232432
 30
0.0
  0
VERTEX
  5
6B5
  8
0
  6
CONTINUOUS
 62
     7
 10
1863.179389108584
 20
2702.335465797634
 30
0.0
  0
VERTEX
  5
6B6
  8
0
  6
CONTINUOUS
 62
     7
 10
1863.185771159576
 20
2702.333578192727
 30
0.0
  0
VERTEX
  5
6B7
  8
0
  6
CONTINUOUS
 62
     7
 10
1863.192276740308
 20
2702.331965079274
 30
0.0
  0
VERTEX
  5
6B8
  8
0
  6
CONTINUOUS
 62
     7
 10
1863.198894513379
 20
2702.330616065453
 30
0.0
  0
VERTEX
  5
6B9
  8
0
  6
CONTINUOUS
 62
     7
 10
1863.205608603093
 20
2702.329494307424
 30
0.0
  0
VERTEX
  5
6BA
  8
0
  6
CONTINUOUS
 62
     7
 10
1863.212402956678
 20
2702.328561929222
 30
0.0
  0
VERTEX
  5
6BB
  8
0
  6
CONTINUOUS
 62
     7
 10
1863.219261521356
 20
2702.327781054881
 30
0.0
  0
VERTEX
  5
6BC
  8
0
  6
CONTINUOUS
 62
     7
 10
1863.226168244357
 20
2702.327113808435
 30
0.0
  0
VERTEX
  5
6BD
  8
0
  6
CONTINUOUS
 62
     7
 10
1863.233107072906
 20
2702.32652231392
 30
0.0
  0
VERTEX
  5
6BE
  8
0
  6
CONTINUOUS
 62
     7
 10
1863.240061954228
 20
2702.32596869537
 30
0.0
  0
SEQEND
  5
70E
  8
0
  6
CONTINUOUS
 62
     7
  0
LINE
  5
17E
  8
0
  6
CONTINUOUS
 62
     7
 10
1864.040061954228
 20
2702.32596869537
 30
0.0
 11
1863.240061954228
 21
2702.32596869537
 31
0.0
  0
ARC
  5
17F
  8
0
  6
CONTINUOUS
 62
     7
 10
1863.239686688697
 20
2704.546907222517
 30
0.0
 40
0.1996250898584911
 50
89.89229237768994
 51
179.8918858977567
  0
LINE
  5
180
  8
0
  6
CONTINUOUS
 62
     7
 10
1863.240061954228
 20
2704.746531959654
 30
0.0
 11
1863.240061954228
 21
2703.905343341019
 31
0.0
  0
LINE
  5
181
  8
0
  6
CONTINUOUS
 62
     7
 10
1863.040061954228
 20
2703.706095285634
 30
0.0
 11
1863.040061954228
 21
2704.547283904269
 31
0.0
  0
LINE
  5
182
  8
0
  6
CONTINUOUS
 62
     7
 10
1864.040061954228
 20
2704.746531959654
 30
0.0
 11
1863.240061954228
 21
2704.746531959654
 31
0.0
  0
LINE
  5
183
  8
0
  6
CONTINUOUS
 62
     7
 10
1863.040061954228
 20
2705.742772236579
 30
0.0
 11
1863.240061954228
 21
2705.742772236579
 31
0.0
  0
LINE
  5
184
  8
0
  6
CONTINUOUS
 62
     7
 10
1863.240061954228
 20
2705.742772236579
 30
0.0
 11
1863.240061954228
 21
2704.746531959654
 31
0.0
  0
LINE
  5
185
  8
0
  6
CONTINUOUS
 62
     7
 10
1863.040061954228
 20
2704.547283904269
 30
0.0
 11
1863.040061954228
 21
2705.742772236579
 31
0.0
  0
LINE
  5
186
  8
0
  6
CONTINUOUS
 62
     7
 10
1863.240061954228
 20
2705.742772236579
 30
0.0
 11
1864.040061954228
 21
2705.742772236579
 31
0.0
  0
LINE
  5
187
  8
0
  6
CONTINUOUS
 62
     7
 10
1863.040061954228
 20
2716.125958466598
 30
0.0
 11
1863.240061954228
 21
2716.125958466598
 31
0.0
  0
LINE
  5
188
  8
0
  6
CONTINUOUS
 62
     7
 10
1863.240061954228
 20
2716.125958466598
 30
0.0
 11
1863.240061954228
 21
2705.742772236579
 31
0.0
  0
LINE
  5
189
  8
0
  6
CONTINUOUS
 62
     7
 10
1863.040061954228
 20
2705.742772236579
 30
0.0
 11
1863.040061954228
 21
2716.125958466598
 31
0.0
  0
LINE
  5
18A
  8
0
  6
CONTINUOUS
 62
     7
 10
1864.040061954228
 20
2716.125958466598
 30
0.0
 11
1863.240061954228
 21
2716.125958466598
 31
0.0
  0
LINE
  5
18B
  8
0
  6
CONTINUOUS
 62
     7
 10
1863.040061954228
 20
2716.125958466598
 30
0.0
 11
1863.040061954228
 21
2716.825958466599
 31
0.0
  0
LINE
  5
18C
  8
0
  6
CONTINUOUS
 62
     8
 10
3057.340061954229
 20
2716.125958466598
 30
0.0
 11
3057.340061954229
 21
2716.825958466598
 31
0.0
  0
LINE
  5
18D
  8
0
  6
CONTINUOUS
 62
     8
 10
2458.840061954229
 20
2716.125958466598
 30
0.0
 11
2458.840061954229
 21
2716.825958466598
 31
0.0
  0
LINE
  5
18E
  8
0
  6
CONTINUOUS
 62
     8
 10
2461.740061954228
 20
2716.825958466598
 30
0.0
 11
2461.740061954228
 21
2716.125958466598
 31
0.0
  0
LINE
  5
18F
  8
0
  6
CONTINUOUS
 62
     8
 10
1863.240061954228
 20
2716.825958466598
 30
0.0
 11
1863.240061954228
 21
2716.125958466598
 31
0.0
  0
LINE
  5
190
  8
0
  6
CONTINUOUS
 62
     7
 10
3897.431141865447
 20
2000.239928679803
 30
0.0
 11
3897.431141865447
 21
1979.739928679804
 31
0.0
  0
LINE
  5
191
  8
0
  6
CONTINUOUS
 62
     7
 10
3897.431141865447
 20
1979.739928679804
 30
0.0
 11
3898.931141865447
 21
1979.739928679804
 31
0.0
  0
LINE
  5
192
  8
0
  6
CONTINUOUS
 62
     7
 10
3898.931141865447
 20
1637.239928679804
 30
0.0
 11
3898.931141865447
 21
1979.739928679804
 31
0.0
  0
LINE
  5
193
  8
0
  6
CONTINUOUS
 62
     7
 10
3880.931141865447
 20
1637.239928679804
 30
0.0
 11
3898.931141865447
 21
1637.239928679804
 31
0.0
  0
LINE
  5
194
  8
0
  6
CONTINUOUS
 62
     7
 10
3880.931141865447
 20
1637.239928679804
 30
0.0
 11
3880.931141865447
 21
2013.239928679804
 31
0.0
  0
LINE
  5
195
  8
0
  6
CONTINUOUS
 62
     7
 10
3880.931141865447
 20
2013.239928679804
 30
0.0
 11
3884.931141865447
 21
2013.239928679804
 31
0.0
  0
LINE
  5
196
  8
0
  6
CONTINUOUS
 62
     7
 10
3884.931141865447
 20
2013.239928679804
 30
0.0
 11
3884.931141865447
 21
2000.239928679803
 31
0.0
  0
LINE
  5
197
  8
0
  6
CONTINUOUS
 62
     7
 10
3884.931141865447
 20
2000.239928679803
 30
0.0
 11
3897.431141865447
 21
2000.239928679803
 31
0.0
  0
LINE
  5
198
  8
0
  6
CONTINUOUS
 62
     7
 10
3898.931141865447
 20
2035.239928679804
 30
0.0
 11
3898.931141865447
 21
1996.739928679804
 31
0.0
  0
LINE
  5
199
  8
0
  6
CONTINUOUS
 62
     7
 10
4479.431141865447
 20
2035.239928679804
 30
0.0
 11
3898.931141865447
 21
2035.239928679804
 31
0.0
  0
LINE
  5
19A
  8
0
  6
CONTINUOUS
 62
     7
 10
4479.431141865447
 20
1996.739928679804
 30
0.0
 11
4479.431141865447
 21
2035.239928679804
 31
0.0
  0
LINE
  5
19B
  8
0
  6
CONTINUOUS
 62
     7
 10
3898.931141865447
 20
1996.739928679804
 30
0.0
 11
4479.431141865447
 21
1996.739928679804
 31
0.0
  0
LINE
  5
19C
  8
0
  6
CONTINUOUS
 62
     7
 10
3898.931141865445
 20
1674.739928679803
 30
0.0
 11
3899.431141865447
 21
1674.739928679803
 31
0.0
  0
LINE
  5
19D
  8
0
  6
CONTINUOUS
 62
     7
 10
3898.931141865445
 20
1894.739928679803
 30
0.0
 11
3899.431141865447
 21
1894.739928679803
 31
0.0
  0
LINE
  5
19E
  8
0
  6
CONTINUOUS
 62
     7
 10
3884.713930181989
 20
2013.439928679804
 30
0.0
 11
3885.131141865447
 21
2013.439928679804
 31
0.0
  0
LINE
  5
19F
  8
0
  6
CONTINUOUS
 62
     7
 10
3885.131141865447
 20
2013.439928679804
 30
0.0
 11
3884.931141865447
 21
2013.239928679804
 31
0.0
  0
POLYLINE
  5
1A0
  8
0
  6
CONTINUOUS
 62
     7
 66
     1
 10
0.0
 20
0.0
 30
0.0
  0
VERTEX
  5
6BF
  8
0
  6
CONTINUOUS
 62
     7
 10
3884.713930181989
 20
2013.439928679804
 30
0.0
  0
VERTEX
  5
6C0
  8
0
  6
CONTINUOUS
 62
     7
 10
3884.707578722077
 20
2013.437170747626
 30
0.0
  0
VERTEX
  5
6C1
  8
0
  6
CONTINUOUS
 62
     7
 10
3884.70125066075
 20
2013.434344307878
 30
0.0
  0
VERTEX
  5
6C2
  8
0
  6
CONTINUOUS
 62
     7
 10
3884.694947982182
 20
2013.431448520715
 30
0.0
  0
VERTEX
  5
6C3
  8
0
  6
CONTINUOUS
 62
     7
 10
3884.688671779047
 20
2013.428485363331
 30
0.0
  0
VERTEX
  5
6C4
  8
0
  6
CONTINUOUS
 62
     7
 10
3884.682423144023
 20
2013.425456812923
 30
0.0
  0
VERTEX
  5
6C5
  8
0
  6
CONTINUOUS
 62
     7
 10
3884.676203169783
 20
2013.422364846683
 30
0.0
  0
VERTEX
  5
6C6
  8
0
  6
CONTINUOUS
 62
     7
 10
3884.670012949009
 20
2013.419211441809
 30
0.0
  0
VERTEX
  5
6C7
  8
0
  6
CONTINUOUS
 62
     7
 10
3884.663853574373
 20
2013.415998575494
 30
0.0
  0
VERTEX
  5
6C8
  8
0
  6
CONTINUOUS
 62
     7
 10
3884.657726138552
 20
2013.412728224933
 30
0.0
  0
VERTEX
  5
6C9
  8
0
  6
CONTINUOUS
 62
     7
 10
3884.651631734226
 20
2013.409402367321
 30
0.0
  0
VERTEX
  5
6CA
  8
0
  6
CONTINUOUS
 62
     7
 10
3884.645571454067
 20
2013.406022979854
 30
0.0
  0
VERTEX
  5
6CB
  8
0
  6
CONTINUOUS
 62
     7
 10
3884.639546390754
 20
2013.402592039727
 30
0.0
  0
VERTEX
  5
6CC
  8
0
  6
CONTINUOUS
 62
     7
 10
3884.633557636963
 20
2013.399111524133
 30
0.0
  0
VERTEX
  5
6CD
  8
0
  6
CONTINUOUS
 62
     7
 10
3884.627606285369
 20
2013.395583410269
 30
0.0
  0
VERTEX
  5
6CE
  8
0
  6
CONTINUOUS
 62
     7
 10
3884.621693428651
 20
2013.392009675328
 30
0.0
  0
VERTEX
  5
6CF
  8
0
  6
CONTINUOUS
 62
     7
 10
3884.615820159483
 20
2013.388392296506
 30
0.0
  0
VERTEX
  5
6D0
  8
0
  6
CONTINUOUS
 62
     7
 10
3884.609987570543
 20
2013.384733250999
 30
0.0
  0
VERTEX
  5
6D1
  8
0
  6
CONTINUOUS
 62
     7
 10
3884.604196754508
 20
2013.381034516001
 30
0.0
  0
VERTEX
  5
6D2
  8
0
  6
CONTINUOUS
 62
     7
 10
3884.598448804053
 20
2013.377298068706
 30
0.0
  0
VERTEX
  5
6D3
  8
0
  6
CONTINUOUS
 62
     7
 10
3884.592744811855
 20
2013.37352588631
 30
0.0
  0
VERTEX
  5
6D4
  8
0
  6
CONTINUOUS
 62
     7
 10
3884.58708587059
 20
2013.369719946007
 30
0.0
  0
VERTEX
  5
6D5
  8
0
  6
CONTINUOUS
 62
     7
 10
3884.581473072935
 20
2013.365882224994
 30
0.0
  0
VERTEX
  5
6D6
  8
0
  6
CONTINUOUS
 62
     7
 10
3884.575907511567
 20
2013.362014700463
 30
0.0
  0
VERTEX
  5
6D7
  8
0
  6
CONTINUOUS
 62
     7
 10
3884.570390279161
 20
2013.358119349612
 30
0.0
  0
VERTEX
  5
6D8
  8
0
  6
CONTINUOUS
 62
     7
 10
3884.564922528142
 20
2013.354198227456
 30
0.0
  0
VERTEX
  5
6D9
  8
0
  6
CONTINUOUS
 62
     7
 10
3884.559506469941
 20
2013.350254768418
 30
0.0
  0
VERTEX
  5
6DA
  8
0
  6
CONTINUOUS
 62
     7
 10
3884.554145224832
 20
2013.346293590711
 30
0.0
  0
VERTEX
  5
6DB
  8
0
  6
CONTINUOUS
 62
     7
 10
3884.548841942574
 20
2013.342319350965
 30
0.0
  0
VERTEX
  5
6DC
  8
0
  6
CONTINUOUS
 62
     7
 10
3884.543599772929
 20
2013.338336705812
 30
0.0
  0
VERTEX
  5
6DD
  8
0
  6
CONTINUOUS
 62
     7
 10
3884.538421865659
 20
2013.334350311881
 30
0.0
  0
VERTEX
  5
6DE
  8
0
  6
CONTINUOUS
 62
     7
 10
3884.533311370526
 20
2013.330364825803
 30
0.0
  0
VERTEX
  5
6DF
  8
0
  6
CONTINUOUS
 62
     7
 10
3884.528271437293
 20
2013.326384904207
 30
0.0
  0
VERTEX
  5
6E0
  8
0
  6
CONTINUOUS
 62
     7
 10
3884.523305215723
 20
2013.322415203725
 30
0.0
  0
VERTEX
  5
6E1
  8
0
  6
CONTINUOUS
 62
     7
 10
3884.518415855576
 20
2013.318460380985
 30
0.0
  0
VERTEX
  5
6E2
  8
0
  6
CONTINUOUS
 62
     7
 10
3884.513606506615
 20
2013.314525092619
 30
0.0
  0
VERTEX
  5
6E3
  8
0
  6
CONTINUOUS
 62
     7
 10
3884.508880318601
 20
2013.310613995257
 30
0.0
  0
VERTEX
  5
6E4
  8
0
  6
CONTINUOUS
 62
     7
 10
3884.504240441298
 20
2013.306731745529
 30
0.0
  0
VERTEX
  5
6E5
  8
0
  6
CONTINUOUS
 62
     7
 10
3884.499690024466
 20
2013.302883000065
 30
0.0
  0
VERTEX
  5
6E6
  8
0
  6
CONTINUOUS
 62
     7
 10
3884.495232218745
 20
2013.299072416807
 30
0.0
  0
VERTEX
  5
6E7
  8
0
  6
CONTINUOUS
 62
     7
 10
3884.490870554119
 20
2013.295305220987
 30
0.0
  0
VERTEX
  5
6E8
  8
0
  6
CONTINUOUS
 62
     7
 10
3884.486609530544
 20
2013.291588088377
 30
0.0
  0
VERTEX
  5
6E9
  8
0
  6
CONTINUOUS
 62
     7
 10
3884.482453800796
 20
2013.287927923286
 30
0.0
  0
VERTEX
  5
6EA
  8
0
  6
CONTINUOUS
 62
     7
 10
3884.478408017654
 20
2013.284331630025
 30
0.0
  0
VERTEX
  5
6EB
  8
0
  6
CONTINUOUS
 62
     7
 10
3884.474476833895
 20
2013.280806112902
 30
0.0
  0
VERTEX
  5
6EC
  8
0
  6
CONTINUOUS
 62
     7
 10
3884.470664902296
 20
2013.277358276228
 30
0.0
  0
VERTEX
  5
6ED
  8
0
  6
CONTINUOUS
 62
     7
 10
3884.466976875634
 20
2013.273995024311
 30
0.0
  0
VERTEX
  5
6EE
  8
0
  6
CONTINUOUS
 62
     7
 10
3884.463417406689
 20
2013.270723261463
 30
0.0
  0
VERTEX
  5
6EF
  8
0
  6
CONTINUOUS
 62
     7
 10
3884.459991148237
 20
2013.267549891993
 30
0.0
  0
VERTEX
  5
6F0
  8
0
  6
CONTINUOUS
 62
     7
 10
3884.456702753064
 20
2013.264481820218
 30
0.0
  0
VERTEX
  5
6F1
  8
0
  6
CONTINUOUS
 62
     7
 10
3884.453559383344
 20
2013.261528502059
 30
0.0
  0
VERTEX
  5
6F2
  8
0
  6
CONTINUOUS
 62
     7
 10
3884.450577772003
 20
2013.258709125201
 30
0.0
  0
VERTEX
  5
6F3
  8
0
  6
CONTINUOUS
 62
     7
 10
3884.447776933343
 20
2013.256045197082
 30
0.0
  0
VERTEX
  5
6F4
  8
0
  6
CONTINUOUS
 62
     7
 10
3884.445175881669
 20
2013.253558225142
 30
0.0
  0
VERTEX
  5
6F5
  8
0
  6
CONTINUOUS
 62
     7
 10
3884.442793631283
 20
2013.251269716819
 30
0.0
  0
VERTEX
  5
6F6
  8
0
  6
CONTINUOUS
 62
     7
 10
3884.440649196484
 20
2013.249201179551
 30
0.0
  0
VERTEX
  5
6F7
  8
0
  6
CONTINUOUS
 62
     7
 10
3884.438761591577
 20
2013.247374120778
 30
0.0
  0
VERTEX
  5
6F8
  8
0
  6
CONTINUOUS
 62
     7
 10
3884.437148478123
 20
2013.245808672796
 30
0.0
  0
VERTEX
  5
6F9
  8
0
  6
CONTINUOUS
 62
     7
 10
3884.435799464303
 20
2013.244496449969
 30
0.0
  0
VERTEX
  5
6FA
  8
0
  6
CONTINUOUS
 62
     7
 10
3884.434677706274
 20
2013.243402176601
 30
0.0
  0
VERTEX
  5
6FB
  8
0
  6
CONTINUOUS
 62
     7
 10
3884.433745328073
 20
2013.242489527782
 30
0.0
  0
VERTEX
  5
6FC
  8
0
  6
CONTINUOUS
 62
     7
 10
3884.43296445373
 20
2013.241722178603
 30
0.0
  0
VERTEX
  5
6FD
  8
0
  6
CONTINUOUS
 62
     7
 10
3884.432297207285
 20
2013.241063804154
 30
0.0
  0
VERTEX
  5
6FE
  8
0
  6
CONTINUOUS
 62
     7
 10
3884.43170571277
 20
2013.240478079524
 30
0.0
  0
VERTEX
  5
6FF
  8
0
  6
CONTINUOUS
 62
     7
 10
3884.431152094219
 20
2013.239928679804
 30
0.0
  0
SEQEND
  5
70F
  8
0
  6
CONTINUOUS
 62
     7
  0
LINE
  5
1A1
  8
0
  6
CONTINUOUS
 62
     7
 10
3897.631141865447
 20
2000.439928679803
 30
0.0
 11
3897.631141865447
 21
1980.439928679804
 31
0.0
  0
LINE
  5
1A2
  8
0
  6
CONTINUOUS
 62
     7
 10
3897.431141865447
 20
1980.239928679804
 30
0.0
 11
3897.631141865447
 21
1980.439928679804
 31
0.0
  0
LINE
  5
1A3
  8
0
  6
CONTINUOUS
 62
     7
 10
3897.631141865447
 20
2000.439928679803
 30
0.0
 11
3897.431141865447
 21
2000.239928679803
 31
0.0
  0
LINE
  5
1A4
  8
0
  6
CONTINUOUS
 62
     7
 10
3885.131141865447
 20
2013.439928679804
 30
0.0
 11
3885.131141865447
 21
2000.439928679803
 31
0.0
  0
ARC
  5
1A5
  8
0
  6
CONTINUOUS
 62
     7
 10
3884.931103539519
 20
2013.232960728712
 30
0.0
 40
0.2999999999999426
 50
99.57658848101983
 51
136.3783470326676
  0
ARC
  5
1A6
  8
0
  6
CONTINUOUS
 62
     7
 10
3885.014286462944
 20
2012.739928679804
 30
0.0
 40
0.8000000000004138
 50
4.969946594675671
 51
99.57658848105103
  0
LINE
  5
1A7
  8
0
  6
CONTINUOUS
 62
     7
 10
3886.652467303118
 20
2003.135968844716
 30
0.0
 11
3885.811278684484
 21
2012.809235236528
 31
0.0
  0
ARC
  5
1A8
  8
0
  6
CONTINUOUS
 62
     7
 10
3887.847955635428
 20
2003.239928679804
 30
0.0
 40
1.200000000000045
 50
184.9699465946793
 51
270.0000000000008
  0
LINE
  5
1A9
  8
0
  6
CONTINUOUS
 62
     7
 10
3898.231141865447
 20
2002.039928679804
 30
0.0
 11
3887.847955635428
 21
2002.039928679804
 31
0.0
  0
LINE
  5
1AA
  8
0
  6
CONTINUOUS
 62
     7
 10
3897.631141865447
 20
1980.439928679804
 30
0.0
 11
3899.031141865447
 21
1980.439928679804
 31
0.0
  0
LINE
  5
1AB
  8
0
  6
CONTINUOUS
 62
     7
 10
3885.131141865447
 20
2000.439928679803
 30
0.0
 11
3897.631141865447
 21
2000.439928679803
 31
0.0
  0
LINE
  5
1AC
  8
0
  6
CONTINUOUS
 62
     7
 10
3899.031141865447
 20
1980.239928679803
 30
0.0
 11
3897.431141865447
 21
1980.239928679803
 31
0.0
  0
LINE
  5
1AD
  8
0
  6
CONTINUOUS
 62
     7
 10
3899.031141865447
 20
1980.239928679803
 30
0.0
 11
3899.031141865447
 21
1980.439928679804
 31
0.0
  0
ARC
  5
1AE
  8
0
  6
CONTINUOUS
 62
     7
 10
3884.931103539519
 20
2013.232960728712
 30
0.0
 40
0.5000000000000815
 50
99.57658848106543
 51
179.20150577385
  0
LINE
  5
1AF
  8
0
  6
CONTINUOUS
 62
     7
 10
3884.881193785464
 20
2013.528779958056
 30
0.0
 11
3884.847920616094
 21
2013.72599277762
 31
0.0
  0
ARC
  5
1B0
  8
0
  6
CONTINUOUS
 62
     7
 10
3898.231141865447
 20
2001.239928679803
 30
0.0
 40
1.000000000000227
 50
45.57299599918149
 51
90.0
  0
LINE
  5
1B1
  8
0
  6
CONTINUOUS
 62
     7
 10
3898.231141865447
 20
2002.239928679804
 30
0.0
 11
3898.231141865447
 21
2002.039928679804
 31
0.0
  0
LINE
  5
1B2
  8
0
  6
CONTINUOUS
 62
     7
 10
3886.010526739869
 20
2012.82656187571
 30
0.0
 11
3886.851715358503
 21
2003.153295483898
 31
0.0
  0
LINE
  5
1B3
  8
0
  6
CONTINUOUS
 62
     7
 10
3886.851715358503
 20
2003.153295483898
 30
0.0
 11
3886.652467303118
 21
2003.135968844716
 31
0.0
  0
LINE
  5
1B4
  8
0
  6
CONTINUOUS
 62
     7
 10
3885.811278684484
 20
2012.809235236528
 30
0.0
 11
3886.010526739869
 21
2012.82656187571
 31
0.0
  0
ARC
  5
1B5
  8
0
  6
CONTINUOUS
 62
     7
 10
3887.847955635428
 20
2003.239928679804
 30
0.0
 40
1.0
 50
184.9699465946793
 51
270.0000000000008
  0
LINE
  5
1B6
  8
0
  6
CONTINUOUS
 62
     7
 10
3887.847955635428
 20
2002.239928679804
 30
0.0
 11
3887.847955635428
 21
2002.039928679804
 31
0.0
  0
ARC
  5
1B7
  8
0
  6
CONTINUOUS
 62
     7
 10
3885.014286462944
 20
2012.739928679804
 30
0.0
 40
1.000000000000404
 50
4.969946594676236
 51
99.57658848106757
  0
LINE
  5
1B8
  8
0
  6
CONTINUOUS
 62
     7
 10
3885.131141865447
 20
2000.439928679803
 30
0.0
 11
3884.931141865447
 21
2000.239928679803
 31
0.0
  0
LINE
  5
1B9
  8
0
  6
CONTINUOUS
 62
     7
 10
3887.847955635428
 20
2002.239928679804
 30
0.0
 11
3898.231141865447
 21
2002.239928679804
 31
0.0
  0
LINE
  5
1BA
  8
0
  6
CONTINUOUS
 62
     7
 10
3899.231141865448
 20
1980.439928679804
 30
0.0
 11
3899.031141865447
 21
1980.439928679804
 31
0.0
  0
ARC
  5
1BB
  8
0
  6
CONTINUOUS
 62
     7
 10
3899.031141865447
 20
1980.439928679804
 30
0.0
 40
0.2000000000002728
 50
270.0000000000008
 51
0.0
  0
LINE
  5
1BC
  8
0
  6
CONTINUOUS
 62
     7
 10
3899.231141865447
 20
1996.739928679804
 30
0.0
 11
3899.231141865448
 21
1980.439928679804
 31
0.0
  0
LINE
  5
1BD
  8
0
  6
CONTINUOUS
 62
     7
 10
3899.431141865447
 20
1635.239928679803
 30
0.0
 11
3899.431141865447
 21
1996.739928679804
 31
0.0
  0
LINE
  5
1BE
  8
0
  6
CONTINUOUS
 62
     7
 10
3899.431141865447
 20
1635.239928679803
 30
0.0
 11
4479.431141865447
 21
1635.239928679803
 31
0.0
  0
LINE
  5
1BF
  8
0
  6
CONTINUOUS
 62
     7
 10
4479.431141865447
 20
1635.239928679803
 30
0.0
 11
4479.431141865447
 21
1996.739928679804
 31
0.0
  0
ARC
  5
1C0
  8
0
  6
CONTINUOUS
 62
     8
 10
3898.231141865447
 20
2001.239928679803
 30
0.0
 40
0.800000000000223
 50
28.95502437184836
 51
90.0
  0
LINE
  5
1C1
  8
0
  6
CONTINUOUS
 62
     8
 10
3899.031141865447
 20
1980.439928679804
 30
0.0
 11
3899.031141865447
 21
1996.739928679804
 31
0.0
  0
LINE
  5
1C2
  8
0
  6
CONTINUOUS
 62
     7
 10
2376.540061954226
 20
941.9552229666397
 30
0.0
 11
2371.540061954222
 21
941.9552229666397
 31
0.0
  0
LINE
  5
1C3
  8
0
  6
CONTINUOUS
 62
     7
 10
1951.540061954223
 20
941.9552229666396
 30
0.0
 11
1946.540061954223
 21
941.9552229666397
 31
0.0
  0
LINE
  5
1C4
  8
0
  6
CONTINUOUS
 62
     7
 10
3036.040061954223
 20
646.9552229666394
 30
0.0
 11
3041.790061954224
 21
646.9552229666394
 31
0.0
  0
LINE
  5
1C5
  8
0
  6
CONTINUOUS
 62
     7
 10
3043.540061954224
 20
646.9552229666394
 30
0.0
 11
3044.040061954222
 21
646.9552229666394
 31
0.0
  0
LINE
  5
1C6
  8
0
  6
CONTINUOUS
 62
     7
 10
3044.040061954222
 20
652.9552229666394
 30
0.0
 11
3043.540061954224
 21
652.9552229666394
 31
0.0
  0
LINE
  5
1C7
  8
0
  6
CONTINUOUS
 62
     7
 10
3041.790061954224
 20
652.9552229666394
 30
0.0
 11
3036.040061954223
 21
652.9552229666394
 31
0.0
  0
LINE
  5
1C8
  8
0
  6
CONTINUOUS
 62
     7
 10
2974.040061954227
 20
941.9552229666396
 30
0.0
 11
2969.040061954222
 21
941.9552229666396
 31
0.0
  0
LINE
  5
1C9
  8
0
  6
CONTINUOUS
 62
     7
 10
2549.040061954222
 20
941.9552229666396
 30
0.0
 11
2474.040061954222
 21
941.9552229666396
 31
0.0
  0
LINE
  5
1CA
  8
0
  6
CONTINUOUS
 62
     7
 10
2549.040061954227
 20
958.9552229666397
 30
0.0
 11
2549.040061954227
 21
615.9552229666397
 31
0.0
  0
LINE
  5
1CB
  8
0
  6
CONTINUOUS
 62
     7
 10
2969.040061954227
 20
958.9552229666397
 30
0.0
 11
2969.040061954227
 21
615.9552229666397
 31
0.0
  0
LINE
  5
1CC
  8
0
  6
CONTINUOUS
 62
     7
 10
1876.540061954227
 20
598.4552229666396
 30
0.0
 11
3044.040061954227
 21
598.4552229666396
 31
0.0
  0
LINE
  5
1CD
  8
0
  6
CONTINUOUS
 62
     7
 10
1876.540061954227
 20
598.4552229666396
 30
0.0
 11
1876.540061954227
 21
615.9552229666397
 31
0.0
  0
LINE
  5
1CE
  8
0
  6
CONTINUOUS
 62
     7
 10
1876.540061954227
 20
615.9552229666397
 30
0.0
 11
3044.040061954227
 21
615.9552229666397
 31
0.0
  0
LINE
  5
1CF
  8
0
  6
CONTINUOUS
 62
     7
 10
3044.040061954227
 20
598.4552229666396
 30
0.0
 11
3044.040061954227
 21
615.9552229666397
 31
0.0
  0
LINE
  5
1D0
  8
0
  6
CONTINUOUS
 62
     7
 10
1857.790061954227
 20
958.9552229666396
 30
0.0
 11
3062.790061954227
 21
958.9552229666396
 31
0.0
  0
LINE
  5
1D1
  8
0
  6
CONTINUOUS
 62
     7
 10
1857.790061954227
 20
958.9552229666396
 30
0.0
 11
1857.790061954227
 21
997.4552229666398
 31
0.0
  0
LINE
  5
1D2
  8
0
  6
CONTINUOUS
 62
     7
 10
1857.790061954227
 20
997.4552229666398
 30
0.0
 11
3062.790061954227
 21
997.4552229666398
 31
0.0
  0
LINE
  5
1D3
  8
0
  6
CONTINUOUS
 62
     7
 10
3062.790061954227
 20
958.9552229666396
 30
0.0
 11
3062.790061954227
 21
997.4552229666398
 31
0.0
  0
LINE
  5
1D4
  8
0
  6
CONTINUOUS
 62
     7
 10
2446.540061954227
 20
615.9552229666394
 30
0.0
 11
2446.540061954227
 21
958.9552229666396
 31
0.0
  0
LINE
  5
1D5
  8
0
  6
CONTINUOUS
 62
     7
 10
2446.540061954227
 20
958.9552229666396
 30
0.0
 11
2474.040061954227
 21
958.9552229666396
 31
0.0
  0
LINE
  5
1D6
  8
0
  6
CONTINUOUS
 62
     7
 10
2474.040061954227
 20
958.9552229666396
 30
0.0
 11
2474.040061954227
 21
615.9552229666394
 31
0.0
  0
LINE
  5
1D7
  8
0
  6
CONTINUOUS
 62
     7
 10
2474.040061954227
 20
615.9552229666394
 30
0.0
 11
2446.540061954227
 21
615.9552229666394
 31
0.0
  0
LINE
  5
1D8
  8
0
  6
CONTINUOUS
 62
     7
 10
1910.790061954227
 20
641.0052229666395
 30
0.0
 11
1910.790061954227
 21
636.9552229666396
 31
0.0
  0
ARC
  5
1D9
  8
0
  6
CONTINUOUS
 62
     7
 10
1910.590061954227
 20
641.0052229666394
 30
0.0
 40
0.2000000000001592
 50
0.0000000000325689
 51
90.0
  0
ARC
  5
1DA
  8
0
  6
CONTINUOUS
 62
     7
 10
1910.590061954227
 20
642.0052229666396
 30
0.0
 40
0.7999999999999545
 50
180.0
 51
270.0000000000008
  0
LINE
  5
1DB
  8
0
  6
CONTINUOUS
 62
     7
 10
1909.790061954227
 20
643.0052229666395
 30
0.0
 11
1909.790061954227
 21
642.0052229666395
 31
0.0
  0
ARC
  5
1DC
  8
0
  6
CONTINUOUS
 62
     7
 10
1907.590061954226
 20
643.0052229666394
 30
0.0
 40
2.200000000000273
 50
0.0000000000029608
 51
90.0
  0
LINE
  5
1DD
  8
0
  6
CONTINUOUS
 62
     7
 10
1900.990061954227
 20
645.2052229666396
 30
0.0
 11
1907.590061954226
 21
645.2052229666396
 31
0.0
  0
ARC
  5
1DE
  8
0
  6
CONTINUOUS
 62
     7
 10
1900.990061954227
 20
643.0052229666394
 30
0.0
 40
2.200000000000273
 50
90.0
 51
180.0
  0
LINE
  5
1DF
  8
0
  6
CONTINUOUS
 62
     7
 10
1898.790061954227
 20
636.4052229666395
 30
0.0
 11
1898.790061954227
 21
643.0052229666395
 31
0.0
  0
ARC
  5
1E0
  8
0
  6
CONTINUOUS
 62
     7
 10
1900.990061954227
 20
636.4052229666395
 30
0.0
 40
2.200000000000273
 50
180.0
 51
270.0000000000008
  0
LINE
  5
1E1
  8
0
  6
CONTINUOUS
 62
     7
 10
1901.790061954227
 20
634.2052229666396
 30
0.0
 11
1900.990061954227
 21
634.2052229666396
 31
0.0
  0
LINE
  5
1E2
  8
0
  6
CONTINUOUS
 62
     7
 10
1901.790061954227
 20
632.4552229666394
 30
0.0
 11
1901.790061954227
 21
634.2052229666396
 31
0.0
  0
LINE
  5
1E3
  8
0
  6
CONTINUOUS
 62
     7
 10
1900.990061954227
 20
632.4552229666394
 30
0.0
 11
1901.790061954227
 21
632.4552229666394
 31
0.0
  0
ARC
  5
1E4
  8
0
  6
CONTINUOUS
 62
     7
 10
1900.990061954226
 20
636.4052229666394
 30
0.0
 40
3.950000000000045
 50
180.0
 51
270.0000000000074
  0
LINE
  5
1E5
  8
0
  6
CONTINUOUS
 62
     7
 10
1897.040061954227
 20
643.0052229666395
 30
0.0
 11
1897.040061954227
 21
636.4052229666395
 31
0.0
  0
ARC
  5
1E6
  8
0
  6
CONTINUOUS
 62
     7
 10
1900.990061954226
 20
643.0052229666396
 30
0.0
 40
3.950000000000045
 50
89.9999999999934
 51
180.0
  0
LINE
  5
1E7
  8
0
  6
CONTINUOUS
 62
     7
 10
1907.590061954226
 20
646.9552229666396
 30
0.0
 11
1900.990061954227
 21
646.9552229666396
 31
0.0
  0
ARC
  5
1E8
  8
0
  6
CONTINUOUS
 62
     7
 10
1907.590061954227
 20
643.0052229666396
 30
0.0
 40
3.950000000000046
 50
359.9999995166836
 51
90.00000000000331
  0
LINE
  5
1E9
  8
0
  6
CONTINUOUS
 62
     7
 10
1912.540061954227
 20
636.9552229666396
 30
0.0
 11
1912.540061954227
 21
642.0052229666395
 31
0.0
  0
ARC
  5
1EA
  8
0
  6
CONTINUOUS
 62
     7
 10
1912.340061954227
 20
643.0052229666396
 30
0.0
 40
0.7999999999999553
 50
180.0000023863797
 51
269.9999990757611
  0
LINE
  5
1EB
  8
0
  6
CONTINUOUS
 62
     7
 10
1910.790061954227
 20
636.9552229666396
 30
0.0
 11
1912.540061954227
 21
636.9552229666396
 31
0.0
  0
ARC
  5
1EC
  8
0
  6
CONTINUOUS
 62
     7
 10
1912.340061954226
 20
642.0052229666395
 30
0.0
 40
0.2000000000000459
 50
0.0
 51
90.00000369689357
  0
LINE
  5
1ED
  8
0
  6
CONTINUOUS
 62
     7
 10
1900.990061954227
 20
646.9552229666396
 30
0.0
 11
1900.990061954227
 21
655.2552229666395
 31
0.0
  0
LINE
  5
1EE
  8
0
  6
CONTINUOUS
 62
     7
 10
1900.990061954227
 20
655.2552229666395
 30
0.0
 11
1907.990061954227
 21
655.2552229666395
 31
0.0
  0
LINE
  5
1EF
  8
0
  6
CONTINUOUS
 62
     7
 10
1907.990061954227
 20
646.9552229666396
 30
0.0
 11
1907.990061954227
 21
655.2552229666395
 31
0.0
  0
LINE
  5
1F0
  8
0
  6
CONTINUOUS
 62
     7
 10
1900.990061954227
 20
655.2552229666395
 30
0.0
 11
1900.990061954227
 21
658.7552229666347
 31
0.0
  0
LINE
  5
1F1
  8
0
  6
CONTINUOUS
 62
     7
 10
1900.990061954227
 20
658.7552229666396
 30
0.0
 11
1905.931428413187
 21
658.7552229666396
 31
0.0
  0
LINE
  5
1F2
  8
0
  6
CONTINUOUS
 62
     7
 10
1907.990061954227
 20
655.2552229666395
 30
0.0
 11
1907.990061954227
 21
658.4175006268007
 31
0.0
  0
LINE
  5
1F3
  8
0
  6
CONTINUOUS
 62
     7
 10
1900.990061954227
 20
658.8155303458818
 30
0.0
 11
1900.990061954227
 21
658.7552229666695
 31
0.0
  0
LINE
  5
1F4
  8
0
  6
CONTINUOUS
 62
     7
 10
1900.990061954227
 20
659.8471336694384
 30
0.0
 11
1905.368296025929
 21
659.8471336694384
 31
0.0
  0
LINE
  5
1F5
  8
0
  6
CONTINUOUS
 62
     7
 10
1900.990061954227
 20
658.8155303458535
 30
0.0
 11
1900.990061954227
 21
659.8471336694384
 31
0.0
  0
LINE
  5
1F6
  8
0
  6
CONTINUOUS
 62
     7
 10
2507.790061954227
 20
641.0052229666395
 30
0.0
 11
2507.790061954227
 21
636.9552229666396
 31
0.0
  0
ARC
  5
1F7
  8
0
  6
CONTINUOUS
 62
     7
 10
2507.590061954227
 20
641.0052229666394
 30
0.0
 40
0.2000000000001592
 50
0.0000000000325689
 51
90.0
  0
ARC
  5
1F8
  8
0
  6
CONTINUOUS
 62
     7
 10
2507.590061954227
 20
642.0052229666396
 30
0.0
 40
0.8000000000001819
 50
180.0
 51
270.0000000000008
  0
LINE
  5
1F9
  8
0
  6
CONTINUOUS
 62
     7
 10
2506.790061954227
 20
643.0052229666395
 30
0.0
 11
2506.790061954227
 21
642.0052229666395
 31
0.0
  0
ARC
  5
1FA
  8
0
  6
CONTINUOUS
 62
     7
 10
2504.590061954227
 20
643.0052229666394
 30
0.0
 40
2.200000000000159
 50
0.0000000000029608
 51
90.0
  0
LINE
  5
1FB
  8
0
  6
CONTINUOUS
 62
     7
 10
2497.990061954227
 20
645.2052229666396
 30
0.0
 11
2504.590061954227
 21
645.2052229666396
 31
0.0
  0
ARC
  5
1FC
  8
0
  6
CONTINUOUS
 62
     7
 10
2497.990061954227
 20
643.0052229666394
 30
0.0
 40
2.200000000000273
 50
90.0
 51
180.0
  0
LINE
  5
1FD
  8
0
  6
CONTINUOUS
 62
     7
 10
2495.790061954227
 20
636.4052229666395
 30
0.0
 11
2495.790061954227
 21
643.0052229666395
 31
0.0
  0
ARC
  5
1FE
  8
0
  6
CONTINUOUS
 62
     7
 10
2497.990061954227
 20
636.4052229666395
 30
0.0
 40
2.200000000000273
 50
180.0
 51
270.0000000000008
  0
LINE
  5
1FF
  8
0
  6
CONTINUOUS
 62
     7
 10
2498.790061954227
 20
634.2052229666396
 30
0.0
 11
2497.990061954227
 21
634.2052229666396
 31
0.0
  0
LINE
  5
200
  8
0
  6
CONTINUOUS
 62
     7
 10
2498.790061954227
 20
632.4552229666394
 30
0.0
 11
2498.790061954227
 21
634.2052229666396
 31
0.0
  0
LINE
  5
201
  8
0
  6
CONTINUOUS
 62
     7
 10
2497.990061954227
 20
632.4552229666394
 30
0.0
 11
2498.790061954227
 21
632.4552229666394
 31
0.0
  0
ARC
  5
202
  8
0
  6
CONTINUOUS
 62
     7
 10
2497.990061954226
 20
636.4052229666394
 30
0.0
 40
3.950000000000045
 50
180.0
 51
270.0000000000074
  0
LINE
  5
203
  8
0
  6
CONTINUOUS
 62
     7
 10
2494.040061954227
 20
643.0052229666395
 30
0.0
 11
2494.040061954227
 21
636.4052229666395
 31
0.0
  0
ARC
  5
204
  8
0
  6
CONTINUOUS
 62
     7
 10
2497.990061954226
 20
643.0052229666396
 30
0.0
 40
3.950000000000045
 50
89.9999999999934
 51
180.0
  0
LINE
  5
205
  8
0
  6
CONTINUOUS
 62
     7
 10
2504.590061954227
 20
646.9552229666396
 30
0.0
 11
2497.990061954227
 21
646.9552229666396
 31
0.0
  0
ARC
  5
206
  8
0
  6
CONTINUOUS
 62
     7
 10
2509.340061954227
 20
642.0052229666395
 30
0.0
 40
0.2000000000000459
 50
0.0
 51
90.0000036969587
  0
ARC
  5
207
  8
0
  6
CONTINUOUS
 62
     7
 10
2509.340061954227
 20
643.0052229666396
 30
0.0
 40
0.8000000000001826
 50
180.0000023863797
 51
269.9999990757611
  0
LINE
  5
208
  8
0
  6
CONTINUOUS
 62
     7
 10
2509.540061954227
 20
636.9552229666396
 30
0.0
 11
2509.540061954227
 21
642.0052229666395
 31
0.0
  0
LINE
  5
209
  8
0
  6
CONTINUOUS
 62
     7
 10
2507.790061954227
 20
636.9552229666396
 30
0.0
 11
2509.540061954227
 21
636.9552229666396
 31
0.0
  0
ARC
  5
20A
  8
0
  6
CONTINUOUS
 62
     7
 10
2504.590061954227
 20
643.0052229666396
 30
0.0
 40
3.950000000000045
 50
359.9999995166836
 51
90.0000000000066
  0
LINE
  5
20B
  8
0
  6
CONTINUOUS
 62
     7
 10
2497.990061954227
 20
655.2552229666395
 30
0.0
 11
2504.990061954226
 21
655.2552229666395
 31
0.0
  0
LINE
  5
20C
  8
0
  6
CONTINUOUS
 62
     7
 10
2497.990061954227
 20
655.2552229666395
 30
0.0
 11
2497.990061954227
 21
658.7552229666347
 31
0.0
  0
LINE
  5
20D
  8
0
  6
CONTINUOUS
 62
     7
 10
2497.990061954227
 20
658.7552229666396
 30
0.0
 11
2502.931428413187
 21
658.7552229666396
 31
0.0
  0
LINE
  5
20E
  8
0
  6
CONTINUOUS
 62
     7
 10
2504.990061954226
 20
655.2552229666395
 30
0.0
 11
2504.990061954226
 21
658.4175006268007
 31
0.0
  0
LINE
  5
20F
  8
0
  6
CONTINUOUS
 62
     7
 10
2497.990061954227
 20
646.9552229666396
 30
0.0
 11
2497.990061954227
 21
655.2552229666395
 31
0.0
  0
LINE
  5
210
  8
0
  6
CONTINUOUS
 62
     7
 10
2504.990061954226
 20
646.9552229666396
 30
0.0
 11
2504.990061954226
 21
655.2552229666395
 31
0.0
  0
LINE
  5
211
  8
0
  6
CONTINUOUS
 62
     7
 10
2497.990061954227
 20
658.8155303458818
 30
0.0
 11
2497.990061954227
 21
658.7552229666695
 31
0.0
  0
LINE
  5
212
  8
0
  6
CONTINUOUS
 62
     7
 10
2497.990061954227
 20
659.8471336694384
 30
0.0
 11
2502.368296025929
 21
659.8471336694384
 31
0.0
  0
LINE
  5
213
  8
0
  6
CONTINUOUS
 62
     7
 10
2497.990061954227
 20
658.8155303458535
 30
0.0
 11
2497.990061954227
 21
659.8471336694384
 31
0.0
  0
ARC
  5
214
  8
0
  6
CONTINUOUS
 62
     7
 10
1906.3809093584
 20
639.9406890607079
 30
0.0
 40
2.5000000000001
 50
225.0000000000008
 51
269.9999999999904
  0
LINE
  5
215
  8
0
  6
CONTINUOUS
 62
     7
 10
1903.649951750382
 20
639.136112762793
 30
0.0
 11
1904.613142405434
 21
638.1729221077411
 31
0.0
  0
LINE
  5
216
  8
0
  6
CONTINUOUS
 62
     7
 10
1904.859104346211
 20
640.345265358622
 30
0.0
 11
1903.649951750382
 21
639.136112762793
 31
0.0
  0
LINE
  5
217
  8
0
  6
CONTINUOUS
 62
     7
 10
1905.957652100318
 20
639.2467176045153
 30
0.0
 11
1904.859104346211
 21
640.345265358622
 31
0.0
  0
ARC
  5
218
  8
0
  6
CONTINUOUS
 62
     7
 10
1906.664758881504
 20
639.9538243857016
 30
0.0
 40
1.000000000000088
 50
224.9999999999962
 51
292.6498989714132
  0
ARC
  5
219
  8
0
  6
CONTINUOUS
 62
     7
 10
1900.718994142363
 20
643.2762229666407
 30
0.0
 40
3.859999999999989
 50
293.6602221890225
 51
336.3397778109775
  0
ARC
  5
21A
  8
0
  6
CONTINUOUS
 62
     7
 10
1900.718994142363
 20
636.2051551547746
 30
0.0
 40
3.860000000000048
 50
9.169004714998517
 51
66.33977781097894
  0
LINE
  5
21B
  8
0
  6
CONTINUOUS
 62
     7
 10
1905.884571052952
 20
630.5304296019566
 30
0.0
 11
1904.52967342282
 21
636.8202351670504
 31
0.0
  0
ARC
  5
21C
  8
0
  6
CONTINUOUS
 62
     7
 10
1907.790061954229
 20
624.4551551547748
 30
0.0
 40
2.150000000000204
 50
96.18221463099161
 51
171.8467986880341
  0
ARC
  5
21D
  8
0
  6
CONTINUOUS
 62
     7
 10
1904.88967722578
 20
624.8706890607074
 30
0.0
 40
0.78000000000034
 50
270.0000000000008
 51
351.8467986880503
  0
LINE
  5
21E
  8
0
  6
CONTINUOUS
 62
     7
 10
1903.619378870813
 20
624.0906890607075
 30
0.0
 11
1904.88967722578
 21
624.0906890607075
 31
0.0
  0
ARC
  5
21F
  8
0
  6
CONTINUOUS
 62
     7
 10
1903.619378870813
 20
624.8706890607074
 30
0.0
 40
0.7800000000000651
 50
188.1532085725922
 51
270.0000000000008
  0
ARC
  5
220
  8
0
  6
CONTINUOUS
 62
     7
 10
1900.718994142364
 20
624.4551551547746
 30
0.0
 40
2.150000000000054
 50
8.153198677877677
 51
97.96953880499112
  0
ARC
  5
221
  8
0
  6
CONTINUOUS
 62
     7
 10
1900.254528048297
 20
627.7728005920482
 30
0.0
 40
1.200000000000273
 50
180.0
 51
277.9695368848655
  0
LINE
  5
222
  8
0
  6
CONTINUOUS
 62
     7
 10
1899.054528048297
 20
628.7503626036817
 30
0.0
 11
1899.054528048297
 21
627.7728005920483
 31
0.0
  0
ARC
  5
223
  8
0
  6
CONTINUOUS
 62
     7
 10
1900.254528048297
 20
628.7503626036818
 30
0.0
 40
1.200000000000273
 50
112.6498989714132
 51
180.0
  0
LINE
  5
224
  8
0
  6
CONTINUOUS
 62
     7
 10
1900.460126771118
 20
630.1364394281654
 30
0.0
 11
1899.792409006089
 21
629.8578128241564
 31
0.0
  0
ARC
  5
225
  8
0
  6
CONTINUOUS
 62
     7
 10
1901.230325174797
 20
628.2906890607079
 30
0.0
 40
2.000000000000124
 50
90.0
 51
112.6498989714052
  0
LINE
  5
226
  8
0
  6
CONTINUOUS
 62
     7
 10
1902.128146738193
 20
630.2906890607076
 30
0.0
 11
1901.230325174797
 21
630.2906890607076
 31
0.0
  0
ARC
  5
227
  8
0
  6
CONTINUOUS
 62
     7
 10
1902.128146738193
 20
627.7906890607073
 30
0.0
 40
2.500000000000114
 50
45.00000000000369
 51
89.9999999999948
  0
LINE
  5
228
  8
0
  6
CONTINUOUS
 62
     7
 10
1904.859104346211
 20
628.595265358622
 30
0.0
 11
1903.895913691159
 21
629.5584560136739
 31
0.0
  0
LINE
  5
229
  8
0
  6
CONTINUOUS
 62
     7
 10
1903.649951750382
 20
627.386112762793
 30
0.0
 11
1904.859104346211
 21
628.595265358622
 31
0.0
  0
LINE
  5
22A
  8
0
  6
CONTINUOUS
 62
     7
 10
1902.551403996275
 20
628.4846605168997
 30
0.0
 11
1903.649951750382
 21
627.386112762793
 31
0.0
  0
ARC
  5
22B
  8
0
  6
CONTINUOUS
 62
     7
 10
1901.844297215089
 20
627.7775537357134
 30
0.0
 40
1.000000000000088
 50
44.9999999999954
 51
112.6498989714149
  0
LINE
  5
22C
  8
0
  6
CONTINUOUS
 62
     7
 10
1900.524106796023
 20
628.3102321867207
 30
0.0
 11
1901.459198013249
 21
628.7004289194421
 31
0.0
  0
ARC
  5
22D
  8
0
  6
CONTINUOUS
 62
     7
 10
1900.718994142364
 20
624.4551551547748
 30
0.0
 40
3.860000000000118
 50
23.66022218902174
 51
92.89403417331982
  0
ARC
  5
22E
  8
0
  6
CONTINUOUS
 62
     7
 10
1907.79006195423
 20
624.4551551547744
 30
0.0
 40
3.860000000000035
 50
113.6602221890249
 51
156.3397778109767
  0
ARC
  5
22F
  8
0
  6
CONTINUOUS
 62
     7
 10
1907.79006195423
 20
631.5262229666406
 30
0.0
 40
3.860000000000035
 50
203.6602221890241
 51
246.3397778109759
  0
LINE
  5
230
  8
0
  6
CONTINUOUS
 62
     7
 10
1902.847262799758
 20
636.510069113053
 30
0.0
 11
1904.254528048297
 21
629.9771587329817
 31
0.0
  0
ARC
  5
231
  8
0
  6
CONTINUOUS
 62
     7
 10
1900.718994142364
 20
636.2051551547748
 30
0.0
 40
2.149999999999957
 50
8.153201311960803
 51
83.81778457481067
  0
ARC
  5
232
  8
0
  6
CONTINUOUS
 62
     7
 10
1901.034528048296
 20
639.1181155654577
 30
0.0
 40
0.780000000000072
 50
180.0
 51
263.8177875581886
  0
LINE
  5
233
  8
0
  6
CONTINUOUS
 62
     7
 10
1900.254528048297
 20
640.3632625559572
 30
0.0
 11
1900.254528048297
 21
639.1181155654579
 31
0.0
  0
ARC
  5
234
  8
0
  6
CONTINUOUS
 62
     7
 10
1901.034528048297
 20
640.3632625559572
 30
0.0
 40
0.7800000000000195
 50
96.18221463098014
 51
180.0
  0
ARC
  5
235
  8
0
  6
CONTINUOUS
 62
     7
 10
1900.718994142364
 20
643.2762229666403
 30
0.0
 40
2.150000000000033
 50
276.1822146309864
 51
351.846798688034
  0
ARC
  5
236
  8
0
  6
CONTINUOUS
 62
     7
 10
1903.619378870813
 20
642.8606890607076
 30
0.0
 40
0.78000000000034
 50
90.0
 51
171.8467986880495
  0
LINE
  5
237
  8
0
  6
CONTINUOUS
 62
     7
 10
1904.88967722578
 20
643.6406890607075
 30
0.0
 11
1903.619378870813
 21
643.6406890607075
 31
0.0
  0
ARC
  5
238
  8
0
  6
CONTINUOUS
 62
     7
 10
1904.88967722578
 20
642.8606890607075
 30
0.0
 40
0.7800000000001964
 50
8.153210854304529
 51
90.0
  0
ARC
  5
239
  8
0
  6
CONTINUOUS
 62
     7
 10
1907.278730921796
 20
639.4406890607071
 30
0.0
 40
2.0
 50
270.0000000000008
 51
292.6498989714012
  0
LINE
  5
23A
  8
0
  6
CONTINUOUS
 62
     7
 10
1907.98494930057
 20
639.4211459346943
 30
0.0
 11
1907.049858083343
 21
639.0309492019729
 31
0.0
  0
ARC
  5
23B
  8
0
  6
CONTINUOUS
 62
     7
 10
1907.790061954229
 20
643.2762229666401
 30
0.0
 40
3.860000000000107
 50
203.6602221890225
 51
272.8940341733173
  0
ARC
  5
23C
  8
0
  6
CONTINUOUS
 62
     7
 10
1908.254528048297
 20
639.9585775293668
 30
0.0
 40
1.200000000000045
 50
359.9999999999953
 51
97.96953811718751
  0
LINE
  5
23D
  8
0
  6
CONTINUOUS
 62
     7
 10
1906.3809093584
 20
637.4406890607075
 30
0.0
 11
1907.278730921796
 21
637.4406890607075
 31
0.0
  0
LINE
  5
23E
  8
0
  6
CONTINUOUS
 62
     7
 10
1908.048929325475
 20
637.5949386932496
 30
0.0
 11
1908.716647090504
 21
637.8735652972586
 31
0.0
  0
LINE
  5
23F
  8
0
  6
CONTINUOUS
 62
     7
 10
1908.254528048297
 20
627.3681155654577
 30
0.0
 11
1908.254528048297
 21
628.6132625559571
 31
0.0
  0
ARC
  5
240
  8
0
  6
CONTINUOUS
 62
     7
 10
1907.474528048297
 20
627.3681155654577
 30
0.0
 40
0.779999999999995
 50
276.1822146309643
 51
0.0
  0
ARC
  5
241
  8
0
  6
CONTINUOUS
 62
     7
 10
1908.254528048297
 20
638.9810155177332
 30
0.0
 40
1.200000000000145
 50
292.649898971414
 51
0.0000000000054281
  0
ARC
  5
242
  8
0
  6
CONTINUOUS
 62
     7
 10
1907.474528048297
 20
628.6132625559572
 30
0.0
 40
0.7799999999999727
 50
359.9999999999925
 51
83.81778536903556
  0
ARC
  5
243
  8
0
  6
CONTINUOUS
 62
     7
 10
1907.790061954229
 20
631.5262229666397
 30
0.0
 40
2.150000000000109
 50
207.5911861619021
 51
263.8177853690153
  0
ARC
  5
244
  8
0
  6
CONTINUOUS
 62
     7
 10
1907.790061954229
 20
643.2762229666404
 30
0.0
 40
2.15000000000017
 50
188.1531978500963
 51
277.9695381171834
  0
LINE
  5
245
  8
0
  6
CONTINUOUS
 62
     7
 10
1909.454528048296
 20
638.9810155177333
 30
0.0
 11
1909.454528048296
 21
639.9585775293667
 31
0.0
  0
LINE
  5
246
  8
0
  6
CONTINUOUS
 62
     7
 10
2503.3809093584
 20
637.4406890607075
 30
0.0
 11
2504.278730921796
 21
637.4406890607075
 31
0.0
  0
ARC
  5
247
  8
0
  6
CONTINUOUS
 62
     7
 10
2503.3809093584
 20
639.9406890607079
 30
0.0
 40
2.500000000000261
 50
224.9999999999971
 51
269.9999999999904
  0
LINE
  5
248
  8
0
  6
CONTINUOUS
 62
     7
 10
2500.649951750382
 20
639.136112762793
 30
0.0
 11
2501.613142405434
 21
638.1729221077411
 31
0.0
  0
LINE
  5
249
  8
0
  6
CONTINUOUS
 62
     7
 10
2501.859104346211
 20
640.345265358622
 30
0.0
 11
2500.649951750382
 21
639.136112762793
 31
0.0
  0
LINE
  5
24A
  8
0
  6
CONTINUOUS
 62
     7
 10
2502.957652100318
 20
639.2467176045153
 30
0.0
 11
2501.859104346211
 21
640.345265358622
 31
0.0
  0
ARC
  5
24B
  8
0
  6
CONTINUOUS
 62
     7
 10
2503.664758881504
 20
639.9538243857016
 30
0.0
 40
1.000000000000088
 50
224.9999999999962
 51
292.6498989714012
  0
LINE
  5
24C
  8
0
  6
CONTINUOUS
 62
     7
 10
2504.98494930057
 20
639.4211459346943
 30
0.0
 11
2504.049858083344
 21
639.0309492019729
 31
0.0
  0
ARC
  5
24D
  8
0
  6
CONTINUOUS
 62
     7
 10
2497.718994142363
 20
643.2762229666407
 30
0.0
 40
3.859999999999943
 50
293.6602221890225
 51
336.3397778109762
  0
ARC
  5
24E
  8
0
  6
CONTINUOUS
 62
     7
 10
2497.718994142363
 20
636.2051551547746
 30
0.0
 40
3.860000000000217
 50
9.16900471499798
 51
66.33977781097894
  0
LINE
  5
24F
  8
0
  6
CONTINUOUS
 62
     7
 10
2502.884571052951
 20
630.5304296019566
 30
0.0
 11
2501.52967342282
 21
636.8202351670504
 31
0.0
  0
ARC
  5
250
  8
0
  6
CONTINUOUS
 62
     7
 10
2504.474528048297
 20
628.6132625559572
 30
0.0
 40
0.779999999999882
 50
359.9999999999925
 51
83.81778536903556
  0
LINE
  5
251
  8
0
  6
CONTINUOUS
 62
     7
 10
2505.254528048296
 20
627.3681155654577
 30
0.0
 11
2505.254528048296
 21
628.6132625559571
 31
0.0
  0
ARC
  5
252
  8
0
  6
CONTINUOUS
 62
     7
 10
2504.474528048297
 20
627.3681155654577
 30
0.0
 40
0.779999999999995
 50
276.1822146309643
 51
0.0
  0
ARC
  5
253
  8
0
  6
CONTINUOUS
 62
     7
 10
2504.790061954229
 20
624.4551551547748
 30
0.0
 40
2.150000000000204
 50
96.18221463099161
 51
171.8467986880341
  0
ARC
  5
254
  8
0
  6
CONTINUOUS
 62
     7
 10
2501.88967722578
 20
624.8706890607074
 30
0.0
 40
0.7800000000001148
 50
270.0000000000008
 51
351.846798688048
  0
LINE
  5
255
  8
0
  6
CONTINUOUS
 62
     7
 10
2500.619378870813
 20
624.0906890607075
 30
0.0
 11
2501.88967722578
 21
624.0906890607075
 31
0.0
  0
ARC
  5
256
  8
0
  6
CONTINUOUS
 62
     7
 10
2500.619378870813
 20
624.8706890607074
 30
0.0
 40
0.7800000000000651
 50
188.1532085725922
 51
270.0000000000008
  0
ARC
  5
257
  8
0
  6
CONTINUOUS
 62
     7
 10
2497.718994142364
 20
624.4551551547746
 30
0.0
 40
2.149999999999925
 50
8.153198677878537
 51
97.96953880498509
  0
ARC
  5
258
  8
0
  6
CONTINUOUS
 62
     7
 10
2497.254528048296
 20
627.7728005920482
 30
0.0
 40
1.200000000000013
 50
180.0
 51
277.9695368848978
  0
LINE
  5
259
  8
0
  6
CONTINUOUS
 62
     7
 10
2496.054528048297
 20
628.7503626036817
 30
0.0
 11
2496.054528048297
 21
627.7728005920483
 31
0.0
  0
ARC
  5
25A
  8
0
  6
CONTINUOUS
 62
     7
 10
2497.254528048296
 20
628.7503626036818
 30
0.0
 40
1.200000000000057
 50
112.6498989714032
 51
180.0
  0
LINE
  5
25B
  8
0
  6
CONTINUOUS
 62
     7
 10
2497.460126771118
 20
630.1364394281654
 30
0.0
 11
2496.79240900609
 21
629.8578128241564
 31
0.0
  0
ARC
  5
25C
  8
0
  6
CONTINUOUS
 62
     7
 10
2498.230325174797
 20
628.2906890607079
 30
0.0
 40
2.000000000000037
 50
90.0
 51
112.6498989713991
  0
LINE
  5
25D
  8
0
  6
CONTINUOUS
 62
     7
 10
2499.128146738193
 20
630.2906890607076
 30
0.0
 11
2498.230325174797
 21
630.2906890607076
 31
0.0
  0
ARC
  5
25E
  8
0
  6
CONTINUOUS
 62
     7
 10
2499.128146738193
 20
627.7906890607073
 30
0.0
 40
2.500000000000114
 50
45.00000000000369
 51
90.0
  0
LINE
  5
25F
  8
0
  6
CONTINUOUS
 62
     7
 10
2501.859104346211
 20
628.595265358622
 30
0.0
 11
2500.895913691159
 21
629.5584560136739
 31
0.0
  0
LINE
  5
260
  8
0
  6
CONTINUOUS
 62
     7
 10
2500.649951750382
 20
627.386112762793
 30
0.0
 11
2501.859104346211
 21
628.595265358622
 31
0.0
  0
LINE
  5
261
  8
0
  6
CONTINUOUS
 62
     7
 10
2499.551403996275
 20
628.4846605168997
 30
0.0
 11
2500.649951750382
 21
627.386112762793
 31
0.0
  0
ARC
  5
262
  8
0
  6
CONTINUOUS
 62
     7
 10
2498.844297215089
 20
627.7775537357134
 30
0.0
 40
1.000000000000036
 50
45.00000000001382
 51
112.6498989714269
  0
LINE
  5
263
  8
0
  6
CONTINUOUS
 62
     7
 10
2497.524106796023
 20
628.3102321867207
 30
0.0
 11
2498.45919801325
 21
628.7004289194421
 31
0.0
  0
ARC
  5
264
  8
0
  6
CONTINUOUS
 62
     7
 10
2497.718994142364
 20
624.4551551547748
 30
0.0
 40
3.86000000000013
 50
23.6602221890231
 51
92.8940341733232
  0
ARC
  5
265
  8
0
  6
CONTINUOUS
 62
     7
 10
2504.79006195423
 20
624.4551551547744
 30
0.0
 40
3.860000000000197
 50
113.6602221890218
 51
156.3397778109781
  0
ARC
  5
266
  8
0
  6
CONTINUOUS
 62
     7
 10
2504.79006195423
 20
631.5262229666406
 30
0.0
 40
3.860000000000197
 50
203.6602221890227
 51
246.3397778109791
  0
LINE
  5
267
  8
0
  6
CONTINUOUS
 62
     7
 10
2499.847262799758
 20
636.510069113053
 30
0.0
 11
2501.254528048296
 21
629.9771587329817
 31
0.0
  0
ARC
  5
268
  8
0
  6
CONTINUOUS
 62
     7
 10
2497.718994142364
 20
636.2051551547748
 30
0.0
 40
2.150000000000172
 50
8.153201311959943
 51
83.81778457481067
  0
ARC
  5
269
  8
0
  6
CONTINUOUS
 62
     7
 10
2498.034528048296
 20
639.1181155654577
 30
0.0
 40
0.7800000000000475
 50
180.0
 51
263.8177875582052
  0
LINE
  5
26A
  8
0
  6
CONTINUOUS
 62
     7
 10
2497.254528048296
 20
640.3632625559572
 30
0.0
 11
2497.254528048296
 21
639.1181155654579
 31
0.0
  0
ARC
  5
26B
  8
0
  6
CONTINUOUS
 62
     7
 10
2498.034528048297
 20
640.3632625559572
 30
0.0
 40
0.7800000000002001
 50
96.18221463099675
 51
180.0
  0
ARC
  5
26C
  8
0
  6
CONTINUOUS
 62
     7
 10
2497.718994142364
 20
643.2762229666403
 30
0.0
 40
2.150000000000204
 50
276.1822146309804
 51
351.8467986880348
  0
ARC
  5
26D
  8
0
  6
CONTINUOUS
 62
     7
 10
2500.619378870813
 20
642.8606890607076
 30
0.0
 40
0.7800000000001148
 50
90.0
 51
171.8467986880472
  0
LINE
  5
26E
  8
0
  6
CONTINUOUS
 62
     7
 10
2501.88967722578
 20
643.6406890607075
 30
0.0
 11
2500.619378870813
 21
643.6406890607075
 31
0.0
  0
ARC
  5
26F
  8
0
  6
CONTINUOUS
 62
     7
 10
2501.88967722578
 20
642.8606890607075
 30
0.0
 40
0.7799999999999727
 50
8.153210854309267
 51
90.0
  0
ARC
  5
270
  8
0
  6
CONTINUOUS
 62
     7
 10
2504.79006195423
 20
643.2762229666404
 30
0.0
 40
2.15000000000062
 50
188.1531978500946
 51
277.9695381171774
  0
LINE
  5
271
  8
0
  6
CONTINUOUS
 62
     7
 10
2506.454528048296
 20
638.9810155177333
 30
0.0
 11
2506.454528048296
 21
639.9585775293667
 31
0.0
  0
LINE
  5
272
  8
0
  6
CONTINUOUS
 62
     7
 10
2505.048929325475
 20
637.5949386932496
 30
0.0
 11
2505.716647090504
 21
637.8735652972586
 31
0.0
  0
ARC
  5
273
  8
0
  6
CONTINUOUS
 62
     7
 10
2504.278730921796
 20
639.4406890607071
 30
0.0
 40
2.0
 50
270.0000000000008
 51
292.6498989714012
  0
ARC
  5
274
  8
0
  6
CONTINUOUS
 62
     7
 10
2504.790061954229
 20
643.2762229666401
 30
0.0
 40
3.860000000000152
 50
203.6602221890212
 51
272.8940341733173
  0
ARC
  5
275
  8
0
  6
CONTINUOUS
 62
     7
 10
2505.254528048296
 20
638.9810155177332
 30
0.0
 40
1.200000000000273
 50
292.649898971424
 51
0.0000000000054281
  0
ARC
  5
276
  8
0
  6
CONTINUOUS
 62
     7
 10
2504.790061954229
 20
631.5262229666397
 30
0.0
 40
2.150000000000512
 50
207.5911861618964
 51
263.8177853690092
  0
ARC
  5
277
  8
0
  6
CONTINUOUS
 62
     7
 10
2505.254528048296
 20
639.9585775293668
 30
0.0
 40
1.200000000000273
 50
359.9999999999953
 51
97.96953811717677
  0
LINE
  5
278
  8
0
  6
CONTINUOUS
 62
     7
 10
1909.740061954227
 20
620.7051551547745
 30
0.0
 11
1917.940061954227
 21
620.7051551547745
 31
0.0
  0
LINE
  5
279
  8
0
  6
CONTINUOUS
 62
     7
 10
1909.740061954227
 20
626.5067180364306
 30
0.0
 11
1909.740061954227
 21
620.7051551547745
 31
0.0
  0
ARC
  5
27A
  8
0
  6
CONTINUOUS
 62
     7
 10
1913.840061954227
 20
629.7051551547745
 30
0.0
 40
5.199999999999942
 50
322.0419714193186
 51
217.958028580683
  0
LINE
  5
27B
  8
0
  6
CONTINUOUS
 62
     7
 10
1917.940061954227
 20
620.7051551547745
 30
0.0
 11
1917.940061954227
 21
626.5067180364306
 31
0.0
  0
LINE
  5
27C
  8
0
  6
CONTINUOUS
 62
     7
 10
1918.790061954227
 20
620.7051551547745
 30
0.0
 11
1918.790061954227
 21
628.1122019225669
 31
0.0
  0
LINE
  5
27D
  8
0
  6
CONTINUOUS
 62
     7
 10
1917.940061954227
 20
620.7051551547745
 30
0.0
 11
1918.790061954227
 21
620.7051551547745
 31
0.0
  0
LINE
  5
27E
  8
0
  6
CONTINUOUS
 62
     7
 10
1918.790061954227
 20
634.9051551547745
 30
0.0
 11
1913.840061954227
 21
634.9051551547745
 31
0.0
  0
LINE
  5
27F
  8
0
  6
CONTINUOUS
 62
     7
 10
1918.790061954227
 20
631.298108386982
 30
0.0
 11
1918.790061954227
 21
634.9051551547745
 31
0.0
  0
LINE
  5
280
  8
0
  6
CONTINUOUS
 62
     7
 10
1910.590061954227
 20
634.9051551547745
 30
0.0
 11
1910.590061954227
 21
633.7644038537336
 31
0.0
  0
LINE
  5
281
  8
0
  6
CONTINUOUS
 62
     7
 10
1913.840061954227
 20
634.9051551547745
 30
0.0
 11
1910.590061954227
 21
634.9051551547745
 31
0.0
  0
LINE
  5
282
  8
0
  6
CONTINUOUS
 62
     7
 10
1906.940061954227
 20
633.2051551547745
 30
0.0
 11
1907.790061954227
 21
633.2051551547745
 31
0.0
  0
LINE
  5
283
  8
0
  6
CONTINUOUS
 62
     7
 10
1906.940061954227
 20
634.7051551547745
 30
0.0
 11
1906.940061954227
 21
633.2051551547745
 31
0.0
  0
ARC
  5
284
  8
0
  6
CONTINUOUS
 62
     7
 10
1907.790061954228
 20
630.9551551547761
 30
0.0
 40
3.749999999999886
 50
45.3962440269453
 51
90.00000000002431
  0
ARC
  5
285
  8
0
  6
CONTINUOUS
 62
     7
 10
1907.790061954227
 20
631.2051551547742
 30
0.0
 40
2.0
 50
36.71402945430452
 51
89.99999999999349
  0
LINE
  5
286
  8
0
  6
CONTINUOUS
 62
     7
 10
1907.790061954227
 20
634.7051551547745
 30
0.0
 11
1906.940061954227
 21
634.7051551547745
 31
0.0
  0
ARC
  5
287
  8
0
  6
CONTINUOUS
 62
     7
 10
1900.790061954225
 20
624.455155154773
 30
0.0
 40
3.75
 50
180.0
 51
270.0000000000251
  0
LINE
  5
288
  8
0
  6
CONTINUOUS
 62
     7
 10
1897.040061954227
 20
625.1465829385345
 30
0.0
 11
1897.040061954227
 21
624.4551551547746
 31
0.0
  0
LINE
  5
289
  8
0
  6
CONTINUOUS
 62
     7
 10
1896.542414102666
 20
626.5138591735355
 30
0.0
 11
1897.040061954227
 21
625.1465829385345
 31
0.0
  0
ARC
  5
28A
  8
0
  6
CONTINUOUS
 62
     7
 10
1895.132875171488
 20
626.0008289585472
 30
0.0
 40
1.500000000000056
 50
20.00000000000334
 51
136.8297092601819
  0
LINE
  5
28B
  8
0
  6
CONTINUOUS
 62
     7
 10
1893.304977510632
 20
626.2447325900415
 30
0.0
 11
1894.038889945803
 21
627.0270824973865
 31
0.0
  0
ARC
  5
28C
  8
0
  6
CONTINUOUS
 62
     7
 10
1891.481668801154
 20
627.9551551547777
 30
0.0
 40
2.5
 50
270.0000000000373
 51
316.8297092601398
  0
LINE
  5
28D
  8
0
  6
CONTINUOUS
 62
     7
 10
1879.790061954227
 20
625.4551551547745
 30
0.0
 11
1891.481668801156
 21
625.4551551547745
 31
0.0
  0
ARC
  5
28E
  8
0
  6
CONTINUOUS
 62
     7
 10
1879.790061954227
 20
628.2051551547745
 30
0.0
 40
2.75
 50
180.0
 51
270.0000000000008
  0
LINE
  5
28F
  8
0
  6
CONTINUOUS
 62
     7
 10
1877.040061954227
 20
631.2051551547745
 30
0.0
 11
1877.040061954227
 21
628.2051551547745
 31
0.0
  0
LINE
  5
290
  8
0
  6
CONTINUOUS
 62
     7
 10
1878.790061954227
 20
631.2051551547745
 30
0.0
 11
1877.040061954227
 21
631.2051551547745
 31
0.0
  0
LINE
  5
291
  8
0
  6
CONTINUOUS
 62
     7
 10
1878.790061954227
 20
628.2051551547745
 30
0.0
 11
1878.790061954227
 21
631.2051551547745
 31
0.0
  0
ARC
  5
292
  8
0
  6
CONTINUOUS
 62
     7
 10
1879.790061954226
 20
628.2051551547738
 30
0.0
 40
1.0
 50
180.0
 51
270.0000000000008
  0
LINE
  5
293
  8
0
  6
CONTINUOUS
 62
     7
 10
1891.7360721602
 20
627.2051551547745
 30
0.0
 11
1879.790061954227
 21
627.2051551547745
 31
0.0
  0
ARC
  5
294
  8
0
  6
CONTINUOUS
 62
     7
 10
1891.736072160198
 20
628.2051551547777
 30
0.0
 40
1.000000000000249
 50
270.0000000000008
 51
314.999999999904
  0
LINE
  5
295
  8
0
  6
CONTINUOUS
 62
     7
 10
1893.271606066133
 20
628.3264754983345
 30
0.0
 11
1892.443178941386
 21
627.4980483735875
 31
0.0
  0
ARC
  5
296
  8
0
  6
CONTINUOUS
 62
     7
 10
1895.392926409694
 20
626.2051551547701
 30
0.0
 40
2.999999999999957
 50
90.65295157111338
 51
134.9999999999555
  0
ARC
  5
297
  8
0
  6
CONTINUOUS
 62
     7
 10
1895.324550961099
 20
626.205155154775
 30
0.0
 40
2.999999999999939
 50
19.99999999999481
 51
89.34704842891703
  0
LINE
  5
298
  8
0
  6
CONTINUOUS
 62
     7
 10
1898.790061954227
 20
625.4551551547745
 30
0.0
 11
1898.143628823457
 21
627.2312155847515
 31
0.0
  0
LINE
  5
299
  8
0
  6
CONTINUOUS
 62
     7
 10
1898.790061954227
 20
624.4551551547746
 30
0.0
 11
1898.790061954227
 21
625.4551551547745
 31
0.0
  0
ARC
  5
29A
  8
0
  6
CONTINUOUS
 62
     7
 10
1900.790061954227
 20
624.4551551547748
 30
0.0
 40
2.000000000000114
 50
180.0
 51
270.0000000000008
  0
LINE
  5
29B
  8
0
  6
CONTINUOUS
 62
     7
 10
1907.790061954227
 20
622.4551551547746
 30
0.0
 11
1900.790061954227
 21
622.4551551547746
 31
0.0
  0
ARC
  5
29C
  8
0
  6
CONTINUOUS
 62
     7
 10
1907.790061954227
 20
624.4551551547748
 30
0.0
 40
2.000000000000114
 50
270.0000000000073
 51
347.1614318590184
  0
ARC
  5
29D
  8
0
  6
CONTINUOUS
 62
     7
 10
1907.790061954228
 20
624.455155154773
 30
0.0
 40
3.75
 50
269.9999999999765
 51
301.3322514975776
  0
LINE
  5
29E
  8
0
  6
CONTINUOUS
 62
     7
 10
1900.790061954227
 20
620.7051551547745
 30
0.0
 11
1907.790061954227
 21
620.7051551547745
 31
0.0
  0
LINE
  5
29F
  8
0
  6
CONTINUOUS
 62
     7
 10
1877.040061954227
 20
662.2051551547745
 30
0.0
 11
1878.790061954227
 21
662.2051551547745
 31
0.0
  0
LINE
  5
2A0
  8
0
  6
CONTINUOUS
 62
     7
 10
1877.040061954227
 20
665.2051551547745
 30
0.0
 11
1878.790061954227
 21
665.2051551547745
 31
0.0
  0
LINE
  5
2A1
  8
0
  6
CONTINUOUS
 62
     7
 10
1877.040061954227
 20
665.2051551547751
 30
0.0
 11
1877.040061954227
 21
662.2051551547745
 31
0.0
  0
LINE
  5
2A2
  8
0
  6
CONTINUOUS
 62
     7
 10
1878.790061954227
 20
662.2051551547745
 30
0.0
 11
1878.790061954227
 21
665.2051551547751
 31
0.0
  0
LINE
  5
2A3
  8
0
  6
CONTINUOUS
 62
     7
 10
1877.040061954227
 20
662.2051551547745
 30
0.0
 11
1877.040061954227
 21
631.2051551547745
 31
0.0
  0
LINE
  5
2A4
  8
0
  6
CONTINUOUS
 62
     7
 10
1878.790061954227
 20
631.2051551547745
 30
0.0
 11
1878.790061954227
 21
662.2051551547745
 31
0.0
  0
LINE
  5
2A5
  8
0
  6
CONTINUOUS
 62
     7
 10
2506.740061954226
 20
620.7051551547745
 30
0.0
 11
2514.940061954227
 21
620.7051551547745
 31
0.0
  0
LINE
  5
2A6
  8
0
  6
CONTINUOUS
 62
     7
 10
2506.740061954226
 20
626.5067180364306
 30
0.0
 11
2506.740061954226
 21
620.7051551547745
 31
0.0
  0
ARC
  5
2A7
  8
0
  6
CONTINUOUS
 62
     7
 10
2510.840061954227
 20
629.7051551547745
 30
0.0
 40
5.199999999999942
 50
322.0419714193186
 51
217.958028580683
  0
LINE
  5
2A8
  8
0
  6
CONTINUOUS
 62
     7
 10
2514.940061954227
 20
620.7051551547745
 30
0.0
 11
2514.940061954227
 21
626.5067180364306
 31
0.0
  0
LINE
  5
2A9
  8
0
  6
CONTINUOUS
 62
     7
 10
2515.790061954227
 20
634.9051551547745
 30
0.0
 11
2510.840061954227
 21
634.9051551547745
 31
0.0
  0
LINE
  5
2AA
  8
0
  6
CONTINUOUS
 62
     7
 10
2515.790061954227
 20
631.298108386982
 30
0.0
 11
2515.790061954227
 21
634.9051551547745
 31
0.0
  0
LINE
  5
2AB
  8
0
  6
CONTINUOUS
 62
     7
 10
2507.590061954227
 20
634.9051551547745
 30
0.0
 11
2507.590061954227
 21
633.7644038537336
 31
0.0
  0
LINE
  5
2AC
  8
0
  6
CONTINUOUS
 62
     7
 10
2510.840061954227
 20
634.9051551547745
 30
0.0
 11
2507.590061954227
 21
634.9051551547745
 31
0.0
  0
LINE
  5
2AD
  8
0
  6
CONTINUOUS
 62
     7
 10
2515.790061954227
 20
620.7051551547745
 30
0.0
 11
2515.790061954227
 21
628.1122019225669
 31
0.0
  0
LINE
  5
2AE
  8
0
  6
CONTINUOUS
 62
     7
 10
2514.940061954227
 20
620.7051551547745
 30
0.0
 11
2515.790061954227
 21
620.7051551547745
 31
0.0
  0
LINE
  5
2AF
  8
0
  6
CONTINUOUS
 62
     7
 10
2503.940061954227
 20
634.7051551547745
 30
0.0
 11
2503.940061954227
 21
633.2051551547745
 31
0.0
  0
ARC
  5
2B0
  8
0
  6
CONTINUOUS
 62
     7
 10
2504.790061954228
 20
630.9551551547761
 30
0.0
 40
3.749999999999886
 50
45.3962440269453
 51
90.0000000000278
  0
ARC
  5
2B1
  8
0
  6
CONTINUOUS
 62
     7
 10
2504.790061954227
 20
631.2051551547742
 30
0.0
 40
2.0
 50
36.71402945430452
 51
90.0
  0
LINE
  5
2B2
  8
0
  6
CONTINUOUS
 62
     7
 10
2504.790061954227
 20
634.7051551547745
 30
0.0
 11
2503.940061954227
 21
634.7051551547745
 31
0.0
  0
LINE
  5
2B3
  8
0
  6
CONTINUOUS
 62
     7
 10
2503.940061954227
 20
633.2051551547745
 30
0.0
 11
2504.790061954227
 21
633.2051551547745
 31
0.0
  0
LINE
  5
2B4
  8
0
  6
CONTINUOUS
 62
     7
 10
2497.790061954227
 20
620.7051551547745
 30
0.0
 11
2504.790061954227
 21
620.7051551547745
 31
0.0
  0
ARC
  5
2B5
  8
0
  6
CONTINUOUS
 62
     7
 10
2497.790061954225
 20
624.455155154773
 30
0.0
 40
3.750000000000455
 50
180.0
 51
270.0000000000286
  0
LINE
  5
2B6
  8
0
  6
CONTINUOUS
 62
     7
 10
2494.040061954227
 20
625.1465829385345
 30
0.0
 11
2494.040061954227
 21
624.4551551547746
 31
0.0
  0
LINE
  5
2B7
  8
0
  6
CONTINUOUS
 62
     7
 10
2493.542414102666
 20
626.5138591735355
 30
0.0
 11
2494.040061954227
 21
625.1465829385345
 31
0.0
  0
ARC
  5
2B8
  8
0
  6
CONTINUOUS
 62
     7
 10
2492.132875171488
 20
626.0008289585472
 30
0.0
 40
1.500000000000056
 50
20.00000000000037
 51
136.8297092601819
  0
LINE
  5
2B9
  8
0
  6
CONTINUOUS
 62
     7
 10
2490.304977510631
 20
626.2447325900415
 30
0.0
 11
2491.038889945803
 21
627.0270824973865
 31
0.0
  0
ARC
  5
2BA
  8
0
  6
CONTINUOUS
 62
     7
 10
2488.481668801154
 20
627.9551551547777
 30
0.0
 40
2.5
 50
270.0000000000321
 51
316.8297092601326
  0
LINE
  5
2BB
  8
0
  6
CONTINUOUS
 62
     7
 10
2476.790061954227
 20
625.4551551547745
 30
0.0
 11
2488.481668801156
 21
625.4551551547745
 31
0.0
  0
ARC
  5
2BC
  8
0
  6
CONTINUOUS
 62
     7
 10
2476.790061954227
 20
628.2051551547745
 30
0.0
 40
2.750000000000455
 50
180.0
 51
270.0000000000008
  0
LINE
  5
2BD
  8
0
  6
CONTINUOUS
 62
     7
 10
2475.790061954227
 20
631.2051551547745
 30
0.0
 11
2474.040061954227
 21
631.2051551547745
 31
0.0
  0
LINE
  5
2BE
  8
0
  6
CONTINUOUS
 62
     7
 10
2475.790061954227
 20
628.2051551547745
 30
0.0
 11
2475.790061954227
 21
631.2051551547745
 31
0.0
  0
ARC
  5
2BF
  8
0
  6
CONTINUOUS
 62
     7
 10
2476.790061954226
 20
628.2051551547738
 30
0.0
 40
1.0
 50
180.0
 51
270.0000000000008
  0
LINE
  5
2C0
  8
0
  6
CONTINUOUS
 62
     7
 10
2488.7360721602
 20
627.2051551547745
 30
0.0
 11
2476.790061954227
 21
627.2051551547745
 31
0.0
  0
ARC
  5
2C1
  8
0
  6
CONTINUOUS
 62
     7
 10
2488.736072160198
 20
628.2051551547777
 30
0.0
 40
1.000000000000088
 50
270.0000000000008
 51
314.9999999998948
  0
LINE
  5
2C2
  8
0
  6
CONTINUOUS
 62
     7
 10
2490.271606066133
 20
628.3264754983345
 30
0.0
 11
2489.443178941386
 21
627.4980483735875
 31
0.0
  0
ARC
  5
2C3
  8
0
  6
CONTINUOUS
 62
     7
 10
2492.392926409694
 20
626.2051551547701
 30
0.0
 40
3.000000000000105
 50
90.65295157111338
 51
134.9999999999586
  0
ARC
  5
2C4
  8
0
  6
CONTINUOUS
 62
     7
 10
2492.324550961099
 20
626.205155154775
 30
0.0
 40
3.000000000000135
 50
19.99999999999332
 51
89.347048428904
  0
LINE
  5
2C5
  8
0
  6
CONTINUOUS
 62
     7
 10
2495.790061954227
 20
625.4551551547745
 30
0.0
 11
2495.143628823456
 21
627.2312155847515
 31
0.0
  0
LINE
  5
2C6
  8
0
  6
CONTINUOUS
 62
     7
 10
2495.790061954227
 20
624.4551551547746
 30
0.0
 11
2495.790061954227
 21
625.4551551547745
 31
0.0
  0
ARC
  5
2C7
  8
0
  6
CONTINUOUS
 62
     7
 10
2497.790061954227
 20
624.4551551547748
 30
0.0
 40
2.000000000000114
 50
180.0
 51
270.0000000000008
  0
LINE
  5
2C8
  8
0
  6
CONTINUOUS
 62
     7
 10
2504.790061954227
 20
622.4551551547746
 30
0.0
 11
2497.790061954227
 21
622.4551551547746
 31
0.0
  0
ARC
  5
2C9
  8
0
  6
CONTINUOUS
 62
     7
 10
2504.790061954228
 20
624.455155154773
 30
0.0
 40
3.75
 50
269.999999999973
 51
301.3322514975776
  0
ARC
  5
2CA
  8
0
  6
CONTINUOUS
 62
     7
 10
2504.790061954227
 20
624.4551551547748
 30
0.0
 40
2.000000000000114
 50
270.0000000000008
 51
347.1614318590184
  0
LINE
  5
2CB
  8
0
  6
CONTINUOUS
 62
     7
 10
2474.040061954227
 20
662.2051551547745
 30
0.0
 11
2475.790061954227
 21
662.2051551547745
 31
0.0
  0
LINE
  5
2CC
  8
0
  6
CONTINUOUS
 62
     7
 10
2474.040061954227
 20
665.2051551547745
 30
0.0
 11
2475.790061954227
 21
665.2051551547745
 31
0.0
  0
LINE
  5
2CD
  8
0
  6
CONTINUOUS
 62
     7
 10
2475.790061954227
 20
662.2051551547745
 30
0.0
 11
2475.790061954227
 21
665.2051551547751
 31
0.0
  0
LINE
  5
2CE
  8
0
  6
CONTINUOUS
 62
     7
 10
2475.790061954227
 20
631.2051551547745
 30
0.0
 11
2475.790061954227
 21
662.2051551547745
 31
0.0
  0
LINE
  5
2CF
  8
0
  6
CONTINUOUS
 62
     7
 10
3018.790061954226
 20
632.4552229666394
 30
0.0
 11
3019.590061954227
 21
632.4552229666394
 31
0.0
  0
LINE
  5
2D0
  8
0
  6
CONTINUOUS
 62
     7
 10
3018.790061954226
 20
634.2052229666396
 30
0.0
 11
3018.790061954226
 21
632.4552229666394
 31
0.0
  0
LINE
  5
2D1
  8
0
  6
CONTINUOUS
 62
     7
 10
3019.590061954227
 20
634.2052229666396
 30
0.0
 11
3018.790061954226
 21
634.2052229666396
 31
0.0
  0
ARC
  5
2D2
  8
0
  6
CONTINUOUS
 62
     7
 10
3019.590061954227
 20
636.4052229666395
 30
0.0
 40
2.199999999999932
 50
270.0000000000008
 51
0.0
  0
LINE
  5
2D3
  8
0
  6
CONTINUOUS
 62
     7
 10
3021.790061954227
 20
643.0052229666394
 30
0.0
 11
3021.790061954227
 21
636.4052229666395
 31
0.0
  0
ARC
  5
2D4
  8
0
  6
CONTINUOUS
 62
     7
 10
3019.590061954227
 20
643.0052229666394
 30
0.0
 40
2.200000000000045
 50
0.0
 51
90.0
  0
LINE
  5
2D5
  8
0
  6
CONTINUOUS
 62
     7
 10
3012.990061954226
 20
645.2052229666396
 30
0.0
 11
3019.590061954227
 21
645.2052229666396
 31
0.0
  0
ARC
  5
2D6
  8
0
  6
CONTINUOUS
 62
     7
 10
3012.990061954226
 20
643.0052229666394
 30
0.0
 40
2.200000000000273
 50
90.0
 51
180.0
  0
LINE
  5
2D7
  8
0
  6
CONTINUOUS
 62
     7
 10
3010.790061954226
 20
642.0052229666395
 30
0.0
 11
3010.790061954226
 21
643.0052229666394
 31
0.0
  0
ARC
  5
2D8
  8
0
  6
CONTINUOUS
 62
     7
 10
3009.990061954226
 20
642.0052229666396
 30
0.0
 40
0.7999999999999545
 50
270.0000000000008
 51
359.9999999999927
  0
ARC
  5
2D9
  8
0
  6
CONTINUOUS
 62
     7
 10
3009.990061954226
 20
641.0052229666394
 30
0.0
 40
0.2000000000000455
 50
90.0
 51
180.0
  0
LINE
  5
2DA
  8
0
  6
CONTINUOUS
 62
     7
 10
3009.790061954227
 20
636.9552229666396
 30
0.0
 11
3009.790061954227
 21
641.0052229666395
 31
0.0
  0
LINE
  5
2DB
  8
0
  6
CONTINUOUS
 62
     7
 10
3008.040061954227
 20
636.9552229666396
 30
0.0
 11
3009.790061954227
 21
636.9552229666396
 31
0.0
  0
LINE
  5
2DC
  8
0
  6
CONTINUOUS
 62
     7
 10
3008.040061954227
 20
642.0052229666395
 30
0.0
 11
3008.040061954227
 21
636.9552229666396
 31
0.0
  0
ARC
  5
2DD
  8
0
  6
CONTINUOUS
 62
     7
 10
3008.240061954226
 20
642.0052229666395
 30
0.0
 40
0.2000000000000455
 50
90.0
 51
180.0
  0
ARC
  5
2DE
  8
0
  6
CONTINUOUS
 62
     7
 10
3008.240061954226
 20
643.0052229666396
 30
0.0
 40
0.8000000000001841
 50
270.0000000000008
 51
359.9999957311244
  0
ARC
  5
2DF
  8
0
  6
CONTINUOUS
 62
     7
 10
3012.990061954226
 20
643.0052229666396
 30
0.0
 40
3.950000000000045
 50
90.0
 51
180.0000008645834
  0
LINE
  5
2E0
  8
0
  6
CONTINUOUS
 62
     7
 10
3019.590061954227
 20
646.9552229666396
 30
0.0
 11
3012.990061954226
 21
646.9552229666396
 31
0.0
  0
LINE
  5
2E1
  8
0
  6
CONTINUOUS
 62
     7
 10
3023.540061954227
 20
636.4052229666395
 30
0.0
 11
3023.540061954227
 21
643.0052229666394
 31
0.0
  0
ARC
  5
2E2
  8
0
  6
CONTINUOUS
 62
     7
 10
3019.590061954227
 20
636.4052229666394
 30
0.0
 40
3.950000000000045
 50
270.0000000000008
 51
0.0000000000016491
  0
ARC
  5
2E3
  8
0
  6
CONTINUOUS
 62
     7
 10
3019.590061954227
 20
643.0052229666396
 30
0.0
 40
3.950000000000045
 50
359.9999999999975
 51
90.0
  0
LINE
  5
2E4
  8
0
  6
CONTINUOUS
 62
     7
 10
3012.990061954226
 20
646.9552229666396
 30
0.0
 11
3012.990061954226
 21
655.2552229666395
 31
0.0
  0
LINE
  5
2E5
  8
0
  6
CONTINUOUS
 62
     7
 10
3012.990061954226
 20
655.2552229666395
 30
0.0
 11
3019.990061954227
 21
655.2552229666395
 31
0.0
  0
LINE
  5
2E6
  8
0
  6
CONTINUOUS
 62
     7
 10
3019.990061954227
 20
646.9552229666396
 30
0.0
 11
3019.990061954227
 21
655.2552229666395
 31
0.0
  0
LINE
  5
2E7
  8
0
  6
CONTINUOUS
 62
     7
 10
3012.990061954226
 20
655.2552229666395
 30
0.0
 11
3012.990061954226
 21
658.417500626801
 31
0.0
  0
LINE
  5
2E8
  8
0
  6
CONTINUOUS
 62
     7
 10
3014.648695495266
 20
658.7552229666395
 30
0.0
 11
3019.990061954227
 21
658.7552229666395
 31
0.0
  0
LINE
  5
2E9
  8
0
  6
CONTINUOUS
 62
     7
 10
3019.990061954227
 20
655.2552229666395
 30
0.0
 11
3019.990061954227
 21
658.7552229666347
 31
0.0
  0
LINE
  5
2EA
  8
0
  6
CONTINUOUS
 62
     7
 10
3019.990061954227
 20
658.8155303458818
 30
0.0
 11
3019.990061954227
 21
658.7552229666695
 31
0.0
  0
LINE
  5
2EB
  8
0
  6
CONTINUOUS
 62
     7
 10
3015.211827882524
 20
659.8471336694384
 30
0.0
 11
3019.868296025929
 21
659.8471336694384
 31
0.0
  0
LINE
  5
2EC
  8
0
  6
CONTINUOUS
 62
     7
 10
3019.990061954227
 20
658.8155303458535
 30
0.0
 11
3019.990061954227
 21
659.6865519359576
 31
0.0
  0
LINE
  5
2ED
  8
0
  6
CONTINUOUS
 62
     7
 10
2421.790061954226
 20
632.4552229666394
 30
0.0
 11
2422.590061954227
 21
632.4552229666394
 31
0.0
  0
LINE
  5
2EE
  8
0
  6
CONTINUOUS
 62
     7
 10
2421.790061954226
 20
634.2052229666396
 30
0.0
 11
2421.790061954226
 21
632.4552229666394
 31
0.0
  0
LINE
  5
2EF
  8
0
  6
CONTINUOUS
 62
     7
 10
2422.590061954227
 20
634.2052229666396
 30
0.0
 11
2421.790061954226
 21
634.2052229666396
 31
0.0
  0
ARC
  5
2F0
  8
0
  6
CONTINUOUS
 62
     7
 10
2422.590061954227
 20
636.4052229666395
 30
0.0
 40
2.199999999999932
 50
270.0000000000008
 51
0.0
  0
LINE
  5
2F1
  8
0
  6
CONTINUOUS
 62
     7
 10
2424.790061954227
 20
643.0052229666394
 30
0.0
 11
2424.790061954227
 21
636.4052229666395
 31
0.0
  0
LINE
  5
2F2
  8
0
  6
CONTINUOUS
 62
     7
 10
2415.990061954226
 20
645.2052229666396
 30
0.0
 11
2422.590061954227
 21
645.2052229666396
 31
0.0
  0
ARC
  5
2F3
  8
0
  6
CONTINUOUS
 62
     7
 10
2415.990061954226
 20
643.0052229666394
 30
0.0
 40
2.200000000000273
 50
90.0
 51
180.0
  0
LINE
  5
2F4
  8
0
  6
CONTINUOUS
 62
     7
 10
2413.790061954226
 20
642.0052229666395
 30
0.0
 11
2413.790061954226
 21
643.0052229666394
 31
0.0
  0
ARC
  5
2F5
  8
0
  6
CONTINUOUS
 62
     7
 10
2412.990061954226
 20
642.0052229666396
 30
0.0
 40
0.7999999999999545
 50
270.0000000000008
 51
359.9999999999927
  0
ARC
  5
2F6
  8
0
  6
CONTINUOUS
 62
     7
 10
2412.990061954226
 20
641.0052229666394
 30
0.0
 40
0.2000000000000455
 50
90.0
 51
180.0
  0
LINE
  5
2F7
  8
0
  6
CONTINUOUS
 62
     7
 10
2412.790061954227
 20
636.9552229666396
 30
0.0
 11
2412.790061954227
 21
641.0052229666395
 31
0.0
  0
LINE
  5
2F8
  8
0
  6
CONTINUOUS
 62
     7
 10
2411.040061954227
 20
636.9552229666396
 30
0.0
 11
2412.790061954227
 21
636.9552229666396
 31
0.0
  0
LINE
  5
2F9
  8
0
  6
CONTINUOUS
 62
     7
 10
2411.040061954227
 20
642.0052229666395
 30
0.0
 11
2411.040061954227
 21
636.9552229666396
 31
0.0
  0
ARC
  5
2FA
  8
0
  6
CONTINUOUS
 62
     7
 10
2411.240061954226
 20
642.0052229666395
 30
0.0
 40
0.2000000000000455
 50
90.0
 51
180.0
  0
ARC
  5
2FB
  8
0
  6
CONTINUOUS
 62
     7
 10
2411.240061954226
 20
643.0052229666396
 30
0.0
 40
0.8000000000001841
 50
270.0000000000008
 51
359.9999957311244
  0
ARC
  5
2FC
  8
0
  6
CONTINUOUS
 62
     7
 10
2415.990061954226
 20
643.0052229666396
 30
0.0
 40
3.950000000000045
 50
90.0
 51
180.0000008645834
  0
LINE
  5
2FD
  8
0
  6
CONTINUOUS
 62
     7
 10
2422.590061954227
 20
646.9552229666396
 30
0.0
 11
2415.990061954226
 21
646.9552229666396
 31
0.0
  0
ARC
  5
2FE
  8
0
  6
CONTINUOUS
 62
     7
 10
2422.590061954227
 20
643.0052229666396
 30
0.0
 40
3.950000000000273
 50
359.9999999999975
 51
90.0
  0
LINE
  5
2FF
  8
0
  6
CONTINUOUS
 62
     7
 10
2426.540061954227
 20
636.4052229666395
 30
0.0
 11
2426.540061954227
 21
643.0052229666394
 31
0.0
  0
ARC
  5
300
  8
0
  6
CONTINUOUS
 62
     7
 10
2422.590061954227
 20
636.4052229666394
 30
0.0
 40
3.950000000000273
 50
270.0000000000008
 51
0.0000000000016491
  0
ARC
  5
301
  8
0
  6
CONTINUOUS
 62
     7
 10
2422.590061954227
 20
643.0052229666394
 30
0.0
 40
2.200000000000045
 50
0.0
 51
90.0
  0
LINE
  5
302
  8
0
  6
CONTINUOUS
 62
     7
 10
2415.990061954226
 20
646.9552229666396
 30
0.0
 11
2415.990061954226
 21
655.2552229666395
 31
0.0
  0
LINE
  5
303
  8
0
  6
CONTINUOUS
 62
     7
 10
2415.990061954226
 20
655.2552229666395
 30
0.0
 11
2422.990061954227
 21
655.2552229666395
 31
0.0
  0
LINE
  5
304
  8
0
  6
CONTINUOUS
 62
     7
 10
2422.990061954227
 20
646.9552229666396
 30
0.0
 11
2422.990061954227
 21
655.2552229666395
 31
0.0
  0
LINE
  5
305
  8
0
  6
CONTINUOUS
 62
     7
 10
2415.990061954226
 20
655.2552229666395
 30
0.0
 11
2415.990061954226
 21
658.417500626801
 31
0.0
  0
LINE
  5
306
  8
0
  6
CONTINUOUS
 62
     7
 10
2417.648695495267
 20
658.7552229666395
 30
0.0
 11
2422.990061954227
 21
658.7552229666395
 31
0.0
  0
LINE
  5
307
  8
0
  6
CONTINUOUS
 62
     7
 10
2422.990061954227
 20
655.2552229666395
 30
0.0
 11
2422.990061954227
 21
658.7552229666347
 31
0.0
  0
LINE
  5
308
  8
0
  6
CONTINUOUS
 62
     7
 10
2422.990061954227
 20
658.8155303458818
 30
0.0
 11
2422.990061954227
 21
658.7552229666695
 31
0.0
  0
LINE
  5
309
  8
0
  6
CONTINUOUS
 62
     7
 10
2418.211827882524
 20
659.8471336694384
 30
0.0
 11
2422.868296025928
 21
659.8471336694384
 31
0.0
  0
LINE
  5
30A
  8
0
  6
CONTINUOUS
 62
     7
 10
2422.990061954227
 20
658.8155303458535
 30
0.0
 11
2422.990061954227
 21
659.6865519359575
 31
0.0
  0
ARC
  5
30B
  8
0
  6
CONTINUOUS
 62
     7
 10
3019.790061954226
 20
624.4551551547747
 30
0.0
 40
2.149999999999975
 50
82.03046188281098
 51
171.8467960390209
  0
ARC
  5
30C
  8
0
  6
CONTINUOUS
 62
     7
 10
3016.889677225777
 20
624.8706890607074
 30
0.0
 40
0.7799999999999727
 50
270.0000000000008
 51
351.8468059898104
  0
LINE
  5
30D
  8
0
  6
CONTINUOUS
 62
     7
 10
3015.61937887081
 20
624.0906890607075
 30
0.0
 11
3016.889677225777
 21
624.0906890607075
 31
0.0
  0
ARC
  5
30E
  8
0
  6
CONTINUOUS
 62
     7
 10
3015.61937887081
 20
624.8706890607074
 30
0.0
 40
0.7800000000001148
 50
188.1532013119536
 51
270.0000000000008
  0
ARC
  5
30F
  8
0
  6
CONTINUOUS
 62
     7
 10
3012.718994142361
 20
624.4551551547748
 30
0.0
 40
2.149999999999884
 50
8.153201311964661
 51
83.81778616321749
  0
ARC
  5
310
  8
0
  6
CONTINUOUS
 62
     7
 10
3013.034528048293
 20
627.3681155654577
 30
0.0
 40
0.7799999999999436
 50
180.0
 51
263.8177831798694
  0
LINE
  5
311
  8
0
  6
CONTINUOUS
 62
     7
 10
3012.254528048294
 20
628.6132625559571
 30
0.0
 11
3012.254528048294
 21
627.3681155654577
 31
0.0
  0
ARC
  5
312
  8
0
  6
CONTINUOUS
 62
     7
 10
3013.034528048293
 20
628.6132625559572
 30
0.0
 40
0.779999999999882
 50
96.18221463096444
 51
180.0
  0
ARC
  5
313
  8
0
  6
CONTINUOUS
 62
     7
 10
3012.718994142361
 20
631.52622296664
 30
0.0
 40
2.150000000000214
 50
276.1822146309927
 51
332.4088138380941
  0
LINE
  5
314
  8
0
  6
CONTINUOUS
 62
     7
 10
3015.97938267377
 20
636.8202351670504
 30
0.0
 11
3014.624485043639
 21
630.5304296019566
 31
0.0
  0
ARC
  5
315
  8
0
  6
CONTINUOUS
 62
     7
 10
3019.790061954227
 20
636.2051551547746
 30
0.0
 40
3.860000000000199
 50
113.6602221890211
 51
170.8309952850037
  0
ARC
  5
316
  8
0
  6
CONTINUOUS
 62
     7
 10
3019.790061954227
 20
643.2762229666407
 30
0.0
 40
3.859999999999943
 50
203.660222189027
 51
246.3397778109791
  0
ARC
  5
317
  8
0
  6
CONTINUOUS
 62
     7
 10
3012.718994142361
 20
643.27622296664
 30
0.0
 40
3.860000000000106
 50
267.1059658266843
 51
336.339777810982
  0
LINE
  5
318
  8
0
  6
CONTINUOUS
 62
     7
 10
3013.459198013246
 20
639.0309492019729
 30
0.0
 11
3012.52410679602
 21
639.4211459346943
 31
0.0
  0
ARC
  5
319
  8
0
  6
CONTINUOUS
 62
     7
 10
3013.844297215086
 20
639.9538243857018
 30
0.0
 40
1.000000000000141
 50
247.3501010285764
 51
314.9999999999824
  0
LINE
  5
31A
  8
0
  6
CONTINUOUS
 62
     7
 10
3015.649951750379
 20
640.345265358622
 30
0.0
 11
3014.551403996272
 21
639.2467176045153
 31
0.0
  0
LINE
  5
31B
  8
0
  6
CONTINUOUS
 62
     7
 10
3016.859104346208
 20
639.136112762793
 30
0.0
 11
3015.649951750379
 21
640.345265358622
 31
0.0
  0
LINE
  5
31C
  8
0
  6
CONTINUOUS
 62
     7
 10
3015.895913691156
 20
638.1729221077411
 30
0.0
 11
3016.859104346208
 21
639.136112762793
 31
0.0
  0
ARC
  5
31D
  8
0
  6
CONTINUOUS
 62
     7
 10
3014.12814673819
 20
639.9406890607079
 30
0.0
 40
2.500000000000342
 50
270.0000000000113
 51
315.0000000000026
  0
LINE
  5
31E
  8
0
  6
CONTINUOUS
 62
     7
 10
3013.230325174794
 20
637.4406890607075
 30
0.0
 11
3014.12814673819
 21
637.4406890607075
 31
0.0
  0
ARC
  5
31F
  8
0
  6
CONTINUOUS
 62
     7
 10
3013.230325174794
 20
639.4406890607071
 30
0.0
 40
2.000000000000037
 50
247.3501010286017
 51
270.0000000000008
  0
LINE
  5
320
  8
0
  6
CONTINUOUS
 62
     7
 10
3011.792409006086
 20
637.8735652972586
 30
0.0
 11
3012.460126771115
 21
637.5949386932496
 31
0.0
  0
ARC
  5
321
  8
0
  6
CONTINUOUS
 62
     7
 10
3012.254528048294
 20
638.9810155177332
 30
0.0
 40
1.200000000000232
 50
180.0
 51
247.3501010285776
  0
LINE
  5
322
  8
0
  6
CONTINUOUS
 62
     7
 10
3011.054528048294
 20
639.9585775293667
 30
0.0
 11
3011.054528048294
 21
638.9810155177333
 31
0.0
  0
ARC
  5
323
  8
0
  6
CONTINUOUS
 62
     7
 10
3012.254528048294
 20
639.9585775293668
 30
0.0
 40
1.199999999999908
 50
82.03046188282323
 51
180.0
  0
ARC
  5
324
  8
0
  6
CONTINUOUS
 62
     7
 10
3012.718994142361
 20
643.2762229666405
 30
0.0
 40
2.150000000000191
 50
262.0304618828126
 51
351.8467948584972
  0
ARC
  5
325
  8
0
  6
CONTINUOUS
 62
     7
 10
3015.61937887081
 20
642.8606890607076
 30
0.0
 40
0.7799999999999727
 50
90.0
 51
171.8468092438027
  0
LINE
  5
326
  8
0
  6
CONTINUOUS
 62
     7
 10
3016.889677225777
 20
643.6406890607075
 30
0.0
 11
3015.61937887081
 21
643.6406890607075
 31
0.0
  0
ARC
  5
327
  8
0
  6
CONTINUOUS
 62
     7
 10
3016.889677225777
 20
642.8606890607076
 30
0.0
 40
0.7800000000001148
 50
8.15320131195284
 51
90.0
  0
ARC
  5
328
  8
0
  6
CONTINUOUS
 62
     7
 10
3019.790061954226
 20
643.2762229666401
 30
0.0
 40
2.150000000000188
 50
188.1532013119638
 51
263.8177853690212
  0
ARC
  5
329
  8
0
  6
CONTINUOUS
 62
     7
 10
3019.474528048294
 20
640.3632625559572
 30
0.0
 40
0.779999999999995
 50
0.0
 51
83.81778536903647
  0
LINE
  5
32A
  8
0
  6
CONTINUOUS
 62
     7
 10
3020.254528048294
 20
639.1181155654579
 30
0.0
 11
3020.254528048294
 21
640.3632625559572
 31
0.0
  0
ARC
  5
32B
  8
0
  6
CONTINUOUS
 62
     7
 10
3019.474528048294
 20
639.1181155654577
 30
0.0
 40
0.779999999999968
 50
276.1822061523631
 51
0.000000000008351
  0
ARC
  5
32C
  8
0
  6
CONTINUOUS
 62
     7
 10
3019.790061954226
 20
636.205155154775
 30
0.0
 40
2.150000000000156
 50
96.18221770693756
 51
171.8467986880431
  0
LINE
  5
32D
  8
0
  6
CONTINUOUS
 62
     7
 10
3016.254528048294
 20
629.9771587329817
 30
0.0
 11
3017.661793296832
 21
636.510069113053
 31
0.0
  0
ARC
  5
32E
  8
0
  6
CONTINUOUS
 62
     7
 10
3012.71899414236
 20
631.5262229666406
 30
0.0
 40
3.860000000000197
 50
293.6602221890225
 51
336.3397778109789
  0
ARC
  5
32F
  8
0
  6
CONTINUOUS
 62
     7
 10
3012.71899414236
 20
624.4551551547744
 30
0.0
 40
3.860000000000197
 50
23.66022218902193
 51
66.33977781097828
  0
ARC
  5
330
  8
0
  6
CONTINUOUS
 62
     7
 10
3019.790061954226
 20
624.4551551547748
 30
0.0
 40
3.86000000000013
 50
87.10596582667681
 51
156.3397778109769
  0
LINE
  5
331
  8
0
  6
CONTINUOUS
 62
     7
 10
3019.04985808334
 20
628.7004289194421
 30
0.0
 11
3019.984949300567
 21
628.3102321867207
 31
0.0
  0
ARC
  5
332
  8
0
  6
CONTINUOUS
 62
     7
 10
3018.664758881501
 20
627.7775537357134
 30
0.0
 40
1.000000000000036
 50
67.35010102857306
 51
134.9999999999908
  0
LINE
  5
333
  8
0
  6
CONTINUOUS
 62
     7
 10
3016.859104346208
 20
627.386112762793
 30
0.0
 11
3017.957652100315
 21
628.4846605168997
 31
0.0
  0
LINE
  5
334
  8
0
  6
CONTINUOUS
 62
     7
 10
3015.649951750379
 20
628.595265358622
 30
0.0
 11
3016.859104346208
 21
627.386112762793
 31
0.0
  0
LINE
  5
335
  8
0
  6
CONTINUOUS
 62
     7
 10
3016.613142405431
 20
629.5584560136739
 30
0.0
 11
3015.649951750379
 21
628.595265358622
 31
0.0
  0
ARC
  5
336
  8
0
  6
CONTINUOUS
 62
     7
 10
3018.380909358397
 20
627.7906890607072
 30
0.0
 40
2.50000000000002
 50
90.0
 51
134.9999999999945
  0
LINE
  5
337
  8
0
  6
CONTINUOUS
 62
     7
 10
3019.278730921793
 20
630.2906890607076
 30
0.0
 11
3018.380909358397
 21
630.2906890607076
 31
0.0
  0
ARC
  5
338
  8
0
  6
CONTINUOUS
 62
     7
 10
3019.278730921793
 20
628.2906890607079
 30
0.0
 40
2.0
 50
67.35010102859961
 51
90.0
  0
LINE
  5
339
  8
0
  6
CONTINUOUS
 62
     7
 10
3020.7166470905
 20
629.8578128241564
 30
0.0
 11
3020.048929325472
 21
630.1364394281654
 31
0.0
  0
ARC
  5
33A
  8
0
  6
CONTINUOUS
 62
     7
 10
3020.254528048294
 20
628.7503626036818
 30
0.0
 40
1.200000000000057
 50
359.9999999999953
 51
67.35010102859687
  0
LINE
  5
33B
  8
0
  6
CONTINUOUS
 62
     7
 10
3021.454528048293
 20
627.7728005920483
 30
0.0
 11
3021.454528048293
 21
628.7503626036817
 31
0.0
  0
ARC
  5
33C
  8
0
  6
CONTINUOUS
 62
     7
 10
3020.254528048294
 20
627.7728005920482
 30
0.0
 40
1.199999999999971
 50
262.0304618828026
 51
0.0000000000054281
  0
ARC
  5
33D
  8
0
  6
CONTINUOUS
 62
     7
 10
2422.790061954227
 20
624.4551551547747
 30
0.0
 40
2.150000000000424
 50
82.03046188282298
 51
171.8467960390226
  0
ARC
  5
33E
  8
0
  6
CONTINUOUS
 62
     7
 10
2419.889677225777
 20
624.8706890607074
 30
0.0
 40
0.7799999999999727
 50
270.0000000000008
 51
351.8468059898104
  0
LINE
  5
33F
  8
0
  6
CONTINUOUS
 62
     7
 10
2418.61937887081
 20
624.0906890607075
 30
0.0
 11
2419.889677225777
 21
624.0906890607075
 31
0.0
  0
ARC
  5
340
  8
0
  6
CONTINUOUS
 62
     7
 10
2418.61937887081
 20
624.8706890607074
 30
0.0
 40
0.780000000000565
 50
188.1532013119489
 51
270.0000000000008
  0
ARC
  5
341
  8
0
  6
CONTINUOUS
 62
     7
 10
2415.718994142361
 20
624.4551551547748
 30
0.0
 40
2.150000000000188
 50
8.153201311962944
 51
83.81778616321749
  0
ARC
  5
342
  8
0
  6
CONTINUOUS
 62
     7
 10
2416.034528048293
 20
627.3681155654577
 30
0.0
 40
0.7799999999999436
 50
180.0
 51
263.8177831798694
  0
LINE
  5
343
  8
0
  6
CONTINUOUS
 62
     7
 10
2415.254528048294
 20
628.6132625559571
 30
0.0
 11
2415.254528048294
 21
627.3681155654577
 31
0.0
  0
ARC
  5
344
  8
0
  6
CONTINUOUS
 62
     7
 10
2416.034528048294
 20
628.6132625559572
 30
0.0
 40
0.7800000000002001
 50
96.18221463099765
 51
180.0
  0
ARC
  5
345
  8
0
  6
CONTINUOUS
 62
     7
 10
2415.718994142361
 20
631.52622296664
 30
0.0
 40
2.150000000000214
 50
276.1822146309927
 51
332.4088138380941
  0
LINE
  5
346
  8
0
  6
CONTINUOUS
 62
     7
 10
2418.97938267377
 20
636.8202351670504
 30
0.0
 11
2417.624485043639
 21
630.5304296019566
 31
0.0
  0
ARC
  5
347
  8
0
  6
CONTINUOUS
 62
     7
 10
2422.790061954227
 20
636.2051551547746
 30
0.0
 40
3.860000000000199
 50
113.6602221890211
 51
170.8309952850037
  0
ARC
  5
348
  8
0
  6
CONTINUOUS
 62
     7
 10
2422.790061954227
 20
643.2762229666407
 30
0.0
 40
3.859999999999943
 50
203.660222189027
 51
246.3397778109791
  0
ARC
  5
349
  8
0
  6
CONTINUOUS
 62
     7
 10
2415.718994142361
 20
643.27622296664
 30
0.0
 40
3.860000000000106
 50
267.1059658266843
 51
336.339777810982
  0
LINE
  5
34A
  8
0
  6
CONTINUOUS
 62
     7
 10
2416.459198013246
 20
639.0309492019729
 30
0.0
 11
2415.52410679602
 21
639.4211459346943
 31
0.0
  0
ARC
  5
34B
  8
0
  6
CONTINUOUS
 62
     7
 10
2416.844297215086
 20
639.9538243857018
 30
0.0
 40
1.000000000000169
 50
247.3501010286004
 51
315.0000000000008
  0
LINE
  5
34C
  8
0
  6
CONTINUOUS
 62
     7
 10
2418.649951750379
 20
640.345265358622
 30
0.0
 11
2417.551403996272
 21
639.2467176045153
 31
0.0
  0
LINE
  5
34D
  8
0
  6
CONTINUOUS
 62
     7
 10
2419.859104346208
 20
639.136112762793
 30
0.0
 11
2418.649951750379
 21
640.345265358622
 31
0.0
  0
LINE
  5
34E
  8
0
  6
CONTINUOUS
 62
     7
 10
2418.895913691156
 20
638.1729221077411
 30
0.0
 11
2419.859104346208
 21
639.136112762793
 31
0.0
  0
ARC
  5
34F
  8
0
  6
CONTINUOUS
 62
     7
 10
2417.12814673819
 20
639.9406890607079
 30
0.0
 40
2.500000000000342
 50
270.0000000000113
 51
315.0000000000026
  0
LINE
  5
350
  8
0
  6
CONTINUOUS
 62
     7
 10
2416.230325174794
 20
637.4406890607075
 30
0.0
 11
2417.12814673819
 21
637.4406890607075
 31
0.0
  0
ARC
  5
351
  8
0
  6
CONTINUOUS
 62
     7
 10
2416.230325174794
 20
639.4406890607071
 30
0.0
 40
2.000000000000037
 50
247.3501010286017
 51
270.0000000000008
  0
LINE
  5
352
  8
0
  6
CONTINUOUS
 62
     7
 10
2414.792409006086
 20
637.8735652972586
 30
0.0
 11
2415.460126771115
 21
637.5949386932496
 31
0.0
  0
ARC
  5
353
  8
0
  6
CONTINUOUS
 62
     7
 10
2415.254528048294
 20
638.9810155177332
 30
0.0
 40
1.200000000000273
 50
180.0
 51
247.3501010285776
  0
LINE
  5
354
  8
0
  6
CONTINUOUS
 62
     7
 10
2414.054528048294
 20
639.9585775293667
 30
0.0
 11
2414.054528048294
 21
638.9810155177333
 31
0.0
  0
ARC
  5
355
  8
0
  6
CONTINUOUS
 62
     7
 10
2415.254528048294
 20
639.9585775293668
 30
0.0
 40
1.200000000000273
 50
82.03046188282323
 51
180.0
  0
ARC
  5
356
  8
0
  6
CONTINUOUS
 62
     7
 10
2415.71899414236
 20
643.2762229666405
 30
0.0
 40
2.150000000000552
 50
262.0304618828246
 51
351.846794858499
  0
ARC
  5
357
  8
0
  6
CONTINUOUS
 62
     7
 10
2418.61937887081
 20
642.8606890607076
 30
0.0
 40
0.7800000000002671
 50
90.0
 51
171.8468092438074
  0
LINE
  5
358
  8
0
  6
CONTINUOUS
 62
     7
 10
2419.889677225777
 20
643.6406890607075
 30
0.0
 11
2418.61937887081
 21
643.6406890607075
 31
0.0
  0
ARC
  5
359
  8
0
  6
CONTINUOUS
 62
     7
 10
2419.889677225777
 20
642.8606890607076
 30
0.0
 40
0.7799999999999727
 50
8.153201311957577
 51
90.0
  0
ARC
  5
35A
  8
0
  6
CONTINUOUS
 62
     7
 10
2422.790061954226
 20
643.2762229666401
 30
0.0
 40
2.150000000000188
 50
188.1532013119638
 51
263.8177853690212
  0
ARC
  5
35B
  8
0
  6
CONTINUOUS
 62
     7
 10
2422.474528048293
 20
640.3632625559572
 30
0.0
 40
0.7800000000002001
 50
0.0
 51
83.81778536900325
  0
LINE
  5
35C
  8
0
  6
CONTINUOUS
 62
     7
 10
2423.254528048294
 20
639.1181155654579
 30
0.0
 11
2423.254528048294
 21
640.3632625559572
 31
0.0
  0
ARC
  5
35D
  8
0
  6
CONTINUOUS
 62
     7
 10
2422.474528048293
 20
639.1181155654577
 30
0.0
 40
0.7800000000002001
 50
276.1822061523962
 51
0.000000000008351
  0
ARC
  5
35E
  8
0
  6
CONTINUOUS
 62
     7
 10
2422.790061954226
 20
636.205155154775
 30
0.0
 40
2.150000000000156
 50
96.18221770693756
 51
171.8467986880431
  0
LINE
  5
35F
  8
0
  6
CONTINUOUS
 62
     7
 10
2419.254528048294
 20
629.9771587329817
 30
0.0
 11
2420.661793296832
 21
636.510069113053
 31
0.0
  0
ARC
  5
360
  8
0
  6
CONTINUOUS
 62
     7
 10
2415.71899414236
 20
631.5262229666406
 30
0.0
 40
3.860000000000197
 50
293.6602221890287
 51
336.3397778109789
  0
ARC
  5
361
  8
0
  6
CONTINUOUS
 62
     7
 10
2415.71899414236
 20
624.4551551547744
 30
0.0
 40
3.860000000000197
 50
23.66022218902193
 51
66.3397778109721
  0
ARC
  5
362
  8
0
  6
CONTINUOUS
 62
     7
 10
2422.790061954226
 20
624.4551551547748
 30
0.0
 40
3.860000000000107
 50
87.10596582668354
 51
156.3397778109769
  0
LINE
  5
363
  8
0
  6
CONTINUOUS
 62
     7
 10
2422.049858083341
 20
628.7004289194421
 30
0.0
 11
2422.984949300567
 21
628.3102321867207
 31
0.0
  0
ARC
  5
364
  8
0
  6
CONTINUOUS
 62
     7
 10
2421.664758881501
 20
627.7775537357134
 30
0.0
 40
1.000000000000036
 50
67.35010102857306
 51
135.0000000000092
  0
LINE
  5
365
  8
0
  6
CONTINUOUS
 62
     7
 10
2419.859104346208
 20
627.386112762793
 30
0.0
 11
2420.957652100315
 21
628.4846605168997
 31
0.0
  0
LINE
  5
366
  8
0
  6
CONTINUOUS
 62
     7
 10
2418.649951750379
 20
628.595265358622
 30
0.0
 11
2419.859104346208
 21
627.386112762793
 31
0.0
  0
LINE
  5
367
  8
0
  6
CONTINUOUS
 62
     7
 10
2419.613142405431
 20
629.5584560136739
 30
0.0
 11
2418.649951750379
 21
628.595265358622
 31
0.0
  0
ARC
  5
368
  8
0
  6
CONTINUOUS
 62
     7
 10
2421.380909358398
 20
627.7906890607072
 30
0.0
 40
2.500000000000342
 50
90.00000000001042
 51
135.0000000000018
  0
LINE
  5
369
  8
0
  6
CONTINUOUS
 62
     7
 10
2422.278730921793
 20
630.2906890607076
 30
0.0
 11
2421.380909358397
 21
630.2906890607076
 31
0.0
  0
ARC
  5
36A
  8
0
  6
CONTINUOUS
 62
     7
 10
2422.278730921793
 20
628.2906890607079
 30
0.0
 40
2.0
 50
67.35010102859961
 51
90.0
  0
LINE
  5
36B
  8
0
  6
CONTINUOUS
 62
     7
 10
2423.716647090501
 20
629.8578128241564
 30
0.0
 11
2423.048929325472
 21
630.1364394281654
 31
0.0
  0
ARC
  5
36C
  8
0
  6
CONTINUOUS
 62
     7
 10
2423.254528048294
 20
628.7503626036818
 30
0.0
 40
1.200000000000273
 50
359.9999999999953
 51
67.35010102859687
  0
LINE
  5
36D
  8
0
  6
CONTINUOUS
 62
     7
 10
2424.454528048293
 20
627.7728005920483
 30
0.0
 11
2424.454528048293
 21
628.7503626036817
 31
0.0
  0
ARC
  5
36E
  8
0
  6
CONTINUOUS
 62
     7
 10
2423.254528048294
 20
627.7728005920482
 30
0.0
 40
1.200000000000273
 50
262.0304618828026
 51
0.0000000000054281
  0
LINE
  5
36F
  8
0
  6
CONTINUOUS
 62
     7
 10
2405.640061954226
 20
620.7051551547745
 30
0.0
 11
2413.840061954227
 21
620.7051551547745
 31
0.0
  0
LINE
  5
370
  8
0
  6
CONTINUOUS
 62
     7
 10
2405.640061954226
 20
626.5067180364306
 30
0.0
 11
2405.640061954226
 21
620.7051551547745
 31
0.0
  0
LINE
  5
371
  8
0
  6
CONTINUOUS
 62
     7
 10
2413.840061954227
 20
620.7051551547745
 30
0.0
 11
2413.840061954227
 21
626.5067180364306
 31
0.0
  0
ARC
  5
372
  8
0
  6
CONTINUOUS
 62
     7
 10
2409.740061954227
 20
629.7051551547745
 30
0.0
 40
5.200000000000301
 50
322.0419714193186
 51
217.9580285806799
  0
LINE
  5
373
  8
0
  6
CONTINUOUS
 62
     7
 10
2422.790061954227
 20
622.4551551547746
 30
0.0
 11
2415.790061954227
 21
622.4551551547746
 31
0.0
  0
ARC
  5
374
  8
0
  6
CONTINUOUS
 62
     7
 10
2422.790061954226
 20
624.4551551547748
 30
0.0
 40
2.000000000000455
 50
270.0000000000138
 51
359.9999999999943
  0
LINE
  5
375
  8
0
  6
CONTINUOUS
 62
     7
 10
2424.790061954227
 20
625.4551551547745
 30
0.0
 11
2424.790061954227
 21
624.4551551547746
 31
0.0
  0
LINE
  5
376
  8
0
  6
CONTINUOUS
 62
     7
 10
2425.436495084996
 20
627.2312155847515
 30
0.0
 11
2424.790061954227
 21
625.4551551547745
 31
0.0
  0
ARC
  5
377
  8
0
  6
CONTINUOUS
 62
     7
 10
2428.255572947354
 20
626.205155154775
 30
0.0
 40
3.000000000000096
 50
90.65295157108734
 51
160.0000000000087
  0
ARC
  5
378
  8
0
  6
CONTINUOUS
 62
     7
 10
2428.187197498759
 20
626.2051551547701
 30
0.0
 40
3.000000000000105
 50
45.00000000004146
 51
89.34704842888664
  0
LINE
  5
379
  8
0
  6
CONTINUOUS
 62
     7
 10
2431.136944967068
 20
627.4980483735875
 30
0.0
 11
2430.308517842321
 21
628.3264754983345
 31
0.0
  0
ARC
  5
37A
  8
0
  6
CONTINUOUS
 62
     7
 10
2431.844051748255
 20
628.2051551547777
 30
0.0
 40
1.000000000000169
 50
225.0000000001114
 51
270.0000000000008
  0
LINE
  5
37B
  8
0
  6
CONTINUOUS
 62
     7
 10
2443.790061954227
 20
627.2051551547745
 30
0.0
 11
2431.844051748254
 21
627.2051551547745
 31
0.0
  0
ARC
  5
37C
  8
0
  6
CONTINUOUS
 62
     7
 10
2443.790061954227
 20
628.2051551547738
 30
0.0
 40
1.0
 50
270.0000000000008
 51
0.0
  0
LINE
  5
37D
  8
0
  6
CONTINUOUS
 62
     7
 10
2444.790061954227
 20
631.2051551547745
 30
0.0
 11
2444.790061954227
 21
628.2051551547745
 31
0.0
  0
LINE
  5
37E
  8
0
  6
CONTINUOUS
 62
     7
 10
2432.098455107297
 20
625.4551551547745
 30
0.0
 11
2443.790061954227
 21
625.4551551547745
 31
0.0
  0
ARC
  5
37F
  8
0
  6
CONTINUOUS
 62
     7
 10
2432.098455107299
 20
627.9551551547777
 30
0.0
 40
2.500000000000058
 50
223.1702907398638
 51
269.9999999999591
  0
LINE
  5
380
  8
0
  6
CONTINUOUS
 62
     7
 10
2429.54123396265
 20
627.0270824973865
 30
0.0
 11
2430.275146397822
 21
626.2447325900415
 31
0.0
  0
ARC
  5
381
  8
0
  6
CONTINUOUS
 62
     7
 10
2428.447248736965
 20
626.0008289585472
 30
0.0
 40
1.500000000000056
 50
43.17029073981811
 51
160.0000000000037
  0
LINE
  5
382
  8
0
  6
CONTINUOUS
 62
     7
 10
2426.540061954227
 20
625.1465829385345
 30
0.0
 11
2427.037709805787
 21
626.5138591735355
 31
0.0
  0
LINE
  5
383
  8
0
  6
CONTINUOUS
 62
     7
 10
2426.540061954227
 20
624.4551551547746
 30
0.0
 11
2426.540061954227
 21
625.1465829385345
 31
0.0
  0
ARC
  5
384
  8
0
  6
CONTINUOUS
 62
     7
 10
2422.790061954228
 20
624.455155154773
 30
0.0
 40
3.75
 50
269.9999999999799
 51
0.0000000000243181
  0
LINE
  5
385
  8
0
  6
CONTINUOUS
 62
     7
 10
2415.790061954227
 20
620.7051551547745
 30
0.0
 11
2422.790061954227
 21
620.7051551547745
 31
0.0
  0
ARC
  5
386
  8
0
  6
CONTINUOUS
 62
     7
 10
2415.790061954225
 20
624.455155154773
 30
0.0
 40
3.750000000000016
 50
238.6677485024181
 51
270.0000000000217
  0
ARC
  5
387
  8
0
  6
CONTINUOUS
 62
     7
 10
2415.790061954227
 20
624.4551551547748
 30
0.0
 40
2.000000000000114
 50
192.8385681409864
 51
269.9999999999878
  0
ARC
  5
388
  8
0
  6
CONTINUOUS
 62
     7
 10
2443.790061954227
 20
628.2051551547745
 30
0.0
 40
2.75
 50
270.0000000000008
 51
0.0
  0
LINE
  5
389
  8
0
  6
CONTINUOUS
 62
     7
 10
2446.540061954227
 20
631.2051551547745
 30
0.0
 11
2444.790061954227
 21
631.2051551547745
 31
0.0
  0
LINE
  5
38A
  8
0
  6
CONTINUOUS
 62
     7
 10
2416.640061954227
 20
634.7051551547744
 30
0.0
 11
2415.790061954227
 21
634.7051551547744
 31
0.0
  0
LINE
  5
38B
  8
0
  6
CONTINUOUS
 62
     7
 10
2416.640061954227
 20
633.2051551547745
 30
0.0
 11
2416.640061954227
 21
634.7051551547744
 31
0.0
  0
LINE
  5
38C
  8
0
  6
CONTINUOUS
 62
     7
 10
2415.790061954227
 20
633.2051551547745
 30
0.0
 11
2416.640061954227
 21
633.2051551547745
 31
0.0
  0
ARC
  5
38D
  8
0
  6
CONTINUOUS
 62
     7
 10
2415.790061954227
 20
631.2051551547742
 30
0.0
 40
2.0
 50
90.00000000001303
 51
143.2859705456955
  0
ARC
  5
38E
  8
0
  6
CONTINUOUS
 62
     7
 10
2415.790061954225
 20
630.9551551547761
 30
0.0
 40
3.750000000000108
 50
89.99999999997915
 51
134.6037559730597
  0
LINE
  5
38F
  8
0
  6
CONTINUOUS
 62
     7
 10
2412.990061954226
 20
634.9051551547745
 30
0.0
 11
2409.740061954227
 21
634.9051551547745
 31
0.0
  0
LINE
  5
390
  8
0
  6
CONTINUOUS
 62
     7
 10
2412.990061954226
 20
633.7644038537336
 30
0.0
 11
2412.990061954226
 21
634.9051551547745
 31
0.0
  0
LINE
  5
391
  8
0
  6
CONTINUOUS
 62
     7
 10
2404.790061954227
 20
634.9051551547745
 30
0.0
 11
2404.790061954227
 21
631.298108386982
 31
0.0
  0
LINE
  5
392
  8
0
  6
CONTINUOUS
 62
     7
 10
2409.740061954227
 20
634.9051551547745
 30
0.0
 11
2404.790061954227
 21
634.9051551547745
 31
0.0
  0
LINE
  5
393
  8
0
  6
CONTINUOUS
 62
     7
 10
2404.790061954227
 20
628.112201922567
 30
0.0
 11
2404.790061954227
 21
620.7051551547745
 31
0.0
  0
LINE
  5
394
  8
0
  6
CONTINUOUS
 62
     7
 10
2404.790061954227
 20
620.7051551547745
 30
0.0
 11
2405.640061954226
 21
620.7051551547745
 31
0.0
  0
LINE
  5
395
  8
0
  6
CONTINUOUS
 62
     7
 10
2444.790061954227
 20
662.2051551547745
 30
0.0
 11
2446.540061954227
 21
662.2051551547745
 31
0.0
  0
LINE
  5
396
  8
0
  6
CONTINUOUS
 62
     7
 10
2444.790061954227
 20
665.2051551547745
 30
0.0
 11
2446.540061954227
 21
665.2051551547745
 31
0.0
  0
LINE
  5
397
  8
0
  6
CONTINUOUS
 62
     7
 10
2444.790061954227
 20
665.2051551547751
 30
0.0
 11
2444.790061954227
 21
662.2051551547745
 31
0.0
  0
LINE
  5
398
  8
0
  6
CONTINUOUS
 62
     7
 10
2444.790061954227
 20
662.2051551547745
 30
0.0
 11
2444.790061954227
 21
631.2051551547745
 31
0.0
  0
LINE
  5
399
  8
0
  6
CONTINUOUS
 62
     7
 10
3002.640061954226
 20
620.7051551547745
 30
0.0
 11
3010.840061954227
 21
620.7051551547745
 31
0.0
  0
LINE
  5
39A
  8
0
  6
CONTINUOUS
 62
     7
 10
3002.640061954226
 20
626.5067180364306
 30
0.0
 11
3002.640061954226
 21
620.7051551547745
 31
0.0
  0
ARC
  5
39B
  8
0
  6
CONTINUOUS
 62
     7
 10
3006.740061954226
 20
629.7051551547745
 30
0.0
 40
5.200000000000301
 50
322.0419714193217
 51
217.958028580683
  0
LINE
  5
39C
  8
0
  6
CONTINUOUS
 62
     7
 10
3010.840061954227
 20
620.7051551547745
 30
0.0
 11
3010.840061954227
 21
626.5067180364306
 31
0.0
  0
LINE
  5
39D
  8
0
  6
CONTINUOUS
 62
     7
 10
3019.790061954227
 20
622.4551551547746
 30
0.0
 11
3012.790061954227
 21
622.4551551547746
 31
0.0
  0
ARC
  5
39E
  8
0
  6
CONTINUOUS
 62
     7
 10
3019.790061954226
 20
624.4551551547748
 30
0.0
 40
2.000000000000455
 50
270.0000000000138
 51
359.9999999999943
  0
LINE
  5
39F
  8
0
  6
CONTINUOUS
 62
     7
 10
3021.790061954227
 20
625.4551551547745
 30
0.0
 11
3021.790061954227
 21
624.4551551547746
 31
0.0
  0
LINE
  5
3A0
  8
0
  6
CONTINUOUS
 62
     7
 10
3022.436495084996
 20
627.2312155847515
 30
0.0
 11
3021.790061954227
 21
625.4551551547745
 31
0.0
  0
ARC
  5
3A1
  8
0
  6
CONTINUOUS
 62
     7
 10
3025.255572947354
 20
626.205155154775
 30
0.0
 40
3.000000000000096
 50
90.65295157107865
 51
160.0000000000087
  0
ARC
  5
3A2
  8
0
  6
CONTINUOUS
 62
     7
 10
3025.187197498759
 20
626.2051551547701
 30
0.0
 40
2.999999999999957
 50
45.00000000004759
 51
89.34704842888664
  0
LINE
  5
3A3
  8
0
  6
CONTINUOUS
 62
     7
 10
3028.136944967068
 20
627.4980483735875
 30
0.0
 11
3027.308517842321
 21
628.3264754983345
 31
0.0
  0
ARC
  5
3A4
  8
0
  6
CONTINUOUS
 62
     7
 10
3028.844051748255
 20
628.2051551547777
 30
0.0
 40
1.000000000000169
 50
225.0000000001114
 51
270.0000000000008
  0
LINE
  5
3A5
  8
0
  6
CONTINUOUS
 62
     7
 10
3040.790061954227
 20
627.2051551547745
 30
0.0
 11
3028.844051748254
 21
627.2051551547745
 31
0.0
  0
ARC
  5
3A6
  8
0
  6
CONTINUOUS
 62
     7
 10
3040.790061954227
 20
628.2051551547745
 30
0.0
 40
2.75
 50
270.0000000000008
 51
0.0
  0
LINE
  5
3A7
  8
0
  6
CONTINUOUS
 62
     7
 10
3029.098455107297
 20
625.4551551547745
 30
0.0
 11
3040.790061954227
 21
625.4551551547745
 31
0.0
  0
ARC
  5
3A8
  8
0
  6
CONTINUOUS
 62
     7
 10
3029.098455107299
 20
627.9551551547777
 30
0.0
 40
2.500000000000058
 50
223.1702907398638
 51
269.9999999999591
  0
LINE
  5
3A9
  8
0
  6
CONTINUOUS
 62
     7
 10
3026.54123396265
 20
627.0270824973865
 30
0.0
 11
3027.275146397822
 21
626.2447325900415
 31
0.0
  0
ARC
  5
3AA
  8
0
  6
CONTINUOUS
 62
     7
 10
3025.447248736965
 20
626.0008289585472
 30
0.0
 40
1.500000000000056
 50
43.17029073981811
 51
160.0000000000037
  0
LINE
  5
3AB
  8
0
  6
CONTINUOUS
 62
     7
 10
3023.540061954227
 20
625.1465829385345
 30
0.0
 11
3024.037709805787
 21
626.5138591735355
 31
0.0
  0
LINE
  5
3AC
  8
0
  6
CONTINUOUS
 62
     7
 10
3023.540061954227
 20
624.4551551547746
 30
0.0
 11
3023.540061954227
 21
625.1465829385345
 31
0.0
  0
ARC
  5
3AD
  8
0
  6
CONTINUOUS
 62
     7
 10
3019.790061954228
 20
624.455155154773
 30
0.0
 40
3.75
 50
269.9999999999799
 51
0.0000000000243181
  0
LINE
  5
3AE
  8
0
  6
CONTINUOUS
 62
     7
 10
3012.790061954227
 20
620.7051551547745
 30
0.0
 11
3019.790061954227
 21
620.7051551547745
 31
0.0
  0
ARC
  5
3AF
  8
0
  6
CONTINUOUS
 62
     7
 10
3012.790061954225
 20
624.455155154773
 30
0.0
 40
3.750000000000016
 50
238.6677485024181
 51
270.0000000000217
  0
ARC
  5
3B0
  8
0
  6
CONTINUOUS
 62
     7
 10
3012.790061954227
 20
624.4551551547748
 30
0.0
 40
2.000000000000269
 50
192.8385681409835
 51
269.9999999999878
  0
LINE
  5
3B1
  8
0
  6
CONTINUOUS
 62
     7
 10
3043.540061954227
 20
628.2051551547745
 30
0.0
 11
3043.540061954227
 21
631.2051551547745
 31
0.0
  0
LINE
  5
3B2
  8
0
  6
CONTINUOUS
 62
     7
 10
3041.790061954227
 20
631.2051551547745
 30
0.0
 11
3041.790061954227
 21
628.2051551547745
 31
0.0
  0
ARC
  5
3B3
  8
0
  6
CONTINUOUS
 62
     7
 10
3040.790061954227
 20
628.2051551547738
 30
0.0
 40
1.000000000000455
 50
270.0000000000008
 51
0.0
  0
LINE
  5
3B4
  8
0
  6
CONTINUOUS
 62
     7
 10
3043.540061954227
 20
631.2051551547745
 30
0.0
 11
3041.790061954227
 21
631.2051551547745
 31
0.0
  0
LINE
  5
3B5
  8
0
  6
CONTINUOUS
 62
     7
 10
3013.640061954226
 20
634.7051551547744
 30
0.0
 11
3012.790061954227
 21
634.7051551547744
 31
0.0
  0
LINE
  5
3B6
  8
0
  6
CONTINUOUS
 62
     7
 10
3013.640061954226
 20
633.2051551547745
 30
0.0
 11
3013.640061954226
 21
634.7051551547744
 31
0.0
  0
LINE
  5
3B7
  8
0
  6
CONTINUOUS
 62
     7
 10
3012.790061954227
 20
633.2051551547745
 30
0.0
 11
3013.640061954226
 21
633.2051551547745
 31
0.0
  0
ARC
  5
3B8
  8
0
  6
CONTINUOUS
 62
     7
 10
3012.790061954227
 20
631.2051551547742
 30
0.0
 40
2.000000000000307
 50
90.00000000001303
 51
143.2859705457033
  0
ARC
  5
3B9
  8
0
  6
CONTINUOUS
 62
     7
 10
3012.790061954225
 20
630.9551551547761
 30
0.0
 40
3.750000000000108
 50
89.99999999997915
 51
134.6037559730597
  0
LINE
  5
3BA
  8
0
  6
CONTINUOUS
 62
     7
 10
3009.990061954226
 20
633.7644038537336
 30
0.0
 11
3009.990061954226
 21
634.9051551547745
 31
0.0
  0
LINE
  5
3BB
  8
0
  6
CONTINUOUS
 62
     7
 10
3009.990061954226
 20
634.9051551547745
 30
0.0
 11
3006.740061954226
 21
634.9051551547745
 31
0.0
  0
LINE
  5
3BC
  8
0
  6
CONTINUOUS
 62
     7
 10
3001.790061954227
 20
628.112201922567
 30
0.0
 11
3001.790061954227
 21
620.7051551547745
 31
0.0
  0
LINE
  5
3BD
  8
0
  6
CONTINUOUS
 62
     7
 10
3001.790061954227
 20
620.7051551547745
 30
0.0
 11
3002.640061954226
 21
620.7051551547745
 31
0.0
  0
LINE
  5
3BE
  8
0
  6
CONTINUOUS
 62
     7
 10
3001.790061954227
 20
634.9051551547745
 30
0.0
 11
3001.790061954227
 21
631.298108386982
 31
0.0
  0
LINE
  5
3BF
  8
0
  6
CONTINUOUS
 62
     7
 10
3006.740061954226
 20
634.9051551547745
 30
0.0
 11
3001.790061954227
 21
634.9051551547745
 31
0.0
  0
LINE
  5
3C0
  8
0
  6
CONTINUOUS
 62
     7
 10
3041.790061954227
 20
662.2051551547745
 30
0.0
 11
3043.540061954227
 21
662.2051551547745
 31
0.0
  0
LINE
  5
3C1
  8
0
  6
CONTINUOUS
 62
     7
 10
3043.540061954227
 20
631.2051551547745
 30
0.0
 11
3043.540061954227
 21
662.2051551547745
 31
0.0
  0
LINE
  5
3C2
  8
0
  6
CONTINUOUS
 62
     7
 10
3041.790061954227
 20
662.2051551547745
 30
0.0
 11
3041.790061954227
 21
631.2051551547745
 31
0.0
  0
LINE
  5
3C3
  8
0
  6
CONTINUOUS
 62
     7
 10
3041.790061954227
 20
665.2051551547745
 30
0.0
 11
3043.540061954227
 21
665.2051551547745
 31
0.0
  0
LINE
  5
3C4
  8
0
  6
CONTINUOUS
 62
     7
 10
3043.540061954227
 20
662.2051551547745
 30
0.0
 11
3043.540061954227
 21
665.2051551547751
 31
0.0
  0
LINE
  5
3C5
  8
0
  6
CONTINUOUS
 62
     7
 10
3041.790061954227
 20
665.2051551547751
 30
0.0
 11
3041.790061954227
 21
662.2051551547745
 31
0.0
  0
LINE
  5
3C6
  8
0
  6
CONTINUOUS
 62
     7
 10
2488.440061954227
 20
646.9552229666396
 30
0.0
 11
2488.440061954227
 21
652.9552229666396
 31
0.0
  0
LINE
  5
3C7
  8
0
  6
CONTINUOUS
 62
     7
 10
3028.940061954227
 20
652.9552229666396
 30
0.0
 11
3028.940061954227
 21
646.9552229666396
 31
0.0
  0
LINE
  5
3C8
  8
0
  6
CONTINUOUS
 62
     7
 10
1891.440061954227
 20
646.9552229666396
 30
0.0
 11
1891.440061954227
 21
652.9552229666396
 31
0.0
  0
LINE
  5
3C9
  8
0
  6
CONTINUOUS
 62
     7
 10
2431.940061954227
 20
652.9552229666396
 30
0.0
 11
2431.940061954227
 21
646.9552229666396
 31
0.0
  0
ARC
  5
3CA
  8
0
  6
CONTINUOUS
 62
     7
 10
2420.540061954227
 20
657.9552229666394
 30
0.0
 40
3.0
 50
0.0
 51
171.1358288719127
  0
POLYLINE
  5
3CB
  8
0
  6
CONTINUOUS
 62
     7
 66
     1
 10
0.0
 20
0.0
 30
0.0
 70
   128
  0
VERTEX
  5
700
  8
0
  6
CONTINUOUS
 62
     7
 10
2422.990061954227
 20
656.2238939973214
 30
0.0
  0
VERTEX
  5
701
  8
0
  6
CONTINUOUS
 62
     7
 10
2423.359139816585
 20
656.9291625366625
 30
0.0
  0
VERTEX
  5
702
  8
0
  6
CONTINUOUS
 62
     7
 10
2423.540061954227
 20
657.9552229666394
 30
0.0
  0
SEQEND
  5
710
  8
0
  6
CONTINUOUS
 62
     7
  0
ARC
  5
3CC
  8
0
  6
CONTINUOUS
 62
     7
 10
1903.040061954227
 20
657.9552229666394
 30
0.0
 40
3.0
 50
8.864171128075265
 51
180.0
  0
ARC
  5
3CD
  8
0
  6
CONTINUOUS
 62
     7
 10
1903.040061954227
 20
657.9552229666394
 30
0.0
 40
3.000000000000004
 50
180.0
 51
226.8953261800942
  0
LINE
  5
3CE
  8
0
  6
CONTINUOUS
 62
     7
 10
1897.040061954227
 20
652.9552229666396
 30
0.0
 11
1897.040061954227
 21
646.9552229666396
 31
0.0
  0
LINE
  5
3CF
  8
0
  6
CONTINUOUS
 62
     7
 10
1946.540061954225
 20
856.9552229666396
 30
0.0
 11
1951.540061954226
 21
856.9552229666396
 31
0.0
  0
LINE
  5
3D0
  8
0
  6
CONTINUOUS
 62
     7
 10
2371.540061954226
 20
856.9552229666396
 30
0.0
 11
2376.540061954229
 21
856.9552229666396
 31
0.0
  0
LINE
  5
3D1
  8
0
  6
CONTINUOUS
 62
     7
 10
2426.540061954227
 20
652.9552229666396
 30
0.0
 11
2426.540061954227
 21
646.9552229666396
 31
0.0
  0
LINE
  5
3D2
  8
0
  6
CONTINUOUS
 62
     7
 10
2426.540061954227
 20
646.9552229666396
 30
0.0
 11
2422.990061954227
 21
646.9552229666396
 31
0.0
  0
LINE
  5
3D3
  8
0
  6
CONTINUOUS
 62
     7
 10
2415.990061954226
 20
646.9552229666396
 30
0.0
 11
2406.540061954227
 21
646.9552229666396
 31
0.0
  0
LINE
  5
3D4
  8
0
  6
CONTINUOUS
 62
     7
 10
2406.540061954227
 20
646.9552229666396
 30
0.0
 11
2406.540061954227
 21
636.9552229666396
 31
0.0
  0
LINE
  5
3D5
  8
0
  6
CONTINUOUS
 62
     7
 10
1917.040061954227
 20
636.9552229666396
 30
0.0
 11
1951.540061954226
 21
636.9552229666396
 31
0.0
  0
LINE
  5
3D6
  8
0
  6
CONTINUOUS
 62
     7
 10
2371.540061954226
 20
636.9552229666396
 30
0.0
 11
2406.540061954227
 21
636.9552229666396
 31
0.0
  0
LINE
  5
3D7
  8
0
  6
CONTINUOUS
 62
     7
 10
1917.040061954227
 20
646.9552229666396
 30
0.0
 11
1917.040061954227
 21
636.9552229666396
 31
0.0
  0
LINE
  5
3D8
  8
0
  6
CONTINUOUS
 62
     7
 10
1897.040061954227
 20
646.9552229666396
 30
0.0
 11
1900.990061954227
 21
646.9552229666396
 31
0.0
  0
LINE
  5
3D9
  8
0
  6
CONTINUOUS
 62
     7
 10
1907.990061954227
 20
646.9552229666396
 30
0.0
 11
1917.040061954227
 21
646.9552229666396
 31
0.0
  0
ARC
  5
3DA
  8
0
  6
CONTINUOUS
 62
     7
 10
3017.540061954227
 20
657.9552229666394
 30
0.0
 40
3.000000000000063
 50
0.0
 51
171.1358288719161
  0
POLYLINE
  5
3DB
  8
0
  6
CONTINUOUS
 62
     7
 66
     1
 10
0.0
 20
0.0
 30
0.0
 70
   128
  0
VERTEX
  5
703
  8
0
  6
CONTINUOUS
 62
     7
 10
3019.990061954227
 20
656.2238939973213
 30
0.0
  0
VERTEX
  5
704
  8
0
  6
CONTINUOUS
 62
     7
 10
3020.359139816584
 20
656.9291625366625
 30
0.0
  0
VERTEX
  5
705
  8
0
  6
CONTINUOUS
 62
     7
 10
3020.540061954227
 20
657.9552229666394
 30
0.0
  0
SEQEND
  5
711
  8
0
  6
CONTINUOUS
 62
     7
  0
ARC
  5
3DC
  8
0
  6
CONTINUOUS
 62
     7
 10
2500.040061954227
 20
657.9552229666394
 30
0.0
 40
2.999999999999993
 50
8.864171128075265
 51
180.0
  0
ARC
  5
3DD
  8
0
  6
CONTINUOUS
 62
     7
 10
2500.040061954227
 20
657.9552229666394
 30
0.0
 40
2.999999999999849
 50
180.0
 51
226.8953261800974
  0
LINE
  5
3DE
  8
0
  6
CONTINUOUS
 62
     7
 10
2494.040061954227
 20
652.9552229666394
 30
0.0
 11
2494.040061954227
 21
646.9552229666396
 31
0.0
  0
LINE
  5
3DF
  8
0
  6
CONTINUOUS
 62
     7
 10
2494.040061954227
 20
856.9552229666396
 30
0.0
 11
2549.040061954226
 21
856.9552229666396
 31
0.0
  0
LINE
  5
3E0
  8
0
  6
CONTINUOUS
 62
     7
 10
2969.040061954226
 20
856.9552229666396
 30
0.0
 11
2974.04006195423
 21
856.9552229666396
 31
0.0
  0
LINE
  5
3E1
  8
0
  6
CONTINUOUS
 62
     7
 10
3023.540061954227
 20
652.9552229666394
 30
0.0
 11
3023.540061954227
 21
646.9552229666396
 31
0.0
  0
LINE
  5
3E2
  8
0
  6
CONTINUOUS
 62
     7
 10
3023.540061954227
 20
646.9552229666396
 30
0.0
 11
3019.990061954227
 21
646.9552229666396
 31
0.0
  0
LINE
  5
3E3
  8
0
  6
CONTINUOUS
 62
     7
 10
3012.990061954226
 20
646.9552229666396
 30
0.0
 11
3003.540061954227
 21
646.9552229666396
 31
0.0
  0
LINE
  5
3E4
  8
0
  6
CONTINUOUS
 62
     7
 10
3003.540061954227
 20
646.9552229666396
 30
0.0
 11
3003.540061954227
 21
636.9552229666396
 31
0.0
  0
LINE
  5
3E5
  8
0
  6
CONTINUOUS
 62
     7
 10
2514.040061954227
 20
636.9552229666396
 30
0.0
 11
2549.040061954226
 21
636.9552229666396
 31
0.0
  0
LINE
  5
3E6
  8
0
  6
CONTINUOUS
 62
     7
 10
2969.040061954226
 20
636.9552229666396
 30
0.0
 11
3003.540061954227
 21
636.9552229666396
 31
0.0
  0
LINE
  5
3E7
  8
0
  6
CONTINUOUS
 62
     7
 10
2514.040061954227
 20
646.9552229666396
 30
0.0
 11
2514.040061954227
 21
636.9552229666396
 31
0.0
  0
LINE
  5
3E8
  8
0
  6
CONTINUOUS
 62
     7
 10
2494.040061954227
 20
646.9552229666396
 30
0.0
 11
2497.990061954227
 21
646.9552229666396
 31
0.0
  0
LINE
  5
3E9
  8
0
  6
CONTINUOUS
 62
     7
 10
2504.990061954226
 20
646.9552229666396
 30
0.0
 11
2514.040061954227
 21
646.9552229666396
 31
0.0
  0
LINE
  5
3EA
  8
0
  6
CONTINUOUS
 62
     7
 10
1891.040061954227
 20
646.9552229666396
 30
0.0
 11
1897.040061954227
 21
646.9552229666396
 31
0.0
  0
LINE
  5
3EB
  8
0
  6
CONTINUOUS
 62
     7
 10
1897.040061954227
 20
646.9552229666396
 30
0.0
 11
1897.040061954227
 21
643.0052229666396
 31
0.0
  0
LINE
  5
3EC
  8
0
  6
CONTINUOUS
 62
     7
 10
1884.540061954227
 20
636.9552229666396
 30
0.0
 11
1897.040061954227
 21
636.9552229666396
 31
0.0
  0
LINE
  5
3ED
  8
0
  6
CONTINUOUS
 62
     7
 10
1884.540061954227
 20
808.9552229666396
 30
0.0
 11
1884.540061954227
 21
636.9552229666396
 31
0.0
  0
LINE
  5
3EE
  8
0
  6
CONTINUOUS
 62
     7
 10
1897.040061954227
 20
808.9552229666397
 30
0.0
 11
1897.040061954227
 21
652.9552229666396
 31
0.0
  0
LINE
  5
3EF
  8
0
  6
CONTINUOUS
 62
     7
 10
1891.040061954227
 20
652.9552229666396
 30
0.0
 11
1891.040061954227
 21
646.9552229666396
 31
0.0
  0
LINE
  5
3F0
  8
0
  6
CONTINUOUS
 62
     7
 10
1891.040061954227
 20
652.9552229666396
 30
0.0
 11
1897.040061954227
 21
652.9552229666396
 31
0.0
  0
LINE
  5
3F1
  8
0
  6
CONTINUOUS
 62
     7
 10
2481.540061954227
 20
856.9552229666396
 30
0.0
 11
2481.540061954227
 21
636.9552229666396
 31
0.0
  0
LINE
  5
3F2
  8
0
  6
CONTINUOUS
 62
     7
 10
2488.040061954227
 20
652.9552229666396
 30
0.0
 11
2494.040061954227
 21
652.9552229666396
 31
0.0
  0
LINE
  5
3F3
  8
0
  6
CONTINUOUS
 62
     7
 10
2488.040061954227
 20
652.9552229666396
 30
0.0
 11
2488.040061954227
 21
646.9552229666396
 31
0.0
  0
LINE
  5
3F4
  8
0
  6
CONTINUOUS
 62
     7
 10
2481.540061954227
 20
856.9552229666396
 30
0.0
 11
2494.040061954227
 21
856.9552229666396
 31
0.0
  0
LINE
  5
3F5
  8
0
  6
CONTINUOUS
 62
     7
 10
2488.040061954227
 20
646.9552229666396
 30
0.0
 11
2494.040061954227
 21
646.9552229666396
 31
0.0
  0
LINE
  5
3F6
  8
0
  6
CONTINUOUS
 62
     7
 10
2494.040061954227
 20
856.9552229666396
 30
0.0
 11
2494.040061954227
 21
652.9552229666396
 31
0.0
  0
LINE
  5
3F7
  8
0
  6
CONTINUOUS
 62
     7
 10
2481.540061954227
 20
636.9552229666396
 30
0.0
 11
2494.040061954227
 21
636.9552229666396
 31
0.0
  0
LINE
  5
3F8
  8
0
  6
CONTINUOUS
 62
     7
 10
2494.040061954227
 20
646.9552229666396
 30
0.0
 11
2494.040061954227
 21
643.0052229666396
 31
0.0
  0
LINE
  5
3F9
  8
0
  6
CONTINUOUS
 62
     7
 10
2426.540061954227
 20
646.9552229666396
 30
0.0
 11
2426.540061954227
 21
643.0052229666396
 31
0.0
  0
LINE
  5
3FA
  8
0
  6
CONTINUOUS
 62
     7
 10
2432.340061954227
 20
646.9552229666396
 30
0.0
 11
2426.540061954227
 21
646.9552229666396
 31
0.0
  0
LINE
  5
3FB
  8
0
  6
CONTINUOUS
 62
     7
 10
2432.340061954227
 20
646.9552229666396
 30
0.0
 11
2432.340061954227
 21
652.9552229666396
 31
0.0
  0
LINE
  5
3FC
  8
0
  6
CONTINUOUS
 62
     7
 10
2432.340061954227
 20
652.9552229666396
 30
0.0
 11
2426.540061954227
 21
652.9552229666396
 31
0.0
  0
LINE
  5
3FD
  8
0
  6
CONTINUOUS
 62
     7
 10
2426.540061954227
 20
808.9552229666397
 30
0.0
 11
2426.540061954227
 21
652.9552229666396
 31
0.0
  0
LINE
  5
3FE
  8
0
  6
CONTINUOUS
 62
     7
 10
2439.040061954227
 20
808.9552229666397
 30
0.0
 11
2439.040061954227
 21
636.9552229666396
 31
0.0
  0
LINE
  5
3FF
  8
0
  6
CONTINUOUS
 62
     7
 10
2426.540061954227
 20
636.9552229666396
 30
0.0
 11
2439.040061954227
 21
636.9552229666396
 31
0.0
  0
LINE
  5
400
  8
0
  6
CONTINUOUS
 62
     7
 10
3036.040061954227
 20
808.9552229666397
 30
0.0
 11
3036.040061954227
 21
636.9552229666396
 31
0.0
  0
LINE
  5
401
  8
0
  6
CONTINUOUS
 62
     7
 10
3023.540061954227
 20
636.9552229666396
 30
0.0
 11
3036.040061954227
 21
636.9552229666396
 31
0.0
  0
LINE
  5
402
  8
0
  6
CONTINUOUS
 62
     7
 10
3023.540061954227
 20
646.9552229666396
 30
0.0
 11
3023.540061954227
 21
643.0052229666396
 31
0.0
  0
LINE
  5
403
  8
0
  6
CONTINUOUS
 62
     7
 10
3029.340061954227
 20
646.9552229666396
 30
0.0
 11
3023.540061954227
 21
646.9552229666396
 31
0.0
  0
LINE
  5
404
  8
0
  6
CONTINUOUS
 62
     7
 10
3029.340061954227
 20
646.9552229666396
 30
0.0
 11
3029.340061954227
 21
652.9552229666396
 31
0.0
  0
LINE
  5
405
  8
0
  6
CONTINUOUS
 62
     7
 10
3029.340061954227
 20
652.9552229666396
 30
0.0
 11
3023.540061954227
 21
652.9552229666396
 31
0.0
  0
LINE
  5
406
  8
0
  6
CONTINUOUS
 62
     7
 10
3023.540061954227
 20
808.9552229666397
 30
0.0
 11
3023.540061954227
 21
652.9552229666396
 31
0.0
  0
LINE
  5
407
  8
0
  6
CONTINUOUS
 62
     7
 10
2974.040061954227
 20
942.4552229666398
 30
0.0
 11
2969.040061954222
 21
942.4552229666398
 31
0.0
  0
LINE
  5
408
  8
0
  6
CONTINUOUS
 62
     7
 10
2549.040061954222
 20
942.4552229666399
 30
0.0
 11
2474.040061954222
 21
942.45522296664
 31
0.0
  0
LINE
  5
409
  8
0
  6
CONTINUOUS
 62
     7
 10
2376.540061954226
 20
942.4552229666397
 30
0.0
 11
2371.540061954222
 21
942.4552229666397
 31
0.0
  0
LINE
  5
40A
  8
0
  6
CONTINUOUS
 62
     7
 10
1951.540061954223
 20
942.4552229666396
 30
0.0
 11
1946.540061954223
 21
942.4552229666396
 31
0.0
  0
LINE
  5
40B
  8
0
  6
CONTINUOUS
 62
     7
 10
1951.540061954227
 20
958.9552229666396
 30
0.0
 11
1951.540061954227
 21
615.9552229666397
 31
0.0
  0
LINE
  5
40C
  8
0
  6
CONTINUOUS
 62
     7
 10
2371.540061954227
 20
958.9552229666396
 30
0.0
 11
2371.540061954227
 21
615.9552229666397
 31
0.0
  0
LINE
  5
40D
  8
0
  6
CONTINUOUS
 62
     7
 10
1876.540061954227
 20
597.4552229666396
 30
0.0
 11
1859.040061954227
 21
597.4552229666396
 31
0.0
  0
LINE
  5
40E
  8
0
  6
CONTINUOUS
 62
     7
 10
1859.040061954227
 20
597.4552229666396
 30
0.0
 11
1859.040061954227
 21
958.9552229666396
 31
0.0
  0
LINE
  5
40F
  8
0
  6
CONTINUOUS
 62
     7
 10
1859.040061954227
 20
958.9552229666396
 30
0.0
 11
1876.540061954227
 21
958.9552229666396
 31
0.0
  0
LINE
  5
410
  8
0
  6
CONTINUOUS
 62
     7
 10
1876.540061954227
 20
958.9552229666396
 30
0.0
 11
1876.540061954227
 21
597.4552229666396
 31
0.0
  0
LINE
  5
411
  8
0
  6
CONTINUOUS
 62
     7
 10
3061.540061954227
 20
597.4552229666397
 30
0.0
 11
3044.040061954227
 21
597.4552229666397
 31
0.0
  0
LINE
  5
412
  8
0
  6
CONTINUOUS
 62
     7
 10
3044.040061954227
 20
597.4552229666397
 30
0.0
 11
3044.040061954227
 21
958.9552229666396
 31
0.0
  0
LINE
  5
413
  8
0
  6
CONTINUOUS
 62
     7
 10
3044.040061954227
 20
958.9552229666396
 30
0.0
 11
3061.540061954227
 21
958.9552229666396
 31
0.0
  0
LINE
  5
414
  8
0
  6
CONTINUOUS
 62
     7
 10
3061.540061954227
 20
958.9552229666396
 30
0.0
 11
3061.540061954227
 21
597.4552229666397
 31
0.0
  0
ARC
  5
415
  8
0
  6
CONTINUOUS
 62
     7
 10
2979.040061954231
 20
813.9552229666397
 30
0.0
 40
5.000000000000455
 50
180.0
 51
270.0000000000008
  0
LINE
  5
416
  8
0
  6
CONTINUOUS
 62
     7
 10
2974.040061954231
 20
813.9552229666397
 30
0.0
 11
2974.040061954231
 21
956.6552229666396
 31
0.0
  0
LINE
  5
417
  8
0
  6
CONTINUOUS
 62
     7
 10
2974.040061954231
 20
956.6552229666396
 30
0.0
 11
3014.040061954231
 21
956.6552229666396
 31
0.0
  0
LINE
  5
418
  8
0
  6
CONTINUOUS
 62
     7
 10
3014.040061954231
 20
956.6552229666396
 30
0.0
 11
3014.040061954231
 21
958.9552229666396
 31
0.0
  0
LINE
  5
419
  8
0
  6
CONTINUOUS
 62
     7
 10
3044.040061954231
 20
958.9552229666396
 30
0.0
 11
3014.040061954231
 21
958.9552229666396
 31
0.0
  0
LINE
  5
41A
  8
0
  6
CONTINUOUS
 62
     7
 10
3044.040061954231
 20
813.9552229666398
 30
0.0
 11
3044.040061954231
 21
958.9552229666396
 31
0.0
  0
ARC
  5
41B
  8
0
  6
CONTINUOUS
 62
     7
 10
3039.040061954231
 20
813.9552229666397
 30
0.0
 40
5.0
 50
270.0000000000008
 51
0.0000000000013028
  0
LINE
  5
41C
  8
0
  6
CONTINUOUS
 62
     7
 10
2979.040061954231
 20
808.9552229666397
 30
0.0
 11
3039.040061954231
 21
808.9552229666397
 31
0.0
  0
CIRCLE
  5
41D
  8
0
  6
CONTINUOUS
 62
     7
 10
3024.040061954231
 20
928.9552229666396
 30
0.0
 40
2.5
  0
CIRCLE
  5
41E
  8
0
  6
CONTINUOUS
 62
     7
 10
2994.040061954229
 20
878.9552229666398
 30
0.0
 40
2.5
  0
CIRCLE
  5
41F
  8
0
  6
CONTINUOUS
 62
     7
 10
2994.040061954231
 20
928.95522296664
 30
0.0
 40
2.5
  0
CIRCLE
  5
420
  8
0
  6
CONTINUOUS
 62
     7
 10
3024.040061954229
 20
878.9552229666393
 30
0.0
 40
2.5
  0
CIRCLE
  5
421
  8
0
  6
CONTINUOUS
 62
     7
 10
2991.040061954231
 20
908.9552229666396
 30
0.0
 40
2.5
  0
CIRCLE
  5
422
  8
0
  6
CONTINUOUS
 62
     7
 10
3021.040061954231
 20
908.9552229666396
 30
0.0
 40
2.499999999999545
  0
CIRCLE
  5
423
  8
0
  6
CONTINUOUS
 62
     7
 10
2991.040061954231
 20
838.9552229666397
 30
0.0
 40
2.500000000000455
  0
CIRCLE
  5
424
  8
0
  6
CONTINUOUS
 62
     7
 10
3021.040061954231
 20
838.9552229666397
 30
0.0
 40
2.499999999999545
  0
ARC
  5
425
  8
0
  6
CONTINUOUS
 62
     7
 10
2381.54006195423
 20
813.9552229666397
 30
0.0
 40
5.0
 50
180.0
 51
270.0000000000008
  0
LINE
  5
426
  8
0
  6
CONTINUOUS
 62
     7
 10
2376.54006195423
 20
813.9552229666397
 30
0.0
 11
2376.54006195423
 21
956.6552229666396
 31
0.0
  0
LINE
  5
427
  8
0
  6
CONTINUOUS
 62
     7
 10
2376.54006195423
 20
956.6552229666396
 30
0.0
 11
2416.54006195423
 21
956.6552229666396
 31
0.0
  0
LINE
  5
428
  8
0
  6
CONTINUOUS
 62
     7
 10
2416.54006195423
 20
956.6552229666396
 30
0.0
 11
2416.54006195423
 21
958.9552229666396
 31
0.0
  0
LINE
  5
429
  8
0
  6
CONTINUOUS
 62
     7
 10
2446.54006195423
 20
813.9552229666397
 30
0.0
 11
2446.54006195423
 21
958.9552229666396
 31
0.0
  0
ARC
  5
42A
  8
0
  6
CONTINUOUS
 62
     7
 10
2441.54006195423
 20
813.9552229666397
 30
0.0
 40
5.0
 50
270.0000000000008
 51
0.0
  0
LINE
  5
42B
  8
0
  6
CONTINUOUS
 62
     7
 10
2381.54006195423
 20
808.9552229666397
 30
0.0
 11
2441.54006195423
 21
808.9552229666397
 31
0.0
  0
CIRCLE
  5
42C
  8
0
  6
CONTINUOUS
 62
     7
 10
2426.540061954229
 20
928.9552229666396
 30
0.0
 40
2.499999999999545
  0
CIRCLE
  5
42D
  8
0
  6
CONTINUOUS
 62
     7
 10
2396.540061954228
 20
878.9552229666397
 30
0.0
 40
2.5
  0
CIRCLE
  5
42E
  8
0
  6
CONTINUOUS
 62
     7
 10
2396.54006195423
 20
928.95522296664
 30
0.0
 40
2.5
  0
CIRCLE
  5
42F
  8
0
  6
CONTINUOUS
 62
     7
 10
2426.540061954228
 20
878.9552229666392
 30
0.0
 40
2.5
  0
CIRCLE
  5
430
  8
0
  6
CONTINUOUS
 62
     7
 10
2393.54006195423
 20
908.9552229666396
 30
0.0
 40
2.5
  0
CIRCLE
  5
431
  8
0
  6
CONTINUOUS
 62
     7
 10
2423.54006195423
 20
908.9552229666396
 30
0.0
 40
2.5
  0
CIRCLE
  5
432
  8
0
  6
CONTINUOUS
 62
     7
 10
2393.54006195423
 20
838.9552229666396
 30
0.0
 40
2.5
  0
CIRCLE
  5
433
  8
0
  6
CONTINUOUS
 62
     7
 10
2423.54006195423
 20
838.9552229666396
 30
0.0
 40
2.5
  0
LINE
  5
434
  8
0
  6
CONTINUOUS
 62
     7
 10
2446.54006195423
 20
958.9552229666396
 30
0.0
 11
2416.54006195423
 21
958.9552229666396
 31
0.0
  0
ARC
  5
435
  8
0
  6
CONTINUOUS
 62
     7
 10
1881.540061954226
 20
813.9552229666396
 30
0.0
 40
5.0
 50
179.9999999999974
 51
270.0000000000034
  0
LINE
  5
436
  8
0
  6
CONTINUOUS
 62
     7
 10
1876.540061954227
 20
813.9552229666398
 30
0.0
 11
1876.540061954227
 21
958.9552229666396
 31
0.0
  0
LINE
  5
437
  8
0
  6
CONTINUOUS
 62
     7
 10
1876.540061954227
 20
958.9552229666396
 30
0.0
 11
1906.540061954227
 21
958.9552229666396
 31
0.0
  0
LINE
  5
438
  8
0
  6
CONTINUOUS
 62
     7
 10
1906.540061954227
 20
956.6552229666396
 30
0.0
 11
1906.540061954227
 21
958.9552229666396
 31
0.0
  0
LINE
  5
439
  8
0
  6
CONTINUOUS
 62
     7
 10
1946.540061954226
 20
813.9552229666396
 30
0.0
 11
1946.540061954227
 21
956.6552229666396
 31
0.0
  0
ARC
  5
43A
  8
0
  6
CONTINUOUS
 62
     7
 10
1941.540061954227
 20
813.9552229666397
 30
0.0
 40
5.0
 50
270.0000000000008
 51
359.9999999999979
  0
LINE
  5
43B
  8
0
  6
CONTINUOUS
 62
     7
 10
1941.540061954227
 20
808.9552229666397
 30
0.0
 11
1881.540061954227
 21
808.9552229666396
 31
0.0
  0
CIRCLE
  5
43C
  8
0
  6
CONTINUOUS
 62
     7
 10
1896.540061954227
 20
928.9552229666396
 30
0.0
 40
2.5
  0
CIRCLE
  5
43D
  8
0
  6
CONTINUOUS
 62
     7
 10
1926.540061954229
 20
878.95522296664
 30
0.0
 40
2.5
  0
CIRCLE
  5
43E
  8
0
  6
CONTINUOUS
 62
     7
 10
1926.540061954227
 20
928.95522296664
 30
0.0
 40
2.5
  0
CIRCLE
  5
43F
  8
0
  6
CONTINUOUS
 62
     7
 10
1896.540061954229
 20
878.9552229666396
 30
0.0
 40
2.5
  0
CIRCLE
  5
440
  8
0
  6
CONTINUOUS
 62
     7
 10
1929.540061954227
 20
908.9552229666396
 30
0.0
 40
2.499999999999773
  0
CIRCLE
  5
441
  8
0
  6
CONTINUOUS
 62
     7
 10
1899.540061954227
 20
908.9552229666396
 30
0.0
 40
2.5
  0
CIRCLE
  5
442
  8
0
  6
CONTINUOUS
 62
     7
 10
1929.540061954227
 20
838.9552229666396
 30
0.0
 40
2.499999999999773
  0
CIRCLE
  5
443
  8
0
  6
CONTINUOUS
 62
     7
 10
1899.540061954227
 20
838.9552229666396
 30
0.0
 40
2.5
  0
LINE
  5
444
  8
0
  6
CONTINUOUS
 62
     7
 10
1946.540061954227
 20
956.6552229666396
 30
0.0
 11
1906.540061954227
 21
956.6552229666396
 31
0.0
  0
LINE
  5
445
  8
0
  6
CONTINUOUS
 62
     8
 10
1900.990061954227
 20
658.8155303458535
 30
0.0
 11
1905.914061121463
 21
658.8155303458535
 31
0.0
  0
LINE
  5
446
  8
0
  6
CONTINUOUS
 62
     8
 10
2497.990061954227
 20
658.8155303458535
 30
0.0
 11
2502.914061121463
 21
658.8155303458535
 31
0.0
  0
LINE
  5
447
  8
0
  6
CONTINUOUS
 62
     8
 10
3014.666062786991
 20
658.8155303458535
 30
0.0
 11
3019.990061954227
 21
658.8155303458535
 31
0.0
  0
LINE
  5
448
  8
0
  6
CONTINUOUS
 62
     8
 10
2417.666062786991
 20
658.8155303458535
 30
0.0
 11
2422.990061954227
 21
658.8155303458535
 31
0.0
  0
LINE
  5
449
  8
0
  6
CONTINUOUS
 62
     8
 10
2474.040061954222
 20
942.65522296664
 30
0.0
 11
2549.040061954223
 21
942.6552229666399
 31
0.0
  0
LINE
  5
44A
  8
0
  6
CONTINUOUS
 62
     8
 10
2969.040061954222
 20
942.6552229666397
 30
0.0
 11
2974.040061954227
 21
942.6552229666396
 31
0.0
  0
LINE
  5
44B
  8
0
  6
CONTINUOUS
 62
     8
 10
1946.540061954223
 20
942.6552229666396
 30
0.0
 11
1951.540061954223
 21
942.6552229666396
 31
0.0
  0
LINE
  5
44C
  8
0
  6
CONTINUOUS
 62
     8
 10
2371.540061954222
 20
942.6552229666396
 30
0.0
 11
2376.540061954226
 21
942.6552229666396
 31
0.0
  0
ENDSEC
  0
EOF
