  0
SECTION
  2
HEADER
  9
$ACADVER
  1
AC1006
  9
$DWGCODEPAGE
  3
dos932
  9
$INSBASE
 10
0.0
 20
0.0
 30
0.0
  9
$EXTMIN
 10
0.0
 20
0.0
  9
$EXTMAX
 10
5000.0
 20
3500.0
  9
$LIMMIN
 10
0.0
 20
0.0
  9
$LIMMAX
 10
5000.0
 20
3500.0
  9
$ORTHOMODE
 70
     0
  9
$REGENMODE
 70
     1
  9
$FILLMODE
 70
     1
  9
$QTEXTMODE
 70
     0
  9
$MIRRTEXT
 70
     1
  9
$DRAGMODE
 70
     2
  9
$LTSCALE
 40
1.0
  9
$OSMODE
 70
    37
  9
$ATTMODE
 70
     1
  9
$TEXTSIZE
 40
3.5
  9
$TRACEWID
 40
1.0
  9
$TEXTSTYLE
  7
STANDARD
  9
$CLAYER
  8
0
  9
$CELTYPE
  6
BYLAYER
  9
$CECOLOR
 62
   256
  9
$DIMSCALE
 40
1.0
  9
$DIMASZ
 40
3.302
  9
$DIMEXO
 40
1.0
  9
$DIMDLI
 40
3.75
  9
$DIMRND
 40
0.0
  9
$DIMDLE
 40
0.0
  9
$DIMEXE
 40
1.0
  9
$DIMTP
 40
0.0
  9
$DIMTM
 40
0.0
  9
$DIMTXT
 40
3.5
  9
$DIMCEN
 40
2.5
  9
$DIMTSZ
 40
0.0
  9
$DIMTOL
 70
     0
  9
$DIMLIM
 70
     0
  9
$DIMTIH
 70
     1
  9
$DIMTOH
 70
     1
  9
$DIMSE1
 70
     0
  9
$DIMSE2
 70
     0
  9
$DIMTAD
 70
     1
  9
$DIMZIN
 70
     0
  9
$DIMBLK
  1

  9
$DIMASO
 70
     1
  9
$DIMSHO
 70
     1
  9
$DIMPOST
  1

  9
$DIMAPOST
  1

  9
$DIMALT
 70
     0
  9
$DIMALTD
 70
     3
  9
$DIMALTF
 40
0.0393700787401575
  9
$DIMLFAC
 40
1.0
  9
$DIMTOFL
 70
     1
  9
$DIMTVP
 40
0.0
  9
$DIMTIX
 70
     0
  9
$DIMSOXD
 70
     0
  9
$DIMSAH
 70
     0
  9
$DIMBLK1
  1

  9
$DIMBLK2
  1

  9
$LUNITS
 70
     2
  9
$LUPREC
 70
     3
  9
$SKETCHINC
 40
1.0
  9
$FILLETRAD
 40
10.0
  9
$AUNITS
 70
     0
  9
$AUPREC
 70
     2
  9
$MENU
  1
.
  9
$ELEVATION
 40
0.0
  9
$THICKNESS
 40
0.0
  9
$LIMCHECK
 70
     0
  9
$CHAMFERA
 40
0.0
  9
$CHAMFERB
 40
0.0
  9
$SKPOLY
 70
     0
  9
$TDCREATE
 40
2459796.274124931
  9
$TDUPDATE
 40
2460139.400724965
  9
$TDINDWG
 40
0.0000000116
  9
$TDUSRTIMER
 40
0.0000000116
  9
$USRTIMER
 70
     1
  9
$ANGBASE
 50
0.0
  9
$ANGDIR
 70
     0
  9
$PDMODE
 70
     0
  9
$PDSIZE
 40
-1.0
  9
$PLINEWID
 40
0.0
  9
$COORDS
 70
     1
  9
$SPLFRAME
 70
     0
  9
$SPLINETYPE
 70
     6
  9
$SPLINESEGS
 70
     8
  9
$ATTDIA
 70
     0
  9
$ATTREQ
 70
     1
  9
$HANDLING
 70
     1
  9
$HANDSEED
  5
530
  9
$SURFTAB1
 70
     6
  9
$SURFTAB2
 70
     6
  9
$SURFTYPE
 70
     6
  9
$SURFU
 70
     6
  9
$SURFV
 70
     6
  9
$UCSNAME
  2

  9
$UCSORG
 10
0.0
 20
0.0
 30
0.0
  9
$UCSXDIR
 10
1.0
 20
0.0
 30
0.0
  9
$UCSYDIR
 10
0.0
 20
1.0
 30
0.0
  9
$USERI1
 70
     0
  9
$USERI2
 70
     0
  9
$USERI3
 70
     0
  9
$USERI4
 70
     0
  9
$USERI5
 70
     0
  9
$USERR1
 40
0.0
  9
$USERR2
 40
0.0
  9
$USERR3
 40
0.0
  9
$USERR4
 40
0.0
  9
$USERR5
 40
0.0
  9
$WORLDVIEW
 70
     1
  0
ENDSEC
  0
SECTION
  2
TABLES
  0
TABLE
  2
VPORT
 70
     1
  0
VPORT
  2
*ACTIVE
 70
     0
 10
0.0
 20
0.0
 11
1.0
 21
1.0
 12
2500.0
 22
1750.0
 13
0.0
 23
0.0
 14
10.0
 24
10.0
 15
10.0
 25
10.0
 16
0.0
 26
0.0
 36
1.0
 17
0.0
 27
0.0
 37
0.0
 40
3500.0
 41
1.428571428571429
 42
50.0
 43
0.0
 44
0.0
 50
0.0
 51
0.0
 71
     0
 72
  2000
 73
     1
 74
     3
 75
     0
 76
     0
 77
     0
 78
     0
  0
ENDTAB
  0
TABLE
  2
LTYPE
 70
     6
  0
LTYPE
  2
CONTINUOUS
 70
     0
  3
Solid line
 72
    65
 73
     0
 40
0.0
  0
LTYPE
  2
HIDDEN
 70
     0
  3
Hidden __ __ __ __ __ __ __ __ __ __ __ __ __ __
 72
    65
 73
     2
 40
1.905
 49
1.27
 49
-0.635
  0
LTYPE
  2
PHANTOM
 70
     0
  3
Phantom ______  __  __  ______  __  __  ______
 72
    65
 73
     6
 40
12.7
 49
6.35
 49
-1.27
 49
1.27
 49
-1.27
 49
1.27
 49
-1.27
  0
LTYPE
  2
CENTER
 70
     0
  3
Center ____ _ ____ _ ____ _ ____ _ ____ _ ____
 72
    65
 73
     4
 40
10.16
 49
6.35
 49
-1.27
 49
1.27
 49
-1.27
  0
LTYPE
  2
CENTERX2
 70
     0
  3
Center (2x) ________  __  ________  __  _____
 72
    65
 73
     4
 40
20.32
 49
12.7
 49
-2.54
 49
2.54
 49
-2.54
  0
LTYPE
  2
DOT2
 70
     0
  3
Dot (.5x) ........................................
 72
    65
 73
     2
 40
0.635
 49
0.0
 49
-0.635
  0
ENDTAB
  0
TABLE
  2
LAYER
 70
     3
  0
LAYER
  2
0
 70
     0
 62
     7
  6
CONTINUOUS
  0
LAYER
  2
SLD-0
 70
     0
 62
   179
  6
CONTINUOUS
  0
LAYER
  2
寸法
 70
     0
 62
   179
  6
CONTINUOUS
  0
ENDTAB
  0
TABLE
  2
STYLE
 70
     2
  0
STYLE
  2
STANDARD
 70
     0
 40
0.0
 41
1.0
 50
0.0
 71
     0
 42
3.5
  3
txt
  4
bigfont
  0
STYLE
  2
SLDTEXTSTYLE0
 70
     0
 40
0.0
 41
0.75
 50
0.0
 71
     0
 42
3.5
  3
TXT
  4
bigfont
  0
ENDTAB
  0
TABLE
  2
VIEW
 70
     0
  0
ENDTAB
  0
TABLE
  2
UCS
 70
     0
  0
ENDTAB
  0
ENDSEC
  0
SECTION
  2
BLOCKS
  0
ENDSEC
  0
SECTION
  2
ENTITIES
  0
LINE
  5
75
  8
0
  6
CONTINUOUS
 62
     7
 10
4839.484712179223
 20
258.5233124172521
 30
0.0
 11
3312.374599790194
 21
258.5233124172519
 31
0.0
  0
TEXT
  5
77
  8
0
  6
CONTINUOUS
 62
     7
 10
1706.521152560513
 20
3134.115941119229
 30
0.0
 40
52.91666666666666
  1
＜上面＞
 41
0.75
  7
SLDTEXTSTYLE0
  0
TEXT
  5
78
  8
0
  6
CONTINUOUS
 62
     7
 10
493.3091089290138
 20
2134.090186691168
 30
0.0
 40
52.91666666666666
  1
＜左側面＞
 41
0.75
  7
SLDTEXTSTYLE0
  0
TEXT
  5
79
  8
0
  6
CONTINUOUS
 62
     7
 10
1730.774067737716
 20
2130.593767889337
 30
0.0
 40
52.91666666666666
  1
＜正面＞
 41
0.75
  7
SLDTEXTSTYLE0
  0
TEXT
  5
7A
  8
0
  6
CONTINUOUS
 62
     7
 10
3377.814243189123
 20
326.489054196763
 30
0.0
 40
52.91666666666666
  1
品名：
 41
0.75
  7
SLDTEXTSTYLE0
  0
TEXT
  5
7B
  8
0
  6
CONTINUOUS
 62
     7
 10
4446.663437481703
 20
332.3177187478654
 30
0.0
 40
52.91666666666666
  1
Pamouna
 41
0.75
  7
SLDTEXTSTYLE0
  0
TEXT
  5
7C
  8
寸法
  6
CONTINUOUS
 62
     7
 10
4688.007304885427
 20
165.7088516276312
 30
0.0
 40
52.91666666666666
  1
1/1
 41
0.75
  7
SLDTEXTSTYLE0
  0
TEXT
  5
7D
  8
寸法
  6
CONTINUOUS
 62
     7
 10
4198.79693921183
 20
165.7088544215994
 30
0.0
 40
52.91666666666666
  1
2022/08/04
 41
0.75
  7
SLDTEXTSTYLE0
  0
TEXT
  5
7E
  8
寸法
  6
CONTINUOUS
 62
     7
 10
4017.190732011612
 20
2122.266812003092
 30
0.0
 40
52.91666666666666
  1
＜背面＞
 41
0.75
  7
SLDTEXTSTYLE0
  0
TEXT
  5
7F
  8
寸法
  6
CONTINUOUS
 62
     7
 10
3611.283129349215
 20
326.4179237671586
 30
0.0
 40
66.14583333333331
  1
MA-S602EM（-T）
 41
0.75
  7
SLDTEXTSTYLE0
  0
TEXT
  5
80
  8
寸法
  6
CONTINUOUS
 62
     7
 10
2965.851847914189
 20
2131.94141651502
 30
0.0
 40
52.91666666666666
  1
＜右側面＞
 41
0.75
  7
SLDTEXTSTYLE0
  0
LINE
  5
81
  8
0
  6
CONTINUOUS
 62
     7
 10
2364.158099354146
 20
1471.218990347164
 30
0.0
 11
2363.358099354146
 21
1471.218990347164
 31
0.0
  0
ARC
  5
82
  8
0
  6
CONTINUOUS
 62
     7
 10
2364.158099354146
 20
1471.018990347164
 30
0.0
 40
0.2000000000000455
 50
0.0
 51
90.0
  0
ARC
  5
83
  8
0
  6
CONTINUOUS
 62
     7
 10
2065.658099354146
 20
1471.018990347164
 30
0.0
 40
0.2000000000002728
 50
0.0
 51
90.0
  0
LINE
  5
84
  8
0
  6
CONTINUOUS
 62
     7
 10
2065.658099354146
 20
1471.218990347164
 30
0.0
 11
2064.858099354146
 21
1471.218990347164
 31
0.0
  0
LINE
  5
85
  8
0
  6
CONTINUOUS
 62
     7
 10
2064.858099354145
 20
1471.218990347164
 30
0.0
 11
1770.858099354143
 21
1471.218990347165
 31
0.0
  0
LINE
  5
86
  8
0
  6
CONTINUOUS
 62
     7
 10
2363.358099354145
 20
1471.218990347164
 30
0.0
 11
2069.358099354143
 21
1471.218990347165
 31
0.0
  0
ARC
  5
87
  8
0
  6
CONTINUOUS
 62
     7
 10
2068.558099354145
 20
1471.018990347166
 30
0.0
 40
0.2000000000000455
 50
90.0
 51
180.0
  0
LINE
  5
88
  8
0
  6
CONTINUOUS
 62
     7
 10
2069.358099354143
 20
1471.218990347165
 30
0.0
 11
2068.558099354143
 21
1471.218990347165
 31
0.0
  0
LINE
  5
89
  8
0
  6
CONTINUOUS
 62
     7
 10
1770.858099354143
 20
1471.218990347165
 30
0.0
 11
1770.058099354143
 21
1471.218990347165
 31
0.0
  0
ARC
  5
8A
  8
0
  6
CONTINUOUS
 62
     7
 10
1770.058099354145
 20
1471.018990347166
 30
0.0
 40
0.2000000000000455
 50
90.0
 51
180.0
  0
LINE
  5
8B
  8
0
  6
CONTINUOUS
 62
     7
 10
2068.358099354145
 20
1006.718990347165
 30
0.0
 11
2069.358099354145
 21
1006.718990347165
 31
0.0
  0
LINE
  5
8C
  8
0
  6
CONTINUOUS
 62
     7
 10
2068.358099354145
 20
1470.718990347166
 30
0.0
 11
2069.358099354145
 21
1470.718990347166
 31
0.0
  0
LINE
  5
8D
  8
0
  6
CONTINUOUS
 62
     7
 10
2068.358099354145
 20
1006.718990347165
 30
0.0
 11
2068.358099354145
 21
1470.718990347166
 31
0.0
  0
LINE
  5
8E
  8
0
  6
CONTINUOUS
 62
     7
 10
2069.358099354145
 20
1006.718990347165
 30
0.0
 11
2069.358099354145
 21
1007.718990347165
 31
0.0
  0
LINE
  5
8F
  8
0
  6
CONTINUOUS
 62
     7
 10
2069.358099354145
 20
1469.718990347166
 30
0.0
 11
2069.358099354145
 21
1470.718990347166
 31
0.0
  0
LINE
  5
90
  8
0
  6
CONTINUOUS
 62
     7
 10
1769.858099354146
 20
1006.718990347165
 30
0.0
 11
1770.858099354146
 21
1006.718990347165
 31
0.0
  0
LINE
  5
91
  8
0
  6
CONTINUOUS
 62
     7
 10
1769.858099354146
 20
1006.718990347165
 30
0.0
 11
1769.858099354145
 21
1470.718990347166
 31
0.0
  0
LINE
  5
92
  8
0
  6
CONTINUOUS
 62
     7
 10
1770.858099354146
 20
1006.718990347165
 30
0.0
 11
1770.858099354146
 21
1007.718990347165
 31
0.0
  0
LINE
  5
93
  8
0
  6
CONTINUOUS
 62
     7
 10
1770.858099354146
 20
1469.718990347166
 30
0.0
 11
1770.858099354146
 21
1470.718990347166
 31
0.0
  0
LINE
  5
94
  8
0
  6
CONTINUOUS
 62
     7
 10
1769.858099354145
 20
1470.718990347166
 30
0.0
 11
1770.858099354146
 21
1470.718990347166
 31
0.0
  0
LINE
  5
95
  8
0
  6
CONTINUOUS
 62
     7
 10
2065.858099354146
 20
1006.718990347165
 30
0.0
 11
2064.858099354146
 21
1006.718990347165
 31
0.0
  0
LINE
  5
96
  8
0
  6
CONTINUOUS
 62
     7
 10
2064.858099354145
 20
1470.718990347166
 30
0.0
 11
2064.858099354145
 21
1469.718990347166
 31
0.0
  0
LINE
  5
97
  8
0
  6
CONTINUOUS
 62
     7
 10
2064.858099354146
 20
1007.718990347165
 30
0.0
 11
2064.858099354146
 21
1006.718990347165
 31
0.0
  0
LINE
  5
98
  8
0
  6
CONTINUOUS
 62
     7
 10
2065.858099354145
 20
1470.718990347166
 30
0.0
 11
2064.858099354145
 21
1470.718990347166
 31
0.0
  0
LINE
  5
99
  8
0
  6
CONTINUOUS
 62
     7
 10
2065.858099354145
 20
1470.718990347166
 30
0.0
 11
2065.858099354146
 21
1006.718990347165
 31
0.0
  0
LINE
  5
9A
  8
0
  6
CONTINUOUS
 62
     7
 10
2364.358099354145
 20
1470.718990347166
 30
0.0
 11
2363.358099354145
 21
1470.718990347166
 31
0.0
  0
LINE
  5
9B
  8
0
  6
CONTINUOUS
 62
     7
 10
2364.358099354145
 20
1006.718990347165
 30
0.0
 11
2363.358099354145
 21
1006.718990347165
 31
0.0
  0
LINE
  5
9C
  8
0
  6
CONTINUOUS
 62
     7
 10
2364.358099354145
 20
1470.718990347166
 30
0.0
 11
2364.358099354145
 21
1006.718990347165
 31
0.0
  0
LINE
  5
9D
  8
0
  6
CONTINUOUS
 62
     7
 10
2363.358099354145
 20
1470.718990347166
 30
0.0
 11
2363.358099354145
 21
1469.718990347166
 31
0.0
  0
LINE
  5
9E
  8
0
  6
CONTINUOUS
 62
     7
 10
2363.358099354145
 20
1007.718990347165
 30
0.0
 11
2363.358099354145
 21
1006.718990347165
 31
0.0
  0
LINE
  5
9F
  8
0
  6
CONTINUOUS
 62
     7
 10
2363.358099354145
 20
1006.718990347165
 30
0.0
 11
2069.358099354145
 21
1006.718990347165
 31
0.0
  0
LINE
  5
A0
  8
0
  6
CONTINUOUS
 62
     7
 10
2064.858099354146
 20
1006.718990347165
 30
0.0
 11
1770.858099354146
 21
1006.718990347165
 31
0.0
  0
LINE
  5
A1
  8
0
  6
CONTINUOUS
 62
     7
 10
1770.858099354146
 20
1470.718990347166
 30
0.0
 11
2064.858099354145
 21
1470.718990347166
 31
0.0
  0
LINE
  5
A2
  8
0
  6
CONTINUOUS
 62
     7
 10
2069.358099354145
 20
1470.718990347166
 30
0.0
 11
2363.358099354145
 21
1470.718990347166
 31
0.0
  0
LINE
  5
A3
  8
0
  6
CONTINUOUS
 62
     7
 10
1771.858099354146
 20
1468.718990347166
 30
0.0
 11
1771.858099354146
 21
1008.718990347165
 31
0.0
  0
LINE
  5
A4
  8
0
  6
CONTINUOUS
 62
     7
 10
1771.858099354146
 20
1008.718990347165
 30
0.0
 11
1770.858099354146
 21
1007.718990347165
 31
0.0
  0
LINE
  5
A5
  8
0
  6
CONTINUOUS
 62
     7
 10
1770.858099354146
 20
1007.718990347165
 30
0.0
 11
1770.858099354146
 21
1469.718990347166
 31
0.0
  0
LINE
  5
A6
  8
0
  6
CONTINUOUS
 62
     7
 10
1771.858099354146
 20
1468.718990347166
 30
0.0
 11
1770.858099354146
 21
1469.718990347166
 31
0.0
  0
LINE
  5
A7
  8
0
  6
CONTINUOUS
 62
     7
 10
2063.858099354145
 20
1468.718990347166
 30
0.0
 11
1771.858099354146
 21
1468.718990347166
 31
0.0
  0
LINE
  5
A8
  8
0
  6
CONTINUOUS
 62
     7
 10
1770.858099354146
 20
1469.718990347166
 30
0.0
 11
2064.858099354146
 21
1469.718990347166
 31
0.0
  0
LINE
  5
A9
  8
0
  6
CONTINUOUS
 62
     7
 10
2064.858099354146
 20
1469.718990347166
 30
0.0
 11
2063.858099354145
 21
1468.718990347166
 31
0.0
  0
LINE
  5
AA
  8
0
  6
CONTINUOUS
 62
     7
 10
2063.858099354145
 20
1008.718990347165
 30
0.0
 11
2063.858099354145
 21
1468.718990347166
 31
0.0
  0
LINE
  5
AB
  8
0
  6
CONTINUOUS
 62
     7
 10
1771.858099354146
 20
1008.718990347165
 30
0.0
 11
2063.858099354145
 21
1008.718990347165
 31
0.0
  0
LINE
  5
AC
  8
0
  6
CONTINUOUS
 62
     7
 10
2064.858099354146
 20
1469.718990347166
 30
0.0
 11
2064.858099354145
 21
1007.718990347165
 31
0.0
  0
LINE
  5
AD
  8
0
  6
CONTINUOUS
 62
     7
 10
2064.858099354145
 20
1007.718990347165
 30
0.0
 11
2063.858099354145
 21
1008.718990347165
 31
0.0
  0
LINE
  5
AE
  8
0
  6
CONTINUOUS
 62
     7
 10
2064.858099354145
 20
1007.718990347165
 30
0.0
 11
1770.858099354146
 21
1007.718990347165
 31
0.0
  0
LINE
  5
AF
  8
0
  6
CONTINUOUS
 62
     7
 10
2070.358099354146
 20
1468.718990347166
 30
0.0
 11
2070.358099354145
 21
1008.718990347165
 31
0.0
  0
LINE
  5
B0
  8
0
  6
CONTINUOUS
 62
     7
 10
2070.358099354145
 20
1008.718990347165
 30
0.0
 11
2069.358099354145
 21
1007.718990347165
 31
0.0
  0
LINE
  5
B1
  8
0
  6
CONTINUOUS
 62
     7
 10
2069.358099354145
 20
1007.718990347165
 30
0.0
 11
2069.358099354145
 21
1469.718990347166
 31
0.0
  0
LINE
  5
B2
  8
0
  6
CONTINUOUS
 62
     7
 10
2070.358099354146
 20
1468.718990347166
 30
0.0
 11
2069.358099354145
 21
1469.718990347166
 31
0.0
  0
LINE
  5
B3
  8
0
  6
CONTINUOUS
 62
     7
 10
2363.358099354145
 20
1469.718990347166
 30
0.0
 11
2363.358099354145
 21
1007.718990347165
 31
0.0
  0
LINE
  5
B4
  8
0
  6
CONTINUOUS
 62
     7
 10
2363.358099354145
 20
1007.718990347165
 30
0.0
 11
2362.358099354145
 21
1008.718990347165
 31
0.0
  0
LINE
  5
B5
  8
0
  6
CONTINUOUS
 62
     7
 10
2362.358099354145
 20
1008.718990347165
 30
0.0
 11
2362.358099354145
 21
1468.718990347166
 31
0.0
  0
LINE
  5
B6
  8
0
  6
CONTINUOUS
 62
     7
 10
2363.358099354145
 20
1469.718990347166
 30
0.0
 11
2362.358099354145
 21
1468.718990347166
 31
0.0
  0
LINE
  5
B7
  8
0
  6
CONTINUOUS
 62
     7
 10
2362.358099354145
 20
1468.718990347166
 30
0.0
 11
2070.358099354146
 21
1468.718990347166
 31
0.0
  0
LINE
  5
B8
  8
0
  6
CONTINUOUS
 62
     7
 10
2070.358099354145
 20
1008.718990347165
 30
0.0
 11
2362.358099354145
 21
1008.718990347165
 31
0.0
  0
LINE
  5
B9
  8
0
  6
CONTINUOUS
 62
     7
 10
2069.358099354145
 20
1469.718990347166
 30
0.0
 11
2363.358099354145
 21
1469.718990347166
 31
0.0
  0
LINE
  5
BA
  8
0
  6
CONTINUOUS
 62
     7
 10
2363.358099354145
 20
1007.718990347165
 30
0.0
 11
2069.358099354145
 21
1007.718990347165
 31
0.0
  0
LINE
  5
BB
  8
0
  6
CONTINUOUS
 62
     7
 10
2068.358099354145
 20
1219.718990347166
 30
0.0
 11
2065.858099354145
 21
1219.718990347166
 31
0.0
  0
LINE
  5
BC
  8
0
  6
CONTINUOUS
 62
     7
 10
2065.858099354145
 20
1202.718990347166
 30
0.0
 11
2068.358099354145
 21
1202.718990347166
 31
0.0
  0
LINE
  5
BD
  8
0
  6
CONTINUOUS
 62
     7
 10
2364.358099354146
 20
1471.007841625417
 30
0.0
 11
2364.358099354146
 21
1470.918990347164
 31
0.0
  0
POLYLINE
  5
BE
  8
0
  6
CONTINUOUS
 62
     7
 66
     1
 10
0.0
 20
0.0
 30
0.0
  0
VERTEX
  5
29C
  8
0
  6
CONTINUOUS
 62
     7
 10
2364.358099354146
 20
1470.918990347164
 30
0.0
  0
VERTEX
  5
29D
  8
0
  6
CONTINUOUS
 62
     7
 10
2364.358081917384
 20
1470.916232414987
 30
0.0
  0
VERTEX
  5
29E
  8
0
  6
CONTINUOUS
 62
     7
 10
2364.35802611962
 20
1470.913405975239
 30
0.0
  0
VERTEX
  5
29F
  8
0
  6
CONTINUOUS
 62
     7
 10
2364.357927518031
 20
1470.910510188076
 30
0.0
  0
VERTEX
  5
2A0
  8
0
  6
CONTINUOUS
 62
     7
 10
2364.357783081822
 20
1470.907547030693
 30
0.0
  0
VERTEX
  5
2A1
  8
0
  6
CONTINUOUS
 62
     7
 10
2364.357589780198
 20
1470.904518480284
 30
0.0
  0
VERTEX
  5
2A2
  8
0
  6
CONTINUOUS
 62
     7
 10
2364.357344582368
 20
1470.901426514045
 30
0.0
  0
VERTEX
  5
2A3
  8
0
  6
CONTINUOUS
 62
     7
 10
2364.357044457538
 20
1470.89827310917
 30
0.0
  0
VERTEX
  5
2A4
  8
0
  6
CONTINUOUS
 62
     7
 10
2364.356686374911
 20
1470.895060242855
 30
0.0
  0
VERTEX
  5
2A5
  8
0
  6
CONTINUOUS
 62
     7
 10
2364.356267303696
 20
1470.891789892295
 30
0.0
  0
VERTEX
  5
2A6
  8
0
  6
CONTINUOUS
 62
     7
 10
2364.355784213099
 20
1470.888464034683
 30
0.0
  0
VERTEX
  5
2A7
  8
0
  6
CONTINUOUS
 62
     7
 10
2364.355234072325
 20
1470.885084647216
 30
0.0
  0
VERTEX
  5
2A8
  8
0
  6
CONTINUOUS
 62
     7
 10
2364.354613850581
 20
1470.881653707088
 30
0.0
  0
VERTEX
  5
2A9
  8
0
  6
CONTINUOUS
 62
     7
 10
2364.353920517073
 20
1470.878173191495
 30
0.0
  0
VERTEX
  5
2AA
  8
0
  6
CONTINUOUS
 62
     7
 10
2364.353151041008
 20
1470.87464507763
 30
0.0
  0
VERTEX
  5
2AB
  8
0
  6
CONTINUOUS
 62
     7
 10
2364.35230239159
 20
1470.871071342689
 30
0.0
  0
VERTEX
  5
2AC
  8
0
  6
CONTINUOUS
 62
     7
 10
2364.351371538028
 20
1470.867453963868
 30
0.0
  0
VERTEX
  5
2AD
  8
0
  6
CONTINUOUS
 62
     7
 10
2364.350355449526
 20
1470.86379491836
 30
0.0
  0
VERTEX
  5
2AE
  8
0
  6
CONTINUOUS
 62
     7
 10
2364.349251095291
 20
1470.860096183362
 30
0.0
  0
VERTEX
  5
2AF
  8
0
  6
CONTINUOUS
 62
     7
 10
2364.348055444529
 20
1470.856359736067
 30
0.0
  0
VERTEX
  5
2B0
  8
0
  6
CONTINUOUS
 62
     7
 10
2364.346765466447
 20
1470.852587553671
 30
0.0
  0
VERTEX
  5
2B1
  8
0
  6
CONTINUOUS
 62
     7
 10
2364.34537813025
 20
1470.848781613368
 30
0.0
  0
VERTEX
  5
2B2
  8
0
  6
CONTINUOUS
 62
     7
 10
2364.343890405145
 20
1470.844943892354
 30
0.0
  0
VERTEX
  5
2B3
  8
0
  6
CONTINUOUS
 62
     7
 10
2364.342299260338
 20
1470.841076367824
 30
0.0
  0
VERTEX
  5
2B4
  8
0
  6
CONTINUOUS
 62
     7
 10
2364.340601665035
 20
1470.837181016972
 30
0.0
  0
VERTEX
  5
2B5
  8
0
  6
CONTINUOUS
 62
     7
 10
2364.338794575886
 20
1470.833259894818
 30
0.0
  0
VERTEX
  5
2B6
  8
0
  6
CONTINUOUS
 62
     7
 10
2364.336874726977
 20
1470.829316435778
 30
0.0
  0
VERTEX
  5
2B7
  8
0
  6
CONTINUOUS
 62
     7
 10
2364.334838661397
 20
1470.825355258071
 30
0.0
  0
VERTEX
  5
2B8
  8
0
  6
CONTINUOUS
 62
     7
 10
2364.332682916031
 20
1470.821381018326
 30
0.0
  0
VERTEX
  5
2B9
  8
0
  6
CONTINUOUS
 62
     7
 10
2364.330404027767
 20
1470.817398373172
 30
0.0
  0
VERTEX
  5
2BA
  8
0
  6
CONTINUOUS
 62
     7
 10
2364.327998533493
 20
1470.813411979241
 30
0.0
  0
VERTEX
  5
2BB
  8
0
  6
CONTINUOUS
 62
     7
 10
2364.325462970098
 20
1470.809426493163
 30
0.0
  0
VERTEX
  5
2BC
  8
0
  6
CONTINUOUS
 62
     7
 10
2364.322793874469
 20
1470.805446571568
 30
0.0
  0
VERTEX
  5
2BD
  8
0
  6
CONTINUOUS
 62
     7
 10
2364.319987783492
 20
1470.801476871085
 30
0.0
  0
VERTEX
  5
2BE
  8
0
  6
CONTINUOUS
 62
     7
 10
2364.317041234057
 20
1470.797522048346
 30
0.0
  0
VERTEX
  5
2BF
  8
0
  6
CONTINUOUS
 62
     7
 10
2364.31395076305
 20
1470.79358675998
 30
0.0
  0
VERTEX
  5
2C0
  8
0
  6
CONTINUOUS
 62
     7
 10
2364.31071290736
 20
1470.789675662618
 30
0.0
  0
VERTEX
  5
2C1
  8
0
  6
CONTINUOUS
 62
     7
 10
2364.307324203874
 20
1470.785793412889
 30
0.0
  0
VERTEX
  5
2C2
  8
0
  6
CONTINUOUS
 62
     7
 10
2364.30378118948
 20
1470.781944667425
 30
0.0
  0
VERTEX
  5
2C3
  8
0
  6
CONTINUOUS
 62
     7
 10
2364.300080402673
 20
1470.778134084168
 30
0.0
  0
VERTEX
  5
2C4
  8
0
  6
CONTINUOUS
 62
     7
 10
2364.296219076802
 20
1470.774366888348
 30
0.0
  0
VERTEX
  5
2C5
  8
0
  6
CONTINUOUS
 62
     7
 10
2364.292196221942
 20
1470.770649755738
 30
0.0
  0
VERTEX
  5
2C6
  8
0
  6
CONTINUOUS
 62
     7
 10
2364.288011128093
 20
1470.766989590647
 30
0.0
  0
VERTEX
  5
2C7
  8
0
  6
CONTINUOUS
 62
     7
 10
2364.28366308526
 20
1470.763393297385
 30
0.0
  0
VERTEX
  5
2C8
  8
0
  6
CONTINUOUS
 62
     7
 10
2364.279151383443
 20
1470.759867780263
 30
0.0
  0
VERTEX
  5
2C9
  8
0
  6
CONTINUOUS
 62
     7
 10
2364.274475312647
 20
1470.756419943589
 30
0.0
  0
VERTEX
  5
2CA
  8
0
  6
CONTINUOUS
 62
     7
 10
2364.269634162871
 20
1470.753056691672
 30
0.0
  0
VERTEX
  5
2CB
  8
0
  6
CONTINUOUS
 62
     7
 10
2364.264627224119
 20
1470.749784928824
 30
0.0
  0
VERTEX
  5
2CC
  8
0
  6
CONTINUOUS
 62
     7
 10
2364.259453786392
 20
1470.746611559353
 30
0.0
  0
VERTEX
  5
2CD
  8
0
  6
CONTINUOUS
 62
     7
 10
2364.254113139699
 20
1470.743543487579
 30
0.0
  0
VERTEX
  5
2CE
  8
0
  6
CONTINUOUS
 62
     7
 10
2364.248605797551
 20
1470.74059016942
 30
0.0
  0
VERTEX
  5
2CF
  8
0
  6
CONTINUOUS
 62
     7
 10
2364.242936939894
 20
1470.737770792562
 30
0.0
  0
VERTEX
  5
2D0
  8
0
  6
CONTINUOUS
 62
     7
 10
2364.237112859009
 20
1470.735106864443
 30
0.0
  0
VERTEX
  5
2D1
  8
0
  6
CONTINUOUS
 62
     7
 10
2364.231139847177
 20
1470.732619892503
 30
0.0
  0
VERTEX
  5
2D2
  8
0
  6
CONTINUOUS
 62
     7
 10
2364.225024196677
 20
1470.730331384179
 30
0.0
  0
VERTEX
  5
2D3
  8
0
  6
CONTINUOUS
 62
     7
 10
2364.218772199791
 20
1470.728262846912
 30
0.0
  0
VERTEX
  5
2D4
  8
0
  6
CONTINUOUS
 62
     7
 10
2364.212390148799
 20
1470.726435788139
 30
0.0
  0
VERTEX
  5
2D5
  8
0
  6
CONTINUOUS
 62
     7
 10
2364.205884568067
 20
1470.724870340157
 30
0.0
  0
VERTEX
  5
2D6
  8
0
  6
CONTINUOUS
 62
     7
 10
2364.199266794995
 20
1470.72355811733
 30
0.0
  0
VERTEX
  5
2D7
  8
0
  6
CONTINUOUS
 62
     7
 10
2364.192552705281
 20
1470.722463843962
 30
0.0
  0
VERTEX
  5
2D8
  8
0
  6
CONTINUOUS
 62
     7
 10
2364.185758351697
 20
1470.721551195143
 30
0.0
  0
VERTEX
  5
2D9
  8
0
  6
CONTINUOUS
 62
     7
 10
2364.178899787019
 20
1470.720783845964
 30
0.0
  0
VERTEX
  5
2DA
  8
0
  6
CONTINUOUS
 62
     7
 10
2364.171993064017
 20
1470.720125471514
 30
0.0
  0
VERTEX
  5
2DB
  8
0
  6
CONTINUOUS
 62
     7
 10
2364.165054235468
 20
1470.719539746884
 30
0.0
  0
VERTEX
  5
2DC
  8
0
  6
CONTINUOUS
 62
     7
 10
2364.158099354146
 20
1470.718990347164
 30
0.0
  0
SEQEND
  5
526
  8
0
  6
CONTINUOUS
 62
     7
  0
LINE
  5
BF
  8
0
  6
CONTINUOUS
 62
     7
 10
2364.158099354146
 20
1470.718990347164
 30
0.0
 11
2364.158099354146
 21
1471.20505444498
 31
0.0
  0
ARC
  5
C0
  8
0
  6
CONTINUOUS
 62
     7
 10
2364.159483233896
 20
1471.006438187494
 30
0.0
 40
0.1986210785917201
 50
0.4048499761385097
 51
90.39920793480508
  0
LINE
  5
C1
  8
0
  6
CONTINUOUS
 62
     7
 10
2363.358099354146
 20
1471.20505444498
 30
0.0
 11
2363.358099354146
 21
1470.718990347164
 31
0.0
  0
LINE
  5
C2
  8
0
  6
CONTINUOUS
 62
     7
 10
2364.158099354146
 20
1471.20505444498
 30
0.0
 11
2363.358099354146
 21
1471.20505444498
 31
0.0
  0
LINE
  5
C3
  8
0
  6
CONTINUOUS
 62
     7
 10
2363.358099354146
 20
1471.218990347164
 30
0.0
 11
2363.358099354146
 21
1471.20505444498
 31
0.0
  0
LINE
  5
C4
  8
0
  6
CONTINUOUS
 62
     7
 10
2364.358099354146
 20
1471.018990347164
 30
0.0
 11
2364.358099354146
 21
1471.007841625417
 31
0.0
  0
LINE
  5
C5
  8
0
  6
CONTINUOUS
 62
     7
 10
2364.358099354146
 20
1470.918990347164
 30
0.0
 11
2364.358099354146
 21
1470.718990347166
 31
0.0
  0
LINE
  5
C6
  8
0
  6
CONTINUOUS
 62
     7
 10
2065.858099354146
 20
1471.007841625417
 30
0.0
 11
2065.858099354146
 21
1470.918990347164
 31
0.0
  0
LINE
  5
C7
  8
0
  6
CONTINUOUS
 62
     7
 10
2065.658099354146
 20
1470.718990347164
 30
0.0
 11
2065.658099354146
 21
1471.20505444498
 31
0.0
  0
ARC
  5
C8
  8
0
  6
CONTINUOUS
 62
     7
 10
2065.659483233896
 20
1471.006438187494
 30
0.0
 40
0.1986210785921764
 50
0.4048499762031711
 51
90.39920793480415
  0
POLYLINE
  5
C9
  8
0
  6
CONTINUOUS
 62
     7
 66
     1
 10
0.0
 20
0.0
 30
0.0
  0
VERTEX
  5
2DD
  8
0
  6
CONTINUOUS
 62
     7
 10
2065.858099354146
 20
1470.918990347164
 30
0.0
  0
VERTEX
  5
2DE
  8
0
  6
CONTINUOUS
 62
     7
 10
2065.858081917384
 20
1470.916232414986
 30
0.0
  0
VERTEX
  5
2DF
  8
0
  6
CONTINUOUS
 62
     7
 10
2065.85802611962
 20
1470.913405975239
 30
0.0
  0
VERTEX
  5
2E0
  8
0
  6
CONTINUOUS
 62
     7
 10
2065.857927518031
 20
1470.910510188076
 30
0.0
  0
VERTEX
  5
2E1
  8
0
  6
CONTINUOUS
 62
     7
 10
2065.857783081822
 20
1470.907547030693
 30
0.0
  0
VERTEX
  5
2E2
  8
0
  6
CONTINUOUS
 62
     7
 10
2065.857589780198
 20
1470.904518480284
 30
0.0
  0
VERTEX
  5
2E3
  8
0
  6
CONTINUOUS
 62
     7
 10
2065.857344582368
 20
1470.901426514044
 30
0.0
  0
VERTEX
  5
2E4
  8
0
  6
CONTINUOUS
 62
     7
 10
2065.857044457537
 20
1470.89827310917
 30
0.0
  0
VERTEX
  5
2E5
  8
0
  6
CONTINUOUS
 62
     7
 10
2065.856686374912
 20
1470.895060242855
 30
0.0
  0
VERTEX
  5
2E6
  8
0
  6
CONTINUOUS
 62
     7
 10
2065.856267303697
 20
1470.891789892294
 30
0.0
  0
VERTEX
  5
2E7
  8
0
  6
CONTINUOUS
 62
     7
 10
2065.855784213099
 20
1470.888464034683
 30
0.0
  0
VERTEX
  5
2E8
  8
0
  6
CONTINUOUS
 62
     7
 10
2065.855234072325
 20
1470.885084647216
 30
0.0
  0
VERTEX
  5
2E9
  8
0
  6
CONTINUOUS
 62
     7
 10
2065.854613850581
 20
1470.881653707088
 30
0.0
  0
VERTEX
  5
2EA
  8
0
  6
CONTINUOUS
 62
     7
 10
2065.853920517074
 20
1470.878173191494
 30
0.0
  0
VERTEX
  5
2EB
  8
0
  6
CONTINUOUS
 62
     7
 10
2065.853151041008
 20
1470.874645077629
 30
0.0
  0
VERTEX
  5
2EC
  8
0
  6
CONTINUOUS
 62
     7
 10
2065.85230239159
 20
1470.871071342689
 30
0.0
  0
VERTEX
  5
2ED
  8
0
  6
CONTINUOUS
 62
     7
 10
2065.851371538028
 20
1470.867453963868
 30
0.0
  0
VERTEX
  5
2EE
  8
0
  6
CONTINUOUS
 62
     7
 10
2065.850355449526
 20
1470.86379491836
 30
0.0
  0
VERTEX
  5
2EF
  8
0
  6
CONTINUOUS
 62
     7
 10
2065.849251095291
 20
1470.860096183361
 30
0.0
  0
VERTEX
  5
2F0
  8
0
  6
CONTINUOUS
 62
     7
 10
2065.848055444529
 20
1470.856359736066
 30
0.0
  0
VERTEX
  5
2F1
  8
0
  6
CONTINUOUS
 62
     7
 10
2065.846765466447
 20
1470.85258755367
 30
0.0
  0
VERTEX
  5
2F2
  8
0
  6
CONTINUOUS
 62
     7
 10
2065.84537813025
 20
1470.848781613368
 30
0.0
  0
VERTEX
  5
2F3
  8
0
  6
CONTINUOUS
 62
     7
 10
2065.843890405145
 20
1470.844943892354
 30
0.0
  0
VERTEX
  5
2F4
  8
0
  6
CONTINUOUS
 62
     7
 10
2065.842299260337
 20
1470.841076367824
 30
0.0
  0
VERTEX
  5
2F5
  8
0
  6
CONTINUOUS
 62
     7
 10
2065.840601665034
 20
1470.837181016972
 30
0.0
  0
VERTEX
  5
2F6
  8
0
  6
CONTINUOUS
 62
     7
 10
2065.838794575885
 20
1470.833259894817
 30
0.0
  0
VERTEX
  5
2F7
  8
0
  6
CONTINUOUS
 62
     7
 10
2065.836874726977
 20
1470.829316435778
 30
0.0
  0
VERTEX
  5
2F8
  8
0
  6
CONTINUOUS
 62
     7
 10
2065.834838661396
 20
1470.825355258071
 30
0.0
  0
VERTEX
  5
2F9
  8
0
  6
CONTINUOUS
 62
     7
 10
2065.832682916031
 20
1470.821381018325
 30
0.0
  0
VERTEX
  5
2FA
  8
0
  6
CONTINUOUS
 62
     7
 10
2065.830404027767
 20
1470.817398373172
 30
0.0
  0
VERTEX
  5
2FB
  8
0
  6
CONTINUOUS
 62
     7
 10
2065.827998533493
 20
1470.813411979241
 30
0.0
  0
VERTEX
  5
2FC
  8
0
  6
CONTINUOUS
 62
     7
 10
2065.825462970098
 20
1470.809426493163
 30
0.0
  0
VERTEX
  5
2FD
  8
0
  6
CONTINUOUS
 62
     7
 10
2065.822793874469
 20
1470.805446571567
 30
0.0
  0
VERTEX
  5
2FE
  8
0
  6
CONTINUOUS
 62
     7
 10
2065.819987783492
 20
1470.801476871085
 30
0.0
  0
VERTEX
  5
2FF
  8
0
  6
CONTINUOUS
 62
     7
 10
2065.817041234056
 20
1470.797522048345
 30
0.0
  0
VERTEX
  5
300
  8
0
  6
CONTINUOUS
 62
     7
 10
2065.81395076305
 20
1470.793586759979
 30
0.0
  0
VERTEX
  5
301
  8
0
  6
CONTINUOUS
 62
     7
 10
2065.81071290736
 20
1470.789675662617
 30
0.0
  0
VERTEX
  5
302
  8
0
  6
CONTINUOUS
 62
     7
 10
2065.807324203873
 20
1470.785793412889
 30
0.0
  0
VERTEX
  5
303
  8
0
  6
CONTINUOUS
 62
     7
 10
2065.80378118948
 20
1470.781944667425
 30
0.0
  0
VERTEX
  5
304
  8
0
  6
CONTINUOUS
 62
     7
 10
2065.800080402673
 20
1470.778134084168
 30
0.0
  0
VERTEX
  5
305
  8
0
  6
CONTINUOUS
 62
     7
 10
2065.796219076802
 20
1470.774366888347
 30
0.0
  0
VERTEX
  5
306
  8
0
  6
CONTINUOUS
 62
     7
 10
2065.792196221941
 20
1470.770649755737
 30
0.0
  0
VERTEX
  5
307
  8
0
  6
CONTINUOUS
 62
     7
 10
2065.788011128093
 20
1470.766989590646
 30
0.0
  0
VERTEX
  5
308
  8
0
  6
CONTINUOUS
 62
     7
 10
2065.78366308526
 20
1470.763393297385
 30
0.0
  0
VERTEX
  5
309
  8
0
  6
CONTINUOUS
 62
     7
 10
2065.779151383444
 20
1470.759867780262
 30
0.0
  0
VERTEX
  5
30A
  8
0
  6
CONTINUOUS
 62
     7
 10
2065.774475312647
 20
1470.756419943588
 30
0.0
  0
VERTEX
  5
30B
  8
0
  6
CONTINUOUS
 62
     7
 10
2065.769634162871
 20
1470.753056691672
 30
0.0
  0
VERTEX
  5
30C
  8
0
  6
CONTINUOUS
 62
     7
 10
2065.764627224119
 20
1470.749784928824
 30
0.0
  0
VERTEX
  5
30D
  8
0
  6
CONTINUOUS
 62
     7
 10
2065.759453786392
 20
1470.746611559353
 30
0.0
  0
VERTEX
  5
30E
  8
0
  6
CONTINUOUS
 62
     7
 10
2065.754113139699
 20
1470.743543487579
 30
0.0
  0
VERTEX
  5
30F
  8
0
  6
CONTINUOUS
 62
     7
 10
2065.748605797551
 20
1470.74059016942
 30
0.0
  0
VERTEX
  5
310
  8
0
  6
CONTINUOUS
 62
     7
 10
2065.742936939894
 20
1470.737770792561
 30
0.0
  0
VERTEX
  5
311
  8
0
  6
CONTINUOUS
 62
     7
 10
2065.737112859009
 20
1470.735106864443
 30
0.0
  0
VERTEX
  5
312
  8
0
  6
CONTINUOUS
 62
     7
 10
2065.731139847177
 20
1470.732619892502
 30
0.0
  0
VERTEX
  5
313
  8
0
  6
CONTINUOUS
 62
     7
 10
2065.725024196677
 20
1470.730331384179
 30
0.0
  0
VERTEX
  5
314
  8
0
  6
CONTINUOUS
 62
     7
 10
2065.718772199791
 20
1470.728262846911
 30
0.0
  0
VERTEX
  5
315
  8
0
  6
CONTINUOUS
 62
     7
 10
2065.712390148799
 20
1470.726435788138
 30
0.0
  0
VERTEX
  5
316
  8
0
  6
CONTINUOUS
 62
     7
 10
2065.705884568067
 20
1470.724870340156
 30
0.0
  0
VERTEX
  5
317
  8
0
  6
CONTINUOUS
 62
     7
 10
2065.699266794995
 20
1470.723558117329
 30
0.0
  0
VERTEX
  5
318
  8
0
  6
CONTINUOUS
 62
     7
 10
2065.692552705281
 20
1470.722463843962
 30
0.0
  0
VERTEX
  5
319
  8
0
  6
CONTINUOUS
 62
     7
 10
2065.685758351697
 20
1470.721551195142
 30
0.0
  0
VERTEX
  5
31A
  8
0
  6
CONTINUOUS
 62
     7
 10
2065.678899787018
 20
1470.720783845964
 30
0.0
  0
VERTEX
  5
31B
  8
0
  6
CONTINUOUS
 62
     7
 10
2065.671993064017
 20
1470.720125471514
 30
0.0
  0
VERTEX
  5
31C
  8
0
  6
CONTINUOUS
 62
     7
 10
2065.665054235468
 20
1470.719539746884
 30
0.0
  0
VERTEX
  5
31D
  8
0
  6
CONTINUOUS
 62
     7
 10
2065.658099354146
 20
1470.718990347164
 30
0.0
  0
SEQEND
  5
527
  8
0
  6
CONTINUOUS
 62
     7
  0
LINE
  5
CA
  8
0
  6
CONTINUOUS
 62
     7
 10
2065.658099354146
 20
1471.20505444498
 30
0.0
 11
2064.858099354146
 21
1471.20505444498
 31
0.0
  0
LINE
  5
CB
  8
0
  6
CONTINUOUS
 62
     7
 10
2064.858099354146
 20
1471.20505444498
 30
0.0
 11
2064.858099354146
 21
1470.718990347164
 31
0.0
  0
LINE
  5
CC
  8
0
  6
CONTINUOUS
 62
     7
 10
2065.858099354146
 20
1471.018990347164
 30
0.0
 11
2065.858099354146
 21
1471.007841625417
 31
0.0
  0
LINE
  5
CD
  8
0
  6
CONTINUOUS
 62
     7
 10
2064.858099354146
 20
1471.218990347164
 30
0.0
 11
2064.858099354146
 21
1471.20505444498
 31
0.0
  0
LINE
  5
CE
  8
0
  6
CONTINUOUS
 62
     7
 10
2065.858099354146
 20
1470.918990347164
 30
0.0
 11
2065.858099354146
 21
1470.718990347166
 31
0.0
  0
LINE
  5
CF
  8
0
  6
CONTINUOUS
 62
     7
 10
2064.858099354145
 20
1471.20505444498
 30
0.0
 11
1770.858099354145
 21
1471.205054444982
 31
0.0
  0
LINE
  5
D0
  8
0
  6
CONTINUOUS
 62
     7
 10
1770.858099354145
 20
1470.718990347166
 30
0.0
 11
1770.858099354145
 21
1471.205054444982
 31
0.0
  0
LINE
  5
D1
  8
0
  6
CONTINUOUS
 62
     7
 10
1770.858099354145
 20
1471.205054444982
 30
0.0
 11
1770.858099354145
 21
1471.218990347166
 31
0.0
  0
LINE
  5
D2
  8
0
  6
CONTINUOUS
 62
     7
 10
2363.358099354145
 20
1471.20505444498
 30
0.0
 11
2069.358099354145
 21
1471.205054444982
 31
0.0
  0
LINE
  5
D3
  8
0
  6
CONTINUOUS
 62
     7
 10
2069.358099354145
 20
1470.718990347166
 30
0.0
 11
2069.358099354145
 21
1471.205054444982
 31
0.0
  0
LINE
  5
D4
  8
0
  6
CONTINUOUS
 62
     7
 10
2069.358099354145
 20
1471.205054444982
 30
0.0
 11
2069.358099354145
 21
1471.218990347166
 31
0.0
  0
LINE
  5
D5
  8
0
  6
CONTINUOUS
 62
     7
 10
2068.358099354145
 20
1470.918990347166
 30
0.0
 11
2068.358099354145
 21
1471.007841625419
 31
0.0
  0
ARC
  5
D6
  8
0
  6
CONTINUOUS
 62
     7
 10
2068.556715474395
 20
1471.006438187496
 30
0.0
 40
0.1986210785923617
 50
89.60079206532748
 51
179.5951500236657
  0
LINE
  5
D7
  8
0
  6
CONTINUOUS
 62
     7
 10
2068.558099354145
 20
1471.205054444982
 30
0.0
 11
2068.558099354145
 21
1470.718990347166
 31
0.0
  0
POLYLINE
  5
D8
  8
0
  6
CONTINUOUS
 62
     7
 66
     1
 10
0.0
 20
0.0
 30
0.0
  0
VERTEX
  5
31E
  8
0
  6
CONTINUOUS
 62
     7
 10
2068.358099354145
 20
1470.918990347166
 30
0.0
  0
VERTEX
  5
31F
  8
0
  6
CONTINUOUS
 62
     7
 10
2068.358116790906
 20
1470.916232414989
 30
0.0
  0
VERTEX
  5
320
  8
0
  6
CONTINUOUS
 62
     7
 10
2068.35817258867
 20
1470.913405975241
 30
0.0
  0
VERTEX
  5
321
  8
0
  6
CONTINUOUS
 62
     7
 10
2068.35827119026
 20
1470.910510188078
 30
0.0
  0
VERTEX
  5
322
  8
0
  6
CONTINUOUS
 62
     7
 10
2068.35841562647
 20
1470.907547030694
 30
0.0
  0
VERTEX
  5
323
  8
0
  6
CONTINUOUS
 62
     7
 10
2068.358608928092
 20
1470.904518480285
 30
0.0
  0
VERTEX
  5
324
  8
0
  6
CONTINUOUS
 62
     7
 10
2068.358854125922
 20
1470.901426514046
 30
0.0
  0
VERTEX
  5
325
  8
0
  6
CONTINUOUS
 62
     7
 10
2068.359154250753
 20
1470.898273109171
 30
0.0
  0
VERTEX
  5
326
  8
0
  6
CONTINUOUS
 62
     7
 10
2068.359512333379
 20
1470.895060242856
 30
0.0
  0
VERTEX
  5
327
  8
0
  6
CONTINUOUS
 62
     7
 10
2068.359931404595
 20
1470.891789892295
 30
0.0
  0
VERTEX
  5
328
  8
0
  6
CONTINUOUS
 62
     7
 10
2068.360414495192
 20
1470.888464034684
 30
0.0
  0
VERTEX
  5
329
  8
0
  6
CONTINUOUS
 62
     7
 10
2068.360964635966
 20
1470.885084647217
 30
0.0
  0
VERTEX
  5
32A
  8
0
  6
CONTINUOUS
 62
     7
 10
2068.36158485771
 20
1470.88165370709
 30
0.0
  0
VERTEX
  5
32B
  8
0
  6
CONTINUOUS
 62
     7
 10
2068.362278191217
 20
1470.878173191496
 30
0.0
  0
VERTEX
  5
32C
  8
0
  6
CONTINUOUS
 62
     7
 10
2068.363047667283
 20
1470.874645077631
 30
0.0
  0
VERTEX
  5
32D
  8
0
  6
CONTINUOUS
 62
     7
 10
2068.3638963167
 20
1470.871071342691
 30
0.0
  0
VERTEX
  5
32E
  8
0
  6
CONTINUOUS
 62
     7
 10
2068.364827170263
 20
1470.867453963869
 30
0.0
  0
VERTEX
  5
32F
  8
0
  6
CONTINUOUS
 62
     7
 10
2068.365843258765
 20
1470.863794918362
 30
0.0
  0
VERTEX
  5
330
  8
0
  6
CONTINUOUS
 62
     7
 10
2068.366947612999
 20
1470.860096183363
 30
0.0
  0
VERTEX
  5
331
  8
0
  6
CONTINUOUS
 62
     7
 10
2068.368143263762
 20
1470.856359736068
 30
0.0
  0
VERTEX
  5
332
  8
0
  6
CONTINUOUS
 62
     7
 10
2068.369433241844
 20
1470.852587553672
 30
0.0
  0
VERTEX
  5
333
  8
0
  6
CONTINUOUS
 62
     7
 10
2068.370820578042
 20
1470.84878161337
 30
0.0
  0
VERTEX
  5
334
  8
0
  6
CONTINUOUS
 62
     7
 10
2068.372308303146
 20
1470.844943892356
 30
0.0
  0
VERTEX
  5
335
  8
0
  6
CONTINUOUS
 62
     7
 10
2068.373899447954
 20
1470.841076367826
 30
0.0
  0
VERTEX
  5
336
  8
0
  6
CONTINUOUS
 62
     7
 10
2068.375597043257
 20
1470.837181016974
 30
0.0
  0
VERTEX
  5
337
  8
0
  6
CONTINUOUS
 62
     7
 10
2068.377404132406
 20
1470.833259894819
 30
0.0
  0
VERTEX
  5
338
  8
0
  6
CONTINUOUS
 62
     7
 10
2068.379323981314
 20
1470.82931643578
 30
0.0
  0
VERTEX
  5
339
  8
0
  6
CONTINUOUS
 62
     7
 10
2068.381360046895
 20
1470.825355258073
 30
0.0
  0
VERTEX
  5
33A
  8
0
  6
CONTINUOUS
 62
     7
 10
2068.383515792262
 20
1470.821381018328
 30
0.0
  0
VERTEX
  5
33B
  8
0
  6
CONTINUOUS
 62
     7
 10
2068.385794680525
 20
1470.817398373174
 30
0.0
  0
VERTEX
  5
33C
  8
0
  6
CONTINUOUS
 62
     7
 10
2068.388200174798
 20
1470.813411979243
 30
0.0
  0
VERTEX
  5
33D
  8
0
  6
CONTINUOUS
 62
     7
 10
2068.390735738194
 20
1470.809426493165
 30
0.0
  0
VERTEX
  5
33E
  8
0
  6
CONTINUOUS
 62
     7
 10
2068.393404833823
 20
1470.805446571569
 30
0.0
  0
VERTEX
  5
33F
  8
0
  6
CONTINUOUS
 62
     7
 10
2068.3962109248
 20
1470.801476871087
 30
0.0
  0
VERTEX
  5
340
  8
0
  6
CONTINUOUS
 62
     7
 10
2068.399157474235
 20
1470.797522048348
 30
0.0
  0
VERTEX
  5
341
  8
0
  6
CONTINUOUS
 62
     7
 10
2068.402247945242
 20
1470.793586759982
 30
0.0
  0
VERTEX
  5
342
  8
0
  6
CONTINUOUS
 62
     7
 10
2068.405485800932
 20
1470.78967566262
 30
0.0
  0
VERTEX
  5
343
  8
0
  6
CONTINUOUS
 62
     7
 10
2068.408874504418
 20
1470.785793412891
 30
0.0
  0
VERTEX
  5
344
  8
0
  6
CONTINUOUS
 62
     7
 10
2068.412417518812
 20
1470.781944667427
 30
0.0
  0
VERTEX
  5
345
  8
0
  6
CONTINUOUS
 62
     7
 10
2068.416118305619
 20
1470.77813408417
 30
0.0
  0
VERTEX
  5
346
  8
0
  6
CONTINUOUS
 62
     7
 10
2068.41997963149
 20
1470.77436688835
 30
0.0
  0
VERTEX
  5
347
  8
0
  6
CONTINUOUS
 62
     7
 10
2068.42400248635
 20
1470.770649755739
 30
0.0
  0
VERTEX
  5
348
  8
0
  6
CONTINUOUS
 62
     7
 10
2068.428187580198
 20
1470.766989590649
 30
0.0
  0
VERTEX
  5
349
  8
0
  6
CONTINUOUS
 62
     7
 10
2068.432535623032
 20
1470.763393297387
 30
0.0
  0
VERTEX
  5
34A
  8
0
  6
CONTINUOUS
 62
     7
 10
2068.437047324848
 20
1470.759867780264
 30
0.0
  0
VERTEX
  5
34B
  8
0
  6
CONTINUOUS
 62
     7
 10
2068.441723395645
 20
1470.756419943591
 30
0.0
  0
VERTEX
  5
34C
  8
0
  6
CONTINUOUS
 62
     7
 10
2068.446564545421
 20
1470.753056691674
 30
0.0
  0
VERTEX
  5
34D
  8
0
  6
CONTINUOUS
 62
     7
 10
2068.451571484173
 20
1470.749784928826
 30
0.0
  0
VERTEX
  5
34E
  8
0
  6
CONTINUOUS
 62
     7
 10
2068.456744921899
 20
1470.746611559355
 30
0.0
  0
VERTEX
  5
34F
  8
0
  6
CONTINUOUS
 62
     7
 10
2068.462085568592
 20
1470.743543487581
 30
0.0
  0
VERTEX
  5
350
  8
0
  6
CONTINUOUS
 62
     7
 10
2068.46759291074
 20
1470.740590169422
 30
0.0
  0
VERTEX
  5
351
  8
0
  6
CONTINUOUS
 62
     7
 10
2068.473261768397
 20
1470.737770792564
 30
0.0
  0
VERTEX
  5
352
  8
0
  6
CONTINUOUS
 62
     7
 10
2068.479085849282
 20
1470.735106864445
 30
0.0
  0
VERTEX
  5
353
  8
0
  6
CONTINUOUS
 62
     7
 10
2068.485058861115
 20
1470.732619892505
 30
0.0
  0
VERTEX
  5
354
  8
0
  6
CONTINUOUS
 62
     7
 10
2068.491174511614
 20
1470.730331384181
 30
0.0
  0
VERTEX
  5
355
  8
0
  6
CONTINUOUS
 62
     7
 10
2068.4974265085
 20
1470.728262846914
 30
0.0
  0
VERTEX
  5
356
  8
0
  6
CONTINUOUS
 62
     7
 10
2068.503808559492
 20
1470.72643578814
 30
0.0
  0
VERTEX
  5
357
  8
0
  6
CONTINUOUS
 62
     7
 10
2068.510314140225
 20
1470.724870340159
 30
0.0
  0
VERTEX
  5
358
  8
0
  6
CONTINUOUS
 62
     7
 10
2068.516931913297
 20
1470.723558117332
 30
0.0
  0
VERTEX
  5
359
  8
0
  6
CONTINUOUS
 62
     7
 10
2068.52364600301
 20
1470.722463843964
 30
0.0
  0
VERTEX
  5
35A
  8
0
  6
CONTINUOUS
 62
     7
 10
2068.530440356594
 20
1470.721551195145
 30
0.0
  0
VERTEX
  5
35B
  8
0
  6
CONTINUOUS
 62
     7
 10
2068.537298921274
 20
1470.720783845966
 30
0.0
  0
VERTEX
  5
35C
  8
0
  6
CONTINUOUS
 62
     7
 10
2068.544205644274
 20
1470.720125471516
 30
0.0
  0
VERTEX
  5
35D
  8
0
  6
CONTINUOUS
 62
     7
 10
2068.551144472823
 20
1470.719539746886
 30
0.0
  0
VERTEX
  5
35E
  8
0
  6
CONTINUOUS
 62
     7
 10
2068.558099354145
 20
1470.718990347166
 30
0.0
  0
SEQEND
  5
528
  8
0
  6
CONTINUOUS
 62
     7
  0
LINE
  5
D9
  8
0
  6
CONTINUOUS
 62
     7
 10
2069.358099354145
 20
1471.205054444982
 30
0.0
 11
2068.558099354145
 21
1471.205054444982
 31
0.0
  0
LINE
  5
DA
  8
0
  6
CONTINUOUS
 62
     7
 10
2068.358099354145
 20
1471.007841625419
 30
0.0
 11
2068.358099354145
 21
1471.018990347166
 31
0.0
  0
LINE
  5
DB
  8
0
  6
CONTINUOUS
 62
     7
 10
2068.358099354145
 20
1470.718990347166
 30
0.0
 11
2068.358099354145
 21
1470.918990347166
 31
0.0
  0
LINE
  5
DC
  8
0
  6
CONTINUOUS
 62
     7
 10
1769.858099354145
 20
1470.918990347166
 30
0.0
 11
1769.858099354145
 21
1471.007841625419
 31
0.0
  0
ARC
  5
DD
  8
0
  6
CONTINUOUS
 62
     7
 10
1770.056715474396
 20
1471.006438187495
 30
0.0
 40
0.1986210785926344
 50
89.60079206539353
 51
179.5951500236666
  0
LINE
  5
DE
  8
0
  6
CONTINUOUS
 62
     7
 10
1770.058099354145
 20
1471.205054444982
 30
0.0
 11
1770.058099354145
 21
1470.718990347166
 31
0.0
  0
POLYLINE
  5
DF
  8
0
  6
CONTINUOUS
 62
     7
 66
     1
 10
0.0
 20
0.0
 30
0.0
  0
VERTEX
  5
35F
  8
0
  6
CONTINUOUS
 62
     7
 10
1769.858099354145
 20
1470.918990347166
 30
0.0
  0
VERTEX
  5
360
  8
0
  6
CONTINUOUS
 62
     7
 10
1769.858116790907
 20
1470.916232414988
 30
0.0
  0
VERTEX
  5
361
  8
0
  6
CONTINUOUS
 62
     7
 10
1769.858172588671
 20
1470.913405975241
 30
0.0
  0
VERTEX
  5
362
  8
0
  6
CONTINUOUS
 62
     7
 10
1769.85827119026
 20
1470.910510188078
 30
0.0
  0
VERTEX
  5
363
  8
0
  6
CONTINUOUS
 62
     7
 10
1769.85841562647
 20
1470.907547030694
 30
0.0
  0
VERTEX
  5
364
  8
0
  6
CONTINUOUS
 62
     7
 10
1769.858608928092
 20
1470.904518480285
 30
0.0
  0
VERTEX
  5
365
  8
0
  6
CONTINUOUS
 62
     7
 10
1769.858854125922
 20
1470.901426514046
 30
0.0
  0
VERTEX
  5
366
  8
0
  6
CONTINUOUS
 62
     7
 10
1769.859154250753
 20
1470.898273109172
 30
0.0
  0
VERTEX
  5
367
  8
0
  6
CONTINUOUS
 62
     7
 10
1769.85951233338
 20
1470.895060242857
 30
0.0
  0
VERTEX
  5
368
  8
0
  6
CONTINUOUS
 62
     7
 10
1769.859931404594
 20
1470.891789892296
 30
0.0
  0
VERTEX
  5
369
  8
0
  6
CONTINUOUS
 62
     7
 10
1769.860414495191
 20
1470.888464034684
 30
0.0
  0
VERTEX
  5
36A
  8
0
  6
CONTINUOUS
 62
     7
 10
1769.860964635966
 20
1470.885084647217
 30
0.0
  0
VERTEX
  5
36B
  8
0
  6
CONTINUOUS
 62
     7
 10
1769.861584857709
 20
1470.88165370709
 30
0.0
  0
VERTEX
  5
36C
  8
0
  6
CONTINUOUS
 62
     7
 10
1769.862278191217
 20
1470.878173191496
 30
0.0
  0
VERTEX
  5
36D
  8
0
  6
CONTINUOUS
 62
     7
 10
1769.863047667283
 20
1470.874645077631
 30
0.0
  0
VERTEX
  5
36E
  8
0
  6
CONTINUOUS
 62
     7
 10
1769.8638963167
 20
1470.871071342691
 30
0.0
  0
VERTEX
  5
36F
  8
0
  6
CONTINUOUS
 62
     7
 10
1769.864827170263
 20
1470.86745396387
 30
0.0
  0
VERTEX
  5
370
  8
0
  6
CONTINUOUS
 62
     7
 10
1769.865843258765
 20
1470.863794918362
 30
0.0
  0
VERTEX
  5
371
  8
0
  6
CONTINUOUS
 62
     7
 10
1769.866947613
 20
1470.860096183363
 30
0.0
  0
VERTEX
  5
372
  8
0
  6
CONTINUOUS
 62
     7
 10
1769.868143263762
 20
1470.856359736068
 30
0.0
  0
VERTEX
  5
373
  8
0
  6
CONTINUOUS
 62
     7
 10
1769.869433241844
 20
1470.852587553672
 30
0.0
  0
VERTEX
  5
374
  8
0
  6
CONTINUOUS
 62
     7
 10
1769.870820578041
 20
1470.84878161337
 30
0.0
  0
VERTEX
  5
375
  8
0
  6
CONTINUOUS
 62
     7
 10
1769.872308303146
 20
1470.844943892356
 30
0.0
  0
VERTEX
  5
376
  8
0
  6
CONTINUOUS
 62
     7
 10
1769.873899447953
 20
1470.841076367825
 30
0.0
  0
VERTEX
  5
377
  8
0
  6
CONTINUOUS
 62
     7
 10
1769.875597043257
 20
1470.837181016974
 30
0.0
  0
VERTEX
  5
378
  8
0
  6
CONTINUOUS
 62
     7
 10
1769.877404132406
 20
1470.833259894819
 30
0.0
  0
VERTEX
  5
379
  8
0
  6
CONTINUOUS
 62
     7
 10
1769.879323981314
 20
1470.82931643578
 30
0.0
  0
VERTEX
  5
37A
  8
0
  6
CONTINUOUS
 62
     7
 10
1769.881360046895
 20
1470.825355258072
 30
0.0
  0
VERTEX
  5
37B
  8
0
  6
CONTINUOUS
 62
     7
 10
1769.883515792261
 20
1470.821381018327
 30
0.0
  0
VERTEX
  5
37C
  8
0
  6
CONTINUOUS
 62
     7
 10
1769.885794680525
 20
1470.817398373174
 30
0.0
  0
VERTEX
  5
37D
  8
0
  6
CONTINUOUS
 62
     7
 10
1769.888200174798
 20
1470.813411979243
 30
0.0
  0
VERTEX
  5
37E
  8
0
  6
CONTINUOUS
 62
     7
 10
1769.890735738194
 20
1470.809426493164
 30
0.0
  0
VERTEX
  5
37F
  8
0
  6
CONTINUOUS
 62
     7
 10
1769.893404833823
 20
1470.805446571569
 30
0.0
  0
VERTEX
  5
380
  8
0
  6
CONTINUOUS
 62
     7
 10
1769.8962109248
 20
1470.801476871087
 30
0.0
  0
VERTEX
  5
381
  8
0
  6
CONTINUOUS
 62
     7
 10
1769.899157474235
 20
1470.797522048347
 30
0.0
  0
VERTEX
  5
382
  8
0
  6
CONTINUOUS
 62
     7
 10
1769.902247945241
 20
1470.793586759982
 30
0.0
  0
VERTEX
  5
383
  8
0
  6
CONTINUOUS
 62
     7
 10
1769.905485800932
 20
1470.789675662619
 30
0.0
  0
VERTEX
  5
384
  8
0
  6
CONTINUOUS
 62
     7
 10
1769.908874504418
 20
1470.785793412891
 30
0.0
  0
VERTEX
  5
385
  8
0
  6
CONTINUOUS
 62
     7
 10
1769.912417518812
 20
1470.781944667427
 30
0.0
  0
VERTEX
  5
386
  8
0
  6
CONTINUOUS
 62
     7
 10
1769.916118305619
 20
1470.77813408417
 30
0.0
  0
VERTEX
  5
387
  8
0
  6
CONTINUOUS
 62
     7
 10
1769.919979631489
 20
1470.774366888349
 30
0.0
  0
VERTEX
  5
388
  8
0
  6
CONTINUOUS
 62
     7
 10
1769.92400248635
 20
1470.770649755739
 30
0.0
  0
VERTEX
  5
389
  8
0
  6
CONTINUOUS
 62
     7
 10
1769.928187580198
 20
1470.766989590648
 30
0.0
  0
VERTEX
  5
38A
  8
0
  6
CONTINUOUS
 62
     7
 10
1769.932535623032
 20
1470.763393297387
 30
0.0
  0
VERTEX
  5
38B
  8
0
  6
CONTINUOUS
 62
     7
 10
1769.937047324848
 20
1470.759867780264
 30
0.0
  0
VERTEX
  5
38C
  8
0
  6
CONTINUOUS
 62
     7
 10
1769.941723395645
 20
1470.75641994359
 30
0.0
  0
VERTEX
  5
38D
  8
0
  6
CONTINUOUS
 62
     7
 10
1769.94656454542
 20
1470.753056691674
 30
0.0
  0
VERTEX
  5
38E
  8
0
  6
CONTINUOUS
 62
     7
 10
1769.951571484173
 20
1470.749784928826
 30
0.0
  0
VERTEX
  5
38F
  8
0
  6
CONTINUOUS
 62
     7
 10
1769.956744921898
 20
1470.746611559355
 30
0.0
  0
VERTEX
  5
390
  8
0
  6
CONTINUOUS
 62
     7
 10
1769.962085568592
 20
1470.743543487581
 30
0.0
  0
VERTEX
  5
391
  8
0
  6
CONTINUOUS
 62
     7
 10
1769.96759291074
 20
1470.740590169422
 30
0.0
  0
VERTEX
  5
392
  8
0
  6
CONTINUOUS
 62
     7
 10
1769.973261768397
 20
1470.737770792564
 30
0.0
  0
VERTEX
  5
393
  8
0
  6
CONTINUOUS
 62
     7
 10
1769.979085849282
 20
1470.735106864445
 30
0.0
  0
VERTEX
  5
394
  8
0
  6
CONTINUOUS
 62
     7
 10
1769.985058861115
 20
1470.732619892505
 30
0.0
  0
VERTEX
  5
395
  8
0
  6
CONTINUOUS
 62
     7
 10
1769.991174511614
 20
1470.730331384181
 30
0.0
  0
VERTEX
  5
396
  8
0
  6
CONTINUOUS
 62
     7
 10
1769.997426508501
 20
1470.728262846913
 30
0.0
  0
VERTEX
  5
397
  8
0
  6
CONTINUOUS
 62
     7
 10
1770.003808559493
 20
1470.72643578814
 30
0.0
  0
VERTEX
  5
398
  8
0
  6
CONTINUOUS
 62
     7
 10
1770.010314140225
 20
1470.724870340158
 30
0.0
  0
VERTEX
  5
399
  8
0
  6
CONTINUOUS
 62
     7
 10
1770.016931913296
 20
1470.723558117331
 30
0.0
  0
VERTEX
  5
39A
  8
0
  6
CONTINUOUS
 62
     7
 10
1770.023646003011
 20
1470.722463843963
 30
0.0
  0
VERTEX
  5
39B
  8
0
  6
CONTINUOUS
 62
     7
 10
1770.030440356594
 20
1470.721551195144
 30
0.0
  0
VERTEX
  5
39C
  8
0
  6
CONTINUOUS
 62
     7
 10
1770.037298921273
 20
1470.720783845965
 30
0.0
  0
VERTEX
  5
39D
  8
0
  6
CONTINUOUS
 62
     7
 10
1770.044205644274
 20
1470.720125471516
 30
0.0
  0
VERTEX
  5
39E
  8
0
  6
CONTINUOUS
 62
     7
 10
1770.051144472823
 20
1470.719539746886
 30
0.0
  0
VERTEX
  5
39F
  8
0
  6
CONTINUOUS
 62
     7
 10
1770.058099354145
 20
1470.718990347166
 30
0.0
  0
SEQEND
  5
529
  8
0
  6
CONTINUOUS
 62
     7
  0
LINE
  5
E0
  8
0
  6
CONTINUOUS
 62
     7
 10
1770.858099354145
 20
1471.205054444982
 30
0.0
 11
1770.058099354145
 21
1471.205054444982
 31
0.0
  0
LINE
  5
E1
  8
0
  6
CONTINUOUS
 62
     7
 10
1769.858099354145
 20
1471.007841625419
 30
0.0
 11
1769.858099354145
 21
1471.018990347166
 31
0.0
  0
LINE
  5
E2
  8
0
  6
CONTINUOUS
 62
     7
 10
1769.858099354145
 20
1470.718990347166
 30
0.0
 11
1769.858099354145
 21
1470.918990347166
 31
0.0
  0
LINE
  5
E3
  8
0
  6
CONTINUOUS
 62
     7
 10
2348.858099354145
 20
1903.218990347161
 30
0.0
 11
1785.358099354145
 21
1903.218990347161
 31
0.0
  0
LINE
  5
E4
  8
0
  6
CONTINUOUS
 62
     7
 10
1785.358099354145
 20
1886.218990347161
 30
0.0
 11
2348.858099354145
 21
1886.218990347161
 31
0.0
  0
LINE
  5
E5
  8
0
  6
CONTINUOUS
 62
     7
 10
2068.358099354145
 20
1463.218990347166
 30
0.0
 11
2065.858099354145
 21
1463.218990347166
 31
0.0
  0
LINE
  5
E6
  8
0
  6
CONTINUOUS
 62
     7
 10
2065.858099354144
 20
1446.218990347166
 30
0.0
 11
2068.358099354145
 21
1446.218990347166
 31
0.0
  0
LINE
  5
E7
  8
0
  6
CONTINUOUS
 62
     7
 10
2348.858099354145
 20
1005.718990347166
 30
0.0
 11
2348.858099354145
 21
1006.718990347165
 31
0.0
  0
LINE
  5
E8
  8
0
  6
CONTINUOUS
 62
     7
 10
1785.358099354145
 20
1006.718990347165
 30
0.0
 11
1785.358099354145
 21
1005.718990347166
 31
0.0
  0
LINE
  5
E9
  8
0
  6
CONTINUOUS
 62
     7
 10
1785.358099354145
 20
1005.718990347166
 30
0.0
 11
2348.858099354145
 21
1005.718990347166
 31
0.0
  0
LINE
  5
EA
  8
0
  6
CONTINUOUS
 62
     7
 10
2068.358099354145
 20
1022.718990347166
 30
0.0
 11
2065.858099354145
 21
1022.718990347166
 31
0.0
  0
LINE
  5
EB
  8
0
  6
CONTINUOUS
 62
     7
 10
1767.858099354145
 20
1903.718990347166
 30
0.0
 11
1785.358099354145
 21
1903.718990347166
 31
0.0
  0
LINE
  5
EC
  8
0
  6
CONTINUOUS
 62
     7
 10
1785.358099354145
 20
1004.718990347173
 30
0.0
 11
1767.858099354145
 21
1004.718990347173
 31
0.0
  0
LINE
  5
ED
  8
0
  6
CONTINUOUS
 62
     7
 10
1785.358099354145
 20
1903.718990347166
 30
0.0
 11
1785.358099354145
 21
1471.218990347165
 31
0.0
  0
LINE
  5
EE
  8
0
  6
CONTINUOUS
 62
     7
 10
1785.358099354145
 20
1006.718990347165
 30
0.0
 11
1785.358099354145
 21
1004.718990347173
 31
0.0
  0
LINE
  5
EF
  8
0
  6
CONTINUOUS
 62
     7
 10
1767.858099354145
 20
1004.718990347173
 30
0.0
 11
1767.858099354145
 21
1903.718990347166
 31
0.0
  0
LINE
  5
F0
  8
0
  6
CONTINUOUS
 62
     7
 10
2366.358099354145
 20
1004.218990347166
 30
0.0
 11
2348.858099354145
 21
1004.218990347166
 31
0.0
  0
LINE
  5
F1
  8
0
  6
CONTINUOUS
 62
     7
 10
2366.358099354145
 20
1903.218990347159
 30
0.0
 11
2366.358099354145
 21
1004.218990347166
 31
0.0
  0
LINE
  5
F2
  8
0
  6
CONTINUOUS
 62
     7
 10
2348.858099354145
 20
1903.218990347159
 30
0.0
 11
2366.358099354145
 21
1903.218990347159
 31
0.0
  0
LINE
  5
F3
  8
0
  6
CONTINUOUS
 62
     7
 10
2348.858099354145
 20
1004.218990347166
 30
0.0
 11
2348.858099354145
 21
1006.718990347165
 31
0.0
  0
LINE
  5
F4
  8
0
  6
CONTINUOUS
 62
     7
 10
2348.858099354145
 20
1471.218990347164
 30
0.0
 11
2348.858099354145
 21
1903.218990347159
 31
0.0
  0
LINE
  5
F5
  8
0
  6
CONTINUOUS
 62
     8
 10
2364.158099354146
 20
1471.20505444498
 30
0.0
 11
2364.158099354146
 21
1471.218990347164
 31
0.0
  0
LINE
  5
F6
  8
0
  6
CONTINUOUS
 62
     8
 10
2065.658099354146
 20
1471.20505444498
 30
0.0
 11
2065.658099354146
 21
1471.218990347164
 31
0.0
  0
LINE
  5
F7
  8
0
  6
CONTINUOUS
 62
     8
 10
2068.558099354145
 20
1471.218990347166
 30
0.0
 11
2068.558099354145
 21
1471.205054444982
 31
0.0
  0
LINE
  5
F8
  8
0
  6
CONTINUOUS
 62
     8
 10
1770.058099354145
 20
1471.218990347166
 30
0.0
 11
1770.058099354145
 21
1471.205054444982
 31
0.0
  0
LINE
  5
F9
  8
0
  6
CONTINUOUS
 62
     7
 10
844.924053263534
 20
1457.718990347166
 30
0.0
 11
844.924053263534
 21
1437.218990347166
 31
0.0
  0
LINE
  5
FA
  8
0
  6
CONTINUOUS
 62
     7
 10
857.4240532635341
 20
1457.718990347166
 30
0.0
 11
844.924053263534
 21
1457.718990347166
 31
0.0
  0
LINE
  5
FB
  8
0
  6
CONTINUOUS
 62
     7
 10
857.4240532635341
 20
1470.718990347166
 30
0.0
 11
857.4240532635341
 21
1457.718990347166
 31
0.0
  0
LINE
  5
FC
  8
0
  6
CONTINUOUS
 62
     7
 10
861.4240532635341
 20
1470.718990347166
 30
0.0
 11
857.4240532635341
 21
1470.718990347166
 31
0.0
  0
LINE
  5
FD
  8
0
  6
CONTINUOUS
 62
     7
 10
861.4240532635338
 20
1006.718990347165
 30
0.0
 11
861.4240532635341
 21
1470.718990347166
 31
0.0
  0
LINE
  5
FE
  8
0
  6
CONTINUOUS
 62
     7
 10
843.4240532635338
 20
1006.718990347166
 30
0.0
 11
861.4240532635338
 21
1006.718990347165
 31
0.0
  0
LINE
  5
FF
  8
0
  6
CONTINUOUS
 62
     7
 10
844.924053263534
 20
1437.218990347166
 30
0.0
 11
843.4240532635341
 21
1437.218990347166
 31
0.0
  0
LINE
  5
100
  8
0
  6
CONTINUOUS
 62
     7
 10
843.4240532635341
 20
1437.218990347166
 30
0.0
 11
843.4240532635338
 21
1006.718990347166
 31
0.0
  0
LINE
  5
101
  8
0
  6
CONTINUOUS
 62
     7
 10
863.424053263534
 20
1469.718990347166
 30
0.0
 11
861.4240532635341
 21
1469.718990347166
 31
0.0
  0
LINE
  5
102
  8
0
  6
CONTINUOUS
 62
     7
 10
863.4240532635337
 20
1007.718990347165
 30
0.0
 11
863.424053263534
 21
1469.718990347166
 31
0.0
  0
LINE
  5
103
  8
0
  6
CONTINUOUS
 62
     7
 10
863.4240532635337
 20
1007.718990347165
 30
0.0
 11
861.4240532635338
 21
1007.718990347165
 31
0.0
  0
LINE
  5
104
  8
0
  6
CONTINUOUS
 62
     7
 10
864.4240532635341
 20
1468.718990347166
 30
0.0
 11
864.4240532635338
 21
1008.718990347165
 31
0.0
  0
LINE
  5
105
  8
0
  6
CONTINUOUS
 62
     7
 10
864.4240532635338
 20
1008.718990347165
 30
0.0
 11
863.4240532635337
 21
1007.718990347165
 31
0.0
  0
LINE
  5
106
  8
0
  6
CONTINUOUS
 62
     7
 10
864.4240532635341
 20
1468.718990347166
 30
0.0
 11
863.424053263534
 21
1469.718990347166
 31
0.0
  0
LINE
  5
107
  8
0
  6
CONTINUOUS
 62
     7
 10
843.1240532635339
 20
1458.718990347166
 30
0.0
 11
843.3240532635339
 21
1458.718990347166
 31
0.0
  0
LINE
  5
108
  8
0
  6
CONTINUOUS
 62
     7
 10
843.3240532635339
 20
1458.718990347166
 30
0.0
 11
843.3240532635339
 21
1437.918990347166
 31
0.0
  0
LINE
  5
109
  8
0
  6
CONTINUOUS
 62
     7
 10
843.1240532635339
 20
1437.918990347166
 30
0.0
 11
843.3240532635339
 21
1437.918990347166
 31
0.0
  0
LINE
  5
10A
  8
0
  6
CONTINUOUS
 62
     7
 10
844.9240532635339
 20
1437.718990347166
 30
0.0
 11
844.724053263534
 21
1437.918990347166
 31
0.0
  0
LINE
  5
10B
  8
0
  6
CONTINUOUS
 62
     7
 10
844.724053263534
 20
1437.918990347166
 30
0.0
 11
844.724053263534
 21
1457.918990347166
 31
0.0
  0
LINE
  5
10C
  8
0
  6
CONTINUOUS
 62
     7
 10
844.9240532635339
 20
1457.718990347166
 30
0.0
 11
844.724053263534
 21
1457.918990347166
 31
0.0
  0
LINE
  5
10D
  8
0
  6
CONTINUOUS
 62
     7
 10
843.3240532635339
 20
1437.718990347166
 30
0.0
 11
843.3240532635339
 21
1437.918990347166
 31
0.0
  0
ARC
  5
10E
  8
0
  6
CONTINUOUS
 62
     7
 10
843.3240532635339
 20
1437.918990347166
 30
0.0
 40
0.2000000000000455
 50
180.0
 51
270.0000000000008
  0
LINE
  5
10F
  8
0
  6
CONTINUOUS
 62
     7
 10
844.9240532635339
 20
1437.718990347166
 30
0.0
 11
843.3240532635339
 21
1437.718990347166
 31
0.0
  0
LINE
  5
110
  8
0
  6
CONTINUOUS
 62
     7
 10
843.3240532635339
 20
1437.918990347166
 30
0.0
 11
844.724053263534
 21
1437.918990347166
 31
0.0
  0
ARC
  5
111
  8
0
  6
CONTINUOUS
 62
     7
 10
854.5072394935534
 20
1460.718990347166
 30
0.0
 40
1.200000000000094
 50
270.0000000000008
 51
355.0300534053011
  0
LINE
  5
112
  8
0
  6
CONTINUOUS
 62
     7
 10
856.5439164444975
 20
1470.288296903891
 30
0.0
 11
855.7027278258631
 21
1460.615030512078
 31
0.0
  0
ARC
  5
113
  8
0
  6
CONTINUOUS
 62
     7
 10
857.3409086660373
 20
1470.218990347166
 30
0.0
 40
0.8000000000001488
 50
80.42341151894638
 51
175.0300534053053
  0
ARC
  5
114
  8
0
  6
CONTINUOUS
 62
     7
 10
857.4240915894621
 20
1470.712022396074
 30
0.0
 40
0.2999999999998431
 50
43.62165296723961
 51
80.42341151895877
  0
LINE
  5
115
  8
0
  6
CONTINUOUS
 62
     7
 10
857.2240532635338
 20
1470.918990347166
 30
0.0
 11
857.641264946992
 21
1470.918990347166
 31
0.0
  0
LINE
  5
116
  8
0
  6
CONTINUOUS
 62
     7
 10
857.2240532635338
 20
1457.918990347166
 30
0.0
 11
857.2240532635338
 21
1470.918990347166
 31
0.0
  0
LINE
  5
117
  8
0
  6
CONTINUOUS
 62
     7
 10
844.724053263534
 20
1457.918990347166
 30
0.0
 11
857.2240532635338
 21
1457.918990347166
 31
0.0
  0
ARC
  5
118
  8
0
  6
CONTINUOUS
 62
     7
 10
844.1240532635339
 20
1458.718990347166
 30
0.0
 40
0.8000000000001819
 50
90.0
 51
180.0
  0
LINE
  5
119
  8
0
  6
CONTINUOUS
 62
     7
 10
854.5072394935534
 20
1459.518990347166
 30
0.0
 11
844.1240532635339
 21
1459.518990347166
 31
0.0
  0
ARC
  5
11A
  8
0
  6
CONTINUOUS
 62
     7
 10
844.1240532635339
 20
1458.718990347166
 30
0.0
 40
1.0
 50
90.0
 51
180.0
  0
LINE
  5
11B
  8
0
  6
CONTINUOUS
 62
     7
 10
844.1240532635339
 20
1459.518990347166
 30
0.0
 11
844.1240532635339
 21
1459.718990347166
 31
0.0
  0
LINE
  5
11C
  8
0
  6
CONTINUOUS
 62
     7
 10
844.1240532635339
 20
1459.718990347166
 30
0.0
 11
854.5072394935534
 21
1459.718990347166
 31
0.0
  0
LINE
  5
11D
  8
0
  6
CONTINUOUS
 62
     7
 10
854.5072394935534
 20
1459.518990347166
 30
0.0
 11
854.5072394935534
 21
1459.718990347166
 31
0.0
  0
LINE
  5
11E
  8
0
  6
CONTINUOUS
 62
     7
 10
857.4240532635339
 20
1457.718990347166
 30
0.0
 11
857.2240532635338
 21
1457.918990347166
 31
0.0
  0
LINE
  5
11F
  8
0
  6
CONTINUOUS
 62
     7
 10
855.7027278258631
 20
1460.615030512078
 30
0.0
 11
855.5034797704782
 21
1460.63235715126
 31
0.0
  0
LINE
  5
120
  8
0
  6
CONTINUOUS
 62
     7
 10
855.5034797704782
 20
1460.63235715126
 30
0.0
 11
856.3446683891126
 21
1470.305623543072
 31
0.0
  0
LINE
  5
121
  8
0
  6
CONTINUOUS
 62
     7
 10
856.5439164444975
 20
1470.288296903891
 30
0.0
 11
856.3446683891126
 21
1470.305623543072
 31
0.0
  0
ARC
  5
122
  8
0
  6
CONTINUOUS
 62
     7
 10
854.5072394935534
 20
1460.718990347166
 30
0.0
 40
1.000000000000227
 50
270.0000000000008
 51
355.0300534052969
  0
ARC
  5
123
  8
0
  6
CONTINUOUS
 62
     7
 10
857.3409086660373
 20
1470.218990347166
 30
0.0
 40
1.000000000000144
 50
80.42341151894102
 51
175.0300534053085
  0
LINE
  5
124
  8
0
  6
CONTINUOUS
 62
     7
 10
857.4740013435169
 20
1471.007841625419
 30
0.0
 11
857.5072745128869
 21
1471.205054444982
 31
0.0
  0
LINE
  5
125
  8
0
  6
CONTINUOUS
 62
     7
 10
857.4240532635339
 20
1470.718990347166
 30
0.0
 11
857.2240532635338
 21
1470.918990347166
 31
0.0
  0
POLYLINE
  5
126
  8
0
  6
CONTINUOUS
 62
     7
 66
     1
 10
0.0
 20
0.0
 30
0.0
  0
VERTEX
  5
3A0
  8
0
  6
CONTINUOUS
 62
     7
 10
857.641264946992
 20
1470.918990347166
 30
0.0
  0
VERTEX
  5
3A1
  8
0
  6
CONTINUOUS
 62
     7
 10
857.6476164069062
 20
1470.916232414988
 30
0.0
  0
VERTEX
  5
3A2
  8
0
  6
CONTINUOUS
 62
     7
 10
857.6539444682321
 20
1470.913405975241
 30
0.0
  0
VERTEX
  5
3A3
  8
0
  6
CONTINUOUS
 62
     7
 10
857.6602471468009
 20
1470.910510188078
 30
0.0
  0
VERTEX
  5
3A4
  8
0
  6
CONTINUOUS
 62
     7
 10
857.6665233499359
 20
1470.907547030694
 30
0.0
  0
VERTEX
  5
3A5
  8
0
  6
CONTINUOUS
 62
     7
 10
857.6727719849606
 20
1470.904518480285
 30
0.0
  0
VERTEX
  5
3A6
  8
0
  6
CONTINUOUS
 62
     7
 10
857.6789919591988
 20
1470.901426514046
 30
0.0
  0
VERTEX
  5
3A7
  8
0
  6
CONTINUOUS
 62
     7
 10
857.685182179974
 20
1470.898273109172
 30
0.0
  0
VERTEX
  5
3A8
  8
0
  6
CONTINUOUS
 62
     7
 10
857.69134155461
 20
1470.895060242857
 30
0.0
  0
VERTEX
  5
3A9
  8
0
  6
CONTINUOUS
 62
     7
 10
857.6974689904295
 20
1470.891789892296
 30
0.0
  0
VERTEX
  5
3AA
  8
0
  6
CONTINUOUS
 62
     7
 10
857.7035633947568
 20
1470.888464034684
 30
0.0
  0
VERTEX
  5
3AB
  8
0
  6
CONTINUOUS
 62
     7
 10
857.7096236749155
 20
1470.885084647217
 30
0.0
  0
VERTEX
  5
3AC
  8
0
  6
CONTINUOUS
 62
     7
 10
857.7156487382288
 20
1470.88165370709
 30
0.0
  0
VERTEX
  5
3AD
  8
0
  6
CONTINUOUS
 62
     7
 10
857.7216374920199
 20
1470.878173191496
 30
0.0
  0
VERTEX
  5
3AE
  8
0
  6
CONTINUOUS
 62
     7
 10
857.727588843613
 20
1470.874645077631
 30
0.0
  0
VERTEX
  5
3AF
  8
0
  6
CONTINUOUS
 62
     7
 10
857.7335017003317
 20
1470.871071342691
 30
0.0
  0
VERTEX
  5
3B0
  8
0
  6
CONTINUOUS
 62
     7
 10
857.7393749694988
 20
1470.86745396387
 30
0.0
  0
VERTEX
  5
3B1
  8
0
  6
CONTINUOUS
 62
     7
 10
857.7452075584386
 20
1470.863794918362
 30
0.0
  0
VERTEX
  5
3B2
  8
0
  6
CONTINUOUS
 62
     7
 10
857.7509983744741
 20
1470.860096183363
 30
0.0
  0
VERTEX
  5
3B3
  8
0
  6
CONTINUOUS
 62
     7
 10
857.7567463249289
 20
1470.856359736068
 30
0.0
  0
VERTEX
  5
3B4
  8
0
  6
CONTINUOUS
 62
     7
 10
857.7624503171273
 20
1470.852587553672
 30
0.0
  0
VERTEX
  5
3B5
  8
0
  6
CONTINUOUS
 62
     7
 10
857.7681092583917
 20
1470.84878161337
 30
0.0
  0
VERTEX
  5
3B6
  8
0
  6
CONTINUOUS
 62
     7
 10
857.7737220560466
 20
1470.844943892356
 30
0.0
  0
VERTEX
  5
3B7
  8
0
  6
CONTINUOUS
 62
     7
 10
857.7792876174148
 20
1470.841076367825
 30
0.0
  0
VERTEX
  5
3B8
  8
0
  6
CONTINUOUS
 62
     7
 10
857.7848048498204
 20
1470.837181016974
 30
0.0
  0
VERTEX
  5
3B9
  8
0
  6
CONTINUOUS
 62
     7
 10
857.7902726008394
 20
1470.833259894819
 30
0.0
  0
VERTEX
  5
3BA
  8
0
  6
CONTINUOUS
 62
     7
 10
857.795688659039
 20
1470.82931643578
 30
0.0
  0
VERTEX
  5
3BB
  8
0
  6
CONTINUOUS
 62
     7
 10
857.8010499041492
 20
1470.825355258072
 30
0.0
  0
VERTEX
  5
3BC
  8
0
  6
CONTINUOUS
 62
     7
 10
857.8063531864077
 20
1470.821381018327
 30
0.0
  0
VERTEX
  5
3BD
  8
0
  6
CONTINUOUS
 62
     7
 10
857.8115953560527
 20
1470.817398373174
 30
0.0
  0
VERTEX
  5
3BE
  8
0
  6
CONTINUOUS
 62
     7
 10
857.8167732633224
 20
1470.813411979243
 30
0.0
  0
VERTEX
  5
3BF
  8
0
  6
CONTINUOUS
 62
     7
 10
857.8218837584546
 20
1470.809426493164
 30
0.0
  0
VERTEX
  5
3C0
  8
0
  6
CONTINUOUS
 62
     7
 10
857.8269236916869
 20
1470.805446571569
 30
0.0
  0
VERTEX
  5
3C1
  8
0
  6
CONTINUOUS
 62
     7
 10
857.8318899132577
 20
1470.801476871087
 30
0.0
  0
VERTEX
  5
3C2
  8
0
  6
CONTINUOUS
 62
     7
 10
857.8367792734045
 20
1470.797522048347
 30
0.0
  0
VERTEX
  5
3C3
  8
0
  6
CONTINUOUS
 62
     7
 10
857.841588622366
 20
1470.793586759982
 30
0.0
  0
VERTEX
  5
3C4
  8
0
  6
CONTINUOUS
 62
     7
 10
857.8463148103797
 20
1470.789675662619
 30
0.0
  0
VERTEX
  5
3C5
  8
0
  6
CONTINUOUS
 62
     7
 10
857.8509546876834
 20
1470.785793412891
 30
0.0
  0
VERTEX
  5
3C6
  8
0
  6
CONTINUOUS
 62
     7
 10
857.8555051045154
 20
1470.781944667427
 30
0.0
  0
VERTEX
  5
3C7
  8
0
  6
CONTINUOUS
 62
     7
 10
857.8599629102358
 20
1470.77813408417
 30
0.0
  0
VERTEX
  5
3C8
  8
0
  6
CONTINUOUS
 62
     7
 10
857.8643245748617
 20
1470.774366888349
 30
0.0
  0
VERTEX
  5
3C9
  8
0
  6
CONTINUOUS
 62
     7
 10
857.8685855984374
 20
1470.770649755739
 30
0.0
  0
VERTEX
  5
3CA
  8
0
  6
CONTINUOUS
 62
     7
 10
857.8727413281852
 20
1470.766989590648
 30
0.0
  0
VERTEX
  5
3CB
  8
0
  6
CONTINUOUS
 62
     7
 10
857.8767871113276
 20
1470.763393297387
 30
0.0
  0
VERTEX
  5
3CC
  8
0
  6
CONTINUOUS
 62
     7
 10
857.8807182950874
 20
1470.759867780264
 30
0.0
  0
VERTEX
  5
3CD
  8
0
  6
CONTINUOUS
 62
     7
 10
857.8845302266863
 20
1470.75641994359
 30
0.0
  0
VERTEX
  5
3CE
  8
0
  6
CONTINUOUS
 62
     7
 10
857.888218253347
 20
1470.753056691674
 30
0.0
  0
VERTEX
  5
3CF
  8
0
  6
CONTINUOUS
 62
     7
 10
857.8917777222924
 20
1470.749784928826
 30
0.0
  0
VERTEX
  5
3D0
  8
0
  6
CONTINUOUS
 62
     7
 10
857.8952039807446
 20
1470.746611559355
 30
0.0
  0
VERTEX
  5
3D1
  8
0
  6
CONTINUOUS
 62
     7
 10
857.8984923759166
 20
1470.743543487581
 30
0.0
  0
VERTEX
  5
3D2
  8
0
  6
CONTINUOUS
 62
     7
 10
857.9016357456372
 20
1470.740590169422
 30
0.0
  0
VERTEX
  5
3D3
  8
0
  6
CONTINUOUS
 62
     7
 10
857.9046173569785
 20
1470.737770792564
 30
0.0
  0
VERTEX
  5
3D4
  8
0
  6
CONTINUOUS
 62
     7
 10
857.9074181956371
 20
1470.735106864445
 30
0.0
  0
VERTEX
  5
3D5
  8
0
  6
CONTINUOUS
 62
     7
 10
857.9100192473117
 20
1470.732619892505
 30
0.0
  0
VERTEX
  5
3D6
  8
0
  6
CONTINUOUS
 62
     7
 10
857.9124014976991
 20
1470.730331384181
 30
0.0
  0
VERTEX
  5
3D7
  8
0
  6
CONTINUOUS
 62
     7
 10
857.9145459324977
 20
1470.728262846913
 30
0.0
  0
VERTEX
  5
3D8
  8
0
  6
CONTINUOUS
 62
     7
 10
857.9164335374046
 20
1470.72643578814
 30
0.0
  0
VERTEX
  5
3D9
  8
0
  6
CONTINUOUS
 62
     7
 10
857.9180466508583
 20
1470.724870340158
 30
0.0
  0
VERTEX
  5
3DA
  8
0
  6
CONTINUOUS
 62
     7
 10
857.9193956646782
 20
1470.723558117331
 30
0.0
  0
VERTEX
  5
3DB
  8
0
  6
CONTINUOUS
 62
     7
 10
857.9205174227072
 20
1470.722463843963
 30
0.0
  0
VERTEX
  5
3DC
  8
0
  6
CONTINUOUS
 62
     7
 10
857.9214498009094
 20
1470.721551195144
 30
0.0
  0
VERTEX
  5
3DD
  8
0
  6
CONTINUOUS
 62
     7
 10
857.9222306752507
 20
1470.720783845965
 30
0.0
  0
VERTEX
  5
3DE
  8
0
  6
CONTINUOUS
 62
     7
 10
857.9228979216966
 20
1470.720125471516
 30
0.0
  0
VERTEX
  5
3DF
  8
0
  6
CONTINUOUS
 62
     7
 10
857.923489416212
 20
1470.719539746886
 30
0.0
  0
VERTEX
  5
3E0
  8
0
  6
CONTINUOUS
 62
     7
 10
857.9240430347621
 20
1470.718990347166
 30
0.0
  0
SEQEND
  5
52A
  8
0
  6
CONTINUOUS
 62
     7
  0
ARC
  5
127
  8
0
  6
CONTINUOUS
 62
     7
 10
857.4240915894621
 20
1470.712022396074
 30
0.0
 40
0.4999999999999586
 50
0.7984942260714786
 51
80.4234115189431
  0
LINE
  5
128
  8
0
  6
CONTINUOUS
 62
     7
 10
563.1240532635338
 20
1903.21899034717
 30
0.0
 11
842.1240532635339
 21
1903.218990347166
 31
0.0
  0
LINE
  5
129
  8
0
  6
CONTINUOUS
 62
     7
 10
842.1240532635445
 20
1005.218990347173
 30
0.0
 11
842.1240532635339
 21
1903.218990347166
 31
0.0
  0
LINE
  5
12A
  8
0
  6
CONTINUOUS
 62
     7
 10
563.1240532635445
 20
1005.218990347177
 30
0.0
 11
842.1240532635445
 21
1005.218990347173
 31
0.0
  0
LINE
  5
12B
  8
0
  6
CONTINUOUS
 62
     7
 10
563.1240532635445
 20
1005.218990347177
 30
0.0
 11
563.1240532635338
 21
1903.21899034717
 31
0.0
  0
LINE
  5
12C
  8
0
  6
CONTINUOUS
 62
     7
 10
842.1240532635445
 20
1004.718990347173
 30
0.0
 11
842.1240532635445
 21
1005.218990347173
 31
0.0
  0
LINE
  5
12D
  8
0
  6
CONTINUOUS
 62
     7
 10
563.1240532635445
 20
1004.718990347177
 30
0.0
 11
563.1240532635445
 21
1005.218990347177
 31
0.0
  0
LINE
  5
12E
  8
0
  6
CONTINUOUS
 62
     7
 10
842.1240532635445
 20
1004.718990347173
 30
0.0
 11
563.1240532635445
 21
1004.718990347177
 31
0.0
  0
LINE
  5
12F
  8
0
  6
CONTINUOUS
 62
     7
 10
842.1240532635339
 20
1903.718990347166
 30
0.0
 11
842.1240532635445
 21
1004.718990347173
 31
0.0
  0
LINE
  5
130
  8
0
  6
CONTINUOUS
 62
     7
 10
843.1240532635339
 20
1903.718990347166
 30
0.0
 11
842.1240532635339
 21
1903.718990347166
 31
0.0
  0
LINE
  5
131
  8
0
  6
CONTINUOUS
 62
     7
 10
843.1240532635445
 20
1004.718990347173
 30
0.0
 11
843.1240532635339
 21
1903.718990347166
 31
0.0
  0
LINE
  5
132
  8
0
  6
CONTINUOUS
 62
     7
 10
843.1240532635445
 20
1004.718990347173
 30
0.0
 11
842.1240532635445
 21
1004.718990347173
 31
0.0
  0
LINE
  5
133
  8
0
  6
CONTINUOUS
 62
     7
 10
842.1240532635339
 20
1004.718990347166
 30
0.0
 11
842.1240532635339
 21
1004.218990347166
 31
0.0
  0
LINE
  5
134
  8
0
  6
CONTINUOUS
 62
     7
 10
843.1240532635339
 20
1004.218990347166
 30
0.0
 11
842.1240532635339
 21
1004.218990347166
 31
0.0
  0
LINE
  5
135
  8
0
  6
CONTINUOUS
 62
     7
 10
843.1240532635339
 20
1004.218990347166
 30
0.0
 11
843.1240532635339
 21
1004.718990347173
 31
0.0
  0
LINE
  5
136
  8
0
  6
CONTINUOUS
 62
     7
 10
842.1240532635339
 20
1903.718990347166
 30
0.0
 11
842.1240532635339
 21
1903.218990347166
 31
0.0
  0
LINE
  5
137
  8
0
  6
CONTINUOUS
 62
     7
 10
563.1240532635338
 20
1903.71899034717
 30
0.0
 11
563.1240532635338
 21
1903.21899034717
 31
0.0
  0
LINE
  5
138
  8
0
  6
CONTINUOUS
 62
     7
 10
842.1240532635339
 20
1903.718990347166
 30
0.0
 11
563.1240532635338
 21
1903.71899034717
 31
0.0
  0
LINE
  5
139
  8
0
  6
CONTINUOUS
 62
     7
 10
563.1240532635338
 20
1004.218990347162
 30
0.0
 11
842.1240532635339
 21
1004.218990347166
 31
0.0
  0
LINE
  5
13A
  8
0
  6
CONTINUOUS
 62
     7
 10
563.1240532635338
 20
1004.218990347162
 30
0.0
 11
563.1240532635338
 21
1004.718990347163
 31
0.0
  0
LINE
  5
13B
  8
0
  6
CONTINUOUS
 62
     7
 10
3013.312452041264
 20
1006.718990347166
 30
0.0
 11
3031.312452041264
 21
1006.718990347166
 31
0.0
  0
LINE
  5
13C
  8
0
  6
CONTINUOUS
 62
     7
 10
3017.312452041264
 20
1470.718990347166
 30
0.0
 11
3013.312452041264
 21
1470.718990347166
 31
0.0
  0
LINE
  5
13D
  8
0
  6
CONTINUOUS
 62
     7
 10
3017.312452041264
 20
1457.718990347166
 30
0.0
 11
3029.812452041264
 21
1457.718990347166
 31
0.0
  0
LINE
  5
13E
  8
0
  6
CONTINUOUS
 62
     7
 10
3029.812452041264
 20
1457.718990347166
 30
0.0
 11
3029.812452041264
 21
1437.218990347166
 31
0.0
  0
LINE
  5
13F
  8
0
  6
CONTINUOUS
 62
     7
 10
3031.312452041264
 20
1006.718990347166
 30
0.0
 11
3031.312452041264
 21
1437.218990347166
 31
0.0
  0
LINE
  5
140
  8
0
  6
CONTINUOUS
 62
     7
 10
3029.812452041264
 20
1437.218990347166
 30
0.0
 11
3031.312452041264
 21
1437.218990347166
 31
0.0
  0
LINE
  5
141
  8
0
  6
CONTINUOUS
 62
     7
 10
3017.312452041264
 20
1470.718990347166
 30
0.0
 11
3017.312452041264
 21
1457.718990347166
 31
0.0
  0
LINE
  5
142
  8
0
  6
CONTINUOUS
 62
     7
 10
3013.312452041264
 20
1470.718990347166
 30
0.0
 11
3013.312452041264
 21
1006.718990347166
 31
0.0
  0
LINE
  5
143
  8
0
  6
CONTINUOUS
 62
     7
 10
3011.312452041264
 20
1007.718990347166
 30
0.0
 11
3013.312452041264
 21
1007.718990347166
 31
0.0
  0
LINE
  5
144
  8
0
  6
CONTINUOUS
 62
     7
 10
3011.312452041264
 20
1469.718990347166
 30
0.0
 11
3011.312452041264
 21
1007.718990347166
 31
0.0
  0
LINE
  5
145
  8
0
  6
CONTINUOUS
 62
     7
 10
3011.312452041264
 20
1469.718990347166
 30
0.0
 11
3013.312452041264
 21
1469.718990347166
 31
0.0
  0
LINE
  5
146
  8
0
  6
CONTINUOUS
 62
     7
 10
3011.312452041264
 20
1007.718990347166
 30
0.0
 11
3010.312452041264
 21
1008.718990347166
 31
0.0
  0
LINE
  5
147
  8
0
  6
CONTINUOUS
 62
     7
 10
3010.312452041264
 20
1008.718990347166
 30
0.0
 11
3010.312452041264
 21
1468.718990347166
 31
0.0
  0
LINE
  5
148
  8
0
  6
CONTINUOUS
 62
     7
 10
3011.312452041264
 20
1469.718990347166
 30
0.0
 11
3010.312452041264
 21
1468.718990347166
 31
0.0
  0
LINE
  5
149
  8
0
  6
CONTINUOUS
 62
     7
 10
3017.512452041264
 20
1470.918990347164
 30
0.0
 11
3017.512452041264
 21
1457.918990347164
 31
0.0
  0
LINE
  5
14A
  8
0
  6
CONTINUOUS
 62
     7
 10
3017.512452041264
 20
1457.918990347164
 30
0.0
 11
3017.312452041264
 21
1457.718990347165
 31
0.0
  0
LINE
  5
14B
  8
0
  6
CONTINUOUS
 62
     7
 10
3017.512452041264
 20
1470.918990347164
 30
0.0
 11
3017.312452041264
 21
1470.718990347164
 31
0.0
  0
ARC
  5
14C
  8
0
  6
CONTINUOUS
 62
     7
 10
3030.612452041264
 20
1458.718990347164
 30
0.0
 40
1.000000000000455
 50
0.0
 51
90.0
  0
LINE
  5
14D
  8
0
  6
CONTINUOUS
 62
     7
 10
3031.612452041264
 20
1458.718990347164
 30
0.0
 11
3031.412452041264
 21
1458.718990347164
 31
0.0
  0
ARC
  5
14E
  8
0
  6
CONTINUOUS
 62
     7
 10
3030.612452041264
 20
1458.718990347164
 30
0.0
 40
0.8000000000001819
 50
0.0
 51
90.0
  0
LINE
  5
14F
  8
0
  6
CONTINUOUS
 62
     7
 10
3030.612452041264
 20
1459.718990347165
 30
0.0
 11
3030.612452041264
 21
1459.518990347164
 31
0.0
  0
ARC
  5
150
  8
0
  6
CONTINUOUS
 62
     7
 10
3017.312413715336
 20
1470.712022396073
 30
0.0
 40
0.300000000000124
 50
99.57658848109824
 51
136.3783470327589
  0
POLYLINE
  5
151
  8
0
  6
CONTINUOUS
 62
     7
 66
     1
 10
0.0
 20
0.0
 30
0.0
  0
VERTEX
  5
3E1
  8
0
  6
CONTINUOUS
 62
     7
 10
3017.095240357806
 20
1470.918990347164
 30
0.0
  0
VERTEX
  5
3E2
  8
0
  6
CONTINUOUS
 62
     7
 10
3017.088888897891
 20
1470.916232414987
 30
0.0
  0
VERTEX
  5
3E3
  8
0
  6
CONTINUOUS
 62
     7
 10
3017.082560836565
 20
1470.913405975239
 30
0.0
  0
VERTEX
  5
3E4
  8
0
  6
CONTINUOUS
 62
     7
 10
3017.076258157997
 20
1470.910510188076
 30
0.0
  0
VERTEX
  5
3E5
  8
0
  6
CONTINUOUS
 62
     7
 10
3017.069981954862
 20
1470.907547030693
 30
0.0
  0
VERTEX
  5
3E6
  8
0
  6
CONTINUOUS
 62
     7
 10
3017.063733319837
 20
1470.904518480284
 30
0.0
  0
VERTEX
  5
3E7
  8
0
  6
CONTINUOUS
 62
     7
 10
3017.057513345599
 20
1470.901426514045
 30
0.0
  0
VERTEX
  5
3E8
  8
0
  6
CONTINUOUS
 62
     7
 10
3017.051323124824
 20
1470.89827310917
 30
0.0
  0
VERTEX
  5
3E9
  8
0
  6
CONTINUOUS
 62
     7
 10
3017.045163750188
 20
1470.895060242855
 30
0.0
  0
VERTEX
  5
3EA
  8
0
  6
CONTINUOUS
 62
     7
 10
3017.039036314369
 20
1470.891789892295
 30
0.0
  0
VERTEX
  5
3EB
  8
0
  6
CONTINUOUS
 62
     7
 10
3017.032941910041
 20
1470.888464034683
 30
0.0
  0
VERTEX
  5
3EC
  8
0
  6
CONTINUOUS
 62
     7
 10
3017.026881629883
 20
1470.885084647216
 30
0.0
  0
VERTEX
  5
3ED
  8
0
  6
CONTINUOUS
 62
     7
 10
3017.020856566569
 20
1470.881653707088
 30
0.0
  0
VERTEX
  5
3EE
  8
0
  6
CONTINUOUS
 62
     7
 10
3017.014867812778
 20
1470.878173191495
 30
0.0
  0
VERTEX
  5
3EF
  8
0
  6
CONTINUOUS
 62
     7
 10
3017.008916461185
 20
1470.87464507763
 30
0.0
  0
VERTEX
  5
3F0
  8
0
  6
CONTINUOUS
 62
     7
 10
3017.003003604466
 20
1470.871071342689
 30
0.0
  0
VERTEX
  5
3F1
  8
0
  6
CONTINUOUS
 62
     7
 10
3016.997130335299
 20
1470.867453963868
 30
0.0
  0
VERTEX
  5
3F2
  8
0
  6
CONTINUOUS
 62
     7
 10
3016.99129774636
 20
1470.863794918361
 30
0.0
  0
VERTEX
  5
3F3
  8
0
  6
CONTINUOUS
 62
     7
 10
3016.985506930323
 20
1470.860096183362
 30
0.0
  0
VERTEX
  5
3F4
  8
0
  6
CONTINUOUS
 62
     7
 10
3016.979758979868
 20
1470.856359736067
 30
0.0
  0
VERTEX
  5
3F5
  8
0
  6
CONTINUOUS
 62
     7
 10
3016.97405498767
 20
1470.852587553671
 30
0.0
  0
VERTEX
  5
3F6
  8
0
  6
CONTINUOUS
 62
     7
 10
3016.968396046406
 20
1470.848781613368
 30
0.0
  0
VERTEX
  5
3F7
  8
0
  6
CONTINUOUS
 62
     7
 10
3016.962783248751
 20
1470.844943892355
 30
0.0
  0
VERTEX
  5
3F8
  8
0
  6
CONTINUOUS
 62
     7
 10
3016.957217687383
 20
1470.841076367824
 30
0.0
  0
VERTEX
  5
3F9
  8
0
  6
CONTINUOUS
 62
     7
 10
3016.951700454977
 20
1470.837181016973
 30
0.0
  0
VERTEX
  5
3FA
  8
0
  6
CONTINUOUS
 62
     7
 10
3016.946232703958
 20
1470.833259894818
 30
0.0
  0
VERTEX
  5
3FB
  8
0
  6
CONTINUOUS
 62
     7
 10
3016.940816645758
 20
1470.829316435778
 30
0.0
  0
VERTEX
  5
3FC
  8
0
  6
CONTINUOUS
 62
     7
 10
3016.935455400649
 20
1470.825355258071
 30
0.0
  0
VERTEX
  5
3FD
  8
0
  6
CONTINUOUS
 62
     7
 10
3016.93015211839
 20
1470.821381018326
 30
0.0
  0
VERTEX
  5
3FE
  8
0
  6
CONTINUOUS
 62
     7
 10
3016.924909948745
 20
1470.817398373172
 30
0.0
  0
VERTEX
  5
3FF
  8
0
  6
CONTINUOUS
 62
     7
 10
3016.919732041475
 20
1470.813411979242
 30
0.0
  0
VERTEX
  5
400
  8
0
  6
CONTINUOUS
 62
     7
 10
3016.914621546343
 20
1470.809426493163
 30
0.0
  0
VERTEX
  5
401
  8
0
  6
CONTINUOUS
 62
     7
 10
3016.909581613111
 20
1470.805446571568
 30
0.0
  0
VERTEX
  5
402
  8
0
  6
CONTINUOUS
 62
     7
 10
3016.90461539154
 20
1470.801476871085
 30
0.0
  0
VERTEX
  5
403
  8
0
  6
CONTINUOUS
 62
     7
 10
3016.899726031393
 20
1470.797522048346
 30
0.0
  0
VERTEX
  5
404
  8
0
  6
CONTINUOUS
 62
     7
 10
3016.894916682432
 20
1470.79358675998
 30
0.0
  0
VERTEX
  5
405
  8
0
  6
CONTINUOUS
 62
     7
 10
3016.890190494417
 20
1470.789675662618
 30
0.0
  0
VERTEX
  5
406
  8
0
  6
CONTINUOUS
 62
     7
 10
3016.885550617114
 20
1470.785793412889
 30
0.0
  0
VERTEX
  5
407
  8
0
  6
CONTINUOUS
 62
     7
 10
3016.881000200282
 20
1470.781944667425
 30
0.0
  0
VERTEX
  5
408
  8
0
  6
CONTINUOUS
 62
     7
 10
3016.876542394562
 20
1470.778134084168
 30
0.0
  0
VERTEX
  5
409
  8
0
  6
CONTINUOUS
 62
     7
 10
3016.872180729936
 20
1470.774366888348
 30
0.0
  0
VERTEX
  5
40A
  8
0
  6
CONTINUOUS
 62
     7
 10
3016.86791970636
 20
1470.770649755738
 30
0.0
  0
VERTEX
  5
40B
  8
0
  6
CONTINUOUS
 62
     7
 10
3016.863763976613
 20
1470.766989590647
 30
0.0
  0
VERTEX
  5
40C
  8
0
  6
CONTINUOUS
 62
     7
 10
3016.85971819347
 20
1470.763393297385
 30
0.0
  0
VERTEX
  5
40D
  8
0
  6
CONTINUOUS
 62
     7
 10
3016.855787009711
 20
1470.759867780263
 30
0.0
  0
VERTEX
  5
40E
  8
0
  6
CONTINUOUS
 62
     7
 10
3016.851975078112
 20
1470.756419943589
 30
0.0
  0
VERTEX
  5
40F
  8
0
  6
CONTINUOUS
 62
     7
 10
3016.848287051451
 20
1470.753056691673
 30
0.0
  0
VERTEX
  5
410
  8
0
  6
CONTINUOUS
 62
     7
 10
3016.844727582505
 20
1470.749784928824
 30
0.0
  0
VERTEX
  5
411
  8
0
  6
CONTINUOUS
 62
     7
 10
3016.841301324053
 20
1470.746611559353
 30
0.0
  0
VERTEX
  5
412
  8
0
  6
CONTINUOUS
 62
     7
 10
3016.838012928881
 20
1470.743543487579
 30
0.0
  0
VERTEX
  5
413
  8
0
  6
CONTINUOUS
 62
     7
 10
3016.834869559161
 20
1470.74059016942
 30
0.0
  0
VERTEX
  5
414
  8
0
  6
CONTINUOUS
 62
     7
 10
3016.83188794782
 20
1470.737770792562
 30
0.0
  0
VERTEX
  5
415
  8
0
  6
CONTINUOUS
 62
     7
 10
3016.829087109161
 20
1470.735106864443
 30
0.0
  0
VERTEX
  5
416
  8
0
  6
CONTINUOUS
 62
     7
 10
3016.826486057486
 20
1470.732619892503
 30
0.0
  0
VERTEX
  5
417
  8
0
  6
CONTINUOUS
 62
     7
 10
3016.824103807099
 20
1470.73033138418
 30
0.0
  0
VERTEX
  5
418
  8
0
  6
CONTINUOUS
 62
     7
 10
3016.8219593723
 20
1470.728262846912
 30
0.0
  0
VERTEX
  5
419
  8
0
  6
CONTINUOUS
 62
     7
 10
3016.820071767394
 20
1470.726435788139
 30
0.0
  0
VERTEX
  5
41A
  8
0
  6
CONTINUOUS
 62
     7
 10
3016.81845865394
 20
1470.724870340157
 30
0.0
  0
VERTEX
  5
41B
  8
0
  6
CONTINUOUS
 62
     7
 10
3016.817109640119
 20
1470.72355811733
 30
0.0
  0
VERTEX
  5
41C
  8
0
  6
CONTINUOUS
 62
     7
 10
3016.815987882091
 20
1470.722463843962
 30
0.0
  0
VERTEX
  5
41D
  8
0
  6
CONTINUOUS
 62
     7
 10
3016.815055503888
 20
1470.721551195143
 30
0.0
  0
VERTEX
  5
41E
  8
0
  6
CONTINUOUS
 62
     7
 10
3016.814274629547
 20
1470.720783845964
 30
0.0
  0
VERTEX
  5
41F
  8
0
  6
CONTINUOUS
 62
     7
 10
3016.813607383101
 20
1470.720125471514
 30
0.0
  0
VERTEX
  5
420
  8
0
  6
CONTINUOUS
 62
     7
 10
3016.813015888586
 20
1470.719539746884
 30
0.0
  0
VERTEX
  5
421
  8
0
  6
CONTINUOUS
 62
     7
 10
3016.812462270036
 20
1470.718990347164
 30
0.0
  0
SEQEND
  5
52B
  8
0
  6
CONTINUOUS
 62
     7
  0
ARC
  5
152
  8
0
  6
CONTINUOUS
 62
     7
 10
3017.312413715336
 20
1470.712022396073
 30
0.0
 40
0.5000000000001892
 50
99.57658848106976
 51
179.2015057739029
  0
LINE
  5
153
  8
0
  6
CONTINUOUS
 62
     7
 10
3017.262503961281
 20
1471.007841625418
 30
0.0
 11
3017.229230791911
 21
1471.205054444981
 31
0.0
  0
ARC
  5
154
  8
0
  6
CONTINUOUS
 62
     7
 10
3020.229265811244
 20
1460.718990347164
 30
0.0
 40
0.9999999999997726
 50
184.9699465946945
 51
270.0000000000008
  0
LINE
  5
155
  8
0
  6
CONTINUOUS
 62
     7
 10
3020.229265811244
 20
1459.718990347165
 30
0.0
 11
3020.229265811244
 21
1459.518990347165
 31
0.0
  0
ARC
  5
156
  8
0
  6
CONTINUOUS
 62
     7
 10
3020.229265811244
 20
1460.718990347164
 30
0.0
 40
1.199999999999818
 50
184.969946594692
 51
270.0000000000008
  0
LINE
  5
157
  8
0
  6
CONTINUOUS
 62
     7
 10
3019.23302553432
 20
1460.632357151258
 30
0.0
 11
3019.033777478935
 21
1460.615030512077
 31
0.0
  0
LINE
  5
158
  8
0
  6
CONTINUOUS
 62
     7
 10
3017.095240357806
 20
1470.918990347164
 30
0.0
 11
3017.512452041264
 21
1470.918990347164
 31
0.0
  0
ARC
  5
159
  8
0
  6
CONTINUOUS
 62
     7
 10
3017.39559663876
 20
1470.218990347164
 30
0.0
 40
0.8000000000001298
 50
4.969946594694715
 51
99.57658848104562
  0
LINE
  5
15A
  8
0
  6
CONTINUOUS
 62
     7
 10
3019.033777478935
 20
1460.615030512077
 30
0.0
 11
3018.1925888603
 21
1470.288296903889
 31
0.0
  0
LINE
  5
15B
  8
0
  6
CONTINUOUS
 62
     7
 10
3030.612452041264
 20
1459.518990347164
 30
0.0
 11
3020.229265811244
 21
1459.518990347165
 31
0.0
  0
LINE
  5
15C
  8
0
  6
CONTINUOUS
 62
     7
 10
3031.412452041264
 20
1437.918990347164
 30
0.0
 11
3031.412452041264
 21
1458.718990347164
 31
0.0
  0
LINE
  5
15D
  8
0
  6
CONTINUOUS
 62
     7
 10
3030.012452041264
 20
1437.918990347164
 30
0.0
 11
3031.412452041264
 21
1437.918990347164
 31
0.0
  0
LINE
  5
15E
  8
0
  6
CONTINUOUS
 62
     7
 10
3030.012452041264
 20
1457.918990347164
 30
0.0
 11
3030.012452041264
 21
1437.918990347164
 31
0.0
  0
LINE
  5
15F
  8
0
  6
CONTINUOUS
 62
     7
 10
3017.512452041264
 20
1457.918990347164
 30
0.0
 11
3030.012452041264
 21
1457.918990347164
 31
0.0
  0
LINE
  5
160
  8
0
  6
CONTINUOUS
 62
     7
 10
3018.391836915685
 20
1470.305623543071
 30
0.0
 11
3019.23302553432
 21
1460.632357151258
 31
0.0
  0
LINE
  5
161
  8
0
  6
CONTINUOUS
 62
     7
 10
3018.1925888603
 20
1470.288296903889
 30
0.0
 11
3018.391836915685
 21
1470.305623543071
 31
0.0
  0
LINE
  5
162
  8
0
  6
CONTINUOUS
 62
     7
 10
3020.229265811244
 20
1459.718990347165
 30
0.0
 11
3030.612452041264
 21
1459.718990347165
 31
0.0
  0
ARC
  5
163
  8
0
  6
CONTINUOUS
 62
     7
 10
3017.39559663876
 20
1470.218990347164
 30
0.0
 40
0.9999999999999706
 50
4.96994659469147
 51
99.5765884810419
  0
LINE
  5
164
  8
0
  6
CONTINUOUS
 62
     7
 10
3031.612452041264
 20
1437.918990347164
 30
0.0
 11
3031.412452041264
 21
1437.918990347164
 31
0.0
  0
LINE
  5
165
  8
0
  6
CONTINUOUS
 62
     7
 10
3029.812452041264
 20
1437.718990347164
 30
0.0
 11
3030.012452041264
 21
1437.918990347164
 31
0.0
  0
LINE
  5
166
  8
0
  6
CONTINUOUS
 62
     7
 10
3030.012452041264
 20
1457.918990347164
 30
0.0
 11
3029.812452041264
 21
1457.718990347165
 31
0.0
  0
LINE
  5
167
  8
0
  6
CONTINUOUS
 62
     7
 10
3031.412452041264
 20
1437.718990347164
 30
0.0
 11
3031.412452041264
 21
1437.918990347164
 31
0.0
  0
ARC
  5
168
  8
0
  6
CONTINUOUS
 62
     7
 10
3031.412452041264
 20
1437.918990347164
 30
0.0
 40
0.2000000000002728
 50
270.0000000000008
 51
0.0
  0
LINE
  5
169
  8
0
  6
CONTINUOUS
 62
     7
 10
3031.412452041264
 20
1437.718990347164
 30
0.0
 11
3029.812452041264
 21
1437.718990347164
 31
0.0
  0
LINE
  5
16A
  8
0
  6
CONTINUOUS
 62
     7
 10
3311.612452041264
 20
1004.718990347163
 30
0.0
 11
3032.612452041264
 21
1004.718990347166
 31
0.0
  0
LINE
  5
16B
  8
0
  6
CONTINUOUS
 62
     7
 10
3032.612452041254
 20
1902.718990347159
 30
0.0
 11
3032.612452041264
 21
1004.718990347166
 31
0.0
  0
LINE
  5
16C
  8
0
  6
CONTINUOUS
 62
     7
 10
3311.612452041254
 20
1902.718990347155
 30
0.0
 11
3032.612452041254
 21
1902.718990347159
 31
0.0
  0
LINE
  5
16D
  8
0
  6
CONTINUOUS
 62
     7
 10
3311.612452041254
 20
1902.718990347155
 30
0.0
 11
3311.612452041264
 21
1004.718990347163
 31
0.0
  0
LINE
  5
16E
  8
0
  6
CONTINUOUS
 62
     7
 10
3311.612452041254
 20
1903.218990347156
 30
0.0
 11
3311.612452041254
 21
1902.718990347156
 31
0.0
  0
LINE
  5
16F
  8
0
  6
CONTINUOUS
 62
     7
 10
3032.612452041254
 20
1903.218990347159
 30
0.0
 11
3032.612452041254
 21
1902.718990347159
 31
0.0
  0
LINE
  5
170
  8
0
  6
CONTINUOUS
 62
     7
 10
3032.612452041254
 20
1903.218990347159
 30
0.0
 11
3311.612452041254
 21
1903.218990347156
 31
0.0
  0
LINE
  5
171
  8
0
  6
CONTINUOUS
 62
     7
 10
3031.612452041265
 20
1903.718990347166
 30
0.0
 11
3031.612452041265
 21
1903.218990347159
 31
0.0
  0
LINE
  5
172
  8
0
  6
CONTINUOUS
 62
     7
 10
3032.612452041264
 20
1903.218990347158
 30
0.0
 11
3032.612452041264
 21
1903.718990347166
 31
0.0
  0
LINE
  5
173
  8
0
  6
CONTINUOUS
 62
     7
 10
3031.612452041265
 20
1903.718990347166
 30
0.0
 11
3032.612452041264
 21
1903.718990347166
 31
0.0
  0
LINE
  5
174
  8
0
  6
CONTINUOUS
 62
     7
 10
3032.612452041264
 20
1004.218990347166
 30
0.0
 11
3032.612452041254
 21
1903.218990347159
 31
0.0
  0
LINE
  5
175
  8
0
  6
CONTINUOUS
 62
     7
 10
3031.612452041254
 20
1903.218990347159
 30
0.0
 11
3032.612452041254
 21
1903.218990347159
 31
0.0
  0
LINE
  5
176
  8
0
  6
CONTINUOUS
 62
     7
 10
3031.612452041265
 20
1004.218990347166
 30
0.0
 11
3032.612452041264
 21
1004.218990347166
 31
0.0
  0
LINE
  5
177
  8
0
  6
CONTINUOUS
 62
     7
 10
3031.612452041254
 20
1903.218990347159
 30
0.0
 11
3031.612452041265
 21
1004.218990347166
 31
0.0
  0
LINE
  5
178
  8
0
  6
CONTINUOUS
 62
     7
 10
3311.612452041264
 20
1903.718990347169
 30
0.0
 11
3032.612452041264
 21
1903.718990347166
 31
0.0
  0
LINE
  5
179
  8
0
  6
CONTINUOUS
 62
     7
 10
3311.612452041264
 20
1903.718990347169
 30
0.0
 11
3311.612452041264
 21
1903.218990347169
 31
0.0
  0
LINE
  5
17A
  8
0
  6
CONTINUOUS
 62
     7
 10
3311.612452041264
 20
1004.218990347163
 30
0.0
 11
3311.612452041264
 21
1004.718990347163
 31
0.0
  0
LINE
  5
17B
  8
0
  6
CONTINUOUS
 62
     7
 10
3032.612452041264
 20
1004.218990347166
 30
0.0
 11
3032.612452041264
 21
1004.718990347166
 31
0.0
  0
LINE
  5
17C
  8
0
  6
CONTINUOUS
 62
     7
 10
3032.612452041264
 20
1004.218990347166
 30
0.0
 11
3311.612452041264
 21
1004.218990347163
 31
0.0
  0
LINE
  5
17D
  8
0
  6
CONTINUOUS
 62
     7
 10
2069.358099354145
 20
2675.644633708183
 30
0.0
 11
2069.358099354145
 21
2679.144643936955
 31
0.0
  0
LINE
  5
17E
  8
0
  6
CONTINUOUS
 62
     7
 10
2068.358099354145
 20
2675.644633708183
 30
0.0
 11
2069.358099354145
 21
2675.644633708183
 31
0.0
  0
LINE
  5
17F
  8
0
  6
CONTINUOUS
 62
     7
 10
2068.358099354145
 20
2675.644633708183
 30
0.0
 11
2068.358099354145
 21
2679.427422024725
 31
0.0
  0
LINE
  5
180
  8
0
  6
CONTINUOUS
 62
     7
 10
1769.858099354145
 20
2675.644633708183
 30
0.0
 11
1770.858099354145
 21
2675.644633708183
 31
0.0
  0
LINE
  5
181
  8
0
  6
CONTINUOUS
 62
     7
 10
1770.858099354145
 20
2675.644633708183
 30
0.0
 11
1770.858099354145
 21
2679.144643936955
 31
0.0
  0
LINE
  5
182
  8
0
  6
CONTINUOUS
 62
     7
 10
1769.858099354145
 20
2675.644633708183
 30
0.0
 11
1769.858099354145
 21
2679.427422024725
 31
0.0
  0
LINE
  5
183
  8
0
  6
CONTINUOUS
 62
     7
 10
2065.858099354145
 20
2675.644633708183
 30
0.0
 11
2064.858099354145
 21
2675.644633708183
 31
0.0
  0
LINE
  5
184
  8
0
  6
CONTINUOUS
 62
     7
 10
2065.858099354145
 20
2679.427422024725
 30
0.0
 11
2065.858099354145
 21
2675.644633708183
 31
0.0
  0
LINE
  5
185
  8
0
  6
CONTINUOUS
 62
     7
 10
2064.858099354145
 20
2679.144643936955
 30
0.0
 11
2064.858099354145
 21
2675.644633708183
 31
0.0
  0
LINE
  5
186
  8
0
  6
CONTINUOUS
 62
     7
 10
2364.358099354145
 20
2675.644633708183
 30
0.0
 11
2363.358099354145
 21
2675.644633708183
 31
0.0
  0
LINE
  5
187
  8
0
  6
CONTINUOUS
 62
     7
 10
2364.358099354145
 20
2679.427422024725
 30
0.0
 11
2364.358099354145
 21
2675.644633708183
 31
0.0
  0
LINE
  5
188
  8
0
  6
CONTINUOUS
 62
     7
 10
2363.358099354145
 20
2679.144643936955
 30
0.0
 11
2363.358099354145
 21
2675.644633708183
 31
0.0
  0
LINE
  5
189
  8
0
  6
CONTINUOUS
 62
     7
 10
1770.858099354145
 20
2675.644633708183
 30
0.0
 11
2064.858099354145
 21
2675.644633708183
 31
0.0
  0
LINE
  5
18A
  8
0
  6
CONTINUOUS
 62
     7
 10
2069.358099354145
 20
2675.644633708183
 30
0.0
 11
2363.358099354145
 21
2675.644633708183
 31
0.0
  0
LINE
  5
18B
  8
0
  6
CONTINUOUS
 62
     7
 10
2064.858099354145
 20
2673.644633708183
 30
0.0
 11
2064.858099354145
 21
2675.644633708183
 31
0.0
  0
LINE
  5
18C
  8
0
  6
CONTINUOUS
 62
     7
 10
1770.858099354146
 20
2673.644633708183
 30
0.0
 11
2064.858099354145
 21
2673.644633708183
 31
0.0
  0
LINE
  5
18D
  8
0
  6
CONTINUOUS
 62
     7
 10
1770.858099354146
 20
2673.644633708183
 30
0.0
 11
1770.858099354146
 21
2675.644633708183
 31
0.0
  0
LINE
  5
18E
  8
0
  6
CONTINUOUS
 62
     7
 10
2063.858099354145
 20
2672.644633708183
 30
0.0
 11
1771.858099354146
 21
2672.644633708183
 31
0.0
  0
LINE
  5
18F
  8
0
  6
CONTINUOUS
 62
     7
 10
1771.858099354146
 20
2672.644633708183
 30
0.0
 11
1770.858099354146
 21
2673.644633708183
 31
0.0
  0
LINE
  5
190
  8
0
  6
CONTINUOUS
 62
     7
 10
2064.858099354145
 20
2673.644633708183
 30
0.0
 11
2063.858099354145
 21
2672.644633708183
 31
0.0
  0
LINE
  5
191
  8
0
  6
CONTINUOUS
 62
     7
 10
2362.358099354145
 20
2672.644633708184
 30
0.0
 11
2070.358099354145
 21
2672.644633708184
 31
0.0
  0
LINE
  5
192
  8
0
  6
CONTINUOUS
 62
     7
 10
2070.358099354145
 20
2672.644633708184
 30
0.0
 11
2069.358099354145
 21
2673.644633708183
 31
0.0
  0
LINE
  5
193
  8
0
  6
CONTINUOUS
 62
     7
 10
2069.358099354145
 20
2673.644633708183
 30
0.0
 11
2363.358099354145
 21
2673.644633708183
 31
0.0
  0
LINE
  5
194
  8
0
  6
CONTINUOUS
 62
     7
 10
2363.358099354145
 20
2673.644633708183
 30
0.0
 11
2362.358099354145
 21
2672.644633708184
 31
0.0
  0
LINE
  5
195
  8
0
  6
CONTINUOUS
 62
     7
 10
2363.358099354145
 20
2673.644633708183
 30
0.0
 11
2363.358099354145
 21
2675.644633708183
 31
0.0
  0
LINE
  5
196
  8
0
  6
CONTINUOUS
 62
     7
 10
2069.358099354145
 20
2673.644633708183
 30
0.0
 11
2069.358099354145
 21
2675.644633708183
 31
0.0
  0
LINE
  5
197
  8
0
  6
CONTINUOUS
 62
     7
 10
2363.358099354145
 20
2680.724018582604
 30
0.0
 11
2363.358099354145
 21
2679.56141245883
 31
0.0
  0
LINE
  5
198
  8
0
  6
CONTINUOUS
 62
     7
 10
2364.158099354146
 20
2680.724018582604
 30
0.0
 11
2363.358099354145
 21
2680.724018582604
 31
0.0
  0
LINE
  5
199
  8
0
  6
CONTINUOUS
 62
     7
 10
2364.158099354146
 20
2679.56141245883
 30
0.0
 11
2364.158099354146
 21
2680.724018582604
 31
0.0
  0
LINE
  5
19A
  8
0
  6
CONTINUOUS
 62
     7
 10
2364.158099354146
 20
2679.56141245883
 30
0.0
 11
2363.358099354145
 21
2679.56141245883
 31
0.0
  0
LINE
  5
19B
  8
0
  6
CONTINUOUS
 62
     7
 10
2364.358099354145
 20
2680.52477052722
 30
0.0
 11
2364.358099354145
 21
2679.5946856282
 31
0.0
  0
ARC
  5
19C
  8
0
  6
CONTINUOUS
 62
     7
 10
2364.206715474396
 20
2679.886909790612
 30
0.0
 40
0.3291079460377212
 50
261.5051279080567
 51
297.3859751208366
  0
ARC
  5
19D
  8
0
  6
CONTINUOUS
 62
     7
 10
2364.158474619677
 20
2680.524393845468
 30
0.0
 40
0.1996250898582723
 50
0.1081141022436005
 51
90.10770762237532
  0
LINE
  5
19E
  8
0
  6
CONTINUOUS
 62
     7
 10
2364.358099354145
 20
2679.5946856282
 30
0.0
 11
2364.358099354145
 21
2679.427422024725
 31
0.0
  0
POLYLINE
  5
19F
  8
0
  6
CONTINUOUS
 62
     7
 66
     1
 10
0.0
 20
0.0
 30
0.0
  0
VERTEX
  5
422
  8
0
  6
CONTINUOUS
 62
     7
 10
2364.358099354145
 20
2679.427422024725
 30
0.0
  0
VERTEX
  5
423
  8
0
  6
CONTINUOUS
 62
     7
 10
2364.358081917384
 20
2679.421070564811
 30
0.0
  0
VERTEX
  5
424
  8
0
  6
CONTINUOUS
 62
     7
 10
2364.35802611962
 20
2679.414742503485
 30
0.0
  0
VERTEX
  5
425
  8
0
  6
CONTINUOUS
 62
     7
 10
2364.35792751803
 20
2679.408439824917
 30
0.0
  0
VERTEX
  5
426
  8
0
  6
CONTINUOUS
 62
     7
 10
2364.357783081821
 20
2679.402163621783
 30
0.0
  0
VERTEX
  5
427
  8
0
  6
CONTINUOUS
 62
     7
 10
2364.357589780198
 20
2679.395914986757
 30
0.0
  0
VERTEX
  5
428
  8
0
  6
CONTINUOUS
 62
     7
 10
2364.357344582368
 20
2679.389695012519
 30
0.0
  0
VERTEX
  5
429
  8
0
  6
CONTINUOUS
 62
     7
 10
2364.357044457538
 20
2679.383504791743
 30
0.0
  0
VERTEX
  5
42A
  8
0
  6
CONTINUOUS
 62
     7
 10
2364.356686374911
 20
2679.377345417108
 30
0.0
  0
VERTEX
  5
42B
  8
0
  6
CONTINUOUS
 62
     7
 10
2364.356267303696
 20
2679.371217981289
 30
0.0
  0
VERTEX
  5
42C
  8
0
  6
CONTINUOUS
 62
     7
 10
2364.355784213099
 20
2679.365123576961
 30
0.0
  0
VERTEX
  5
42D
  8
0
  6
CONTINUOUS
 62
     7
 10
2364.355234072325
 20
2679.359063296803
 30
0.0
  0
VERTEX
  5
42E
  8
0
  6
CONTINUOUS
 62
     7
 10
2364.35461385058
 20
2679.353038233489
 30
0.0
  0
VERTEX
  5
42F
  8
0
  6
CONTINUOUS
 62
     7
 10
2364.353920517073
 20
2679.347049479697
 30
0.0
  0
VERTEX
  5
430
  8
0
  6
CONTINUOUS
 62
     7
 10
2364.353151041007
 20
2679.341098128104
 30
0.0
  0
VERTEX
  5
431
  8
0
  6
CONTINUOUS
 62
     7
 10
2364.35230239159
 20
2679.335185271385
 30
0.0
  0
VERTEX
  5
432
  8
0
  6
CONTINUOUS
 62
     7
 10
2364.351371538027
 20
2679.329312002219
 30
0.0
  0
VERTEX
  5
433
  8
0
  6
CONTINUOUS
 62
     7
 10
2364.350355449526
 20
2679.323479413279
 30
0.0
  0
VERTEX
  5
434
  8
0
  6
CONTINUOUS
 62
     7
 10
2364.349251095291
 20
2679.317688597243
 30
0.0
  0
VERTEX
  5
435
  8
0
  6
CONTINUOUS
 62
     7
 10
2364.348055444529
 20
2679.311940646788
 30
0.0
  0
VERTEX
  5
436
  8
0
  6
CONTINUOUS
 62
     7
 10
2364.346765466446
 20
2679.30623665459
 30
0.0
  0
VERTEX
  5
437
  8
0
  6
CONTINUOUS
 62
     7
 10
2364.34537813025
 20
2679.300577713325
 30
0.0
  0
VERTEX
  5
438
  8
0
  6
CONTINUOUS
 62
     7
 10
2364.343890405145
 20
2679.294964915671
 30
0.0
  0
VERTEX
  5
439
  8
0
  6
CONTINUOUS
 62
     7
 10
2364.342299260337
 20
2679.289399354302
 30
0.0
  0
VERTEX
  5
43A
  8
0
  6
CONTINUOUS
 62
     7
 10
2364.340601665034
 20
2679.283882121897
 30
0.0
  0
VERTEX
  5
43B
  8
0
  6
CONTINUOUS
 62
     7
 10
2364.338794575885
 20
2679.278414370878
 30
0.0
  0
VERTEX
  5
43C
  8
0
  6
CONTINUOUS
 62
     7
 10
2364.336874726976
 20
2679.272998312678
 30
0.0
  0
VERTEX
  5
43D
  8
0
  6
CONTINUOUS
 62
     7
 10
2364.334838661396
 20
2679.267637067568
 30
0.0
  0
VERTEX
  5
43E
  8
0
  6
CONTINUOUS
 62
     7
 10
2364.33268291603
 20
2679.262333785309
 30
0.0
  0
VERTEX
  5
43F
  8
0
  6
CONTINUOUS
 62
     7
 10
2364.330404027766
 20
2679.257091615664
 30
0.0
  0
VERTEX
  5
440
  8
0
  6
CONTINUOUS
 62
     7
 10
2364.327998533493
 20
2679.251913708395
 30
0.0
  0
VERTEX
  5
441
  8
0
  6
CONTINUOUS
 62
     7
 10
2364.325462970097
 20
2679.246803213262
 30
0.0
  0
VERTEX
  5
442
  8
0
  6
CONTINUOUS
 62
     7
 10
2364.322793874468
 20
2679.24176328003
 30
0.0
  0
VERTEX
  5
443
  8
0
  6
CONTINUOUS
 62
     7
 10
2364.319987783491
 20
2679.236797058459
 30
0.0
  0
VERTEX
  5
444
  8
0
  6
CONTINUOUS
 62
     7
 10
2364.317041234056
 20
2679.231907698313
 30
0.0
  0
VERTEX
  5
445
  8
0
  6
CONTINUOUS
 62
     7
 10
2364.313950763049
 20
2679.227098349351
 30
0.0
  0
VERTEX
  5
446
  8
0
  6
CONTINUOUS
 62
     7
 10
2364.310712907359
 20
2679.222372161338
 30
0.0
  0
VERTEX
  5
447
  8
0
  6
CONTINUOUS
 62
     7
 10
2364.307324203873
 20
2679.217732284033
 30
0.0
  0
VERTEX
  5
448
  8
0
  6
CONTINUOUS
 62
     7
 10
2364.303781189479
 20
2679.213181867202
 30
0.0
  0
VERTEX
  5
449
  8
0
  6
CONTINUOUS
 62
     7
 10
2364.300080402672
 20
2679.208724061481
 30
0.0
  0
VERTEX
  5
44A
  8
0
  6
CONTINUOUS
 62
     7
 10
2364.296219076801
 20
2679.204362396855
 30
0.0
  0
VERTEX
  5
44B
  8
0
  6
CONTINUOUS
 62
     7
 10
2364.292196221941
 20
2679.20010137328
 30
0.0
  0
VERTEX
  5
44C
  8
0
  6
CONTINUOUS
 62
     7
 10
2364.288011128092
 20
2679.195945643532
 30
0.0
  0
VERTEX
  5
44D
  8
0
  6
CONTINUOUS
 62
     7
 10
2364.283663085259
 20
2679.19189986039
 30
0.0
  0
VERTEX
  5
44E
  8
0
  6
CONTINUOUS
 62
     7
 10
2364.279151383442
 20
2679.18796867663
 30
0.0
  0
VERTEX
  5
44F
  8
0
  6
CONTINUOUS
 62
     7
 10
2364.274475312646
 20
2679.184156745031
 30
0.0
  0
VERTEX
  5
450
  8
0
  6
CONTINUOUS
 62
     7
 10
2364.26963416287
 20
2679.18046871837
 30
0.0
  0
VERTEX
  5
451
  8
0
  6
CONTINUOUS
 62
     7
 10
2364.264627224118
 20
2679.176909249425
 30
0.0
  0
VERTEX
  5
452
  8
0
  6
CONTINUOUS
 62
     7
 10
2364.259453786392
 20
2679.173482990973
 30
0.0
  0
VERTEX
  5
453
  8
0
  6
CONTINUOUS
 62
     7
 10
2364.254113139698
 20
2679.1701945958
 30
0.0
  0
VERTEX
  5
454
  8
0
  6
CONTINUOUS
 62
     7
 10
2364.248605797551
 20
2679.167051226081
 30
0.0
  0
VERTEX
  5
455
  8
0
  6
CONTINUOUS
 62
     7
 10
2364.242936939894
 20
2679.16406961474
 30
0.0
  0
VERTEX
  5
456
  8
0
  6
CONTINUOUS
 62
     7
 10
2364.237112859008
 20
2679.16126877608
 30
0.0
  0
VERTEX
  5
457
  8
0
  6
CONTINUOUS
 62
     7
 10
2364.231139847176
 20
2679.158667724406
 30
0.0
  0
VERTEX
  5
458
  8
0
  6
CONTINUOUS
 62
     7
 10
2364.225024196677
 20
2679.156285474018
 30
0.0
  0
VERTEX
  5
459
  8
0
  6
CONTINUOUS
 62
     7
 10
2364.21877219979
 20
2679.15414103922
 30
0.0
  0
VERTEX
  5
45A
  8
0
  6
CONTINUOUS
 62
     7
 10
2364.212390148798
 20
2679.152253434313
 30
0.0
  0
VERTEX
  5
45B
  8
0
  6
CONTINUOUS
 62
     7
 10
2364.205884568066
 20
2679.150640320859
 30
0.0
  0
VERTEX
  5
45C
  8
0
  6
CONTINUOUS
 62
     7
 10
2364.199266794994
 20
2679.149291307039
 30
0.0
  0
VERTEX
  5
45D
  8
0
  6
CONTINUOUS
 62
     7
 10
2364.19255270528
 20
2679.148169549011
 30
0.0
  0
VERTEX
  5
45E
  8
0
  6
CONTINUOUS
 62
     7
 10
2364.185758351696
 20
2679.147237170807
 30
0.0
  0
VERTEX
  5
45F
  8
0
  6
CONTINUOUS
 62
     7
 10
2364.178899787018
 20
2679.146456296466
 30
0.0
  0
VERTEX
  5
460
  8
0
  6
CONTINUOUS
 62
     7
 10
2364.171993064017
 20
2679.14578905002
 30
0.0
  0
VERTEX
  5
461
  8
0
  6
CONTINUOUS
 62
     7
 10
2364.165054235468
 20
2679.145197555505
 30
0.0
  0
VERTEX
  5
462
  8
0
  6
CONTINUOUS
 62
     7
 10
2364.158099354146
 20
2679.144643936955
 30
0.0
  0
SEQEND
  5
52C
  8
0
  6
CONTINUOUS
 62
     7
  0
LINE
  5
1A0
  8
0
  6
CONTINUOUS
 62
     7
 10
2364.158099354146
 20
2679.144643936955
 30
0.0
 11
2364.158099354146
 21
2679.56141245883
 31
0.0
  0
LINE
  5
1A1
  8
0
  6
CONTINUOUS
 62
     7
 10
2364.158099354146
 20
2679.144643936955
 30
0.0
 11
2363.358099354145
 21
2679.144643936955
 31
0.0
  0
LINE
  5
1A2
  8
0
  6
CONTINUOUS
 62
     7
 10
2363.358099354145
 20
2679.56141245883
 30
0.0
 11
2363.358099354145
 21
2679.144643936955
 31
0.0
  0
LINE
  5
1A3
  8
0
  6
CONTINUOUS
 62
     7
 10
2364.158099354146
 20
2680.724018582604
 30
0.0
 11
2364.158099354146
 21
2681.565207201239
 31
0.0
  0
ARC
  5
1A4
  8
0
  6
CONTINUOUS
 62
     7
 10
2364.158474619677
 20
2681.365582464103
 30
0.0
 40
0.1996250898582723
 50
0.1081141022436005
 51
90.10770762237532
  0
LINE
  5
1A5
  8
0
  6
CONTINUOUS
 62
     7
 10
2364.358099354145
 20
2681.365959145854
 30
0.0
 11
2364.358099354145
 21
2680.52477052722
 31
0.0
  0
LINE
  5
1A6
  8
0
  6
CONTINUOUS
 62
     7
 10
2364.158099354146
 20
2681.565207201239
 30
0.0
 11
2363.358099354145
 21
2681.565207201239
 31
0.0
  0
LINE
  5
1A7
  8
0
  6
CONTINUOUS
 62
     7
 10
2363.358099354145
 20
2681.565207201239
 30
0.0
 11
2363.358099354145
 21
2680.724018582604
 31
0.0
  0
LINE
  5
1A8
  8
0
  6
CONTINUOUS
 62
     7
 10
2364.158099354146
 20
2681.565207201239
 30
0.0
 11
2364.158099354146
 21
2682.561447478164
 31
0.0
  0
LINE
  5
1A9
  8
0
  6
CONTINUOUS
 62
     7
 10
2364.158099354146
 20
2682.561447478164
 30
0.0
 11
2364.358099354145
 21
2682.561447478164
 31
0.0
  0
LINE
  5
1AA
  8
0
  6
CONTINUOUS
 62
     7
 10
2364.358099354145
 20
2682.561447478164
 30
0.0
 11
2364.358099354145
 21
2681.365959145854
 31
0.0
  0
LINE
  5
1AB
  8
0
  6
CONTINUOUS
 62
     7
 10
2363.358099354145
 20
2682.561447478164
 30
0.0
 11
2364.158099354146
 21
2682.561447478164
 31
0.0
  0
LINE
  5
1AC
  8
0
  6
CONTINUOUS
 62
     7
 10
2363.358099354145
 20
2682.561447478164
 30
0.0
 11
2363.358099354145
 21
2681.565207201239
 31
0.0
  0
LINE
  5
1AD
  8
0
  6
CONTINUOUS
 62
     7
 10
2364.158099354146
 20
2692.944633708183
 30
0.0
 11
2364.158099354146
 21
2693.944633708183
 31
0.0
  0
ARC
  5
1AE
  8
0
  6
CONTINUOUS
 62
     7
 10
2364.158099354146
 20
2693.744633708183
 30
0.0
 40
0.2000000000002728
 50
0.0
 51
90.0
  0
LINE
  5
1AF
  8
0
  6
CONTINUOUS
 62
     7
 10
2364.158099354146
 20
2692.944633708183
 30
0.0
 11
2364.358099354145
 21
2692.944633708183
 31
0.0
  0
LINE
  5
1B0
  8
0
  6
CONTINUOUS
 62
     7
 10
2364.358099354145
 20
2693.744633708183
 30
0.0
 11
2364.358099354145
 21
2692.944633708183
 31
0.0
  0
LINE
  5
1B1
  8
0
  6
CONTINUOUS
 62
     7
 10
2364.158099354146
 20
2692.944633708183
 30
0.0
 11
2363.358099354145
 21
2692.944633708183
 31
0.0
  0
LINE
  5
1B2
  8
0
  6
CONTINUOUS
 62
     7
 10
2364.158099354146
 20
2682.561447478164
 30
0.0
 11
2364.158099354146
 21
2692.944633708183
 31
0.0
  0
LINE
  5
1B3
  8
0
  6
CONTINUOUS
 62
     7
 10
2363.358099354145
 20
2692.944633708183
 30
0.0
 11
2363.358099354145
 21
2682.561447478164
 31
0.0
  0
LINE
  5
1B4
  8
0
  6
CONTINUOUS
 62
     7
 10
2363.358099354145
 20
2692.944633708183
 30
0.0
 11
2363.358099354145
 21
2693.944633708183
 31
0.0
  0
LINE
  5
1B5
  8
0
  6
CONTINUOUS
 62
     7
 10
2364.358099354145
 20
2692.944633708183
 30
0.0
 11
2364.358099354145
 21
2682.561447478164
 31
0.0
  0
LINE
  5
1B6
  8
0
  6
CONTINUOUS
 62
     7
 10
2065.858099354145
 20
2680.52477052722
 30
0.0
 11
2065.858099354145
 21
2679.5946856282
 31
0.0
  0
ARC
  5
1B7
  8
0
  6
CONTINUOUS
 62
     7
 10
2065.706715474395
 20
2679.886909790613
 30
0.0
 40
0.3291079460390705
 50
261.5051279080918
 51
297.3859751207976
  0
LINE
  5
1B8
  8
0
  6
CONTINUOUS
 62
     7
 10
2065.658099354145
 20
2679.56141245883
 30
0.0
 11
2065.658099354145
 21
2680.724018582604
 31
0.0
  0
ARC
  5
1B9
  8
0
  6
CONTINUOUS
 62
     7
 10
2065.658474619676
 20
2680.524393845468
 30
0.0
 40
0.1996250898584911
 50
0.1081141022433542
 51
90.10770762237532
  0
LINE
  5
1BA
  8
0
  6
CONTINUOUS
 62
     7
 10
2065.658099354145
 20
2680.724018582604
 30
0.0
 11
2064.858099354145
 21
2680.724018582604
 31
0.0
  0
LINE
  5
1BB
  8
0
  6
CONTINUOUS
 62
     7
 10
2065.658099354145
 20
2679.56141245883
 30
0.0
 11
2064.858099354145
 21
2679.56141245883
 31
0.0
  0
LINE
  5
1BC
  8
0
  6
CONTINUOUS
 62
     7
 10
2064.858099354145
 20
2680.724018582604
 30
0.0
 11
2064.858099354145
 21
2679.56141245883
 31
0.0
  0
LINE
  5
1BD
  8
0
  6
CONTINUOUS
 62
     7
 10
2065.658099354145
 20
2679.144643936955
 30
0.0
 11
2065.658099354145
 21
2679.56141245883
 31
0.0
  0
LINE
  5
1BE
  8
0
  6
CONTINUOUS
 62
     7
 10
2065.658099354145
 20
2679.144643936955
 30
0.0
 11
2064.858099354145
 21
2679.144643936955
 31
0.0
  0
LINE
  5
1BF
  8
0
  6
CONTINUOUS
 62
     7
 10
2064.858099354145
 20
2679.56141245883
 30
0.0
 11
2064.858099354145
 21
2679.144643936955
 31
0.0
  0
LINE
  5
1C0
  8
0
  6
CONTINUOUS
 62
     7
 10
2065.858099354145
 20
2679.5946856282
 30
0.0
 11
2065.858099354145
 21
2679.427422024725
 31
0.0
  0
POLYLINE
  5
1C1
  8
0
  6
CONTINUOUS
 62
     7
 66
     1
 10
0.0
 20
0.0
 30
0.0
  0
VERTEX
  5
463
  8
0
  6
CONTINUOUS
 62
     7
 10
2065.858099354145
 20
2679.427422024725
 30
0.0
  0
VERTEX
  5
464
  8
0
  6
CONTINUOUS
 62
     7
 10
2065.858081917383
 20
2679.421070564811
 30
0.0
  0
VERTEX
  5
465
  8
0
  6
CONTINUOUS
 62
     7
 10
2065.858026119619
 20
2679.414742503485
 30
0.0
  0
VERTEX
  5
466
  8
0
  6
CONTINUOUS
 62
     7
 10
2065.85792751803
 20
2679.408439824917
 30
0.0
  0
VERTEX
  5
467
  8
0
  6
CONTINUOUS
 62
     7
 10
2065.857783081821
 20
2679.402163621783
 30
0.0
  0
VERTEX
  5
468
  8
0
  6
CONTINUOUS
 62
     7
 10
2065.857589780197
 20
2679.395914986757
 30
0.0
  0
VERTEX
  5
469
  8
0
  6
CONTINUOUS
 62
     7
 10
2065.857344582367
 20
2679.389695012519
 30
0.0
  0
VERTEX
  5
46A
  8
0
  6
CONTINUOUS
 62
     7
 10
2065.857044457536
 20
2679.383504791743
 30
0.0
  0
VERTEX
  5
46B
  8
0
  6
CONTINUOUS
 62
     7
 10
2065.856686374911
 20
2679.377345417108
 30
0.0
  0
VERTEX
  5
46C
  8
0
  6
CONTINUOUS
 62
     7
 10
2065.856267303696
 20
2679.371217981289
 30
0.0
  0
VERTEX
  5
46D
  8
0
  6
CONTINUOUS
 62
     7
 10
2065.855784213098
 20
2679.365123576961
 30
0.0
  0
VERTEX
  5
46E
  8
0
  6
CONTINUOUS
 62
     7
 10
2065.855234072324
 20
2679.359063296803
 30
0.0
  0
VERTEX
  5
46F
  8
0
  6
CONTINUOUS
 62
     7
 10
2065.85461385058
 20
2679.353038233489
 30
0.0
  0
VERTEX
  5
470
  8
0
  6
CONTINUOUS
 62
     7
 10
2065.853920517073
 20
2679.347049479697
 30
0.0
  0
VERTEX
  5
471
  8
0
  6
CONTINUOUS
 62
     7
 10
2065.853151041007
 20
2679.341098128104
 30
0.0
  0
VERTEX
  5
472
  8
0
  6
CONTINUOUS
 62
     7
 10
2065.85230239159
 20
2679.335185271385
 30
0.0
  0
VERTEX
  5
473
  8
0
  6
CONTINUOUS
 62
     7
 10
2065.851371538027
 20
2679.329312002219
 30
0.0
  0
VERTEX
  5
474
  8
0
  6
CONTINUOUS
 62
     7
 10
2065.850355449526
 20
2679.323479413279
 30
0.0
  0
VERTEX
  5
475
  8
0
  6
CONTINUOUS
 62
     7
 10
2065.84925109529
 20
2679.317688597243
 30
0.0
  0
VERTEX
  5
476
  8
0
  6
CONTINUOUS
 62
     7
 10
2065.848055444529
 20
2679.311940646788
 30
0.0
  0
VERTEX
  5
477
  8
0
  6
CONTINUOUS
 62
     7
 10
2065.846765466446
 20
2679.30623665459
 30
0.0
  0
VERTEX
  5
478
  8
0
  6
CONTINUOUS
 62
     7
 10
2065.845378130249
 20
2679.300577713325
 30
0.0
  0
VERTEX
  5
479
  8
0
  6
CONTINUOUS
 62
     7
 10
2065.843890405145
 20
2679.294964915671
 30
0.0
  0
VERTEX
  5
47A
  8
0
  6
CONTINUOUS
 62
     7
 10
2065.842299260337
 20
2679.289399354302
 30
0.0
  0
VERTEX
  5
47B
  8
0
  6
CONTINUOUS
 62
     7
 10
2065.840601665034
 20
2679.283882121897
 30
0.0
  0
VERTEX
  5
47C
  8
0
  6
CONTINUOUS
 62
     7
 10
2065.838794575885
 20
2679.278414370878
 30
0.0
  0
VERTEX
  5
47D
  8
0
  6
CONTINUOUS
 62
     7
 10
2065.836874726976
 20
2679.272998312678
 30
0.0
  0
VERTEX
  5
47E
  8
0
  6
CONTINUOUS
 62
     7
 10
2065.834838661396
 20
2679.267637067568
 30
0.0
  0
VERTEX
  5
47F
  8
0
  6
CONTINUOUS
 62
     7
 10
2065.83268291603
 20
2679.262333785309
 30
0.0
  0
VERTEX
  5
480
  8
0
  6
CONTINUOUS
 62
     7
 10
2065.830404027766
 20
2679.257091615664
 30
0.0
  0
VERTEX
  5
481
  8
0
  6
CONTINUOUS
 62
     7
 10
2065.827998533492
 20
2679.251913708395
 30
0.0
  0
VERTEX
  5
482
  8
0
  6
CONTINUOUS
 62
     7
 10
2065.825462970097
 20
2679.246803213262
 30
0.0
  0
VERTEX
  5
483
  8
0
  6
CONTINUOUS
 62
     7
 10
2065.822793874468
 20
2679.24176328003
 30
0.0
  0
VERTEX
  5
484
  8
0
  6
CONTINUOUS
 62
     7
 10
2065.819987783491
 20
2679.236797058459
 30
0.0
  0
VERTEX
  5
485
  8
0
  6
CONTINUOUS
 62
     7
 10
2065.817041234056
 20
2679.231907698313
 30
0.0
  0
VERTEX
  5
486
  8
0
  6
CONTINUOUS
 62
     7
 10
2065.813950763049
 20
2679.227098349351
 30
0.0
  0
VERTEX
  5
487
  8
0
  6
CONTINUOUS
 62
     7
 10
2065.810712907359
 20
2679.222372161338
 30
0.0
  0
VERTEX
  5
488
  8
0
  6
CONTINUOUS
 62
     7
 10
2065.807324203873
 20
2679.217732284033
 30
0.0
  0
VERTEX
  5
489
  8
0
  6
CONTINUOUS
 62
     7
 10
2065.803781189479
 20
2679.213181867202
 30
0.0
  0
VERTEX
  5
48A
  8
0
  6
CONTINUOUS
 62
     7
 10
2065.800080402672
 20
2679.208724061481
 30
0.0
  0
VERTEX
  5
48B
  8
0
  6
CONTINUOUS
 62
     7
 10
2065.796219076801
 20
2679.204362396855
 30
0.0
  0
VERTEX
  5
48C
  8
0
  6
CONTINUOUS
 62
     7
 10
2065.79219622194
 20
2679.20010137328
 30
0.0
  0
VERTEX
  5
48D
  8
0
  6
CONTINUOUS
 62
     7
 10
2065.788011128092
 20
2679.195945643532
 30
0.0
  0
VERTEX
  5
48E
  8
0
  6
CONTINUOUS
 62
     7
 10
2065.783663085259
 20
2679.19189986039
 30
0.0
  0
VERTEX
  5
48F
  8
0
  6
CONTINUOUS
 62
     7
 10
2065.779151383443
 20
2679.18796867663
 30
0.0
  0
VERTEX
  5
490
  8
0
  6
CONTINUOUS
 62
     7
 10
2065.774475312646
 20
2679.184156745031
 30
0.0
  0
VERTEX
  5
491
  8
0
  6
CONTINUOUS
 62
     7
 10
2065.76963416287
 20
2679.18046871837
 30
0.0
  0
VERTEX
  5
492
  8
0
  6
CONTINUOUS
 62
     7
 10
2065.764627224118
 20
2679.176909249425
 30
0.0
  0
VERTEX
  5
493
  8
0
  6
CONTINUOUS
 62
     7
 10
2065.759453786392
 20
2679.173482990973
 30
0.0
  0
VERTEX
  5
494
  8
0
  6
CONTINUOUS
 62
     7
 10
2065.754113139698
 20
2679.1701945958
 30
0.0
  0
VERTEX
  5
495
  8
0
  6
CONTINUOUS
 62
     7
 10
2065.74860579755
 20
2679.167051226081
 30
0.0
  0
VERTEX
  5
496
  8
0
  6
CONTINUOUS
 62
     7
 10
2065.742936939893
 20
2679.16406961474
 30
0.0
  0
VERTEX
  5
497
  8
0
  6
CONTINUOUS
 62
     7
 10
2065.737112859008
 20
2679.16126877608
 30
0.0
  0
VERTEX
  5
498
  8
0
  6
CONTINUOUS
 62
     7
 10
2065.731139847176
 20
2679.158667724406
 30
0.0
  0
VERTEX
  5
499
  8
0
  6
CONTINUOUS
 62
     7
 10
2065.725024196677
 20
2679.156285474018
 30
0.0
  0
VERTEX
  5
49A
  8
0
  6
CONTINUOUS
 62
     7
 10
2065.71877219979
 20
2679.15414103922
 30
0.0
  0
VERTEX
  5
49B
  8
0
  6
CONTINUOUS
 62
     7
 10
2065.712390148798
 20
2679.152253434313
 30
0.0
  0
VERTEX
  5
49C
  8
0
  6
CONTINUOUS
 62
     7
 10
2065.705884568066
 20
2679.150640320859
 30
0.0
  0
VERTEX
  5
49D
  8
0
  6
CONTINUOUS
 62
     7
 10
2065.699266794994
 20
2679.149291307039
 30
0.0
  0
VERTEX
  5
49E
  8
0
  6
CONTINUOUS
 62
     7
 10
2065.69255270528
 20
2679.148169549011
 30
0.0
  0
VERTEX
  5
49F
  8
0
  6
CONTINUOUS
 62
     7
 10
2065.685758351697
 20
2679.147237170807
 30
0.0
  0
VERTEX
  5
4A0
  8
0
  6
CONTINUOUS
 62
     7
 10
2065.678899787018
 20
2679.146456296466
 30
0.0
  0
VERTEX
  5
4A1
  8
0
  6
CONTINUOUS
 62
     7
 10
2065.671993064017
 20
2679.14578905002
 30
0.0
  0
VERTEX
  5
4A2
  8
0
  6
CONTINUOUS
 62
     7
 10
2065.665054235467
 20
2679.145197555505
 30
0.0
  0
VERTEX
  5
4A3
  8
0
  6
CONTINUOUS
 62
     7
 10
2065.658099354145
 20
2679.144643936955
 30
0.0
  0
SEQEND
  5
52D
  8
0
  6
CONTINUOUS
 62
     7
  0
LINE
  5
1C2
  8
0
  6
CONTINUOUS
 62
     7
 10
2065.658099354145
 20
2680.724018582604
 30
0.0
 11
2065.658099354145
 21
2681.565207201239
 31
0.0
  0
ARC
  5
1C3
  8
0
  6
CONTINUOUS
 62
     7
 10
2065.658474619677
 20
2681.365582464103
 30
0.0
 40
0.199625089858274
 50
0.1081141022438468
 51
90.10770762263637
  0
LINE
  5
1C4
  8
0
  6
CONTINUOUS
 62
     7
 10
2065.858099354145
 20
2681.365959145854
 30
0.0
 11
2065.858099354145
 21
2680.52477052722
 31
0.0
  0
LINE
  5
1C5
  8
0
  6
CONTINUOUS
 62
     7
 10
2065.658099354145
 20
2681.565207201239
 30
0.0
 11
2064.858099354145
 21
2681.565207201239
 31
0.0
  0
LINE
  5
1C6
  8
0
  6
CONTINUOUS
 62
     7
 10
2064.858099354145
 20
2681.565207201239
 30
0.0
 11
2064.858099354145
 21
2680.724018582604
 31
0.0
  0
LINE
  5
1C7
  8
0
  6
CONTINUOUS
 62
     7
 10
2065.658099354145
 20
2681.565207201239
 30
0.0
 11
2065.658099354145
 21
2682.561447478164
 31
0.0
  0
LINE
  5
1C8
  8
0
  6
CONTINUOUS
 62
     7
 10
2065.658099354145
 20
2682.561447478164
 30
0.0
 11
2065.858099354145
 21
2682.561447478164
 31
0.0
  0
LINE
  5
1C9
  8
0
  6
CONTINUOUS
 62
     7
 10
2065.858099354145
 20
2682.561447478164
 30
0.0
 11
2065.858099354145
 21
2681.365959145854
 31
0.0
  0
LINE
  5
1CA
  8
0
  6
CONTINUOUS
 62
     7
 10
2064.858099354145
 20
2682.561447478164
 30
0.0
 11
2065.658099354145
 21
2682.561447478164
 31
0.0
  0
LINE
  5
1CB
  8
0
  6
CONTINUOUS
 62
     7
 10
2064.858099354145
 20
2682.561447478164
 30
0.0
 11
2064.858099354145
 21
2681.565207201239
 31
0.0
  0
LINE
  5
1CC
  8
0
  6
CONTINUOUS
 62
     7
 10
2065.658099354145
 20
2692.944633708183
 30
0.0
 11
2064.858099354145
 21
2692.944633708183
 31
0.0
  0
LINE
  5
1CD
  8
0
  6
CONTINUOUS
 62
     7
 10
2065.658099354145
 20
2682.561447478164
 30
0.0
 11
2065.658099354145
 21
2692.944633708183
 31
0.0
  0
LINE
  5
1CE
  8
0
  6
CONTINUOUS
 62
     7
 10
2064.858099354145
 20
2692.944633708183
 30
0.0
 11
2064.858099354145
 21
2682.561447478164
 31
0.0
  0
LINE
  5
1CF
  8
0
  6
CONTINUOUS
 62
     7
 10
2065.658099354145
 20
2692.944633708183
 30
0.0
 11
2065.858099354145
 21
2692.944633708183
 31
0.0
  0
LINE
  5
1D0
  8
0
  6
CONTINUOUS
 62
     7
 10
2065.858099354145
 20
2692.944633708183
 30
0.0
 11
2065.858099354145
 21
2682.561447478164
 31
0.0
  0
LINE
  5
1D1
  8
0
  6
CONTINUOUS
 62
     7
 10
2065.658099354145
 20
2692.944633708183
 30
0.0
 11
2065.658099354145
 21
2693.944633708183
 31
0.0
  0
ARC
  5
1D2
  8
0
  6
CONTINUOUS
 62
     7
 10
2065.658099354145
 20
2693.744633708183
 30
0.0
 40
0.2000000000002728
 50
0.0
 51
90.0
  0
LINE
  5
1D3
  8
0
  6
CONTINUOUS
 62
     7
 10
2065.858099354145
 20
2693.744633708183
 30
0.0
 11
2065.858099354145
 21
2692.944633708183
 31
0.0
  0
LINE
  5
1D4
  8
0
  6
CONTINUOUS
 62
     7
 10
2064.858099354145
 20
2692.944633708183
 30
0.0
 11
2064.858099354145
 21
2693.944633708183
 31
0.0
  0
LINE
  5
1D5
  8
0
  6
CONTINUOUS
 62
     7
 10
2064.858099354145
 20
2680.724018582604
 30
0.0
 11
1770.858099354145
 21
2680.724018582605
 31
0.0
  0
LINE
  5
1D6
  8
0
  6
CONTINUOUS
 62
     7
 10
2064.858099354145
 20
2679.56141245883
 30
0.0
 11
1770.858099354145
 21
2679.561412458831
 31
0.0
  0
LINE
  5
1D7
  8
0
  6
CONTINUOUS
 62
     7
 10
1770.858099354145
 20
2679.561412458831
 30
0.0
 11
1770.858099354145
 21
2680.724018582605
 31
0.0
  0
LINE
  5
1D8
  8
0
  6
CONTINUOUS
 62
     7
 10
2064.858099354145
 20
2679.144643936955
 30
0.0
 11
1770.858099354145
 21
2679.144643936955
 31
0.0
  0
LINE
  5
1D9
  8
0
  6
CONTINUOUS
 62
     7
 10
1770.858099354145
 20
2679.144643936955
 30
0.0
 11
1770.858099354145
 21
2679.561412458831
 31
0.0
  0
LINE
  5
1DA
  8
0
  6
CONTINUOUS
 62
     7
 10
2064.858099354145
 20
2681.565207201239
 30
0.0
 11
1770.858099354145
 21
2681.565207201239
 31
0.0
  0
LINE
  5
1DB
  8
0
  6
CONTINUOUS
 62
     7
 10
1770.858099354145
 20
2680.724018582605
 30
0.0
 11
1770.858099354145
 21
2681.565207201239
 31
0.0
  0
LINE
  5
1DC
  8
0
  6
CONTINUOUS
 62
     7
 10
1770.858099354145
 20
2682.561447478164
 30
0.0
 11
2064.858099354145
 21
2682.561447478164
 31
0.0
  0
LINE
  5
1DD
  8
0
  6
CONTINUOUS
 62
     7
 10
1770.858099354145
 20
2681.565207201239
 30
0.0
 11
1770.858099354145
 21
2682.561447478164
 31
0.0
  0
LINE
  5
1DE
  8
0
  6
CONTINUOUS
 62
     7
 10
2064.858099354145
 20
2692.944633708183
 30
0.0
 11
1770.858099354145
 21
2692.944633708184
 31
0.0
  0
LINE
  5
1DF
  8
0
  6
CONTINUOUS
 62
     7
 10
1770.858099354145
 20
2693.944633708184
 30
0.0
 11
1770.858099354145
 21
2692.944633708184
 31
0.0
  0
LINE
  5
1E0
  8
0
  6
CONTINUOUS
 62
     7
 10
1770.858099354145
 20
2682.561447478164
 30
0.0
 11
1770.858099354145
 21
2692.944633708184
 31
0.0
  0
LINE
  5
1E1
  8
0
  6
CONTINUOUS
 62
     7
 10
2363.358099354145
 20
2680.724018582604
 30
0.0
 11
2069.358099354145
 21
2680.724018582605
 31
0.0
  0
LINE
  5
1E2
  8
0
  6
CONTINUOUS
 62
     7
 10
2363.358099354145
 20
2679.56141245883
 30
0.0
 11
2069.358099354145
 21
2679.561412458831
 31
0.0
  0
LINE
  5
1E3
  8
0
  6
CONTINUOUS
 62
     7
 10
2069.358099354145
 20
2679.561412458831
 30
0.0
 11
2069.358099354145
 21
2680.724018582605
 31
0.0
  0
LINE
  5
1E4
  8
0
  6
CONTINUOUS
 62
     7
 10
2363.358099354145
 20
2679.144643936955
 30
0.0
 11
2069.358099354145
 21
2679.144643936955
 31
0.0
  0
LINE
  5
1E5
  8
0
  6
CONTINUOUS
 62
     7
 10
2069.358099354145
 20
2679.144643936955
 30
0.0
 11
2069.358099354145
 21
2679.561412458831
 31
0.0
  0
LINE
  5
1E6
  8
0
  6
CONTINUOUS
 62
     7
 10
2363.358099354145
 20
2681.565207201239
 30
0.0
 11
2069.358099354145
 21
2681.565207201239
 31
0.0
  0
LINE
  5
1E7
  8
0
  6
CONTINUOUS
 62
     7
 10
2069.358099354145
 20
2680.724018582605
 30
0.0
 11
2069.358099354145
 21
2681.565207201239
 31
0.0
  0
LINE
  5
1E8
  8
0
  6
CONTINUOUS
 62
     7
 10
2069.358099354145
 20
2682.561447478164
 30
0.0
 11
2363.358099354145
 21
2682.561447478164
 31
0.0
  0
LINE
  5
1E9
  8
0
  6
CONTINUOUS
 62
     7
 10
2069.358099354145
 20
2681.565207201239
 30
0.0
 11
2069.358099354145
 21
2682.561447478164
 31
0.0
  0
LINE
  5
1EA
  8
0
  6
CONTINUOUS
 62
     7
 10
2363.358099354145
 20
2692.944633708183
 30
0.0
 11
2069.358099354145
 21
2692.944633708184
 31
0.0
  0
LINE
  5
1EB
  8
0
  6
CONTINUOUS
 62
     7
 10
2069.358099354145
 20
2693.944633708184
 30
0.0
 11
2069.358099354145
 21
2692.944633708184
 31
0.0
  0
LINE
  5
1EC
  8
0
  6
CONTINUOUS
 62
     7
 10
2069.358099354145
 20
2682.561447478164
 30
0.0
 11
2069.358099354145
 21
2692.944633708184
 31
0.0
  0
LINE
  5
1ED
  8
0
  6
CONTINUOUS
 62
     7
 10
2068.358099354145
 20
2679.5946856282
 30
0.0
 11
2068.358099354145
 21
2680.52477052722
 31
0.0
  0
ARC
  5
1EE
  8
0
  6
CONTINUOUS
 62
     7
 10
2068.557724088614
 20
2680.524393845469
 30
0.0
 40
0.1996250898580354
 50
89.89229237762443
 51
179.8918858978869
  0
LINE
  5
1EF
  8
0
  6
CONTINUOUS
 62
     7
 10
2068.558099354145
 20
2680.724018582605
 30
0.0
 11
2068.558099354145
 21
2679.561412458831
 31
0.0
  0
ARC
  5
1F0
  8
0
  6
CONTINUOUS
 62
     7
 10
2068.509483233896
 20
2679.886909790619
 30
0.0
 40
0.32910794604432
 50
242.6140248795004
 51
278.4948720915463
  0
LINE
  5
1F1
  8
0
  6
CONTINUOUS
 62
     7
 10
2069.358099354145
 20
2679.561412458831
 30
0.0
 11
2068.558099354145
 21
2679.561412458831
 31
0.0
  0
LINE
  5
1F2
  8
0
  6
CONTINUOUS
 62
     7
 10
2069.358099354145
 20
2680.724018582605
 30
0.0
 11
2068.558099354145
 21
2680.724018582605
 31
0.0
  0
LINE
  5
1F3
  8
0
  6
CONTINUOUS
 62
     7
 10
2068.358099354145
 20
2679.427422024725
 30
0.0
 11
2068.358099354145
 21
2679.5946856282
 31
0.0
  0
LINE
  5
1F4
  8
0
  6
CONTINUOUS
 62
     7
 10
2068.558099354145
 20
2679.561412458831
 30
0.0
 11
2068.558099354145
 21
2679.144643936955
 31
0.0
  0
POLYLINE
  5
1F5
  8
0
  6
CONTINUOUS
 62
     7
 66
     1
 10
0.0
 20
0.0
 30
0.0
  0
VERTEX
  5
4A4
  8
0
  6
CONTINUOUS
 62
     7
 10
2068.358099354145
 20
2679.427422024725
 30
0.0
  0
VERTEX
  5
4A5
  8
0
  6
CONTINUOUS
 62
     7
 10
2068.358116790906
 20
2679.421070564811
 30
0.0
  0
VERTEX
  5
4A6
  8
0
  6
CONTINUOUS
 62
     7
 10
2068.35817258867
 20
2679.414742503485
 30
0.0
  0
VERTEX
  5
4A7
  8
0
  6
CONTINUOUS
 62
     7
 10
2068.35827119026
 20
2679.408439824917
 30
0.0
  0
VERTEX
  5
4A8
  8
0
  6
CONTINUOUS
 62
     7
 10
2068.35841562647
 20
2679.402163621782
 30
0.0
  0
VERTEX
  5
4A9
  8
0
  6
CONTINUOUS
 62
     7
 10
2068.358608928092
 20
2679.395914986758
 30
0.0
  0
VERTEX
  5
4AA
  8
0
  6
CONTINUOUS
 62
     7
 10
2068.358854125922
 20
2679.389695012519
 30
0.0
  0
VERTEX
  5
4AB
  8
0
  6
CONTINUOUS
 62
     7
 10
2068.359154250753
 20
2679.383504791744
 30
0.0
  0
VERTEX
  5
4AC
  8
0
  6
CONTINUOUS
 62
     7
 10
2068.359512333379
 20
2679.377345417108
 30
0.0
  0
VERTEX
  5
4AD
  8
0
  6
CONTINUOUS
 62
     7
 10
2068.359931404595
 20
2679.371217981289
 30
0.0
  0
VERTEX
  5
4AE
  8
0
  6
CONTINUOUS
 62
     7
 10
2068.360414495192
 20
2679.365123576961
 30
0.0
  0
VERTEX
  5
4AF
  8
0
  6
CONTINUOUS
 62
     7
 10
2068.360964635966
 20
2679.359063296803
 30
0.0
  0
VERTEX
  5
4B0
  8
0
  6
CONTINUOUS
 62
     7
 10
2068.36158485771
 20
2679.353038233489
 30
0.0
  0
VERTEX
  5
4B1
  8
0
  6
CONTINUOUS
 62
     7
 10
2068.362278191217
 20
2679.347049479698
 30
0.0
  0
VERTEX
  5
4B2
  8
0
  6
CONTINUOUS
 62
     7
 10
2068.363047667283
 20
2679.341098128105
 30
0.0
  0
VERTEX
  5
4B3
  8
0
  6
CONTINUOUS
 62
     7
 10
2068.3638963167
 20
2679.335185271387
 30
0.0
  0
VERTEX
  5
4B4
  8
0
  6
CONTINUOUS
 62
     7
 10
2068.364827170263
 20
2679.329312002219
 30
0.0
  0
VERTEX
  5
4B5
  8
0
  6
CONTINUOUS
 62
     7
 10
2068.365843258765
 20
2679.32347941328
 30
0.0
  0
VERTEX
  5
4B6
  8
0
  6
CONTINUOUS
 62
     7
 10
2068.366947612999
 20
2679.317688597244
 30
0.0
  0
VERTEX
  5
4B7
  8
0
  6
CONTINUOUS
 62
     7
 10
2068.368143263762
 20
2679.311940646789
 30
0.0
  0
VERTEX
  5
4B8
  8
0
  6
CONTINUOUS
 62
     7
 10
2068.369433241844
 20
2679.306236654591
 30
0.0
  0
VERTEX
  5
4B9
  8
0
  6
CONTINUOUS
 62
     7
 10
2068.370820578042
 20
2679.300577713326
 30
0.0
  0
VERTEX
  5
4BA
  8
0
  6
CONTINUOUS
 62
     7
 10
2068.372308303146
 20
2679.294964915671
 30
0.0
  0
VERTEX
  5
4BB
  8
0
  6
CONTINUOUS
 62
     7
 10
2068.373899447954
 20
2679.289399354303
 30
0.0
  0
VERTEX
  5
4BC
  8
0
  6
CONTINUOUS
 62
     7
 10
2068.375597043257
 20
2679.283882121897
 30
0.0
  0
VERTEX
  5
4BD
  8
0
  6
CONTINUOUS
 62
     7
 10
2068.377404132406
 20
2679.278414370878
 30
0.0
  0
VERTEX
  5
4BE
  8
0
  6
CONTINUOUS
 62
     7
 10
2068.379323981314
 20
2679.272998312679
 30
0.0
  0
VERTEX
  5
4BF
  8
0
  6
CONTINUOUS
 62
     7
 10
2068.381360046895
 20
2679.267637067569
 30
0.0
  0
VERTEX
  5
4C0
  8
0
  6
CONTINUOUS
 62
     7
 10
2068.383515792262
 20
2679.26233378531
 30
0.0
  0
VERTEX
  5
4C1
  8
0
  6
CONTINUOUS
 62
     7
 10
2068.385794680525
 20
2679.257091615665
 30
0.0
  0
VERTEX
  5
4C2
  8
0
  6
CONTINUOUS
 62
     7
 10
2068.388200174798
 20
2679.251913708395
 30
0.0
  0
VERTEX
  5
4C3
  8
0
  6
CONTINUOUS
 62
     7
 10
2068.390735738194
 20
2679.246803213263
 30
0.0
  0
VERTEX
  5
4C4
  8
0
  6
CONTINUOUS
 62
     7
 10
2068.393404833823
 20
2679.24176328003
 30
0.0
  0
VERTEX
  5
4C5
  8
0
  6
CONTINUOUS
 62
     7
 10
2068.3962109248
 20
2679.236797058459
 30
0.0
  0
VERTEX
  5
4C6
  8
0
  6
CONTINUOUS
 62
     7
 10
2068.399157474235
 20
2679.231907698313
 30
0.0
  0
VERTEX
  5
4C7
  8
0
  6
CONTINUOUS
 62
     7
 10
2068.402247945242
 20
2679.227098349351
 30
0.0
  0
VERTEX
  5
4C8
  8
0
  6
CONTINUOUS
 62
     7
 10
2068.405485800932
 20
2679.222372161338
 30
0.0
  0
VERTEX
  5
4C9
  8
0
  6
CONTINUOUS
 62
     7
 10
2068.408874504418
 20
2679.217732284034
 30
0.0
  0
VERTEX
  5
4CA
  8
0
  6
CONTINUOUS
 62
     7
 10
2068.412417518812
 20
2679.213181867203
 30
0.0
  0
VERTEX
  5
4CB
  8
0
  6
CONTINUOUS
 62
     7
 10
2068.416118305619
 20
2679.208724061482
 30
0.0
  0
VERTEX
  5
4CC
  8
0
  6
CONTINUOUS
 62
     7
 10
2068.41997963149
 20
2679.204362396856
 30
0.0
  0
VERTEX
  5
4CD
  8
0
  6
CONTINUOUS
 62
     7
 10
2068.42400248635
 20
2679.20010137328
 30
0.0
  0
VERTEX
  5
4CE
  8
0
  6
CONTINUOUS
 62
     7
 10
2068.428187580198
 20
2679.195945643532
 30
0.0
  0
VERTEX
  5
4CF
  8
0
  6
CONTINUOUS
 62
     7
 10
2068.432535623032
 20
2679.19189986039
 30
0.0
  0
VERTEX
  5
4D0
  8
0
  6
CONTINUOUS
 62
     7
 10
2068.437047324848
 20
2679.187968676631
 30
0.0
  0
VERTEX
  5
4D1
  8
0
  6
CONTINUOUS
 62
     7
 10
2068.441723395645
 20
2679.184156745032
 30
0.0
  0
VERTEX
  5
4D2
  8
0
  6
CONTINUOUS
 62
     7
 10
2068.446564545421
 20
2679.18046871837
 30
0.0
  0
VERTEX
  5
4D3
  8
0
  6
CONTINUOUS
 62
     7
 10
2068.451571484173
 20
2679.176909249425
 30
0.0
  0
VERTEX
  5
4D4
  8
0
  6
CONTINUOUS
 62
     7
 10
2068.456744921899
 20
2679.173482990973
 30
0.0
  0
VERTEX
  5
4D5
  8
0
  6
CONTINUOUS
 62
     7
 10
2068.462085568592
 20
2679.170194595801
 30
0.0
  0
VERTEX
  5
4D6
  8
0
  6
CONTINUOUS
 62
     7
 10
2068.46759291074
 20
2679.16705122608
 30
0.0
  0
VERTEX
  5
4D7
  8
0
  6
CONTINUOUS
 62
     7
 10
2068.473261768397
 20
2679.164069614739
 30
0.0
  0
VERTEX
  5
4D8
  8
0
  6
CONTINUOUS
 62
     7
 10
2068.479085849282
 20
2679.16126877608
 30
0.0
  0
VERTEX
  5
4D9
  8
0
  6
CONTINUOUS
 62
     7
 10
2068.485058861115
 20
2679.158667724406
 30
0.0
  0
VERTEX
  5
4DA
  8
0
  6
CONTINUOUS
 62
     7
 10
2068.491174511614
 20
2679.156285474018
 30
0.0
  0
VERTEX
  5
4DB
  8
0
  6
CONTINUOUS
 62
     7
 10
2068.4974265085
 20
2679.15414103922
 30
0.0
  0
VERTEX
  5
4DC
  8
0
  6
CONTINUOUS
 62
     7
 10
2068.503808559492
 20
2679.152253434313
 30
0.0
  0
VERTEX
  5
4DD
  8
0
  6
CONTINUOUS
 62
     7
 10
2068.510314140225
 20
2679.150640320859
 30
0.0
  0
VERTEX
  5
4DE
  8
0
  6
CONTINUOUS
 62
     7
 10
2068.516931913297
 20
2679.149291307039
 30
0.0
  0
VERTEX
  5
4DF
  8
0
  6
CONTINUOUS
 62
     7
 10
2068.52364600301
 20
2679.14816954901
 30
0.0
  0
VERTEX
  5
4E0
  8
0
  6
CONTINUOUS
 62
     7
 10
2068.530440356594
 20
2679.147237170808
 30
0.0
  0
VERTEX
  5
4E1
  8
0
  6
CONTINUOUS
 62
     7
 10
2068.537298921274
 20
2679.146456296467
 30
0.0
  0
VERTEX
  5
4E2
  8
0
  6
CONTINUOUS
 62
     7
 10
2068.544205644274
 20
2679.145789050021
 30
0.0
  0
VERTEX
  5
4E3
  8
0
  6
CONTINUOUS
 62
     7
 10
2068.551144472823
 20
2679.145197555506
 30
0.0
  0
VERTEX
  5
4E4
  8
0
  6
CONTINUOUS
 62
     7
 10
2068.558099354145
 20
2679.144643936955
 30
0.0
  0
SEQEND
  5
52E
  8
0
  6
CONTINUOUS
 62
     7
  0
LINE
  5
1F6
  8
0
  6
CONTINUOUS
 62
     7
 10
2069.358099354145
 20
2679.144643936955
 30
0.0
 11
2068.558099354145
 21
2679.144643936955
 31
0.0
  0
ARC
  5
1F7
  8
0
  6
CONTINUOUS
 62
     7
 10
2068.557724088614
 20
2681.365582464103
 30
0.0
 40
0.1996250898587271
 50
89.89229237762493
 51
179.8918858976259
  0
LINE
  5
1F8
  8
0
  6
CONTINUOUS
 62
     7
 10
2068.558099354145
 20
2681.565207201239
 30
0.0
 11
2068.558099354145
 21
2680.724018582605
 31
0.0
  0
LINE
  5
1F9
  8
0
  6
CONTINUOUS
 62
     7
 10
2068.358099354145
 20
2680.52477052722
 30
0.0
 11
2068.358099354145
 21
2681.365959145855
 31
0.0
  0
LINE
  5
1FA
  8
0
  6
CONTINUOUS
 62
     7
 10
2069.358099354145
 20
2681.565207201239
 30
0.0
 11
2068.558099354145
 21
2681.565207201239
 31
0.0
  0
LINE
  5
1FB
  8
0
  6
CONTINUOUS
 62
     7
 10
2068.358099354145
 20
2682.561447478164
 30
0.0
 11
2068.558099354145
 21
2682.561447478164
 31
0.0
  0
LINE
  5
1FC
  8
0
  6
CONTINUOUS
 62
     7
 10
2068.558099354145
 20
2682.561447478164
 30
0.0
 11
2068.558099354145
 21
2681.565207201239
 31
0.0
  0
LINE
  5
1FD
  8
0
  6
CONTINUOUS
 62
     7
 10
2068.358099354145
 20
2681.365959145855
 30
0.0
 11
2068.358099354145
 21
2682.561447478164
 31
0.0
  0
LINE
  5
1FE
  8
0
  6
CONTINUOUS
 62
     7
 10
2068.558099354145
 20
2682.561447478164
 30
0.0
 11
2069.358099354145
 21
2682.561447478164
 31
0.0
  0
LINE
  5
1FF
  8
0
  6
CONTINUOUS
 62
     7
 10
2068.358099354145
 20
2692.944633708184
 30
0.0
 11
2068.558099354145
 21
2692.944633708184
 31
0.0
  0
LINE
  5
200
  8
0
  6
CONTINUOUS
 62
     7
 10
2068.558099354145
 20
2692.944633708184
 30
0.0
 11
2068.558099354145
 21
2682.561447478164
 31
0.0
  0
LINE
  5
201
  8
0
  6
CONTINUOUS
 62
     7
 10
2068.358099354145
 20
2682.561447478164
 30
0.0
 11
2068.358099354145
 21
2692.944633708184
 31
0.0
  0
LINE
  5
202
  8
0
  6
CONTINUOUS
 62
     7
 10
2069.358099354145
 20
2692.944633708184
 30
0.0
 11
2068.558099354145
 21
2692.944633708184
 31
0.0
  0
LINE
  5
203
  8
0
  6
CONTINUOUS
 62
     7
 10
2068.558099354145
 20
2693.944633708184
 30
0.0
 11
2068.558099354145
 21
2692.944633708184
 31
0.0
  0
ARC
  5
204
  8
0
  6
CONTINUOUS
 62
     7
 10
2068.558099354145
 20
2693.744633708183
 30
0.0
 40
0.2000000000002728
 50
90.0
 51
180.0
  0
LINE
  5
205
  8
0
  6
CONTINUOUS
 62
     7
 10
2068.358099354145
 20
2692.944633708184
 30
0.0
 11
2068.358099354145
 21
2693.744633708183
 31
0.0
  0
LINE
  5
206
  8
0
  6
CONTINUOUS
 62
     7
 10
1770.858099354145
 20
2679.561412458831
 30
0.0
 11
1770.058099354145
 21
2679.561412458831
 31
0.0
  0
LINE
  5
207
  8
0
  6
CONTINUOUS
 62
     7
 10
1770.058099354145
 20
2680.724018582605
 30
0.0
 11
1770.058099354145
 21
2679.561412458831
 31
0.0
  0
LINE
  5
208
  8
0
  6
CONTINUOUS
 62
     7
 10
1770.858099354145
 20
2680.724018582605
 30
0.0
 11
1770.058099354145
 21
2680.724018582605
 31
0.0
  0
LINE
  5
209
  8
0
  6
CONTINUOUS
 62
     7
 10
1769.858099354145
 20
2679.5946856282
 30
0.0
 11
1769.858099354145
 21
2680.52477052722
 31
0.0
  0
ARC
  5
20A
  8
0
  6
CONTINUOUS
 62
     7
 10
1770.057724088613
 20
2680.52439384547
 30
0.0
 40
0.1996250898575798
 50
89.8922923774284
 51
179.8918858980172
  0
ARC
  5
20B
  8
0
  6
CONTINUOUS
 62
     7
 10
1770.009483233895
 20
2679.886909790618
 30
0.0
 40
0.3291079460430941
 50
242.6140248795682
 51
278.4948720917654
  0
LINE
  5
20C
  8
0
  6
CONTINUOUS
 62
     7
 10
1769.858099354145
 20
2679.427422024725
 30
0.0
 11
1769.858099354145
 21
2679.5946856282
 31
0.0
  0
LINE
  5
20D
  8
0
  6
CONTINUOUS
 62
     7
 10
1770.058099354145
 20
2679.561412458831
 30
0.0
 11
1770.058099354145
 21
2679.144643936955
 31
0.0
  0
POLYLINE
  5
20E
  8
0
  6
CONTINUOUS
 62
     7
 66
     1
 10
0.0
 20
0.0
 30
0.0
  0
VERTEX
  5
4E5
  8
0
  6
CONTINUOUS
 62
     7
 10
1769.858099354145
 20
2679.427422024725
 30
0.0
  0
VERTEX
  5
4E6
  8
0
  6
CONTINUOUS
 62
     7
 10
1769.858116790907
 20
2679.421070564811
 30
0.0
  0
VERTEX
  5
4E7
  8
0
  6
CONTINUOUS
 62
     7
 10
1769.858172588671
 20
2679.414742503486
 30
0.0
  0
VERTEX
  5
4E8
  8
0
  6
CONTINUOUS
 62
     7
 10
1769.85827119026
 20
2679.408439824917
 30
0.0
  0
VERTEX
  5
4E9
  8
0
  6
CONTINUOUS
 62
     7
 10
1769.858415626469
 20
2679.402163621782
 30
0.0
  0
VERTEX
  5
4EA
  8
0
  6
CONTINUOUS
 62
     7
 10
1769.858608928092
 20
2679.395914986757
 30
0.0
  0
VERTEX
  5
4EB
  8
0
  6
CONTINUOUS
 62
     7
 10
1769.858854125922
 20
2679.389695012519
 30
0.0
  0
VERTEX
  5
4EC
  8
0
  6
CONTINUOUS
 62
     7
 10
1769.859154250754
 20
2679.383504791744
 30
0.0
  0
VERTEX
  5
4ED
  8
0
  6
CONTINUOUS
 62
     7
 10
1769.859512333379
 20
2679.377345417108
 30
0.0
  0
VERTEX
  5
4EE
  8
0
  6
CONTINUOUS
 62
     7
 10
1769.859931404594
 20
2679.371217981288
 30
0.0
  0
VERTEX
  5
4EF
  8
0
  6
CONTINUOUS
 62
     7
 10
1769.860414495191
 20
2679.365123576961
 30
0.0
  0
VERTEX
  5
4F0
  8
0
  6
CONTINUOUS
 62
     7
 10
1769.860964635965
 20
2679.359063296803
 30
0.0
  0
VERTEX
  5
4F1
  8
0
  6
CONTINUOUS
 62
     7
 10
1769.861584857709
 20
2679.35303823349
 30
0.0
  0
VERTEX
  5
4F2
  8
0
  6
CONTINUOUS
 62
     7
 10
1769.862278191217
 20
2679.347049479698
 30
0.0
  0
VERTEX
  5
4F3
  8
0
  6
CONTINUOUS
 62
     7
 10
1769.863047667283
 20
2679.341098128105
 30
0.0
  0
VERTEX
  5
4F4
  8
0
  6
CONTINUOUS
 62
     7
 10
1769.8638963167
 20
2679.335185271386
 30
0.0
  0
VERTEX
  5
4F5
  8
0
  6
CONTINUOUS
 62
     7
 10
1769.864827170263
 20
2679.329312002219
 30
0.0
  0
VERTEX
  5
4F6
  8
0
  6
CONTINUOUS
 62
     7
 10
1769.865843258765
 20
2679.323479413279
 30
0.0
  0
VERTEX
  5
4F7
  8
0
  6
CONTINUOUS
 62
     7
 10
1769.866947613
 20
2679.317688597243
 30
0.0
  0
VERTEX
  5
4F8
  8
0
  6
CONTINUOUS
 62
     7
 10
1769.868143263761
 20
2679.311940646788
 30
0.0
  0
VERTEX
  5
4F9
  8
0
  6
CONTINUOUS
 62
     7
 10
1769.869433241844
 20
2679.306236654591
 30
0.0
  0
VERTEX
  5
4FA
  8
0
  6
CONTINUOUS
 62
     7
 10
1769.870820578041
 20
2679.300577713326
 30
0.0
  0
VERTEX
  5
4FB
  8
0
  6
CONTINUOUS
 62
     7
 10
1769.872308303146
 20
2679.294964915671
 30
0.0
  0
VERTEX
  5
4FC
  8
0
  6
CONTINUOUS
 62
     7
 10
1769.873899447953
 20
2679.289399354303
 30
0.0
  0
VERTEX
  5
4FD
  8
0
  6
CONTINUOUS
 62
     7
 10
1769.875597043256
 20
2679.283882121897
 30
0.0
  0
VERTEX
  5
4FE
  8
0
  6
CONTINUOUS
 62
     7
 10
1769.877404132406
 20
2679.278414370878
 30
0.0
  0
VERTEX
  5
4FF
  8
0
  6
CONTINUOUS
 62
     7
 10
1769.879323981314
 20
2679.272998312679
 30
0.0
  0
VERTEX
  5
500
  8
0
  6
CONTINUOUS
 62
     7
 10
1769.881360046895
 20
2679.267637067568
 30
0.0
  0
VERTEX
  5
501
  8
0
  6
CONTINUOUS
 62
     7
 10
1769.883515792261
 20
2679.262333785309
 30
0.0
  0
VERTEX
  5
502
  8
0
  6
CONTINUOUS
 62
     7
 10
1769.885794680525
 20
2679.257091615665
 30
0.0
  0
VERTEX
  5
503
  8
0
  6
CONTINUOUS
 62
     7
 10
1769.888200174798
 20
2679.251913708395
 30
0.0
  0
VERTEX
  5
504
  8
0
  6
CONTINUOUS
 62
     7
 10
1769.890735738193
 20
2679.246803213263
 30
0.0
  0
VERTEX
  5
505
  8
0
  6
CONTINUOUS
 62
     7
 10
1769.893404833823
 20
2679.241763280031
 30
0.0
  0
VERTEX
  5
506
  8
0
  6
CONTINUOUS
 62
     7
 10
1769.8962109248
 20
2679.23679705846
 30
0.0
  0
VERTEX
  5
507
  8
0
  6
CONTINUOUS
 62
     7
 10
1769.899157474235
 20
2679.231907698312
 30
0.0
  0
VERTEX
  5
508
  8
0
  6
CONTINUOUS
 62
     7
 10
1769.902247945241
 20
2679.227098349351
 30
0.0
  0
VERTEX
  5
509
  8
0
  6
CONTINUOUS
 62
     7
 10
1769.905485800932
 20
2679.222372161338
 30
0.0
  0
VERTEX
  5
50A
  8
0
  6
CONTINUOUS
 62
     7
 10
1769.908874504418
 20
2679.217732284034
 30
0.0
  0
VERTEX
  5
50B
  8
0
  6
CONTINUOUS
 62
     7
 10
1769.912417518812
 20
2679.213181867202
 30
0.0
  0
VERTEX
  5
50C
  8
0
  6
CONTINUOUS
 62
     7
 10
1769.916118305619
 20
2679.208724061481
 30
0.0
  0
VERTEX
  5
50D
  8
0
  6
CONTINUOUS
 62
     7
 10
1769.91997963149
 20
2679.204362396855
 30
0.0
  0
VERTEX
  5
50E
  8
0
  6
CONTINUOUS
 62
     7
 10
1769.92400248635
 20
2679.20010137328
 30
0.0
  0
VERTEX
  5
50F
  8
0
  6
CONTINUOUS
 62
     7
 10
1769.928187580198
 20
2679.195945643532
 30
0.0
  0
VERTEX
  5
510
  8
0
  6
CONTINUOUS
 62
     7
 10
1769.932535623032
 20
2679.19189986039
 30
0.0
  0
VERTEX
  5
511
  8
0
  6
CONTINUOUS
 62
     7
 10
1769.937047324848
 20
2679.187968676631
 30
0.0
  0
VERTEX
  5
512
  8
0
  6
CONTINUOUS
 62
     7
 10
1769.941723395645
 20
2679.184156745031
 30
0.0
  0
VERTEX
  5
513
  8
0
  6
CONTINUOUS
 62
     7
 10
1769.946564545421
 20
2679.180468718371
 30
0.0
  0
VERTEX
  5
514
  8
0
  6
CONTINUOUS
 62
     7
 10
1769.951571484173
 20
2679.176909249426
 30
0.0
  0
VERTEX
  5
515
  8
0
  6
CONTINUOUS
 62
     7
 10
1769.956744921899
 20
2679.173482990973
 30
0.0
  0
VERTEX
  5
516
  8
0
  6
CONTINUOUS
 62
     7
 10
1769.962085568592
 20
2679.170194595801
 30
0.0
  0
VERTEX
  5
517
  8
0
  6
CONTINUOUS
 62
     7
 10
1769.96759291074
 20
2679.16705122608
 30
0.0
  0
VERTEX
  5
518
  8
0
  6
CONTINUOUS
 62
     7
 10
1769.973261768398
 20
2679.16406961474
 30
0.0
  0
VERTEX
  5
519
  8
0
  6
CONTINUOUS
 62
     7
 10
1769.979085849282
 20
2679.161268776081
 30
0.0
  0
VERTEX
  5
51A
  8
0
  6
CONTINUOUS
 62
     7
 10
1769.985058861115
 20
2679.158667724406
 30
0.0
  0
VERTEX
  5
51B
  8
0
  6
CONTINUOUS
 62
     7
 10
1769.991174511614
 20
2679.156285474019
 30
0.0
  0
VERTEX
  5
51C
  8
0
  6
CONTINUOUS
 62
     7
 10
1769.997426508501
 20
2679.15414103922
 30
0.0
  0
VERTEX
  5
51D
  8
0
  6
CONTINUOUS
 62
     7
 10
1770.003808559493
 20
2679.152253434313
 30
0.0
  0
VERTEX
  5
51E
  8
0
  6
CONTINUOUS
 62
     7
 10
1770.010314140225
 20
2679.15064032086
 30
0.0
  0
VERTEX
  5
51F
  8
0
  6
CONTINUOUS
 62
     7
 10
1770.016931913296
 20
2679.149291307039
 30
0.0
  0
VERTEX
  5
520
  8
0
  6
CONTINUOUS
 62
     7
 10
1770.02364600301
 20
2679.14816954901
 30
0.0
  0
VERTEX
  5
521
  8
0
  6
CONTINUOUS
 62
     7
 10
1770.030440356594
 20
2679.147237170808
 30
0.0
  0
VERTEX
  5
522
  8
0
  6
CONTINUOUS
 62
     7
 10
1770.037298921274
 20
2679.146456296467
 30
0.0
  0
VERTEX
  5
523
  8
0
  6
CONTINUOUS
 62
     7
 10
1770.044205644274
 20
2679.145789050021
 30
0.0
  0
VERTEX
  5
524
  8
0
  6
CONTINUOUS
 62
     7
 10
1770.051144472823
 20
2679.145197555506
 30
0.0
  0
VERTEX
  5
525
  8
0
  6
CONTINUOUS
 62
     7
 10
1770.058099354145
 20
2679.144643936955
 30
0.0
  0
SEQEND
  5
52F
  8
0
  6
CONTINUOUS
 62
     7
  0
LINE
  5
20F
  8
0
  6
CONTINUOUS
 62
     7
 10
1770.858099354145
 20
2679.144643936955
 30
0.0
 11
1770.058099354145
 21
2679.144643936955
 31
0.0
  0
ARC
  5
210
  8
0
  6
CONTINUOUS
 62
     7
 10
1770.057724088613
 20
2681.365582464104
 30
0.0
 40
0.1996250898582736
 50
89.8922923774289
 51
179.8918858977562
  0
LINE
  5
211
  8
0
  6
CONTINUOUS
 62
     7
 10
1770.058099354145
 20
2681.565207201239
 30
0.0
 11
1770.058099354145
 21
2680.724018582605
 31
0.0
  0
LINE
  5
212
  8
0
  6
CONTINUOUS
 62
     7
 10
1769.858099354145
 20
2680.52477052722
 30
0.0
 11
1769.858099354145
 21
2681.365959145855
 31
0.0
  0
LINE
  5
213
  8
0
  6
CONTINUOUS
 62
     7
 10
1770.858099354145
 20
2681.565207201239
 30
0.0
 11
1770.058099354145
 21
2681.565207201239
 31
0.0
  0
LINE
  5
214
  8
0
  6
CONTINUOUS
 62
     7
 10
1769.858099354145
 20
2682.561447478164
 30
0.0
 11
1770.058099354145
 21
2682.561447478164
 31
0.0
  0
LINE
  5
215
  8
0
  6
CONTINUOUS
 62
     7
 10
1770.058099354145
 20
2682.561447478164
 30
0.0
 11
1770.058099354145
 21
2681.565207201239
 31
0.0
  0
LINE
  5
216
  8
0
  6
CONTINUOUS
 62
     7
 10
1769.858099354145
 20
2681.365959145855
 30
0.0
 11
1769.858099354145
 21
2682.561447478164
 31
0.0
  0
LINE
  5
217
  8
0
  6
CONTINUOUS
 62
     7
 10
1770.058099354145
 20
2682.561447478164
 30
0.0
 11
1770.858099354145
 21
2682.561447478164
 31
0.0
  0
LINE
  5
218
  8
0
  6
CONTINUOUS
 62
     7
 10
1770.058099354145
 20
2692.944633708184
 30
0.0
 11
1770.058099354145
 21
2682.561447478164
 31
0.0
  0
LINE
  5
219
  8
0
  6
CONTINUOUS
 62
     7
 10
1770.858099354145
 20
2692.944633708184
 30
0.0
 11
1770.058099354145
 21
2692.944633708184
 31
0.0
  0
LINE
  5
21A
  8
0
  6
CONTINUOUS
 62
     7
 10
1769.858099354145
 20
2692.944633708184
 30
0.0
 11
1770.058099354145
 21
2692.944633708184
 31
0.0
  0
LINE
  5
21B
  8
0
  6
CONTINUOUS
 62
     7
 10
1769.858099354145
 20
2682.561447478164
 30
0.0
 11
1769.858099354145
 21
2692.944633708184
 31
0.0
  0
LINE
  5
21C
  8
0
  6
CONTINUOUS
 62
     7
 10
1770.058099354145
 20
2693.944633708184
 30
0.0
 11
1770.058099354145
 21
2692.944633708184
 31
0.0
  0
ARC
  5
21D
  8
0
  6
CONTINUOUS
 62
     7
 10
1770.058099354145
 20
2693.744633708183
 30
0.0
 40
0.2000000000002728
 50
90.0
 51
180.0
  0
LINE
  5
21E
  8
0
  6
CONTINUOUS
 62
     7
 10
1769.858099354145
 20
2692.944633708184
 30
0.0
 11
1769.858099354145
 21
2693.744633708183
 31
0.0
  0
LINE
  5
21F
  8
0
  6
CONTINUOUS
 62
     7
 10
2348.858099354145
 20
2695.444633708184
 30
0.0
 11
1785.358099354145
 21
2695.444633708184
 31
0.0
  0
LINE
  5
220
  8
0
  6
CONTINUOUS
 62
     7
 10
2348.858099354145
 20
2973.944633708184
 30
0.0
 11
1785.358099354145
 21
2973.944633708184
 31
0.0
  0
LINE
  5
221
  8
0
  6
CONTINUOUS
 62
     7
 10
2348.858099354145
 20
2973.944633708184
 30
0.0
 11
2348.858099354145
 21
2695.444633708184
 31
0.0
  0
LINE
  5
222
  8
0
  6
CONTINUOUS
 62
     7
 10
2348.858099354145
 20
2694.444633708184
 30
0.0
 11
2348.858099354145
 21
2695.444633708184
 31
0.0
  0
LINE
  5
223
  8
0
  6
CONTINUOUS
 62
     7
 10
2348.858099354145
 20
2694.444633708184
 30
0.0
 11
1785.358099354145
 21
2694.444633708184
 31
0.0
  0
LINE
  5
224
  8
0
  6
CONTINUOUS
 62
     7
 10
2348.858099354145
 20
2693.944633708184
 30
0.0
 11
1785.358099354145
 21
2693.944633708184
 31
0.0
  0
LINE
  5
225
  8
0
  6
CONTINUOUS
 62
     7
 10
2348.858099354145
 20
2694.944633708174
 30
0.0
 11
2366.358099354145
 21
2694.944633708174
 31
0.0
  0
LINE
  5
226
  8
0
  6
CONTINUOUS
 62
     7
 10
2366.358099354145
 20
2973.944633708174
 30
0.0
 11
2348.858099354145
 21
2973.944633708174
 31
0.0
  0
LINE
  5
227
  8
0
  6
CONTINUOUS
 62
     7
 10
2348.858099354145
 20
2973.944633708174
 30
0.0
 11
2348.858099354145
 21
2694.944633708174
 31
0.0
  0
LINE
  5
228
  8
0
  6
CONTINUOUS
 62
     7
 10
2366.358099354145
 20
2694.944633708174
 30
0.0
 11
2366.358099354145
 21
2973.944633708174
 31
0.0
  0
LINE
  5
229
  8
0
  6
CONTINUOUS
 62
     7
 10
1767.858099354145
 20
2693.944633708184
 30
0.0
 11
1785.358099354145
 21
2693.944633708184
 31
0.0
  0
LINE
  5
22A
  8
0
  6
CONTINUOUS
 62
     7
 10
1767.858099354145
 20
2693.944633708184
 30
0.0
 11
1767.858099354145
 21
2694.944633708184
 31
0.0
  0
LINE
  5
22B
  8
0
  6
CONTINUOUS
 62
     7
 10
1785.358099354145
 20
2693.944633708184
 30
0.0
 11
1785.358099354145
 21
2694.944633708184
 31
0.0
  0
LINE
  5
22C
  8
0
  6
CONTINUOUS
 62
     7
 10
1785.358099354145
 20
2694.944633708184
 30
0.0
 11
1767.858099354145
 21
2694.944633708184
 31
0.0
  0
LINE
  5
22D
  8
0
  6
CONTINUOUS
 62
     7
 10
2366.358099354145
 20
2693.944633708174
 30
0.0
 11
2366.358099354145
 21
2694.944633708174
 31
0.0
  0
LINE
  5
22E
  8
0
  6
CONTINUOUS
 62
     7
 10
2348.858099354145
 20
2693.944633708174
 30
0.0
 11
2366.358099354145
 21
2693.944633708174
 31
0.0
  0
LINE
  5
22F
  8
0
  6
CONTINUOUS
 62
     7
 10
2348.858099354145
 20
2693.944633708174
 30
0.0
 11
2348.858099354145
 21
2694.944633708174
 31
0.0
  0
LINE
  5
230
  8
0
  6
CONTINUOUS
 62
     7
 10
1785.358099354145
 20
2973.944633708184
 30
0.0
 11
1785.358099354145
 21
2694.944633708184
 31
0.0
  0
LINE
  5
231
  8
0
  6
CONTINUOUS
 62
     7
 10
1767.858099354145
 20
2973.944633708184
 30
0.0
 11
1785.358099354145
 21
2973.944633708184
 31
0.0
  0
LINE
  5
232
  8
0
  6
CONTINUOUS
 62
     7
 10
1767.858099354145
 20
2694.944633708184
 30
0.0
 11
1767.858099354145
 21
2973.944633708184
 31
0.0
  0
LINE
  5
233
  8
0
  6
CONTINUOUS
 62
     7
 10
3951.069605638252
 20
1055.718990347166
 30
0.0
 11
4514.569605638251
 21
1055.718990347166
 31
0.0
  0
LINE
  5
234
  8
0
  6
CONTINUOUS
 62
     7
 10
3951.069605638252
 20
1005.718990347166
 30
0.0
 11
4514.569605638251
 21
1005.718990347166
 31
0.0
  0
LINE
  5
235
  8
0
  6
CONTINUOUS
 62
     7
 10
3951.069605638251
 20
1888.718990347161
 30
0.0
 11
4514.569605638251
 21
1888.718990347161
 31
0.0
  0
LINE
  5
236
  8
0
  6
CONTINUOUS
 62
     7
 10
4514.569605638251
 20
1886.218990347161
 30
0.0
 11
4514.569605638251
 21
1888.718990347161
 31
0.0
  0
LINE
  5
237
  8
0
  6
CONTINUOUS
 62
     7
 10
3951.069605638251
 20
1886.218990347161
 30
0.0
 11
4514.569605638251
 21
1886.218990347161
 31
0.0
  0
LINE
  5
238
  8
0
  6
CONTINUOUS
 62
     7
 10
3951.069605638251
 20
1886.218990347161
 30
0.0
 11
3951.069605638251
 21
1888.718990347161
 31
0.0
  0
LINE
  5
239
  8
0
  6
CONTINUOUS
 62
     7
 10
3951.069605638251
 20
1903.218990347161
 30
0.0
 11
4514.569605638251
 21
1903.218990347161
 31
0.0
  0
LINE
  5
23A
  8
0
  6
CONTINUOUS
 62
     7
 10
3951.069605638251
 20
1900.718990347161
 30
0.0
 11
3951.069605638251
 21
1903.218990347161
 31
0.0
  0
LINE
  5
23B
  8
0
  6
CONTINUOUS
 62
     7
 10
4514.569605638251
 20
1900.718990347161
 30
0.0
 11
4514.569605638251
 21
1903.218990347161
 31
0.0
  0
LINE
  5
23C
  8
0
  6
CONTINUOUS
 62
     7
 10
3951.069605638251
 20
1900.718990347161
 30
0.0
 11
4514.569605638251
 21
1900.718990347161
 31
0.0
  0
LINE
  5
23D
  8
0
  6
CONTINUOUS
 62
     7
 10
4514.569605638251
 20
1900.718990347161
 30
0.0
 11
4514.569605638251
 21
1888.718990347161
 31
0.0
  0
LINE
  5
23E
  8
0
  6
CONTINUOUS
 62
     7
 10
3951.069605638251
 20
1900.718990347161
 30
0.0
 11
3951.069605638251
 21
1888.718990347161
 31
0.0
  0
LINE
  5
23F
  8
0
  6
CONTINUOUS
 62
     7
 10
4529.569605638251
 20
1005.218990347177
 30
0.0
 11
4532.069605638251
 21
1005.218990347177
 31
0.0
  0
LINE
  5
240
  8
0
  6
CONTINUOUS
 62
     7
 10
4529.569605638251
 20
1903.21899034717
 30
0.0
 11
4529.569605638251
 21
1005.218990347177
 31
0.0
  0
LINE
  5
241
  8
0
  6
CONTINUOUS
 62
     7
 10
4532.069605638251
 20
1005.218990347177
 30
0.0
 11
4532.069605638251
 21
1903.21899034717
 31
0.0
  0
LINE
  5
242
  8
0
  6
CONTINUOUS
 62
     7
 10
4532.069605638251
 20
1903.21899034717
 30
0.0
 11
4529.569605638251
 21
1903.21899034717
 31
0.0
  0
LINE
  5
243
  8
0
  6
CONTINUOUS
 62
     7
 10
3936.069605638251
 20
1902.718990347155
 30
0.0
 11
3933.569605638251
 21
1902.718990347155
 31
0.0
  0
LINE
  5
244
  8
0
  6
CONTINUOUS
 62
     7
 10
3933.569605638251
 20
1902.718990347155
 30
0.0
 11
3933.569605638251
 21
1004.718990347162
 31
0.0
  0
LINE
  5
245
  8
0
  6
CONTINUOUS
 62
     7
 10
3933.569605638251
 20
1004.718990347162
 30
0.0
 11
3936.069605638251
 21
1004.718990347162
 31
0.0
  0
LINE
  5
246
  8
0
  6
CONTINUOUS
 62
     7
 10
3936.069605638251
 20
1004.718990347162
 30
0.0
 11
3936.069605638251
 21
1902.718990347155
 31
0.0
  0
LINE
  5
247
  8
0
  6
CONTINUOUS
 62
     7
 10
3951.069605638251
 20
1902.718990347155
 30
0.0
 11
3948.569605638252
 21
1902.718990347155
 31
0.0
  0
LINE
  5
248
  8
0
  6
CONTINUOUS
 62
     7
 10
3948.569605638252
 20
1004.718990347163
 30
0.0
 11
3951.069605638251
 21
1004.718990347163
 31
0.0
  0
LINE
  5
249
  8
0
  6
CONTINUOUS
 62
     7
 10
3948.569605638252
 20
1902.718990347155
 30
0.0
 11
3948.569605638252
 21
1004.718990347163
 31
0.0
  0
LINE
  5
24A
  8
0
  6
CONTINUOUS
 62
     7
 10
3951.069605638251
 20
1004.718990347163
 30
0.0
 11
3951.069605638251
 21
1902.718990347155
 31
0.0
  0
LINE
  5
24B
  8
0
  6
CONTINUOUS
 62
     7
 10
4514.569605638251
 20
1005.218990347177
 30
0.0
 11
4517.069605638252
 21
1005.218990347177
 31
0.0
  0
LINE
  5
24C
  8
0
  6
CONTINUOUS
 62
     7
 10
4514.569605638251
 20
1903.21899034717
 30
0.0
 11
4514.569605638251
 21
1005.218990347177
 31
0.0
  0
LINE
  5
24D
  8
0
  6
CONTINUOUS
 62
     7
 10
4517.069605638251
 20
1903.21899034717
 30
0.0
 11
4514.569605638251
 21
1903.21899034717
 31
0.0
  0
LINE
  5
24E
  8
0
  6
CONTINUOUS
 62
     7
 10
4517.069605638252
 20
1005.218990347177
 30
0.0
 11
4517.069605638251
 21
1903.21899034717
 31
0.0
  0
LINE
  5
24F
  8
0
  6
CONTINUOUS
 62
     7
 10
3948.569605638252
 20
1835.718990347155
 30
0.0
 11
3936.069605638251
 21
1835.718990347155
 31
0.0
  0
LINE
  5
250
  8
0
  6
CONTINUOUS
 62
     7
 10
3936.069605638251
 20
1902.718990347155
 30
0.0
 11
3936.069605638251
 21
1835.718990347155
 31
0.0
  0
LINE
  5
251
  8
0
  6
CONTINUOUS
 62
     7
 10
3948.569605638252
 20
1902.718990347155
 30
0.0
 11
3936.069605638251
 21
1902.718990347155
 31
0.0
  0
LINE
  5
252
  8
0
  6
CONTINUOUS
 62
     7
 10
3948.569605638252
 20
1902.718990347155
 30
0.0
 11
3948.569605638252
 21
1835.718990347155
 31
0.0
  0
LINE
  5
253
  8
0
  6
CONTINUOUS
 62
     7
 10
4517.069605638251
 20
1005.218990347177
 30
0.0
 11
4529.569605638251
 21
1005.218990347177
 31
0.0
  0
LINE
  5
254
  8
0
  6
CONTINUOUS
 62
     7
 10
4517.069605638251
 20
1005.218990347177
 30
0.0
 11
4517.069605638252
 21
1072.218990347177
 31
0.0
  0
LINE
  5
255
  8
0
  6
CONTINUOUS
 62
     7
 10
4517.069605638252
 20
1072.218990347177
 30
0.0
 11
4529.569605638251
 21
1072.218990347177
 31
0.0
  0
LINE
  5
256
  8
0
  6
CONTINUOUS
 62
     7
 10
4529.569605638251
 20
1005.218990347177
 30
0.0
 11
4529.569605638251
 21
1072.218990347177
 31
0.0
  0
LINE
  5
257
  8
0
  6
CONTINUOUS
 62
     7
 10
4517.069605638251
 20
1836.21899034717
 30
0.0
 11
4517.069605638252
 21
1072.218990347177
 31
0.0
  0
LINE
  5
258
  8
0
  6
CONTINUOUS
 62
     7
 10
4517.069605638251
 20
1836.21899034717
 30
0.0
 11
4529.569605638251
 21
1836.21899034717
 31
0.0
  0
LINE
  5
259
  8
0
  6
CONTINUOUS
 62
     7
 10
4529.569605638251
 20
1836.21899034717
 30
0.0
 11
4529.569605638251
 21
1072.218990347177
 31
0.0
  0
LINE
  5
25A
  8
0
  6
CONTINUOUS
 62
     7
 10
3936.069605638251
 20
1071.718990347162
 30
0.0
 11
3936.069605638251
 21
1835.718990347155
 31
0.0
  0
LINE
  5
25B
  8
0
  6
CONTINUOUS
 62
     7
 10
3948.569605638252
 20
1071.718990347162
 30
0.0
 11
3948.569605638252
 21
1835.718990347155
 31
0.0
  0
LINE
  5
25C
  8
0
  6
CONTINUOUS
 62
     7
 10
3948.569605638252
 20
1071.718990347162
 30
0.0
 11
3936.069605638251
 21
1071.718990347162
 31
0.0
  0
LINE
  5
25D
  8
0
  6
CONTINUOUS
 62
     7
 10
3948.569605638252
 20
1004.718990347162
 30
0.0
 11
3936.069605638251
 21
1004.718990347162
 31
0.0
  0
LINE
  5
25E
  8
0
  6
CONTINUOUS
 62
     7
 10
3936.069605638251
 20
1071.718990347162
 30
0.0
 11
3936.069605638251
 21
1004.718990347162
 31
0.0
  0
LINE
  5
25F
  8
0
  6
CONTINUOUS
 62
     7
 10
3948.569605638252
 20
1071.718990347162
 30
0.0
 11
3948.569605638252
 21
1004.718990347162
 31
0.0
  0
LINE
  5
260
  8
0
  6
CONTINUOUS
 62
     7
 10
4517.069605638251
 20
1903.21899034717
 30
0.0
 11
4529.569605638251
 21
1903.21899034717
 31
0.0
  0
LINE
  5
261
  8
0
  6
CONTINUOUS
 62
     7
 10
4529.569605638251
 20
1836.21899034717
 30
0.0
 11
4529.569605638251
 21
1903.21899034717
 31
0.0
  0
LINE
  5
262
  8
0
  6
CONTINUOUS
 62
     7
 10
4517.069605638251
 20
1836.21899034717
 30
0.0
 11
4517.069605638251
 21
1903.21899034717
 31
0.0
  0
LINE
  5
263
  8
0
  6
CONTINUOUS
 62
     7
 10
4514.569605638251
 20
1004.718990347177
 30
0.0
 11
4514.569605638251
 21
1005.218990347177
 31
0.0
  0
LINE
  5
264
  8
0
  6
CONTINUOUS
 62
     7
 10
4532.069605638251
 20
1005.218990347177
 30
0.0
 11
4514.569605638251
 21
1005.218990347177
 31
0.0
  0
LINE
  5
265
  8
0
  6
CONTINUOUS
 62
     7
 10
4532.069605638251
 20
1004.718990347177
 30
0.0
 11
4532.069605638251
 21
1005.218990347177
 31
0.0
  0
LINE
  5
266
  8
0
  6
CONTINUOUS
 62
     7
 10
4532.069605638251
 20
1004.718990347177
 30
0.0
 11
4514.569605638251
 21
1004.718990347177
 31
0.0
  0
LINE
  5
267
  8
0
  6
CONTINUOUS
 62
     7
 10
3951.069605638251
 20
1903.218990347155
 30
0.0
 11
3951.069605638251
 21
1902.718990347155
 31
0.0
  0
LINE
  5
268
  8
0
  6
CONTINUOUS
 62
     7
 10
3933.569605638251
 20
1903.218990347155
 30
0.0
 11
3933.569605638251
 21
1902.718990347155
 31
0.0
  0
LINE
  5
269
  8
0
  6
CONTINUOUS
 62
     7
 10
3933.569605638251
 20
1903.218990347155
 30
0.0
 11
3951.069605638251
 21
1903.218990347155
 31
0.0
  0
LINE
  5
26A
  8
0
  6
CONTINUOUS
 62
     7
 10
3933.569605638251
 20
1902.718990347155
 30
0.0
 11
3951.069605638251
 21
1902.718990347155
 31
0.0
  0
LINE
  5
26B
  8
0
  6
CONTINUOUS
 62
     7
 10
4514.569605638251
 20
1903.71899034717
 30
0.0
 11
4514.569605638251
 21
1903.21899034717
 31
0.0
  0
LINE
  5
26C
  8
0
  6
CONTINUOUS
 62
     7
 10
4532.069605638251
 20
1903.71899034717
 30
0.0
 11
4514.569605638251
 21
1903.71899034717
 31
0.0
  0
LINE
  5
26D
  8
0
  6
CONTINUOUS
 62
     7
 10
4514.569605638251
 20
1903.21899034717
 30
0.0
 11
4532.069605638251
 21
1903.21899034717
 31
0.0
  0
LINE
  5
26E
  8
0
  6
CONTINUOUS
 62
     7
 10
4532.069605638251
 20
1903.71899034717
 30
0.0
 11
4532.069605638251
 21
1903.21899034717
 31
0.0
  0
LINE
  5
26F
  8
0
  6
CONTINUOUS
 62
     7
 10
3951.069605638251
 20
1004.718990347163
 30
0.0
 11
3933.569605638251
 21
1004.718990347162
 31
0.0
  0
LINE
  5
270
  8
0
  6
CONTINUOUS
 62
     7
 10
3951.069605638251
 20
1004.218990347162
 30
0.0
 11
3951.069605638251
 21
1004.718990347163
 31
0.0
  0
LINE
  5
271
  8
0
  6
CONTINUOUS
 62
     7
 10
3933.569605638251
 20
1004.218990347162
 30
0.0
 11
3951.069605638251
 21
1004.218990347162
 31
0.0
  0
LINE
  5
272
  8
0
  6
CONTINUOUS
 62
     7
 10
3933.569605638251
 20
1004.218990347162
 30
0.0
 11
3933.569605638251
 21
1004.718990347162
 31
0.0
  0
ENDSEC
  0
EOF
