  0
SECTION
  2
HEADER
  9
$ACADVER
  1
AC1006
  9
$DWGCODEPAGE
  3
dos932
  9
$INSBASE
 10
0.0
 20
0.0
 30
0.0
  9
$EXTMIN
 10
0.0
 20
0.0
  9
$EXTMAX
 10
5000.0
 20
3500.0
  9
$LIMMIN
 10
0.0
 20
0.0
  9
$LIMMAX
 10
5000.0
 20
3500.0
  9
$ORTHOMODE
 70
     0
  9
$REGENMODE
 70
     1
  9
$FILLMODE
 70
     1
  9
$QTEXTMODE
 70
     0
  9
$MIRRTEXT
 70
     1
  9
$DRAGMODE
 70
     2
  9
$LTSCALE
 40
1.0
  9
$OSMODE
 70
    37
  9
$ATTMODE
 70
     1
  9
$TEXTSIZE
 40
3.5
  9
$TRACEWID
 40
1.0
  9
$TEXTSTYLE
  7
STANDARD
  9
$CLAYER
  8
0
  9
$CELTYPE
  6
BYLAYER
  9
$CECOLOR
 62
   256
  9
$DIMSCALE
 40
1.0
  9
$DIMASZ
 40
3.302
  9
$DIMEXO
 40
1.0
  9
$DIMDLI
 40
3.75
  9
$DIMRND
 40
0.0
  9
$DIMDLE
 40
0.0
  9
$DIMEXE
 40
1.0
  9
$DIMTP
 40
0.0
  9
$DIMTM
 40
0.0
  9
$DIMTXT
 40
3.5
  9
$DIMCEN
 40
2.5
  9
$DIMTSZ
 40
0.0
  9
$DIMTOL
 70
     0
  9
$DIMLIM
 70
     0
  9
$DIMTIH
 70
     1
  9
$DIMTOH
 70
     1
  9
$DIMSE1
 70
     0
  9
$DIMSE2
 70
     0
  9
$DIMTAD
 70
     1
  9
$DIMZIN
 70
     0
  9
$DIMBLK
  1

  9
$DIMASO
 70
     1
  9
$DIMSHO
 70
     1
  9
$DIMPOST
  1

  9
$DIMAPOST
  1

  9
$DIMALT
 70
     0
  9
$DIMALTD
 70
     3
  9
$DIMALTF
 40
0.0393700787401575
  9
$DIMLFAC
 40
1.0
  9
$DIMTOFL
 70
     1
  9
$DIMTVP
 40
0.0
  9
$DIMTIX
 70
     0
  9
$DIMSOXD
 70
     0
  9
$DIMSAH
 70
     0
  9
$DIMBLK1
  1

  9
$DIMBLK2
  1

  9
$LUNITS
 70
     2
  9
$LUPREC
 70
     2
  9
$SKETCHINC
 40
1.0
  9
$FILLETRAD
 40
10.0
  9
$AUNITS
 70
     0
  9
$AUPREC
 70
     2
  9
$MENU
  1
.
  9
$ELEVATION
 40
0.0
  9
$THICKNESS
 40
0.0
  9
$LIMCHECK
 70
     0
  9
$CHAMFERA
 40
0.0
  9
$CHAMFERB
 40
0.0
  9
$SKPOLY
 70
     0
  9
$TDCREATE
 40
2459796.254514884
  9
$TDUPDATE
 40
2460139.360842025
  9
$TDINDWG
 40
0.0000000116
  9
$TDUSRTIMER
 40
0.0000000116
  9
$USRTIMER
 70
     1
  9
$ANGBASE
 50
0.0
  9
$ANGDIR
 70
     0
  9
$PDMODE
 70
     0
  9
$PDSIZE
 40
-1.0
  9
$PLINEWID
 40
0.0
  9
$COORDS
 70
     1
  9
$SPLFRAME
 70
     0
  9
$SPLINETYPE
 70
     6
  9
$SPLINESEGS
 70
     8
  9
$ATTDIA
 70
     0
  9
$ATTREQ
 70
     1
  9
$HANDLING
 70
     1
  9
$HANDSEED
  5
2C3
  9
$SURFTAB1
 70
     6
  9
$SURFTAB2
 70
     6
  9
$SURFTYPE
 70
     6
  9
$SURFU
 70
     6
  9
$SURFV
 70
     6
  9
$UCSNAME
  2

  9
$UCSORG
 10
0.0
 20
0.0
 30
0.0
  9
$UCSXDIR
 10
1.0
 20
0.0
 30
0.0
  9
$UCSYDIR
 10
0.0
 20
1.0
 30
0.0
  9
$USERI1
 70
     0
  9
$USERI2
 70
     0
  9
$USERI3
 70
     0
  9
$USERI4
 70
     0
  9
$USERI5
 70
     0
  9
$USERR1
 40
0.0
  9
$USERR2
 40
0.0
  9
$USERR3
 40
0.0
  9
$USERR4
 40
0.0
  9
$USERR5
 40
0.0
  9
$WORLDVIEW
 70
     1
  0
ENDSEC
  0
SECTION
  2
TABLES
  0
TABLE
  2
VPORT
 70
     1
  0
VPORT
  2
*ACTIVE
 70
     0
 10
0.0
 20
0.0
 11
1.0
 21
1.0
 12
2500.0
 22
1750.0
 13
0.0
 23
0.0
 14
10.0
 24
10.0
 15
10.0
 25
10.0
 16
0.0
 26
0.0
 36
1.0
 17
0.0
 27
0.0
 37
0.0
 40
3500.0
 41
1.428571428571429
 42
50.0
 43
0.0
 44
0.0
 50
0.0
 51
0.0
 71
     0
 72
  2000
 73
     1
 74
     3
 75
     0
 76
     0
 77
     0
 78
     0
  0
ENDTAB
  0
TABLE
  2
LTYPE
 70
     6
  0
LTYPE
  2
CONTINUOUS
 70
     0
  3
Solid line
 72
    65
 73
     0
 40
0.0
  0
LTYPE
  2
HIDDEN
 70
     0
  3
Hidden __ __ __ __ __ __ __ __ __ __ __ __ __ __
 72
    65
 73
     2
 40
1.905
 49
1.27
 49
-0.635
  0
LTYPE
  2
PHANTOM
 70
     0
  3
Phantom ______  __  __  ______  __  __  ______
 72
    65
 73
     6
 40
12.7
 49
6.35
 49
-1.27
 49
1.27
 49
-1.27
 49
1.27
 49
-1.27
  0
LTYPE
  2
CENTER
 70
     0
  3
Center ____ _ ____ _ ____ _ ____ _ ____ _ ____
 72
    65
 73
     4
 40
10.16
 49
6.35
 49
-1.27
 49
1.27
 49
-1.27
  0
LTYPE
  2
CENTERX2
 70
     0
  3
Center (2x) ________  __  ________  __  _____
 72
    65
 73
     4
 40
20.32
 49
12.7
 49
-2.54
 49
2.54
 49
-2.54
  0
LTYPE
  2
DOT2
 70
     0
  3
Dot (.5x) ........................................
 72
    65
 73
     2
 40
0.635
 49
0.0
 49
-0.635
  0
ENDTAB
  0
TABLE
  2
LAYER
 70
     3
  0
LAYER
  2
0
 70
     0
 62
     7
  6
CONTINUOUS
  0
LAYER
  2
SLD-0
 70
     0
 62
   179
  6
CONTINUOUS
  0
LAYER
  2
寸法
 70
     0
 62
   179
  6
CONTINUOUS
  0
ENDTAB
  0
TABLE
  2
STYLE
 70
     2
  0
STYLE
  2
STANDARD
 70
     0
 40
0.0
 41
1.0
 50
0.0
 71
     0
 42
3.5
  3
txt
  4
bigfont
  0
STYLE
  2
SLDTEXTSTYLE0
 70
     0
 40
0.0
 41
0.75
 50
0.0
 71
     0
 42
3.5
  3
TXT
  4
bigfont
  0
ENDTAB
  0
TABLE
  2
VIEW
 70
     0
  0
ENDTAB
  0
TABLE
  2
UCS
 70
     0
  0
ENDTAB
  0
ENDSEC
  0
SECTION
  2
BLOCKS
  0
ENDSEC
  0
SECTION
  2
ENTITIES
  0
LINE
  5
75
  8
0
  6
CONTINUOUS
 62
     7
 10
4839.484712179223
 20
258.5233124172521
 30
0.0
 11
3312.374599790194
 21
258.5233124172519
 31
0.0
  0
TEXT
  5
77
  8
0
  6
CONTINUOUS
 62
     7
 10
1706.521152560513
 20
3134.115941119229
 30
0.0
 40
52.91666666666666
  1
＜上面＞
 41
0.75
  7
SLDTEXTSTYLE0
  0
TEXT
  5
78
  8
0
  6
CONTINUOUS
 62
     7
 10
493.3091089290138
 20
2134.090186691168
 30
0.0
 40
52.91666666666666
  1
＜左側面＞
 41
0.75
  7
SLDTEXTSTYLE0
  0
TEXT
  5
79
  8
0
  6
CONTINUOUS
 62
     7
 10
1730.774067737716
 20
2130.593767889337
 30
0.0
 40
52.91666666666666
  1
＜正面＞
 41
0.75
  7
SLDTEXTSTYLE0
  0
TEXT
  5
7A
  8
0
  6
CONTINUOUS
 62
     7
 10
3377.814243189123
 20
326.489054196763
 30
0.0
 40
52.91666666666666
  1
品名：
 41
0.75
  7
SLDTEXTSTYLE0
  0
TEXT
  5
7B
  8
0
  6
CONTINUOUS
 62
     7
 10
4446.663437481703
 20
332.3177187478654
 30
0.0
 40
52.91666666666666
  1
Pamouna
 41
0.75
  7
SLDTEXTSTYLE0
  0
TEXT
  5
7C
  8
寸法
  6
CONTINUOUS
 62
     7
 10
4688.007304885427
 20
165.7088516276312
 30
0.0
 40
52.91666666666666
  1
1/1
 41
0.75
  7
SLDTEXTSTYLE0
  0
TEXT
  5
7D
  8
寸法
  6
CONTINUOUS
 62
     7
 10
4198.79693921183
 20
165.7088544215994
 30
0.0
 40
52.91666666666666
  1
2022/08/04
 41
0.75
  7
SLDTEXTSTYLE0
  0
TEXT
  5
7E
  8
寸法
  6
CONTINUOUS
 62
     7
 10
4244.543938041937
 20
2131.941416515021
 30
0.0
 40
52.91666666666666
  1
＜背面＞
 41
0.75
  7
SLDTEXTSTYLE0
  0
TEXT
  5
7F
  8
寸法
  6
CONTINUOUS
 62
     7
 10
3611.283129349215
 20
326.4179237671586
 30
0.0
 40
66.14583333333331
  1
MA-S250EL（-T）
 41
0.75
  7
SLDTEXTSTYLE0
  0
TEXT
  5
80
  8
寸法
  6
CONTINUOUS
 62
     7
 10
3091.621706569264
 20
2131.94141651502
 30
0.0
 40
52.91666666666666
  1
＜右側面＞
 41
0.75
  7
SLDTEXTSTYLE0
  0
LINE
  5
81
  8
0
  6
CONTINUOUS
 62
     7
 10
2304.413128312744
 20
793.2179835275405
 30
0.0
 11
2305.213128312743
 21
793.2179835275405
 31
0.0
  0
ARC
  5
82
  8
0
  6
CONTINUOUS
 62
     7
 10
2305.213128312743
 20
793.4179835275404
 30
0.0
 40
0.1999999999999318
 50
270.0000000000008
 51
0.0
  0
LINE
  5
83
  8
0
  6
CONTINUOUS
 62
     7
 10
2060.413128312744
 20
793.2179835275404
 30
0.0
 11
2304.413128312744
 21
793.2179835275405
 31
0.0
  0
LINE
  5
84
  8
0
  6
CONTINUOUS
 62
     7
 10
2059.613128312744
 20
793.2179835275404
 30
0.0
 11
2060.413128312744
 21
793.2179835275404
 31
0.0
  0
ARC
  5
85
  8
0
  6
CONTINUOUS
 62
     7
 10
2059.613128312744
 20
793.4179835275403
 30
0.0
 40
0.2000000000002728
 50
180.0
 51
270.0000000000008
  0
LINE
  5
86
  8
0
  6
CONTINUOUS
 62
     7
 10
2305.413128312743
 20
793.5179835275404
 30
0.0
 11
2305.413128312743
 21
793.4291322492875
 31
0.0
  0
ARC
  5
87
  8
0
  6
CONTINUOUS
 62
     7
 10
2305.214512192494
 20
793.43053568721
 30
0.0
 40
0.1986210785913448
 50
269.6007920650639
 51
359.5951500240254
  0
LINE
  5
88
  8
0
  6
CONTINUOUS
 62
     7
 10
2305.213128312743
 20
793.2319194297243
 30
0.0
 11
2305.213128312743
 21
793.7179835275405
 31
0.0
  0
POLYLINE
  5
89
  8
0
  6
CONTINUOUS
 62
     7
 66
     1
 10
0.0
 20
0.0
 30
0.0
  0
VERTEX
  5
1BB
  8
0
  6
CONTINUOUS
 62
     7
 10
2305.413128312743
 20
793.5179835275404
 30
0.0
  0
VERTEX
  5
1BC
  8
0
  6
CONTINUOUS
 62
     7
 10
2305.413110875982
 20
793.520741459718
 30
0.0
  0
VERTEX
  5
1BD
  8
0
  6
CONTINUOUS
 62
     7
 10
2305.413055078218
 20
793.5235678994658
 30
0.0
  0
VERTEX
  5
1BE
  8
0
  6
CONTINUOUS
 62
     7
 10
2305.412956476628
 20
793.5264636866293
 30
0.0
  0
VERTEX
  5
1BF
  8
0
  6
CONTINUOUS
 62
     7
 10
2305.412812040418
 20
793.5294268440126
 30
0.0
  0
VERTEX
  5
1C0
  8
0
  6
CONTINUOUS
 62
     7
 10
2305.412618738796
 20
793.5324553944212
 30
0.0
  0
VERTEX
  5
1C1
  8
0
  6
CONTINUOUS
 62
     7
 10
2305.412373540966
 20
793.5355473606605
 30
0.0
  0
VERTEX
  5
1C2
  8
0
  6
CONTINUOUS
 62
     7
 10
2305.412073416135
 20
793.5387007655353
 30
0.0
  0
VERTEX
  5
1C3
  8
0
  6
CONTINUOUS
 62
     7
 10
2305.411715333509
 20
793.5419136318502
 30
0.0
  0
VERTEX
  5
1C4
  8
0
  6
CONTINUOUS
 62
     7
 10
2305.411296262293
 20
793.545183982411
 30
0.0
  0
VERTEX
  5
1C5
  8
0
  6
CONTINUOUS
 62
     7
 10
2305.410813171696
 20
793.5485098400223
 30
0.0
  0
VERTEX
  5
1C6
  8
0
  6
CONTINUOUS
 62
     7
 10
2305.410263030922
 20
793.5518892274895
 30
0.0
  0
VERTEX
  5
1C7
  8
0
  6
CONTINUOUS
 62
     7
 10
2305.409642809178
 20
793.5553201676171
 30
0.0
  0
VERTEX
  5
1C8
  8
0
  6
CONTINUOUS
 62
     7
 10
2305.408949475671
 20
793.5588006832107
 30
0.0
  0
VERTEX
  5
1C9
  8
0
  6
CONTINUOUS
 62
     7
 10
2305.408179999605
 20
793.5623287970753
 30
0.0
  0
VERTEX
  5
1CA
  8
0
  6
CONTINUOUS
 62
     7
 10
2305.407331350188
 20
793.5659025320158
 30
0.0
  0
VERTEX
  5
1CB
  8
0
  6
CONTINUOUS
 62
     7
 10
2305.406400496626
 20
793.5695199108372
 30
0.0
  0
VERTEX
  5
1CC
  8
0
  6
CONTINUOUS
 62
     7
 10
2305.405384408123
 20
793.5731789563447
 30
0.0
  0
VERTEX
  5
1CD
  8
0
  6
CONTINUOUS
 62
     7
 10
2305.404280053888
 20
793.5768776913434
 30
0.0
  0
VERTEX
  5
1CE
  8
0
  6
CONTINUOUS
 62
     7
 10
2305.403084403127
 20
793.5806141386383
 30
0.0
  0
VERTEX
  5
1CF
  8
0
  6
CONTINUOUS
 62
     7
 10
2305.401794425044
 20
793.5843863210343
 30
0.0
  0
VERTEX
  5
1D0
  8
0
  6
CONTINUOUS
 62
     7
 10
2305.400407088848
 20
793.588192261337
 30
0.0
  0
VERTEX
  5
1D1
  8
0
  6
CONTINUOUS
 62
     7
 10
2305.398919363743
 20
793.5920299823506
 30
0.0
  0
VERTEX
  5
1D2
  8
0
  6
CONTINUOUS
 62
     7
 10
2305.397328218935
 20
793.5958975068806
 30
0.0
  0
VERTEX
  5
1D3
  8
0
  6
CONTINUOUS
 62
     7
 10
2305.395630623632
 20
793.5997928577325
 30
0.0
  0
VERTEX
  5
1D4
  8
0
  6
CONTINUOUS
 62
     7
 10
2305.393823534483
 20
793.6037139798877
 30
0.0
  0
VERTEX
  5
1D5
  8
0
  6
CONTINUOUS
 62
     7
 10
2305.391903685575
 20
793.6076574389266
 30
0.0
  0
VERTEX
  5
1D6
  8
0
  6
CONTINUOUS
 62
     7
 10
2305.389867619993
 20
793.6116186166339
 30
0.0
  0
VERTEX
  5
1D7
  8
0
  6
CONTINUOUS
 62
     7
 10
2305.387711874628
 20
793.6155928563794
 30
0.0
  0
VERTEX
  5
1D8
  8
0
  6
CONTINUOUS
 62
     7
 10
2305.385432986364
 20
793.6195755015325
 30
0.0
  0
VERTEX
  5
1D9
  8
0
  6
CONTINUOUS
 62
     7
 10
2305.383027492091
 20
793.6235618954636
 30
0.0
  0
VERTEX
  5
1DA
  8
0
  6
CONTINUOUS
 62
     7
 10
2305.380491928695
 20
793.6275473815416
 30
0.0
  0
VERTEX
  5
1DB
  8
0
  6
CONTINUOUS
 62
     7
 10
2305.377822833065
 20
793.6315273031373
 30
0.0
  0
VERTEX
  5
1DC
  8
0
  6
CONTINUOUS
 62
     7
 10
2305.375016742089
 20
793.6354970036198
 30
0.0
  0
VERTEX
  5
1DD
  8
0
  6
CONTINUOUS
 62
     7
 10
2305.372070192654
 20
793.6394518263592
 30
0.0
  0
VERTEX
  5
1DE
  8
0
  6
CONTINUOUS
 62
     7
 10
2305.368979721648
 20
793.6433871147249
 30
0.0
  0
VERTEX
  5
1DF
  8
0
  6
CONTINUOUS
 62
     7
 10
2305.365741865957
 20
793.647298212087
 30
0.0
  0
VERTEX
  5
1E0
  8
0
  6
CONTINUOUS
 62
     7
 10
2305.362353162471
 20
793.6511804618153
 30
0.0
  0
VERTEX
  5
1E1
  8
0
  6
CONTINUOUS
 62
     7
 10
2305.358810148077
 20
793.6550292072797
 30
0.0
  0
VERTEX
  5
1E2
  8
0
  6
CONTINUOUS
 62
     7
 10
2305.35510936127
 20
793.658839790537
 30
0.0
  0
VERTEX
  5
1E3
  8
0
  6
CONTINUOUS
 62
     7
 10
2305.351248035399
 20
793.6626069863571
 30
0.0
  0
VERTEX
  5
1E4
  8
0
  6
CONTINUOUS
 62
     7
 10
2305.347225180538
 20
793.6663241189674
 30
0.0
  0
VERTEX
  5
1E5
  8
0
  6
CONTINUOUS
 62
     7
 10
2305.343040086691
 20
793.6699842840584
 30
0.0
  0
VERTEX
  5
1E6
  8
0
  6
CONTINUOUS
 62
     7
 10
2305.338692043857
 20
793.6735805773199
 30
0.0
  0
VERTEX
  5
1E7
  8
0
  6
CONTINUOUS
 62
     7
 10
2305.334180342041
 20
793.6771060944424
 30
0.0
  0
VERTEX
  5
1E8
  8
0
  6
CONTINUOUS
 62
     7
 10
2305.329504271244
 20
793.6805539311165
 30
0.0
  0
VERTEX
  5
1E9
  8
0
  6
CONTINUOUS
 62
     7
 10
2305.324663121468
 20
793.6839171830326
 30
0.0
  0
VERTEX
  5
1EA
  8
0
  6
CONTINUOUS
 62
     7
 10
2305.319656182716
 20
793.6871889458807
 30
0.0
  0
VERTEX
  5
1EB
  8
0
  6
CONTINUOUS
 62
     7
 10
2305.31448274499
 20
793.6903623153515
 30
0.0
  0
VERTEX
  5
1EC
  8
0
  6
CONTINUOUS
 62
     7
 10
2305.309142098298
 20
793.6934303871259
 30
0.0
  0
VERTEX
  5
1ED
  8
0
  6
CONTINUOUS
 62
     7
 10
2305.303634756149
 20
793.6963837052849
 30
0.0
  0
VERTEX
  5
1EE
  8
0
  6
CONTINUOUS
 62
     7
 10
2305.297965898491
 20
793.699203082143
 30
0.0
  0
VERTEX
  5
1EF
  8
0
  6
CONTINUOUS
 62
     7
 10
2305.292141817607
 20
793.7018670102615
 30
0.0
  0
VERTEX
  5
1F0
  8
0
  6
CONTINUOUS
 62
     7
 10
2305.286168805774
 20
793.7043539822023
 30
0.0
  0
VERTEX
  5
1F1
  8
0
  6
CONTINUOUS
 62
     7
 10
2305.280053155275
 20
793.7066424905256
 30
0.0
  0
VERTEX
  5
1F2
  8
0
  6
CONTINUOUS
 62
     7
 10
2305.273801158389
 20
793.7087110277935
 30
0.0
  0
VERTEX
  5
1F3
  8
0
  6
CONTINUOUS
 62
     7
 10
2305.267419107396
 20
793.7105380865667
 30
0.0
  0
VERTEX
  5
1F4
  8
0
  6
CONTINUOUS
 62
     7
 10
2305.260913526664
 20
793.7121035345484
 30
0.0
  0
VERTEX
  5
1F5
  8
0
  6
CONTINUOUS
 62
     7
 10
2305.254295753593
 20
793.7134157573753
 30
0.0
  0
VERTEX
  5
1F6
  8
0
  6
CONTINUOUS
 62
     7
 10
2305.247581663878
 20
793.7145100307432
 30
0.0
  0
VERTEX
  5
1F7
  8
0
  6
CONTINUOUS
 62
     7
 10
2305.240787310294
 20
793.7154226795617
 30
0.0
  0
VERTEX
  5
1F8
  8
0
  6
CONTINUOUS
 62
     7
 10
2305.233928745616
 20
793.7161900287412
 30
0.0
  0
VERTEX
  5
1F9
  8
0
  6
CONTINUOUS
 62
     7
 10
2305.227022022614
 20
793.7168484031904
 30
0.0
  0
VERTEX
  5
1FA
  8
0
  6
CONTINUOUS
 62
     7
 10
2305.220083194066
 20
793.7174341278204
 30
0.0
  0
VERTEX
  5
1FB
  8
0
  6
CONTINUOUS
 62
     7
 10
2305.213128312743
 20
793.7179835275405
 30
0.0
  0
SEQEND
  5
2BF
  8
0
  6
CONTINUOUS
 62
     7
  0
LINE
  5
8A
  8
0
  6
CONTINUOUS
 62
     7
 10
2304.413128312744
 20
793.2319194297243
 30
0.0
 11
2305.213128312743
 21
793.2319194297243
 31
0.0
  0
LINE
  5
8B
  8
0
  6
CONTINUOUS
 62
     7
 10
2304.413128312744
 20
793.7179835275405
 30
0.0
 11
2304.413128312744
 21
793.2319194297243
 31
0.0
  0
LINE
  5
8C
  8
0
  6
CONTINUOUS
 62
     7
 10
2304.413128312744
 20
793.2319194297243
 30
0.0
 11
2304.413128312744
 21
793.2179835275405
 31
0.0
  0
LINE
  5
8D
  8
0
  6
CONTINUOUS
 62
     7
 10
2305.413128312743
 20
793.4291322492875
 30
0.0
 11
2305.413128312743
 21
793.4179835275404
 31
0.0
  0
LINE
  5
8E
  8
0
  6
CONTINUOUS
 62
     7
 10
2305.413128312743
 20
793.7179835275404
 30
0.0
 11
2305.413128312743
 21
793.5179835275404
 31
0.0
  0
LINE
  5
8F
  8
0
  6
CONTINUOUS
 62
     7
 10
2060.413128312744
 20
793.2319194297241
 30
0.0
 11
2304.413128312744
 21
793.2319194297243
 31
0.0
  0
LINE
  5
90
  8
0
  6
CONTINUOUS
 62
     7
 10
2060.413128312744
 20
793.2319194297241
 30
0.0
 11
2060.413128312744
 21
793.7179835275404
 31
0.0
  0
LINE
  5
91
  8
0
  6
CONTINUOUS
 62
     7
 10
2060.413128312744
 20
793.2179835275404
 30
0.0
 11
2060.413128312744
 21
793.2319194297241
 31
0.0
  0
LINE
  5
92
  8
0
  6
CONTINUOUS
 62
     7
 10
2059.413128312744
 20
793.4291322492874
 30
0.0
 11
2059.413128312744
 21
793.5179835275403
 31
0.0
  0
LINE
  5
93
  8
0
  6
CONTINUOUS
 62
     7
 10
2059.613128312744
 20
793.7179835275404
 30
0.0
 11
2059.613128312744
 21
793.2319194297241
 31
0.0
  0
ARC
  5
94
  8
0
  6
CONTINUOUS
 62
     7
 10
2059.611744432993
 20
793.4305356872106
 30
0.0
 40
0.1986210785921764
 50
180.404849976204
 51
270.399207934805
  0
POLYLINE
  5
95
  8
0
  6
CONTINUOUS
 62
     7
 66
     1
 10
0.0
 20
0.0
 30
0.0
  0
VERTEX
  5
1FC
  8
0
  6
CONTINUOUS
 62
     7
 10
2059.413128312744
 20
793.5179835275403
 30
0.0
  0
VERTEX
  5
1FD
  8
0
  6
CONTINUOUS
 62
     7
 10
2059.413145749505
 20
793.5207414597178
 30
0.0
  0
VERTEX
  5
1FE
  8
0
  6
CONTINUOUS
 62
     7
 10
2059.41320154727
 20
793.523567899466
 30
0.0
  0
VERTEX
  5
1FF
  8
0
  6
CONTINUOUS
 62
     7
 10
2059.413300148859
 20
793.5264636866292
 30
0.0
  0
VERTEX
  5
200
  8
0
  6
CONTINUOUS
 62
     7
 10
2059.413444585068
 20
793.5294268440126
 30
0.0
  0
VERTEX
  5
201
  8
0
  6
CONTINUOUS
 62
     7
 10
2059.413637886691
 20
793.5324553944212
 30
0.0
  0
VERTEX
  5
202
  8
0
  6
CONTINUOUS
 62
     7
 10
2059.413883084521
 20
793.5355473606605
 30
0.0
  0
VERTEX
  5
203
  8
0
  6
CONTINUOUS
 62
     7
 10
2059.414183209352
 20
793.538700765535
 30
0.0
  0
VERTEX
  5
204
  8
0
  6
CONTINUOUS
 62
     7
 10
2059.414541291978
 20
793.5419136318502
 30
0.0
  0
VERTEX
  5
205
  8
0
  6
CONTINUOUS
 62
     7
 10
2059.414960363193
 20
793.5451839824108
 30
0.0
  0
VERTEX
  5
206
  8
0
  6
CONTINUOUS
 62
     7
 10
2059.41544345379
 20
793.5485098400221
 30
0.0
  0
VERTEX
  5
207
  8
0
  6
CONTINUOUS
 62
     7
 10
2059.415993594564
 20
793.5518892274893
 30
0.0
  0
VERTEX
  5
208
  8
0
  6
CONTINUOUS
 62
     7
 10
2059.416613816309
 20
793.5553201676173
 30
0.0
  0
VERTEX
  5
209
  8
0
  6
CONTINUOUS
 62
     7
 10
2059.417307149816
 20
793.5588006832107
 30
0.0
  0
VERTEX
  5
20A
  8
0
  6
CONTINUOUS
 62
     7
 10
2059.418076625881
 20
793.5623287970752
 30
0.0
  0
VERTEX
  5
20B
  8
0
  6
CONTINUOUS
 62
     7
 10
2059.418925275299
 20
793.5659025320157
 30
0.0
  0
VERTEX
  5
20C
  8
0
  6
CONTINUOUS
 62
     7
 10
2059.419856128861
 20
793.569519910837
 30
0.0
  0
VERTEX
  5
20D
  8
0
  6
CONTINUOUS
 62
     7
 10
2059.420872217363
 20
793.5731789563445
 30
0.0
  0
VERTEX
  5
20E
  8
0
  6
CONTINUOUS
 62
     7
 10
2059.421976571598
 20
793.5768776913434
 30
0.0
  0
VERTEX
  5
20F
  8
0
  6
CONTINUOUS
 62
     7
 10
2059.42317222236
 20
793.5806141386382
 30
0.0
  0
VERTEX
  5
210
  8
0
  6
CONTINUOUS
 62
     7
 10
2059.424462200443
 20
793.5843863210343
 30
0.0
  0
VERTEX
  5
211
  8
0
  6
CONTINUOUS
 62
     7
 10
2059.425849536639
 20
793.5881922613365
 30
0.0
  0
VERTEX
  5
212
  8
0
  6
CONTINUOUS
 62
     7
 10
2059.427337261744
 20
793.5920299823504
 30
0.0
  0
VERTEX
  5
213
  8
0
  6
CONTINUOUS
 62
     7
 10
2059.428928406552
 20
793.5958975068806
 30
0.0
  0
VERTEX
  5
214
  8
0
  6
CONTINUOUS
 62
     7
 10
2059.430626001855
 20
793.5997928577324
 30
0.0
  0
VERTEX
  5
215
  8
0
  6
CONTINUOUS
 62
     7
 10
2059.432433091004
 20
793.6037139798875
 30
0.0
  0
VERTEX
  5
216
  8
0
  6
CONTINUOUS
 62
     7
 10
2059.434352939913
 20
793.6076574389265
 30
0.0
  0
VERTEX
  5
217
  8
0
  6
CONTINUOUS
 62
     7
 10
2059.436389005493
 20
793.6116186166339
 30
0.0
  0
VERTEX
  5
218
  8
0
  6
CONTINUOUS
 62
     7
 10
2059.43854475086
 20
793.6155928563794
 30
0.0
  0
VERTEX
  5
219
  8
0
  6
CONTINUOUS
 62
     7
 10
2059.440823639123
 20
793.6195755015323
 30
0.0
  0
VERTEX
  5
21A
  8
0
  6
CONTINUOUS
 62
     7
 10
2059.443229133396
 20
793.6235618954634
 30
0.0
  0
VERTEX
  5
21B
  8
0
  6
CONTINUOUS
 62
     7
 10
2059.445764696792
 20
793.6275473815417
 30
0.0
  0
VERTEX
  5
21C
  8
0
  6
CONTINUOUS
 62
     7
 10
2059.448433792421
 20
793.6315273031371
 30
0.0
  0
VERTEX
  5
21D
  8
0
  6
CONTINUOUS
 62
     7
 10
2059.451239883398
 20
793.6354970036195
 30
0.0
  0
VERTEX
  5
21E
  8
0
  6
CONTINUOUS
 62
     7
 10
2059.454186432833
 20
793.6394518263588
 30
0.0
  0
VERTEX
  5
21F
  8
0
  6
CONTINUOUS
 62
     7
 10
2059.45727690384
 20
793.6433871147246
 30
0.0
  0
VERTEX
  5
220
  8
0
  6
CONTINUOUS
 62
     7
 10
2059.46051475953
 20
793.6472982120869
 30
0.0
  0
VERTEX
  5
221
  8
0
  6
CONTINUOUS
 62
     7
 10
2059.463903463016
 20
793.6511804618152
 30
0.0
  0
VERTEX
  5
222
  8
0
  6
CONTINUOUS
 62
     7
 10
2059.46744647741
 20
793.6550292072795
 30
0.0
  0
VERTEX
  5
223
  8
0
  6
CONTINUOUS
 62
     7
 10
2059.471147264218
 20
793.658839790537
 30
0.0
  0
VERTEX
  5
224
  8
0
  6
CONTINUOUS
 62
     7
 10
2059.475008590088
 20
793.6626069863571
 30
0.0
  0
VERTEX
  5
225
  8
0
  6
CONTINUOUS
 62
     7
 10
2059.479031444948
 20
793.6663241189672
 30
0.0
  0
VERTEX
  5
226
  8
0
  6
CONTINUOUS
 62
     7
 10
2059.483216538797
 20
793.669984284058
 30
0.0
  0
VERTEX
  5
227
  8
0
  6
CONTINUOUS
 62
     7
 10
2059.48756458163
 20
793.6735805773195
 30
0.0
  0
VERTEX
  5
228
  8
0
  6
CONTINUOUS
 62
     7
 10
2059.492076283446
 20
793.6771060944421
 30
0.0
  0
VERTEX
  5
229
  8
0
  6
CONTINUOUS
 62
     7
 10
2059.496752354243
 20
793.6805539311163
 30
0.0
  0
VERTEX
  5
22A
  8
0
  6
CONTINUOUS
 62
     7
 10
2059.501593504019
 20
793.6839171830323
 30
0.0
  0
VERTEX
  5
22B
  8
0
  6
CONTINUOUS
 62
     7
 10
2059.506600442771
 20
793.6871889458806
 30
0.0
  0
VERTEX
  5
22C
  8
0
  6
CONTINUOUS
 62
     7
 10
2059.511773880497
 20
793.6903623153515
 30
0.0
  0
VERTEX
  5
22D
  8
0
  6
CONTINUOUS
 62
     7
 10
2059.51711452719
 20
793.6934303871255
 30
0.0
  0
VERTEX
  5
22E
  8
0
  6
CONTINUOUS
 62
     7
 10
2059.522621869338
 20
793.6963837052845
 30
0.0
  0
VERTEX
  5
22F
  8
0
  6
CONTINUOUS
 62
     7
 10
2059.528290726996
 20
793.6992030821426
 30
0.0
  0
VERTEX
  5
230
  8
0
  6
CONTINUOUS
 62
     7
 10
2059.534114807881
 20
793.7018670102615
 30
0.0
  0
VERTEX
  5
231
  8
0
  6
CONTINUOUS
 62
     7
 10
2059.540087819713
 20
793.7043539822018
 30
0.0
  0
VERTEX
  5
232
  8
0
  6
CONTINUOUS
 62
     7
 10
2059.546203470212
 20
793.7066424905254
 30
0.0
  0
VERTEX
  5
233
  8
0
  6
CONTINUOUS
 62
     7
 10
2059.552455467099
 20
793.7087110277931
 30
0.0
  0
VERTEX
  5
234
  8
0
  6
CONTINUOUS
 62
     7
 10
2059.558837518091
 20
793.7105380865663
 30
0.0
  0
VERTEX
  5
235
  8
0
  6
CONTINUOUS
 62
     7
 10
2059.565343098823
 20
793.7121035345481
 30
0.0
  0
VERTEX
  5
236
  8
0
  6
CONTINUOUS
 62
     7
 10
2059.571960871895
 20
793.7134157573754
 30
0.0
  0
VERTEX
  5
237
  8
0
  6
CONTINUOUS
 62
     7
 10
2059.578674961609
 20
793.7145100307429
 30
0.0
  0
VERTEX
  5
238
  8
0
  6
CONTINUOUS
 62
     7
 10
2059.585469315192
 20
793.7154226795616
 30
0.0
  0
VERTEX
  5
239
  8
0
  6
CONTINUOUS
 62
     7
 10
2059.592327879871
 20
793.7161900287408
 30
0.0
  0
VERTEX
  5
23A
  8
0
  6
CONTINUOUS
 62
     7
 10
2059.599234602872
 20
793.7168484031904
 30
0.0
  0
VERTEX
  5
23B
  8
0
  6
CONTINUOUS
 62
     7
 10
2059.606173431421
 20
793.7174341278203
 30
0.0
  0
VERTEX
  5
23C
  8
0
  6
CONTINUOUS
 62
     7
 10
2059.613128312744
 20
793.7179835275404
 30
0.0
  0
SEQEND
  5
2C0
  8
0
  6
CONTINUOUS
 62
     7
  0
LINE
  5
96
  8
0
  6
CONTINUOUS
 62
     7
 10
2059.613128312744
 20
793.2319194297241
 30
0.0
 11
2060.413128312744
 21
793.2319194297241
 31
0.0
  0
LINE
  5
97
  8
0
  6
CONTINUOUS
 62
     7
 10
2059.413128312744
 20
793.4179835275403
 30
0.0
 11
2059.413128312744
 21
793.4291322492874
 31
0.0
  0
LINE
  5
98
  8
0
  6
CONTINUOUS
 62
     7
 10
2059.413128312744
 20
793.5179835275403
 30
0.0
 11
2059.413128312744
 21
793.7179835275404
 31
0.0
  0
LINE
  5
99
  8
0
  6
CONTINUOUS
 62
     7
 10
2302.413128312744
 20
793.7179835275404
 30
0.0
 11
2302.413128312744
 21
794.2179835275404
 31
0.0
  0
LINE
  5
9A
  8
0
  6
CONTINUOUS
 62
     7
 10
2062.413128312744
 20
793.7179835275404
 30
0.0
 11
2302.413128312744
 21
793.7179835275404
 31
0.0
  0
LINE
  5
9B
  8
0
  6
CONTINUOUS
 62
     7
 10
2062.413128312744
 20
794.2179835275404
 30
0.0
 11
2062.413128312744
 21
793.7179835275404
 31
0.0
  0
LINE
  5
9C
  8
0
  6
CONTINUOUS
 62
     7
 10
2302.413128312744
 20
794.2179835275404
 30
0.0
 11
2062.413128312744
 21
794.2179835275404
 31
0.0
  0
LINE
  5
9D
  8
0
  6
CONTINUOUS
 62
     7
 10
2059.413128312744
 20
793.7179835275404
 30
0.0
 11
2059.413128312744
 21
794.2179835275404
 31
0.0
  0
LINE
  5
9E
  8
0
  6
CONTINUOUS
 62
     7
 10
2062.413128312744
 20
793.7179835275404
 30
0.0
 11
2059.413128312744
 21
793.7179835275404
 31
0.0
  0
LINE
  5
9F
  8
0
  6
CONTINUOUS
 62
     7
 10
2059.413128312744
 20
794.2179835275404
 30
0.0
 11
2062.413128312744
 21
794.2179835275404
 31
0.0
  0
LINE
  5
A0
  8
0
  6
CONTINUOUS
 62
     7
 10
2305.413128312744
 20
794.2179835275402
 30
0.0
 11
2305.413128312744
 21
793.7179835275404
 31
0.0
  0
LINE
  5
A1
  8
0
  6
CONTINUOUS
 62
     7
 10
2305.413128312744
 20
793.7179835275404
 30
0.0
 11
2302.413128312744
 21
793.7179835275404
 31
0.0
  0
LINE
  5
A2
  8
0
  6
CONTINUOUS
 62
     7
 10
2302.413128312744
 20
794.2179835275404
 30
0.0
 11
2305.413128312744
 21
794.2179835275402
 31
0.0
  0
LINE
  5
A3
  8
0
  6
CONTINUOUS
 62
     7
 10
2062.413128312744
 20
1940.717983527541
 30
0.0
 11
2062.413128312744
 21
794.2179835275404
 31
0.0
  0
LINE
  5
A4
  8
0
  6
CONTINUOUS
 62
     7
 10
2302.413128312744
 20
794.2179835275404
 30
0.0
 11
2302.413128312744
 21
1940.717983527541
 31
0.0
  0
LINE
  5
A5
  8
0
  6
CONTINUOUS
 62
     7
 10
2062.413128312744
 20
1940.717983527541
 30
0.0
 11
2302.413128312744
 21
1940.717983527541
 31
0.0
  0
LINE
  5
A6
  8
0
  6
CONTINUOUS
 62
     7
 10
2305.413128312744
 20
1940.717983527541
 30
0.0
 11
2305.413128312744
 21
794.2179835275402
 31
0.0
  0
LINE
  5
A7
  8
0
  6
CONTINUOUS
 62
     7
 10
2302.413128312744
 20
1940.717983527541
 30
0.0
 11
2305.413128312744
 21
1940.717983527541
 31
0.0
  0
LINE
  5
A8
  8
0
  6
CONTINUOUS
 62
     7
 10
2059.413128312744
 20
794.2179835275404
 30
0.0
 11
2059.413128312744
 21
1940.717983527541
 31
0.0
  0
LINE
  5
A9
  8
0
  6
CONTINUOUS
 62
     7
 10
2059.413128312744
 20
1940.717983527541
 30
0.0
 11
2062.413128312744
 21
1940.717983527541
 31
0.0
  0
LINE
  5
AA
  8
0
  6
CONTINUOUS
 62
     7
 10
2302.413128312744
 20
1940.717983527541
 30
0.0
 11
2302.413128312744
 21
1941.217983527541
 31
0.0
  0
LINE
  5
AB
  8
0
  6
CONTINUOUS
 62
     7
 10
2062.413128312744
 20
1941.217983527541
 30
0.0
 11
2062.413128312744
 21
1940.717983527541
 31
0.0
  0
LINE
  5
AC
  8
0
  6
CONTINUOUS
 62
     7
 10
2062.413128312744
 20
1941.217983527541
 30
0.0
 11
2302.413128312744
 21
1941.217983527541
 31
0.0
  0
LINE
  5
AD
  8
0
  6
CONTINUOUS
 62
     7
 10
2059.413128312744
 20
1940.717983527541
 30
0.0
 11
2059.413128312744
 21
1941.217983527541
 31
0.0
  0
LINE
  5
AE
  8
0
  6
CONTINUOUS
 62
     7
 10
2059.413128312744
 20
1941.217983527541
 30
0.0
 11
2062.413128312744
 21
1941.217983527541
 31
0.0
  0
LINE
  5
AF
  8
0
  6
CONTINUOUS
 62
     7
 10
2305.413128312744
 20
1941.217983527541
 30
0.0
 11
2305.413128312744
 21
1940.717983527541
 31
0.0
  0
LINE
  5
B0
  8
0
  6
CONTINUOUS
 62
     7
 10
2302.413128312744
 20
1941.217983527541
 30
0.0
 11
2305.413128312744
 21
1941.217983527541
 31
0.0
  0
LINE
  5
B1
  8
0
  6
CONTINUOUS
 62
     7
 10
2288.413128312744
 20
793.2179835275404
 30
0.0
 11
2074.913128312744
 21
793.2179835275404
 31
0.0
  0
LINE
  5
B2
  8
0
  6
CONTINUOUS
 62
     7
 10
2288.413128312744
 20
792.7179835275405
 30
0.0
 11
2074.913128312744
 21
792.7179835275405
 31
0.0
  0
LINE
  5
B3
  8
0
  6
CONTINUOUS
 62
     7
 10
2288.413128312744
 20
1941.71798352754
 30
0.0
 11
2074.913128312744
 21
1941.71798352754
 31
0.0
  0
LINE
  5
B4
  8
0
  6
CONTINUOUS
 62
     7
 10
2057.413128312744
 20
1942.71798352754
 30
0.0
 11
2074.913128312744
 21
1942.71798352754
 31
0.0
  0
LINE
  5
B5
  8
0
  6
CONTINUOUS
 62
     7
 10
2074.913128312744
 20
1942.71798352754
 30
0.0
 11
2074.913128312744
 21
1941.217983527541
 31
0.0
  0
LINE
  5
B6
  8
0
  6
CONTINUOUS
 62
     7
 10
2074.913128312744
 20
793.2179835275404
 30
0.0
 11
2074.913128312744
 21
792.7179835275405
 31
0.0
  0
LINE
  5
B7
  8
0
  6
CONTINUOUS
 62
     7
 10
2074.913128312744
 20
792.7179835275405
 30
0.0
 11
2057.413128312744
 21
792.7179835275405
 31
0.0
  0
LINE
  5
B8
  8
0
  6
CONTINUOUS
 62
     7
 10
2057.413128312744
 20
792.7179835275405
 30
0.0
 11
2057.413128312744
 21
1942.71798352754
 31
0.0
  0
LINE
  5
B9
  8
0
  6
CONTINUOUS
 62
     7
 10
2305.913128312744
 20
792.7179835275405
 30
0.0
 11
2288.413128312744
 21
792.7179835275405
 31
0.0
  0
LINE
  5
BA
  8
0
  6
CONTINUOUS
 62
     7
 10
2288.413128312744
 20
792.7179835275405
 30
0.0
 11
2288.413128312744
 21
793.2179835275404
 31
0.0
  0
LINE
  5
BB
  8
0
  6
CONTINUOUS
 62
     7
 10
2288.413128312744
 20
1941.217983527541
 30
0.0
 11
2288.413128312744
 21
1942.71798352754
 31
0.0
  0
LINE
  5
BC
  8
0
  6
CONTINUOUS
 62
     7
 10
2288.413128312744
 20
1942.71798352754
 30
0.0
 11
2305.913128312744
 21
1942.71798352754
 31
0.0
  0
LINE
  5
BD
  8
0
  6
CONTINUOUS
 62
     7
 10
2305.913128312744
 20
1942.71798352754
 30
0.0
 11
2305.913128312744
 21
792.7179835275405
 31
0.0
  0
LINE
  5
BE
  8
0
  6
CONTINUOUS
 62
     8
 10
2305.213128312743
 20
793.2179835275405
 30
0.0
 11
2305.213128312743
 21
793.2319194297243
 31
0.0
  0
LINE
  5
BF
  8
0
  6
CONTINUOUS
 62
     8
 10
2059.613128312744
 20
793.2319194297241
 30
0.0
 11
2059.613128312744
 21
793.2179835275404
 31
0.0
  0
ARC
  5
C0
  8
0
  6
CONTINUOUS
 62
     7
 10
840.5589635966579
 20
805.7179835275404
 30
0.0
 40
1.000000000000082
 50
225.572995999187
 51
270.0000000000008
  0
LINE
  5
C1
  8
0
  6
CONTINUOUS
 62
     7
 10
840.5589635966579
 20
804.7179835275404
 30
0.0
 11
840.5589635966579
 21
804.9179835275403
 31
0.0
  0
LINE
  5
C2
  8
0
  6
CONTINUOUS
 62
     7
 10
853.6589635966578
 20
793.5179835275403
 30
0.0
 11
853.6589635966578
 21
806.5179835275403
 31
0.0
  0
LINE
  5
C3
  8
0
  6
CONTINUOUS
 62
     7
 10
854.0761752801159
 20
793.5179835275403
 30
0.0
 11
853.6589635966578
 21
793.5179835275403
 31
0.0
  0
ARC
  5
C4
  8
0
  6
CONTINUOUS
 62
     7
 10
853.859001922586
 20
793.7249514786322
 30
0.0
 40
0.299999999999993
 50
279.5765884810813
 51
316.3783470327297
  0
ARC
  5
C5
  8
0
  6
CONTINUOUS
 62
     7
 10
853.7758189991613
 20
794.2179835275404
 30
0.0
 40
0.8000000000000556
 50
184.9699465946955
 51
279.5765884810638
  0
LINE
  5
C6
  8
0
  6
CONTINUOUS
 62
     7
 10
852.137638158987
 20
803.8219433626277
 30
0.0
 11
852.9788267776215
 21
794.1486769708154
 31
0.0
  0
ARC
  5
C7
  8
0
  6
CONTINUOUS
 62
     7
 10
850.9421498266773
 20
803.7179835275404
 30
0.0
 40
1.199999999999961
 50
4.969946594689308
 51
90.0
  0
LINE
  5
C8
  8
0
  6
CONTINUOUS
 62
     7
 10
840.5589635966579
 20
804.9179835275403
 30
0.0
 11
850.9421498266773
 21
804.9179835275403
 31
0.0
  0
LINE
  5
C9
  8
0
  6
CONTINUOUS
 62
     7
 10
841.1589635966578
 20
806.5179835275403
 30
0.0
 11
841.1589635966578
 21
826.5179835275403
 31
0.0
  0
LINE
  5
CA
  8
0
  6
CONTINUOUS
 62
     7
 10
853.6589635966578
 20
806.5179835275403
 30
0.0
 11
841.1589635966578
 21
806.5179835275403
 31
0.0
  0
LINE
  5
CB
  8
0
  6
CONTINUOUS
 62
     7
 10
850.9421498266773
 20
804.7179835275404
 30
0.0
 11
840.5589635966579
 21
804.7179835275404
 31
0.0
  0
LINE
  5
CC
  8
0
  6
CONTINUOUS
 62
     7
 10
850.9421498266773
 20
804.7179835275404
 30
0.0
 11
850.9421498266773
 21
804.9179835275403
 31
0.0
  0
LINE
  5
CD
  8
0
  6
CONTINUOUS
 62
     7
 10
841.1589635966578
 20
806.5179835275403
 30
0.0
 11
841.3589635966579
 21
806.7179835275404
 31
0.0
  0
LINE
  5
CE
  8
0
  6
CONTINUOUS
 62
     7
 10
853.6589635966578
 20
806.5179835275403
 30
0.0
 11
853.8589635966578
 21
806.7179835275404
 31
0.0
  0
LINE
  5
CF
  8
0
  6
CONTINUOUS
 62
     7
 10
841.3589635966579
 20
826.7179835275404
 30
0.0
 11
841.1589635966578
 21
826.5179835275403
 31
0.0
  0
LINE
  5
D0
  8
0
  6
CONTINUOUS
 62
     7
 10
839.8589635966578
 20
826.7179835275404
 30
0.0
 11
841.3589635966579
 21
826.7179835275404
 31
0.0
  0
ARC
  5
D1
  8
0
  6
CONTINUOUS
 62
     7
 10
850.9421498266773
 20
803.7179835275404
 30
0.0
 40
1.0
 50
4.96994659469147
 51
90.0
  0
LINE
  5
D2
  8
0
  6
CONTINUOUS
 62
     7
 10
851.938390103602
 20
803.8046167234465
 30
0.0
 11
852.137638158987
 21
803.8219433626277
 31
0.0
  0
LINE
  5
D3
  8
0
  6
CONTINUOUS
 62
     7
 10
852.7795787222366
 20
794.1313503316342
 30
0.0
 11
851.938390103602
 21
803.8046167234465
 31
0.0
  0
LINE
  5
D4
  8
0
  6
CONTINUOUS
 62
     7
 10
852.9788267776215
 20
794.1486769708154
 30
0.0
 11
852.7795787222366
 21
794.1313503316342
 31
0.0
  0
LINE
  5
D5
  8
0
  6
CONTINUOUS
 62
     7
 10
853.908911676641
 20
793.4291322492874
 30
0.0
 11
853.9421848460108
 21
793.2319194297241
 31
0.0
  0
ARC
  5
D6
  8
0
  6
CONTINUOUS
 62
     7
 10
853.7758189991613
 20
794.2179835275404
 30
0.0
 40
1.000000000000032
 50
184.9699465946923
 51
279.5765884810609
  0
LINE
  5
D7
  8
0
  6
CONTINUOUS
 62
     7
 10
853.6589635966578
 20
793.5179835275403
 30
0.0
 11
853.8589635966578
 21
793.7179835275404
 31
0.0
  0
POLYLINE
  5
D8
  8
0
  6
CONTINUOUS
 62
     7
 66
     1
 10
0.0
 20
0.0
 30
0.0
  0
VERTEX
  5
23D
  8
0
  6
CONTINUOUS
 62
     7
 10
854.0761752801159
 20
793.5179835275403
 30
0.0
  0
VERTEX
  5
23E
  8
0
  6
CONTINUOUS
 62
     7
 10
854.08252674003
 20
793.5207414597178
 30
0.0
  0
VERTEX
  5
23F
  8
0
  6
CONTINUOUS
 62
     7
 10
854.088854801356
 20
793.523567899466
 30
0.0
  0
VERTEX
  5
240
  8
0
  6
CONTINUOUS
 62
     7
 10
854.0951574799245
 20
793.5264636866292
 30
0.0
  0
VERTEX
  5
241
  8
0
  6
CONTINUOUS
 62
     7
 10
854.1014336830598
 20
793.5294268440126
 30
0.0
  0
VERTEX
  5
242
  8
0
  6
CONTINUOUS
 62
     7
 10
854.1076823180844
 20
793.5324553944212
 30
0.0
  0
VERTEX
  5
243
  8
0
  6
CONTINUOUS
 62
     7
 10
854.1139022923227
 20
793.5355473606605
 30
0.0
  0
VERTEX
  5
244
  8
0
  6
CONTINUOUS
 62
     7
 10
854.1200925130978
 20
793.538700765535
 30
0.0
  0
VERTEX
  5
245
  8
0
  6
CONTINUOUS
 62
     7
 10
854.1262518877336
 20
793.5419136318502
 30
0.0
  0
VERTEX
  5
246
  8
0
  6
CONTINUOUS
 62
     7
 10
854.1323793235532
 20
793.5451839824108
 30
0.0
  0
VERTEX
  5
247
  8
0
  6
CONTINUOUS
 62
     7
 10
854.1384737278808
 20
793.5485098400221
 30
0.0
  0
VERTEX
  5
248
  8
0
  6
CONTINUOUS
 62
     7
 10
854.1445340080393
 20
793.5518892274893
 30
0.0
  0
VERTEX
  5
249
  8
0
  6
CONTINUOUS
 62
     7
 10
854.1505590713525
 20
793.5553201676173
 30
0.0
  0
VERTEX
  5
24A
  8
0
  6
CONTINUOUS
 62
     7
 10
854.1565478251438
 20
793.5588006832107
 30
0.0
  0
VERTEX
  5
24B
  8
0
  6
CONTINUOUS
 62
     7
 10
854.1624991767369
 20
793.5623287970752
 30
0.0
  0
VERTEX
  5
24C
  8
0
  6
CONTINUOUS
 62
     7
 10
854.1684120334553
 20
793.5659025320157
 30
0.0
  0
VERTEX
  5
24D
  8
0
  6
CONTINUOUS
 62
     7
 10
854.1742853026226
 20
793.569519910837
 30
0.0
  0
VERTEX
  5
24E
  8
0
  6
CONTINUOUS
 62
     7
 10
854.1801178915622
 20
793.5731789563445
 30
0.0
  0
VERTEX
  5
24F
  8
0
  6
CONTINUOUS
 62
     7
 10
854.185908707598
 20
793.5768776913434
 30
0.0
  0
VERTEX
  5
250
  8
0
  6
CONTINUOUS
 62
     7
 10
854.1916566580529
 20
793.5806141386382
 30
0.0
  0
VERTEX
  5
251
  8
0
  6
CONTINUOUS
 62
     7
 10
854.1973606502511
 20
793.5843863210343
 30
0.0
  0
VERTEX
  5
252
  8
0
  6
CONTINUOUS
 62
     7
 10
854.2030195915156
 20
793.5881922613365
 30
0.0
  0
VERTEX
  5
253
  8
0
  6
CONTINUOUS
 62
     7
 10
854.2086323891704
 20
793.5920299823504
 30
0.0
  0
VERTEX
  5
254
  8
0
  6
CONTINUOUS
 62
     7
 10
854.2141979505388
 20
793.5958975068806
 30
0.0
  0
VERTEX
  5
255
  8
0
  6
CONTINUOUS
 62
     7
 10
854.2197151829444
 20
793.5997928577324
 30
0.0
  0
VERTEX
  5
256
  8
0
  6
CONTINUOUS
 62
     7
 10
854.2251829339635
 20
793.6037139798875
 30
0.0
  0
VERTEX
  5
257
  8
0
  6
CONTINUOUS
 62
     7
 10
854.230598992163
 20
793.6076574389265
 30
0.0
  0
VERTEX
  5
258
  8
0
  6
CONTINUOUS
 62
     7
 10
854.2359602372733
 20
793.6116186166339
 30
0.0
  0
VERTEX
  5
259
  8
0
  6
CONTINUOUS
 62
     7
 10
854.2412635195319
 20
793.6155928563794
 30
0.0
  0
VERTEX
  5
25A
  8
0
  6
CONTINUOUS
 62
     7
 10
854.2465056891768
 20
793.6195755015323
 30
0.0
  0
VERTEX
  5
25B
  8
0
  6
CONTINUOUS
 62
     7
 10
854.2516835964465
 20
793.6235618954634
 30
0.0
  0
VERTEX
  5
25C
  8
0
  6
CONTINUOUS
 62
     7
 10
854.2567940915785
 20
793.6275473815417
 30
0.0
  0
VERTEX
  5
25D
  8
0
  6
CONTINUOUS
 62
     7
 10
854.261834024811
 20
793.6315273031371
 30
0.0
  0
VERTEX
  5
25E
  8
0
  6
CONTINUOUS
 62
     7
 10
854.2668002463816
 20
793.6354970036195
 30
0.0
  0
VERTEX
  5
25F
  8
0
  6
CONTINUOUS
 62
     7
 10
854.2716896065286
 20
793.6394518263588
 30
0.0
  0
VERTEX
  5
260
  8
0
  6
CONTINUOUS
 62
     7
 10
854.2764989554901
 20
793.6433871147246
 30
0.0
  0
VERTEX
  5
261
  8
0
  6
CONTINUOUS
 62
     7
 10
854.2812251435037
 20
793.6472982120869
 30
0.0
  0
VERTEX
  5
262
  8
0
  6
CONTINUOUS
 62
     7
 10
854.2858650208076
 20
793.6511804618152
 30
0.0
  0
VERTEX
  5
263
  8
0
  6
CONTINUOUS
 62
     7
 10
854.2904154376395
 20
793.6550292072795
 30
0.0
  0
VERTEX
  5
264
  8
0
  6
CONTINUOUS
 62
     7
 10
854.2948732433601
 20
793.658839790537
 30
0.0
  0
VERTEX
  5
265
  8
0
  6
CONTINUOUS
 62
     7
 10
854.2992349079858
 20
793.6626069863571
 30
0.0
  0
VERTEX
  5
266
  8
0
  6
CONTINUOUS
 62
     7
 10
854.3034959315613
 20
793.6663241189672
 30
0.0
  0
VERTEX
  5
267
  8
0
  6
CONTINUOUS
 62
     7
 10
854.3076516613094
 20
793.669984284058
 30
0.0
  0
VERTEX
  5
268
  8
0
  6
CONTINUOUS
 62
     7
 10
854.3116974444516
 20
793.6735805773195
 30
0.0
  0
VERTEX
  5
269
  8
0
  6
CONTINUOUS
 62
     7
 10
854.3156286282111
 20
793.6771060944421
 30
0.0
  0
VERTEX
  5
26A
  8
0
  6
CONTINUOUS
 62
     7
 10
854.31944055981
 20
793.6805539311163
 30
0.0
  0
VERTEX
  5
26B
  8
0
  6
CONTINUOUS
 62
     7
 10
854.3231285864711
 20
793.6839171830323
 30
0.0
  0
VERTEX
  5
26C
  8
0
  6
CONTINUOUS
 62
     7
 10
854.3266880554163
 20
793.6871889458806
 30
0.0
  0
VERTEX
  5
26D
  8
0
  6
CONTINUOUS
 62
     7
 10
854.3301143138685
 20
793.6903623153515
 30
0.0
  0
VERTEX
  5
26E
  8
0
  6
CONTINUOUS
 62
     7
 10
854.3334027090402
 20
793.6934303871255
 30
0.0
  0
VERTEX
  5
26F
  8
0
  6
CONTINUOUS
 62
     7
 10
854.3365460787611
 20
793.6963837052845
 30
0.0
  0
VERTEX
  5
270
  8
0
  6
CONTINUOUS
 62
     7
 10
854.3395276901022
 20
793.6992030821426
 30
0.0
  0
VERTEX
  5
271
  8
0
  6
CONTINUOUS
 62
     7
 10
854.3423285287612
 20
793.7018670102615
 30
0.0
  0
VERTEX
  5
272
  8
0
  6
CONTINUOUS
 62
     7
 10
854.3449295804357
 20
793.7043539822018
 30
0.0
  0
VERTEX
  5
273
  8
0
  6
CONTINUOUS
 62
     7
 10
854.3473118308232
 20
793.7066424905254
 30
0.0
  0
VERTEX
  5
274
  8
0
  6
CONTINUOUS
 62
     7
 10
854.3494562656216
 20
793.7087110277931
 30
0.0
  0
VERTEX
  5
275
  8
0
  6
CONTINUOUS
 62
     7
 10
854.3513438705286
 20
793.7105380865663
 30
0.0
  0
VERTEX
  5
276
  8
0
  6
CONTINUOUS
 62
     7
 10
854.3529569839825
 20
793.7121035345481
 30
0.0
  0
VERTEX
  5
277
  8
0
  6
CONTINUOUS
 62
     7
 10
854.3543059978026
 20
793.7134157573754
 30
0.0
  0
VERTEX
  5
278
  8
0
  6
CONTINUOUS
 62
     7
 10
854.355427755831
 20
793.7145100307429
 30
0.0
  0
VERTEX
  5
279
  8
0
  6
CONTINUOUS
 62
     7
 10
854.3563601340334
 20
793.7154226795616
 30
0.0
  0
VERTEX
  5
27A
  8
0
  6
CONTINUOUS
 62
     7
 10
854.3571410083748
 20
793.7161900287408
 30
0.0
  0
VERTEX
  5
27B
  8
0
  6
CONTINUOUS
 62
     7
 10
854.3578082548206
 20
793.7168484031904
 30
0.0
  0
VERTEX
  5
27C
  8
0
  6
CONTINUOUS
 62
     7
 10
854.358399749336
 20
793.7174341278203
 30
0.0
  0
VERTEX
  5
27D
  8
0
  6
CONTINUOUS
 62
     7
 10
854.358953367886
 20
793.7179835275404
 30
0.0
  0
SEQEND
  5
2C1
  8
0
  6
CONTINUOUS
 62
     7
  0
ARC
  5
D9
  8
0
  6
CONTINUOUS
 62
     7
 10
853.859001922586
 20
793.7249514786322
 30
0.0
 40
0.4999999999999694
 50
279.5765884810684
 51
359.2015057739033
  0
LINE
  5
DA
  8
0
  6
CONTINUOUS
 62
     7
 10
854.8589635966578
 20
793.7179835275405
 30
0.0
 11
854.8589635966578
 21
794.2179835275404
 31
0.0
  0
LINE
  5
DB
  8
0
  6
CONTINUOUS
 62
     7
 10
853.8589635966578
 20
793.7179835275405
 30
0.0
 11
854.8589635966578
 21
793.7179835275405
 31
0.0
  0
LINE
  5
DC
  8
0
  6
CONTINUOUS
 62
     7
 10
853.8589635966578
 20
793.7179835275405
 30
0.0
 11
853.8589635966578
 21
794.2179835275404
 31
0.0
  0
LINE
  5
DD
  8
0
  6
CONTINUOUS
 62
     7
 10
854.8589635966578
 20
794.2179835275404
 30
0.0
 11
853.8589635966578
 21
794.2179835275404
 31
0.0
  0
LINE
  5
DE
  8
0
  6
CONTINUOUS
 62
     7
 10
857.8589635966578
 20
794.2179835275404
 30
0.0
 11
857.8589635966578
 21
793.7179835275405
 31
0.0
  0
LINE
  5
DF
  8
0
  6
CONTINUOUS
 62
     7
 10
857.8589635966578
 20
793.7179835275405
 30
0.0
 11
854.8589635966578
 21
793.7179835275405
 31
0.0
  0
LINE
  5
E0
  8
0
  6
CONTINUOUS
 62
     7
 10
854.8589635966578
 20
794.2179835275404
 30
0.0
 11
857.8589635966578
 21
794.2179835275404
 31
0.0
  0
LINE
  5
E1
  8
0
  6
CONTINUOUS
 62
     7
 10
839.8589635966578
 20
1940.717983527541
 30
0.0
 11
854.8589635966578
 21
1940.717983527541
 31
0.0
  0
LINE
  5
E2
  8
0
  6
CONTINUOUS
 62
     7
 10
854.8589635966578
 20
794.2179835275404
 30
0.0
 11
854.8589635966578
 21
1940.717983527541
 31
0.0
  0
LINE
  5
E3
  8
0
  6
CONTINUOUS
 62
     7
 10
853.8589635966578
 20
794.2179835275404
 30
0.0
 11
853.8589635966578
 21
806.7179835275405
 31
0.0
  0
LINE
  5
E4
  8
0
  6
CONTINUOUS
 62
     7
 10
853.8589635966578
 20
806.7179835275405
 30
0.0
 11
841.3589635966579
 21
806.7179835275405
 31
0.0
  0
LINE
  5
E5
  8
0
  6
CONTINUOUS
 62
     7
 10
841.3589635966579
 20
806.7179835275405
 30
0.0
 11
841.3589635966579
 21
827.2179835275404
 31
0.0
  0
LINE
  5
E6
  8
0
  6
CONTINUOUS
 62
     7
 10
841.3589635966579
 20
827.2179835275404
 30
0.0
 11
839.8589635966578
 21
827.2179835275404
 31
0.0
  0
LINE
  5
E7
  8
0
  6
CONTINUOUS
 62
     7
 10
854.8589635966578
 20
1940.717983527541
 30
0.0
 11
857.8589635966578
 21
1940.717983527541
 31
0.0
  0
LINE
  5
E8
  8
0
  6
CONTINUOUS
 62
     7
 10
857.8589635966578
 20
1940.717983527541
 30
0.0
 11
857.8589635966578
 21
794.2179835275404
 31
0.0
  0
LINE
  5
E9
  8
0
  6
CONTINUOUS
 62
     7
 10
854.8589635966578
 20
1940.717983527541
 30
0.0
 11
854.8589635966578
 21
1941.217983527541
 31
0.0
  0
LINE
  5
EA
  8
0
  6
CONTINUOUS
 62
     7
 10
854.8589635966578
 20
1941.217983527541
 30
0.0
 11
839.8589635966578
 21
1941.217983527541
 31
0.0
  0
LINE
  5
EB
  8
0
  6
CONTINUOUS
 62
     7
 10
857.8589635966578
 20
1941.217983527541
 30
0.0
 11
857.8589635966578
 21
1940.717983527541
 31
0.0
  0
LINE
  5
EC
  8
0
  6
CONTINUOUS
 62
     7
 10
854.8589635966578
 20
1941.217983527541
 30
0.0
 11
857.8589635966578
 21
1941.217983527541
 31
0.0
  0
LINE
  5
ED
  8
0
  6
CONTINUOUS
 62
     7
 10
559.8589635966578
 20
1942.21798352754
 30
0.0
 11
838.8589635966578
 21
1942.21798352754
 31
0.0
  0
LINE
  5
EE
  8
0
  6
CONTINUOUS
 62
     7
 10
838.8589635966578
 20
793.2179835275401
 30
0.0
 11
838.8589635966578
 21
1942.21798352754
 31
0.0
  0
LINE
  5
EF
  8
0
  6
CONTINUOUS
 62
     7
 10
559.8589635966578
 20
793.2179835275401
 30
0.0
 11
559.8589635966578
 21
1942.21798352754
 31
0.0
  0
LINE
  5
F0
  8
0
  6
CONTINUOUS
 62
     7
 10
559.8589635966578
 20
793.2179835275401
 30
0.0
 11
838.8589635966578
 21
793.2179835275401
 31
0.0
  0
LINE
  5
F1
  8
0
  6
CONTINUOUS
 62
     7
 10
838.8589635966578
 20
792.7179835275405
 30
0.0
 11
838.8589635966578
 21
793.2179835275404
 31
0.0
  0
LINE
  5
F2
  8
0
  6
CONTINUOUS
 62
     7
 10
838.8589635966578
 20
792.7179835275405
 30
0.0
 11
559.8589635966578
 21
792.7179835275405
 31
0.0
  0
LINE
  5
F3
  8
0
  6
CONTINUOUS
 62
     7
 10
559.8589635966578
 20
792.7179835275405
 30
0.0
 11
559.8589635966578
 21
793.2179835275404
 31
0.0
  0
LINE
  5
F4
  8
0
  6
CONTINUOUS
 62
     7
 10
838.8589635966578
 20
1942.71798352754
 30
0.0
 11
838.8589635966578
 21
792.7179835275405
 31
0.0
  0
LINE
  5
F5
  8
0
  6
CONTINUOUS
 62
     7
 10
839.8589635966578
 20
1942.71798352754
 30
0.0
 11
838.8589635966578
 21
1942.71798352754
 31
0.0
  0
LINE
  5
F6
  8
0
  6
CONTINUOUS
 62
     7
 10
839.8589635966578
 20
792.7179835275405
 30
0.0
 11
839.8589635966578
 21
1942.71798352754
 31
0.0
  0
LINE
  5
F7
  8
0
  6
CONTINUOUS
 62
     7
 10
839.8589635966578
 20
792.7179835275405
 30
0.0
 11
838.8589635966578
 21
792.7179835275405
 31
0.0
  0
LINE
  5
F8
  8
0
  6
CONTINUOUS
 62
     7
 10
838.8589635966578
 20
1942.71798352754
 30
0.0
 11
559.8589635966578
 21
1942.71798352754
 31
0.0
  0
LINE
  5
F9
  8
0
  6
CONTINUOUS
 62
     7
 10
838.8589635966578
 20
1942.71798352754
 30
0.0
 11
838.8589635966578
 21
1942.21798352754
 31
0.0
  0
LINE
  5
FA
  8
0
  6
CONTINUOUS
 62
     7
 10
559.8589635966578
 20
1942.71798352754
 30
0.0
 11
559.8589635966578
 21
1942.21798352754
 31
0.0
  0
ARC
  5
FB
  8
0
  6
CONTINUOUS
 62
     8
 10
840.5589635966579
 20
805.7179835275404
 30
0.0
 40
0.8000000000000685
 50
208.955024371846
 51
270.0000000000008
  0
LINE
  5
FC
  8
0
  6
CONTINUOUS
 62
     8
 10
841.1589635966578
 20
826.5179835275403
 30
0.0
 11
839.8589635966578
 21
826.5179835275403
 31
0.0
  0
LINE
  5
FD
  8
0
  6
CONTINUOUS
 62
     7
 10
3164.360661712401
 20
826.7179835275405
 30
0.0
 11
3165.860661712401
 21
826.7179835275405
 31
0.0
  0
LINE
  5
FE
  8
0
  6
CONTINUOUS
 62
     7
 10
3164.360661712401
 20
826.7179835275405
 30
0.0
 11
3164.560661712401
 21
826.5179835275404
 31
0.0
  0
ARC
  5
FF
  8
0
  6
CONTINUOUS
 62
     7
 10
3154.777475482382
 20
803.7179835275405
 30
0.0
 40
1.200000000000414
 50
90.0
 51
175.0300534053126
  0
LINE
  5
100
  8
0
  6
CONTINUOUS
 62
     7
 10
3152.740798531437
 20
794.1486769708155
 30
0.0
 11
3153.581987150072
 21
803.8219433626278
 31
0.0
  0
ARC
  5
101
  8
0
  6
CONTINUOUS
 62
     7
 10
3151.943806309898
 20
794.2179835275405
 30
0.0
 40
0.8000000000000935
 50
260.4234115189217
 51
355.0300534053032
  0
ARC
  5
102
  8
0
  6
CONTINUOUS
 62
     7
 10
3151.860623386473
 20
793.7249514786324
 30
0.0
 40
0.3000000000001934
 50
223.6216529672576
 51
260.4234115189026
  0
LINE
  5
103
  8
0
  6
CONTINUOUS
 62
     7
 10
3152.060661712401
 20
793.5179835275404
 30
0.0
 11
3151.643450028943
 21
793.5179835275404
 31
0.0
  0
LINE
  5
104
  8
0
  6
CONTINUOUS
 62
     7
 10
3152.060661712401
 20
806.5179835275404
 30
0.0
 11
3152.060661712401
 21
793.5179835275404
 31
0.0
  0
LINE
  5
105
  8
0
  6
CONTINUOUS
 62
     7
 10
3164.560661712401
 20
806.5179835275404
 30
0.0
 11
3152.060661712401
 21
806.5179835275404
 31
0.0
  0
LINE
  5
106
  8
0
  6
CONTINUOUS
 62
     7
 10
3164.560661712401
 20
826.5179835275404
 30
0.0
 11
3164.560661712401
 21
806.5179835275404
 31
0.0
  0
LINE
  5
107
  8
0
  6
CONTINUOUS
 62
     7
 10
3154.777475482382
 20
804.9179835275404
 30
0.0
 11
3165.160661712401
 21
804.9179835275405
 31
0.0
  0
LINE
  5
108
  8
0
  6
CONTINUOUS
 62
     7
 10
3164.360661712401
 20
806.7179835275405
 30
0.0
 11
3164.560661712401
 21
806.5179835275404
 31
0.0
  0
ARC
  5
109
  8
0
  6
CONTINUOUS
 62
     7
 10
3165.160661712401
 20
805.7179835275405
 30
0.0
 40
1.0
 50
270.0000000000008
 51
314.4270040007821
  0
LINE
  5
10A
  8
0
  6
CONTINUOUS
 62
     7
 10
3165.160661712401
 20
804.9179835275405
 30
0.0
 11
3165.160661712401
 21
804.7179835275405
 31
0.0
  0
LINE
  5
10B
  8
0
  6
CONTINUOUS
 62
     7
 10
3165.160661712401
 20
804.7179835275405
 30
0.0
 11
3154.777475482382
 21
804.7179835275405
 31
0.0
  0
LINE
  5
10C
  8
0
  6
CONTINUOUS
 62
     7
 10
3154.777475482382
 20
804.9179835275404
 30
0.0
 11
3154.777475482382
 21
804.7179835275405
 31
0.0
  0
LINE
  5
10D
  8
0
  6
CONTINUOUS
 62
     7
 10
3151.860661712401
 20
806.7179835275405
 30
0.0
 11
3152.060661712401
 21
806.5179835275404
 31
0.0
  0
LINE
  5
10E
  8
0
  6
CONTINUOUS
 62
     7
 10
3151.860661712401
 20
793.7179835275405
 30
0.0
 11
3152.060661712401
 21
793.5179835275404
 31
0.0
  0
POLYLINE
  5
10F
  8
0
  6
CONTINUOUS
 62
     7
 66
     1
 10
0.0
 20
0.0
 30
0.0
  0
VERTEX
  5
27E
  8
0
  6
CONTINUOUS
 62
     7
 10
3151.643450028943
 20
793.5179835275404
 30
0.0
  0
VERTEX
  5
27F
  8
0
  6
CONTINUOUS
 62
     7
 10
3151.63709856903
 20
793.520741459718
 30
0.0
  0
VERTEX
  5
280
  8
0
  6
CONTINUOUS
 62
     7
 10
3151.630770507702
 20
793.5235678994658
 30
0.0
  0
VERTEX
  5
281
  8
0
  6
CONTINUOUS
 62
     7
 10
3151.624467829135
 20
793.5264636866293
 30
0.0
  0
VERTEX
  5
282
  8
0
  6
CONTINUOUS
 62
     7
 10
3151.618191625999
 20
793.5294268440126
 30
0.0
  0
VERTEX
  5
283
  8
0
  6
CONTINUOUS
 62
     7
 10
3151.611942990974
 20
793.5324553944212
 30
0.0
  0
VERTEX
  5
284
  8
0
  6
CONTINUOUS
 62
     7
 10
3151.605723016737
 20
793.5355473606605
 30
0.0
  0
VERTEX
  5
285
  8
0
  6
CONTINUOUS
 62
     7
 10
3151.599532795962
 20
793.5387007655353
 30
0.0
  0
VERTEX
  5
286
  8
0
  6
CONTINUOUS
 62
     7
 10
3151.593373421326
 20
793.5419136318502
 30
0.0
  0
VERTEX
  5
287
  8
0
  6
CONTINUOUS
 62
     7
 10
3151.587245985505
 20
793.545183982411
 30
0.0
  0
VERTEX
  5
288
  8
0
  6
CONTINUOUS
 62
     7
 10
3151.581151581179
 20
793.5485098400223
 30
0.0
  0
VERTEX
  5
289
  8
0
  6
CONTINUOUS
 62
     7
 10
3151.57509130102
 20
793.5518892274895
 30
0.0
  0
VERTEX
  5
28A
  8
0
  6
CONTINUOUS
 62
     7
 10
3151.569066237706
 20
793.5553201676171
 30
0.0
  0
VERTEX
  5
28B
  8
0
  6
CONTINUOUS
 62
     7
 10
3151.563077483915
 20
793.5588006832107
 30
0.0
  0
VERTEX
  5
28C
  8
0
  6
CONTINUOUS
 62
     7
 10
3151.557126132322
 20
793.5623287970753
 30
0.0
  0
VERTEX
  5
28D
  8
0
  6
CONTINUOUS
 62
     7
 10
3151.551213275603
 20
793.5659025320158
 30
0.0
  0
VERTEX
  5
28E
  8
0
  6
CONTINUOUS
 62
     7
 10
3151.545340006437
 20
793.5695199108372
 30
0.0
  0
VERTEX
  5
28F
  8
0
  6
CONTINUOUS
 62
     7
 10
3151.539507417496
 20
793.5731789563447
 30
0.0
  0
VERTEX
  5
290
  8
0
  6
CONTINUOUS
 62
     7
 10
3151.533716601461
 20
793.5768776913434
 30
0.0
  0
VERTEX
  5
291
  8
0
  6
CONTINUOUS
 62
     7
 10
3151.527968651006
 20
793.5806141386383
 30
0.0
  0
VERTEX
  5
292
  8
0
  6
CONTINUOUS
 62
     7
 10
3151.522264658808
 20
793.5843863210343
 30
0.0
  0
VERTEX
  5
293
  8
0
  6
CONTINUOUS
 62
     7
 10
3151.516605717544
 20
793.588192261337
 30
0.0
  0
VERTEX
  5
294
  8
0
  6
CONTINUOUS
 62
     7
 10
3151.510992919888
 20
793.5920299823506
 30
0.0
  0
VERTEX
  5
295
  8
0
  6
CONTINUOUS
 62
     7
 10
3151.50542735852
 20
793.5958975068806
 30
0.0
  0
VERTEX
  5
296
  8
0
  6
CONTINUOUS
 62
     7
 10
3151.499910126114
 20
793.5997928577325
 30
0.0
  0
VERTEX
  5
297
  8
0
  6
CONTINUOUS
 62
     7
 10
3151.494442375095
 20
793.6037139798877
 30
0.0
  0
VERTEX
  5
298
  8
0
  6
CONTINUOUS
 62
     7
 10
3151.489026316895
 20
793.6076574389266
 30
0.0
  0
VERTEX
  5
299
  8
0
  6
CONTINUOUS
 62
     7
 10
3151.483665071786
 20
793.6116186166339
 30
0.0
  0
VERTEX
  5
29A
  8
0
  6
CONTINUOUS
 62
     7
 10
3151.478361789527
 20
793.6155928563794
 30
0.0
  0
VERTEX
  5
29B
  8
0
  6
CONTINUOUS
 62
     7
 10
3151.473119619882
 20
793.6195755015325
 30
0.0
  0
VERTEX
  5
29C
  8
0
  6
CONTINUOUS
 62
     7
 10
3151.467941712613
 20
793.6235618954636
 30
0.0
  0
VERTEX
  5
29D
  8
0
  6
CONTINUOUS
 62
     7
 10
3151.46283121748
 20
793.6275473815416
 30
0.0
  0
VERTEX
  5
29E
  8
0
  6
CONTINUOUS
 62
     7
 10
3151.457791284248
 20
793.6315273031373
 30
0.0
  0
VERTEX
  5
29F
  8
0
  6
CONTINUOUS
 62
     7
 10
3151.452825062677
 20
793.6354970036198
 30
0.0
  0
VERTEX
  5
2A0
  8
0
  6
CONTINUOUS
 62
     7
 10
3151.44793570253
 20
793.6394518263592
 30
0.0
  0
VERTEX
  5
2A1
  8
0
  6
CONTINUOUS
 62
     7
 10
3151.443126353569
 20
793.6433871147249
 30
0.0
  0
VERTEX
  5
2A2
  8
0
  6
CONTINUOUS
 62
     7
 10
3151.438400165555
 20
793.647298212087
 30
0.0
  0
VERTEX
  5
2A3
  8
0
  6
CONTINUOUS
 62
     7
 10
3151.433760288252
 20
793.6511804618153
 30
0.0
  0
VERTEX
  5
2A4
  8
0
  6
CONTINUOUS
 62
     7
 10
3151.42920987142
 20
793.6550292072797
 30
0.0
  0
VERTEX
  5
2A5
  8
0
  6
CONTINUOUS
 62
     7
 10
3151.424752065699
 20
793.658839790537
 30
0.0
  0
VERTEX
  5
2A6
  8
0
  6
CONTINUOUS
 62
     7
 10
3151.420390401073
 20
793.6626069863571
 30
0.0
  0
VERTEX
  5
2A7
  8
0
  6
CONTINUOUS
 62
     7
 10
3151.416129377498
 20
793.6663241189674
 30
0.0
  0
VERTEX
  5
2A8
  8
0
  6
CONTINUOUS
 62
     7
 10
3151.411973647751
 20
793.6699842840584
 30
0.0
  0
VERTEX
  5
2A9
  8
0
  6
CONTINUOUS
 62
     7
 10
3151.407927864608
 20
793.6735805773199
 30
0.0
  0
VERTEX
  5
2AA
  8
0
  6
CONTINUOUS
 62
     7
 10
3151.403996680848
 20
793.6771060944424
 30
0.0
  0
VERTEX
  5
2AB
  8
0
  6
CONTINUOUS
 62
     7
 10
3151.400184749249
 20
793.6805539311165
 30
0.0
  0
VERTEX
  5
2AC
  8
0
  6
CONTINUOUS
 62
     7
 10
3151.396496722588
 20
793.6839171830326
 30
0.0
  0
VERTEX
  5
2AD
  8
0
  6
CONTINUOUS
 62
     7
 10
3151.392937253643
 20
793.6871889458807
 30
0.0
  0
VERTEX
  5
2AE
  8
0
  6
CONTINUOUS
 62
     7
 10
3151.38951099519
 20
793.6903623153515
 30
0.0
  0
VERTEX
  5
2AF
  8
0
  6
CONTINUOUS
 62
     7
 10
3151.38622260002
 20
793.6934303871259
 30
0.0
  0
VERTEX
  5
2B0
  8
0
  6
CONTINUOUS
 62
     7
 10
3151.383079230299
 20
793.6963837052849
 30
0.0
  0
VERTEX
  5
2B1
  8
0
  6
CONTINUOUS
 62
     7
 10
3151.380097618956
 20
793.699203082143
 30
0.0
  0
VERTEX
  5
2B2
  8
0
  6
CONTINUOUS
 62
     7
 10
3151.377296780297
 20
793.7018670102615
 30
0.0
  0
VERTEX
  5
2B3
  8
0
  6
CONTINUOUS
 62
     7
 10
3151.374695728623
 20
793.7043539822023
 30
0.0
  0
VERTEX
  5
2B4
  8
0
  6
CONTINUOUS
 62
     7
 10
3151.372313478236
 20
793.7066424905256
 30
0.0
  0
VERTEX
  5
2B5
  8
0
  6
CONTINUOUS
 62
     7
 10
3151.370169043438
 20
793.7087110277935
 30
0.0
  0
VERTEX
  5
2B6
  8
0
  6
CONTINUOUS
 62
     7
 10
3151.368281438531
 20
793.7105380865667
 30
0.0
  0
VERTEX
  5
2B7
  8
0
  6
CONTINUOUS
 62
     7
 10
3151.366668325077
 20
793.7121035345484
 30
0.0
  0
VERTEX
  5
2B8
  8
0
  6
CONTINUOUS
 62
     7
 10
3151.365319311257
 20
793.7134157573753
 30
0.0
  0
VERTEX
  5
2B9
  8
0
  6
CONTINUOUS
 62
     7
 10
3151.364197553228
 20
793.7145100307432
 30
0.0
  0
VERTEX
  5
2BA
  8
0
  6
CONTINUOUS
 62
     7
 10
3151.363265175025
 20
793.7154226795617
 30
0.0
  0
VERTEX
  5
2BB
  8
0
  6
CONTINUOUS
 62
     7
 10
3151.362484300685
 20
793.7161900287412
 30
0.0
  0
VERTEX
  5
2BC
  8
0
  6
CONTINUOUS
 62
     7
 10
3151.361817054238
 20
793.7168484031904
 30
0.0
  0
VERTEX
  5
2BD
  8
0
  6
CONTINUOUS
 62
     7
 10
3151.361225559723
 20
793.7174341278204
 30
0.0
  0
VERTEX
  5
2BE
  8
0
  6
CONTINUOUS
 62
     7
 10
3151.360671941173
 20
793.7179835275405
 30
0.0
  0
SEQEND
  5
2C2
  8
0
  6
CONTINUOUS
 62
     7
  0
LINE
  5
110
  8
0
  6
CONTINUOUS
 62
     7
 10
3151.810713632418
 20
793.4291322492875
 30
0.0
 11
3151.777440463048
 21
793.2319194297243
 31
0.0
  0
ARC
  5
111
  8
0
  6
CONTINUOUS
 62
     7
 10
3151.860623386473
 20
793.7249514786324
 30
0.0
 40
0.5000000000001907
 50
180.798494226111
 51
260.423411518884
  0
ARC
  5
112
  8
0
  6
CONTINUOUS
 62
     7
 10
3154.777475482382
 20
803.7179835275405
 30
0.0
 40
1.0
 50
90.0
 51
175.0300534053085
  0
LINE
  5
113
  8
0
  6
CONTINUOUS
 62
     7
 10
3153.581987150072
 20
803.8219433626278
 30
0.0
 11
3153.781235205457
 21
803.8046167234467
 31
0.0
  0
LINE
  5
114
  8
0
  6
CONTINUOUS
 62
     7
 10
3152.740798531437
 20
794.1486769708155
 30
0.0
 11
3152.940046586823
 21
794.1313503316343
 31
0.0
  0
ARC
  5
115
  8
0
  6
CONTINUOUS
 62
     7
 10
3151.943806309898
 20
794.2179835275405
 30
0.0
 40
1.000000000000127
 50
260.4234115189087
 51
355.0300534053093
  0
LINE
  5
116
  8
0
  6
CONTINUOUS
 62
     7
 10
3153.781235205457
 20
803.8046167234467
 30
0.0
 11
3152.940046586823
 21
794.1313503316343
 31
0.0
  0
LINE
  5
117
  8
0
  6
CONTINUOUS
 62
     7
 10
3150.860661712401
 20
794.2179835275404
 30
0.0
 11
3150.860661712401
 21
793.7179835275404
 31
0.0
  0
LINE
  5
118
  8
0
  6
CONTINUOUS
 62
     7
 10
3151.860661712401
 20
794.2179835275404
 30
0.0
 11
3150.860661712401
 21
794.2179835275404
 31
0.0
  0
LINE
  5
119
  8
0
  6
CONTINUOUS
 62
     7
 10
3151.860661712401
 20
793.7179835275404
 30
0.0
 11
3150.860661712401
 21
793.7179835275404
 31
0.0
  0
LINE
  5
11A
  8
0
  6
CONTINUOUS
 62
     7
 10
3151.860661712401
 20
793.7179835275404
 30
0.0
 11
3151.860661712401
 21
794.2179835275404
 31
0.0
  0
LINE
  5
11B
  8
0
  6
CONTINUOUS
 62
     7
 10
3147.860661712401
 20
793.7179835275404
 30
0.0
 11
3147.860661712401
 21
794.2179835275404
 31
0.0
  0
LINE
  5
11C
  8
0
  6
CONTINUOUS
 62
     7
 10
3150.860661712401
 20
793.7179835275404
 30
0.0
 11
3147.860661712401
 21
793.7179835275404
 31
0.0
  0
LINE
  5
11D
  8
0
  6
CONTINUOUS
 62
     7
 10
3147.860661712401
 20
794.2179835275404
 30
0.0
 11
3150.860661712401
 21
794.2179835275404
 31
0.0
  0
LINE
  5
11E
  8
0
  6
CONTINUOUS
 62
     7
 10
3151.860661712401
 20
806.7179835275404
 30
0.0
 11
3164.360661712401
 21
806.7179835275404
 31
0.0
  0
LINE
  5
11F
  8
0
  6
CONTINUOUS
 62
     7
 10
3151.860661712401
 20
794.2179835275404
 30
0.0
 11
3151.860661712401
 21
806.7179835275404
 31
0.0
  0
LINE
  5
120
  8
0
  6
CONTINUOUS
 62
     7
 10
3150.860661712401
 20
1940.717983527542
 30
0.0
 11
3150.860661712401
 21
794.2179835275404
 31
0.0
  0
LINE
  5
121
  8
0
  6
CONTINUOUS
 62
     7
 10
3150.860661712401
 20
1940.717983527542
 30
0.0
 11
3165.860661712401
 21
1940.717983527542
 31
0.0
  0
LINE
  5
122
  8
0
  6
CONTINUOUS
 62
     7
 10
3164.360661712401
 20
827.2179835275404
 30
0.0
 11
3165.860661712401
 21
827.2179835275404
 31
0.0
  0
LINE
  5
123
  8
0
  6
CONTINUOUS
 62
     7
 10
3164.360661712401
 20
806.7179835275404
 30
0.0
 11
3164.360661712401
 21
827.2179835275404
 31
0.0
  0
LINE
  5
124
  8
0
  6
CONTINUOUS
 62
     7
 10
3147.860661712401
 20
794.2179835275404
 30
0.0
 11
3147.860661712401
 21
1940.717983527542
 31
0.0
  0
LINE
  5
125
  8
0
  6
CONTINUOUS
 62
     7
 10
3147.860661712401
 20
1940.717983527542
 30
0.0
 11
3150.860661712401
 21
1940.717983527542
 31
0.0
  0
LINE
  5
126
  8
0
  6
CONTINUOUS
 62
     7
 10
3150.860661712401
 20
1941.217983527542
 30
0.0
 11
3150.860661712401
 21
1940.717983527542
 31
0.0
  0
LINE
  5
127
  8
0
  6
CONTINUOUS
 62
     7
 10
3150.860661712401
 20
1941.217983527542
 30
0.0
 11
3165.860661712401
 21
1941.217983527542
 31
0.0
  0
LINE
  5
128
  8
0
  6
CONTINUOUS
 62
     7
 10
3147.860661712401
 20
1940.717983527542
 30
0.0
 11
3147.860661712401
 21
1941.217983527542
 31
0.0
  0
LINE
  5
129
  8
0
  6
CONTINUOUS
 62
     7
 10
3147.860661712401
 20
1941.217983527542
 30
0.0
 11
3150.860661712401
 21
1941.217983527542
 31
0.0
  0
LINE
  5
12A
  8
0
  6
CONTINUOUS
 62
     7
 10
3445.860661712401
 20
793.2179835275404
 30
0.0
 11
3166.860661712401
 21
793.2179835275404
 31
0.0
  0
LINE
  5
12B
  8
0
  6
CONTINUOUS
 62
     7
 10
3166.860661712401
 20
1942.217983527541
 30
0.0
 11
3166.860661712401
 21
793.2179835275404
 31
0.0
  0
LINE
  5
12C
  8
0
  6
CONTINUOUS
 62
     7
 10
3445.860661712401
 20
1942.217983527541
 30
0.0
 11
3166.860661712401
 21
1942.217983527541
 31
0.0
  0
LINE
  5
12D
  8
0
  6
CONTINUOUS
 62
     7
 10
3445.860661712401
 20
1942.217983527541
 30
0.0
 11
3445.860661712401
 21
793.2179835275404
 31
0.0
  0
LINE
  5
12E
  8
0
  6
CONTINUOUS
 62
     7
 10
3166.860661712401
 20
1942.71798352754
 30
0.0
 11
3166.860661712401
 21
1942.21798352754
 31
0.0
  0
LINE
  5
12F
  8
0
  6
CONTINUOUS
 62
     7
 10
3445.860661712401
 20
1942.71798352754
 30
0.0
 11
3445.860661712401
 21
1942.21798352754
 31
0.0
  0
LINE
  5
130
  8
0
  6
CONTINUOUS
 62
     7
 10
3166.860661712401
 20
1942.71798352754
 30
0.0
 11
3445.860661712401
 21
1942.71798352754
 31
0.0
  0
LINE
  5
131
  8
0
  6
CONTINUOUS
 62
     7
 10
3165.860661712401
 20
1942.71798352754
 30
0.0
 11
3166.860661712401
 21
1942.71798352754
 31
0.0
  0
LINE
  5
132
  8
0
  6
CONTINUOUS
 62
     7
 10
3165.860661712401
 20
792.7179835275405
 30
0.0
 11
3166.860661712401
 21
792.7179835275405
 31
0.0
  0
LINE
  5
133
  8
0
  6
CONTINUOUS
 62
     7
 10
3166.860661712401
 20
792.7179835275405
 30
0.0
 11
3166.860661712401
 21
1942.71798352754
 31
0.0
  0
LINE
  5
134
  8
0
  6
CONTINUOUS
 62
     7
 10
3165.860661712401
 20
1942.71798352754
 30
0.0
 11
3165.860661712401
 21
792.7179835275405
 31
0.0
  0
LINE
  5
135
  8
0
  6
CONTINUOUS
 62
     7
 10
3166.860661712401
 20
792.7179835275405
 30
0.0
 11
3166.860661712401
 21
793.2179835275404
 31
0.0
  0
LINE
  5
136
  8
0
  6
CONTINUOUS
 62
     7
 10
3166.860661712401
 20
792.7179835275405
 30
0.0
 11
3445.860661712401
 21
792.7179835275405
 31
0.0
  0
LINE
  5
137
  8
0
  6
CONTINUOUS
 62
     7
 10
3445.860661712401
 20
792.7179835275405
 30
0.0
 11
3445.860661712401
 21
793.2179835275404
 31
0.0
  0
LINE
  5
138
  8
0
  6
CONTINUOUS
 62
     8
 10
3165.860661712401
 20
826.5179835275404
 30
0.0
 11
3164.560661712401
 21
826.5179835275404
 31
0.0
  0
ARC
  5
139
  8
0
  6
CONTINUOUS
 62
     8
 10
3165.160661712401
 20
805.7179835275405
 30
0.0
 40
0.7999999999999545
 50
270.0000000000008
 51
331.044975628128
  0
ARC
  5
13A
  8
0
  6
CONTINUOUS
 62
     7
 10
2302.413128312743
 20
2698.039539900775
 30
0.0
 40
3.0
 50
270.0000000000008
 51
0.0
  0
LINE
  5
13B
  8
0
  6
CONTINUOUS
 62
     7
 10
2062.413128312743
 20
2695.039539900775
 30
0.0
 11
2302.413128312743
 21
2695.039539900775
 31
0.0
  0
ARC
  5
13C
  8
0
  6
CONTINUOUS
 62
     7
 10
2062.413128312743
 20
2698.039539900775
 30
0.0
 40
3.000000000000455
 50
180.0
 51
270.0000000000008
  0
LINE
  5
13D
  8
0
  6
CONTINUOUS
 62
     7
 10
2074.913128312744
 20
2713.039539900775
 30
0.0
 11
2288.413128312744
 21
2713.039539900775
 31
0.0
  0
LINE
  5
13E
  8
0
  6
CONTINUOUS
 62
     7
 10
2305.413128312743
 20
2698.039539900775
 30
0.0
 11
2305.413128312743
 21
2713.039539900775
 31
0.0
  0
LINE
  5
13F
  8
0
  6
CONTINUOUS
 62
     7
 10
2059.413128312742
 20
2698.039539900775
 30
0.0
 11
2059.413128312742
 21
2713.039539900775
 31
0.0
  0
LINE
  5
140
  8
0
  6
CONTINUOUS
 62
     7
 10
2288.413128312744
 20
2714.539539900775
 30
0.0
 11
2074.913128312744
 21
2714.539539900775
 31
0.0
  0
LINE
  5
141
  8
0
  6
CONTINUOUS
 62
     7
 10
2288.413128312744
 20
2993.039539900775
 30
0.0
 11
2074.913128312744
 21
2993.039539900775
 31
0.0
  0
LINE
  5
142
  8
0
  6
CONTINUOUS
 62
     7
 10
2288.413128312744
 20
2713.539539900776
 30
0.0
 11
2074.913128312744
 21
2713.539539900776
 31
0.0
  0
LINE
  5
143
  8
0
  6
CONTINUOUS
 62
     7
 10
2288.413128312744
 20
2714.039539900775
 30
0.0
 11
2305.913128312744
 21
2714.039539900775
 31
0.0
  0
LINE
  5
144
  8
0
  6
CONTINUOUS
 62
     7
 10
2305.913128312744
 20
2993.039539900775
 30
0.0
 11
2288.413128312744
 21
2993.039539900775
 31
0.0
  0
LINE
  5
145
  8
0
  6
CONTINUOUS
 62
     7
 10
2288.413128312744
 20
2993.039539900775
 30
0.0
 11
2288.413128312744
 21
2714.039539900775
 31
0.0
  0
LINE
  5
146
  8
0
  6
CONTINUOUS
 62
     7
 10
2305.913128312744
 20
2714.039539900775
 30
0.0
 11
2305.913128312744
 21
2993.039539900775
 31
0.0
  0
LINE
  5
147
  8
0
  6
CONTINUOUS
 62
     7
 10
2074.913128312744
 20
2714.039539900775
 30
0.0
 11
2057.413128312744
 21
2714.039539900775
 31
0.0
  0
LINE
  5
148
  8
0
  6
CONTINUOUS
 62
     7
 10
2057.413128312744
 20
2713.039539900775
 30
0.0
 11
2074.913128312744
 21
2713.039539900775
 31
0.0
  0
LINE
  5
149
  8
0
  6
CONTINUOUS
 62
     7
 10
2074.913128312744
 20
2713.039539900775
 30
0.0
 11
2074.913128312744
 21
2714.039539900775
 31
0.0
  0
LINE
  5
14A
  8
0
  6
CONTINUOUS
 62
     7
 10
2057.413128312744
 20
2713.039539900775
 30
0.0
 11
2057.413128312744
 21
2714.039539900775
 31
0.0
  0
LINE
  5
14B
  8
0
  6
CONTINUOUS
 62
     7
 10
2305.913128312744
 20
2713.039539900775
 30
0.0
 11
2305.913128312744
 21
2714.039539900775
 31
0.0
  0
LINE
  5
14C
  8
0
  6
CONTINUOUS
 62
     7
 10
2288.413128312744
 20
2713.039539900775
 30
0.0
 11
2305.913128312744
 21
2713.039539900775
 31
0.0
  0
LINE
  5
14D
  8
0
  6
CONTINUOUS
 62
     7
 10
2288.413128312744
 20
2713.039539900775
 30
0.0
 11
2288.413128312744
 21
2714.039539900775
 31
0.0
  0
LINE
  5
14E
  8
0
  6
CONTINUOUS
 62
     7
 10
2057.413128312744
 20
2714.039539900775
 30
0.0
 11
2057.413128312744
 21
2993.039539900775
 31
0.0
  0
LINE
  5
14F
  8
0
  6
CONTINUOUS
 62
     7
 10
2057.413128312744
 20
2993.039539900775
 30
0.0
 11
2074.913128312744
 21
2993.039539900775
 31
0.0
  0
LINE
  5
150
  8
0
  6
CONTINUOUS
 62
     7
 10
2074.913128312744
 20
2993.039539900775
 30
0.0
 11
2074.913128312744
 21
2714.039539900775
 31
0.0
  0
LINE
  5
151
  8
0
  6
CONTINUOUS
 62
     7
 10
4286.545199548204
 20
842.7179835275405
 30
0.0
 11
4500.045199548204
 21
842.7179835275405
 31
0.0
  0
LINE
  5
152
  8
0
  6
CONTINUOUS
 62
     7
 10
4286.545199548204
 20
792.7179835275405
 30
0.0
 11
4500.045199548204
 21
792.7179835275405
 31
0.0
  0
LINE
  5
153
  8
0
  6
CONTINUOUS
 62
     7
 10
4286.545199548204
 20
1924.21798352754
 30
0.0
 11
4500.045199548204
 21
1924.21798352754
 31
0.0
  0
LINE
  5
154
  8
0
  6
CONTINUOUS
 62
     7
 10
4286.545199548204
 20
1927.217983527541
 30
0.0
 11
4500.045199548204
 21
1927.217983527541
 31
0.0
  0
LINE
  5
155
  8
0
  6
CONTINUOUS
 62
     7
 10
4286.545199548204
 20
1924.717983527541
 30
0.0
 11
4286.545199548204
 21
1927.217983527541
 31
0.0
  0
LINE
  5
156
  8
0
  6
CONTINUOUS
 62
     7
 10
4286.545199548204
 20
1924.717983527541
 30
0.0
 11
4500.045199548204
 21
1924.717983527541
 31
0.0
  0
LINE
  5
157
  8
0
  6
CONTINUOUS
 62
     7
 10
4500.045199548204
 20
1924.717983527541
 30
0.0
 11
4500.045199548204
 21
1927.217983527541
 31
0.0
  0
LINE
  5
158
  8
0
  6
CONTINUOUS
 62
     7
 10
4286.545199548204
 20
1941.71798352754
 30
0.0
 11
4500.045199548204
 21
1941.71798352754
 31
0.0
  0
LINE
  5
159
  8
0
  6
CONTINUOUS
 62
     7
 10
4286.545199548204
 20
1939.217983527541
 30
0.0
 11
4500.045199548204
 21
1939.217983527541
 31
0.0
  0
LINE
  5
15A
  8
0
  6
CONTINUOUS
 62
     7
 10
4286.545199548204
 20
1939.217983527541
 30
0.0
 11
4286.545199548204
 21
1941.71798352754
 31
0.0
  0
LINE
  5
15B
  8
0
  6
CONTINUOUS
 62
     7
 10
4500.045199548204
 20
1939.217983527541
 30
0.0
 11
4500.045199548204
 21
1941.71798352754
 31
0.0
  0
LINE
  5
15C
  8
0
  6
CONTINUOUS
 62
     7
 10
4286.545199548204
 20
1939.217983527541
 30
0.0
 11
4286.545199548204
 21
1927.217983527541
 31
0.0
  0
LINE
  5
15D
  8
0
  6
CONTINUOUS
 62
     7
 10
4500.045199548204
 20
1939.217983527541
 30
0.0
 11
4500.045199548204
 21
1927.217983527541
 31
0.0
  0
LINE
  5
15E
  8
0
  6
CONTINUOUS
 62
     7
 10
4515.045199548204
 20
1942.21798352754
 30
0.0
 11
4515.045199548204
 21
793.2179835275404
 31
0.0
  0
LINE
  5
15F
  8
0
  6
CONTINUOUS
 62
     7
 10
4517.545199548204
 20
1942.21798352754
 30
0.0
 11
4515.045199548204
 21
1942.21798352754
 31
0.0
  0
LINE
  5
160
  8
0
  6
CONTINUOUS
 62
     7
 10
4517.545199548204
 20
793.2179835275401
 30
0.0
 11
4517.545199548204
 21
1942.21798352754
 31
0.0
  0
LINE
  5
161
  8
0
  6
CONTINUOUS
 62
     7
 10
4515.045199548204
 20
793.2179835275404
 30
0.0
 11
4517.545199548204
 21
793.2179835275401
 31
0.0
  0
LINE
  5
162
  8
0
  6
CONTINUOUS
 62
     7
 10
4271.545199548204
 20
1942.21798352754
 30
0.0
 11
4269.045199548204
 21
1942.217983527541
 31
0.0
  0
LINE
  5
163
  8
0
  6
CONTINUOUS
 62
     7
 10
4269.045199548204
 20
1942.217983527541
 30
0.0
 11
4269.045199548204
 21
793.2179835275404
 31
0.0
  0
LINE
  5
164
  8
0
  6
CONTINUOUS
 62
     7
 10
4269.045199548204
 20
793.2179835275404
 30
0.0
 11
4271.545199548204
 21
793.2179835275404
 31
0.0
  0
LINE
  5
165
  8
0
  6
CONTINUOUS
 62
     7
 10
4271.545199548204
 20
793.2179835275404
 30
0.0
 11
4271.545199548204
 21
1942.21798352754
 31
0.0
  0
LINE
  5
166
  8
0
  6
CONTINUOUS
 62
     7
 10
4286.545199548204
 20
1942.21798352754
 30
0.0
 11
4284.045199548204
 21
1942.21798352754
 31
0.0
  0
LINE
  5
167
  8
0
  6
CONTINUOUS
 62
     7
 10
4286.545199548204
 20
793.2179835275404
 30
0.0
 11
4286.545199548204
 21
1942.21798352754
 31
0.0
  0
LINE
  5
168
  8
0
  6
CONTINUOUS
 62
     7
 10
4284.045199548204
 20
1942.21798352754
 30
0.0
 11
4284.045199548204
 21
793.2179835275404
 31
0.0
  0
LINE
  5
169
  8
0
  6
CONTINUOUS
 62
     7
 10
4284.045199548204
 20
793.2179835275404
 30
0.0
 11
4286.545199548204
 21
793.2179835275404
 31
0.0
  0
LINE
  5
16A
  8
0
  6
CONTINUOUS
 62
     7
 10
4500.045199548204
 20
1942.21798352754
 30
0.0
 11
4500.045199548204
 21
793.2179835275404
 31
0.0
  0
LINE
  5
16B
  8
0
  6
CONTINUOUS
 62
     7
 10
4502.545199548204
 20
1942.21798352754
 30
0.0
 11
4500.045199548204
 21
1942.21798352754
 31
0.0
  0
LINE
  5
16C
  8
0
  6
CONTINUOUS
 62
     7
 10
4502.545199548204
 20
793.2179835275404
 30
0.0
 11
4502.545199548204
 21
1942.21798352754
 31
0.0
  0
LINE
  5
16D
  8
0
  6
CONTINUOUS
 62
     7
 10
4500.045199548204
 20
793.2179835275404
 30
0.0
 11
4502.545199548204
 21
793.2179835275404
 31
0.0
  0
LINE
  5
16E
  8
0
  6
CONTINUOUS
 62
     7
 10
4271.545199548204
 20
1942.21798352754
 30
0.0
 11
4271.545199548204
 21
1875.21798352754
 31
0.0
  0
LINE
  5
16F
  8
0
  6
CONTINUOUS
 62
     7
 10
4284.045199548204
 20
1942.21798352754
 30
0.0
 11
4271.545199548204
 21
1942.21798352754
 31
0.0
  0
LINE
  5
170
  8
0
  6
CONTINUOUS
 62
     7
 10
4284.045199548204
 20
1942.21798352754
 30
0.0
 11
4284.045199548204
 21
1875.21798352754
 31
0.0
  0
LINE
  5
171
  8
0
  6
CONTINUOUS
 62
     7
 10
4284.045199548204
 20
1875.21798352754
 30
0.0
 11
4271.545199548204
 21
1875.21798352754
 31
0.0
  0
LINE
  5
172
  8
0
  6
CONTINUOUS
 62
     7
 10
4502.545199548204
 20
860.2179835275404
 30
0.0
 11
4515.045199548204
 21
860.2179835275404
 31
0.0
  0
LINE
  5
173
  8
0
  6
CONTINUOUS
 62
     7
 10
4515.045199548204
 20
793.2179835275404
 30
0.0
 11
4515.045199548204
 21
860.2179835275404
 31
0.0
  0
LINE
  5
174
  8
0
  6
CONTINUOUS
 62
     7
 10
4502.545199548204
 20
793.2179835275404
 30
0.0
 11
4515.045199548204
 21
793.2179835275404
 31
0.0
  0
LINE
  5
175
  8
0
  6
CONTINUOUS
 62
     7
 10
4502.545199548204
 20
793.2179835275404
 30
0.0
 11
4502.545199548204
 21
860.2179835275404
 31
0.0
  0
LINE
  5
176
  8
0
  6
CONTINUOUS
 62
     7
 10
4515.045199548204
 20
1875.21798352754
 30
0.0
 11
4515.045199548204
 21
860.2179835275404
 31
0.0
  0
LINE
  5
177
  8
0
  6
CONTINUOUS
 62
     7
 10
4502.545199548204
 20
1875.21798352754
 30
0.0
 11
4502.545199548204
 21
860.2179835275404
 31
0.0
  0
LINE
  5
178
  8
0
  6
CONTINUOUS
 62
     7
 10
4502.545199548204
 20
1875.21798352754
 30
0.0
 11
4515.045199548204
 21
1875.21798352754
 31
0.0
  0
LINE
  5
179
  8
0
  6
CONTINUOUS
 62
     7
 10
4271.545199548204
 20
860.2179835275406
 30
0.0
 11
4271.545199548204
 21
1875.21798352754
 31
0.0
  0
LINE
  5
17A
  8
0
  6
CONTINUOUS
 62
     7
 10
4284.045199548204
 20
860.2179835275406
 30
0.0
 11
4271.545199548204
 21
860.2179835275406
 31
0.0
  0
LINE
  5
17B
  8
0
  6
CONTINUOUS
 62
     7
 10
4284.045199548204
 20
860.2179835275406
 30
0.0
 11
4284.045199548204
 21
1875.21798352754
 31
0.0
  0
LINE
  5
17C
  8
0
  6
CONTINUOUS
 62
     7
 10
4271.545199548204
 20
860.2179835275406
 30
0.0
 11
4271.545199548204
 21
793.2179835275404
 31
0.0
  0
LINE
  5
17D
  8
0
  6
CONTINUOUS
 62
     7
 10
4284.045199548204
 20
860.2179835275406
 30
0.0
 11
4284.045199548204
 21
793.2179835275404
 31
0.0
  0
LINE
  5
17E
  8
0
  6
CONTINUOUS
 62
     7
 10
4284.045199548204
 20
793.2179835275404
 30
0.0
 11
4271.545199548204
 21
793.2179835275404
 31
0.0
  0
LINE
  5
17F
  8
0
  6
CONTINUOUS
 62
     7
 10
4502.545199548204
 20
1942.21798352754
 30
0.0
 11
4515.045199548204
 21
1942.21798352754
 31
0.0
  0
LINE
  5
180
  8
0
  6
CONTINUOUS
 62
     7
 10
4515.045199548204
 20
1875.21798352754
 30
0.0
 11
4515.045199548204
 21
1942.21798352754
 31
0.0
  0
LINE
  5
181
  8
0
  6
CONTINUOUS
 62
     7
 10
4502.545199548204
 20
1875.21798352754
 30
0.0
 11
4502.545199548204
 21
1942.21798352754
 31
0.0
  0
LINE
  5
182
  8
0
  6
CONTINUOUS
 62
     7
 10
4269.045199548204
 20
1942.21798352754
 30
0.0
 11
4286.545199548204
 21
1942.21798352754
 31
0.0
  0
LINE
  5
183
  8
0
  6
CONTINUOUS
 62
     7
 10
4269.045199548204
 20
1942.71798352754
 30
0.0
 11
4269.045199548204
 21
1942.21798352754
 31
0.0
  0
LINE
  5
184
  8
0
  6
CONTINUOUS
 62
     7
 10
4269.045199548204
 20
1942.71798352754
 30
0.0
 11
4286.545199548204
 21
1942.71798352754
 31
0.0
  0
LINE
  5
185
  8
0
  6
CONTINUOUS
 62
     7
 10
4286.545199548204
 20
1942.71798352754
 30
0.0
 11
4286.545199548204
 21
1942.21798352754
 31
0.0
  0
LINE
  5
186
  8
0
  6
CONTINUOUS
 62
     7
 10
4500.045199548204
 20
792.7179835275405
 30
0.0
 11
4500.045199548204
 21
793.2179835275404
 31
0.0
  0
LINE
  5
187
  8
0
  6
CONTINUOUS
 62
     7
 10
4517.545199548204
 20
792.7179835275405
 30
0.0
 11
4517.545199548204
 21
793.2179835275404
 31
0.0
  0
LINE
  5
188
  8
0
  6
CONTINUOUS
 62
     7
 10
4517.545199548204
 20
792.7179835275405
 30
0.0
 11
4500.045199548204
 21
792.7179835275405
 31
0.0
  0
LINE
  5
189
  8
0
  6
CONTINUOUS
 62
     7
 10
4517.545199548204
 20
793.2179835275404
 30
0.0
 11
4500.045199548204
 21
793.2179835275404
 31
0.0
  0
LINE
  5
18A
  8
0
  6
CONTINUOUS
 62
     7
 10
4286.545199548204
 20
793.2179835275404
 30
0.0
 11
4269.045199548204
 21
793.2179835275404
 31
0.0
  0
LINE
  5
18B
  8
0
  6
CONTINUOUS
 62
     7
 10
4286.545199548204
 20
792.7179835275405
 30
0.0
 11
4286.545199548204
 21
793.2179835275404
 31
0.0
  0
LINE
  5
18C
  8
0
  6
CONTINUOUS
 62
     7
 10
4269.045199548204
 20
792.7179835275405
 30
0.0
 11
4286.545199548204
 21
792.7179835275405
 31
0.0
  0
LINE
  5
18D
  8
0
  6
CONTINUOUS
 62
     7
 10
4269.045199548204
 20
792.7179835275405
 30
0.0
 11
4269.045199548204
 21
793.2179835275404
 31
0.0
  0
LINE
  5
18E
  8
0
  6
CONTINUOUS
 62
     7
 10
4500.045199548204
 20
1942.71798352754
 30
0.0
 11
4500.045199548204
 21
1942.21798352754
 31
0.0
  0
LINE
  5
18F
  8
0
  6
CONTINUOUS
 62
     7
 10
4500.045199548204
 20
1942.21798352754
 30
0.0
 11
4517.545199548204
 21
1942.21798352754
 31
0.0
  0
LINE
  5
190
  8
0
  6
CONTINUOUS
 62
     7
 10
4517.545199548204
 20
1942.71798352754
 30
0.0
 11
4517.545199548204
 21
1942.21798352754
 31
0.0
  0
LINE
  5
191
  8
0
  6
CONTINUOUS
 62
     7
 10
4517.545199548204
 20
1942.71798352754
 30
0.0
 11
4500.045199548204
 21
1942.71798352754
 31
0.0
  0
ENDSEC
  0
EOF
